  0
SECTION
  2
HEADER
  9
$ACADVER
  1
AC1018
  9
$ACADMAINTVER
 70
     0
  9
$DWGCODEPAGE
  3
ANSI_932
  9
$INSBASE
 10
0.0
 20
0.0
 30
0.0
  9
$EXTMIN
 10
1078.492134635443
 20
711.4608821825368
 30
-0.0000000349181948
  9
$EXTMAX
 10
1906.916204407946
 20
1388.53912759635
 30
0.0000000814935747
  9
$LIMMIN
 10
0.0
 20
0.0
  9
$LIMMAX
 10
2970.0
 20
2100.0
  9
$ORTHOMODE
 70
     0
  9
$REGENMODE
 70
     1
  9
$FILLMODE
 70
     1
  9
$QTEXTMODE
 70
     0
  9
$MIRRTEXT
 70
     0
  9
$LTSCALE
 40
10.0
  9
$ATTMODE
 70
     1
  9
$TEXTSIZE
 40
0.2
  9
$TRACEWID
 40
0.05
  9
$TEXTSTYLE
  7
STANDARD
  9
$CLAYER
  8
0
  9
$CELTYPE
  6
CONTINUOUS
  9
$CECOLOR
 62
   256
  9
$CELTSCALE
 40
1.0
  9
$DISPSILH
 70
     0
  9
$DIMSCALE
 40
1.0
  9
$DIMASZ
 40
0.18
  9
$DIMEXO
 40
0.0625
  9
$DIMDLI
 40
0.38
  9
$DIMRND
 40
0.0
  9
$DIMDLE
 40
0.0
  9
$DIMEXE
 40
0.18
  9
$DIMTP
 40
0.0
  9
$DIMTM
 40
0.0
  9
$DIMTXT
 40
0.18
  9
$DIMCEN
 40
0.09
  9
$DIMTSZ
 40
0.0
  9
$DIMTOL
 70
     0
  9
$DIMLIM
 70
     0
  9
$DIMTIH
 70
     1
  9
$DIMTOH
 70
     1
  9
$DIMSE1
 70
     0
  9
$DIMSE2
 70
     0
  9
$DIMTAD
 70
     0
  9
$DIMZIN
 70
     0
  9
$DIMBLK
  1

  9
$DIMASO
 70
     1
  9
$DIMSHO
 70
     1
  9
$DIMPOST
  1

  9
$DIMAPOST
  1

  9
$DIMALT
 70
     0
  9
$DIMALTD
 70
     2
  9
$DIMALTF
 40
25.4
  9
$DIMLFAC
 40
1.0
  9
$DIMTOFL
 70
     0
  9
$DIMTVP
 40
0.0
  9
$DIMTIX
 70
     0
  9
$DIMSOXD
 70
     0
  9
$DIMSAH
 70
     0
  9
$DIMBLK1
  1

  9
$DIMBLK2
  1

  9
$DIMSTYLE
  2
Standard
  9
$DIMCLRD
 70
     0
  9
$DIMCLRE
 70
     0
  9
$DIMCLRT
 70
     0
  9
$DIMTFAC
 40
1.0
  9
$DIMGAP
 40
0.09
  9
$DIMJUST
 70
     0
  9
$DIMSD1
 70
     0
  9
$DIMSD2
 70
     0
  9
$DIMTOLJ
 70
     1
  9
$DIMTZIN
 70
     0
  9
$DIMALTZ
 70
     0
  9
$DIMALTTZ
 70
     0
  9
$DIMUPT
 70
     0
  9
$DIMDEC
 70
     4
  9
$DIMTDEC
 70
     4
  9
$DIMALTU
 70
     2
  9
$DIMALTTD
 70
     2
  9
$DIMTXSTY
  7
STANDARD
  9
$DIMAUNIT
 70
     0
  9
$DIMADEC
 70
     0
  9
$DIMALTRND
 40
0.0
  9
$DIMAZIN
 70
     0
  9
$DIMDSEP
 70
    46
  9
$DIMATFIT
 70
     3
  9
$DIMFRAC
 70
     0
  9
$DIMLDRBLK
  1

  9
$DIMLUNIT
 70
     2
  9
$DIMLWD
 70
    -2
  9
$DIMLWE
 70
    -2
  9
$DIMTMOVE
 70
     0
  9
$LUNITS
 70
     2
  9
$LUPREC
 70
     4
  9
$SKETCHINC
 40
0.1
  9
$FILLETRAD
 40
0.0
  9
$AUNITS
 70
     0
  9
$AUPREC
 70
     0
  9
$MENU
  1
.
  9
$ELEVATION
 40
0.0
  9
$PELEVATION
 40
0.0
  9
$THICKNESS
 40
0.0
  9
$LIMCHECK
 70
     0
  9
$CHAMFERA
 40
0.0
  9
$CHAMFERB
 40
0.0
  9
$CHAMFERC
 40
0.0
  9
$CHAMFERD
 40
0.0
  9
$SKPOLY
 70
     0
  9
$TDCREATE
 40
2454401.411655267
  9
$TDUCREATE
 40
2454401.036655266
  9
$TDUPDATE
 40
2454405.787788264
  9
$TDUUPDATE
 40
2454405.412788264
  9
$TDINDWG
 40
0.0320721181
  9
$TDUSRTIMER
 40
0.0320645139
  9
$USRTIMER
 70
     1
  9
$ANGBASE
 50
0.0
  9
$ANGDIR
 70
     0
  9
$PDMODE
 70
     0
  9
$PDSIZE
 40
0.0
  9
$PLINEWID
 40
0.0
  9
$SPLFRAME
 70
     0
  9
$SPLINETYPE
 70
     6
  9
$SPLINESEGS
 70
     8
  9
$HANDSEED
  5
266
  9
$SURFTAB1
 70
     6
  9
$SURFTAB2
 70
     6
  9
$SURFTYPE
 70
     6
  9
$SURFU
 70
     6
  9
$SURFV
 70
     6
  9
$UCSBASE
  2

  9
$UCSNAME
  2

  9
$UCSORG
 10
0.0
 20
0.0
 30
0.0
  9
$UCSXDIR
 10
1.0
 20
0.0
 30
0.0
  9
$UCSYDIR
 10
0.0
 20
1.0
 30
0.0
  9
$UCSORTHOREF
  2

  9
$UCSORTHOVIEW
 70
     0
  9
$UCSORGTOP
 10
0.0
 20
0.0
 30
0.0
  9
$UCSORGBOTTOM
 10
0.0
 20
0.0
 30
0.0
  9
$UCSORGLEFT
 10
0.0
 20
0.0
 30
0.0
  9
$UCSORGRIGHT
 10
0.0
 20
0.0
 30
0.0
  9
$UCSORGFRONT
 10
0.0
 20
0.0
 30
0.0
  9
$UCSORGBACK
 10
0.0
 20
0.0
 30
0.0
  9
$PUCSBASE
  2

  9
$PUCSNAME
  2

  9
$PUCSORG
 10
0.0
 20
0.0
 30
0.0
  9
$PUCSXDIR
 10
1.0
 20
0.0
 30
0.0
  9
$PUCSYDIR
 10
0.0
 20
1.0
 30
0.0
  9
$PUCSORTHOREF
  2

  9
$PUCSORTHOVIEW
 70
     0
  9
$PUCSORGTOP
 10
0.0
 20
0.0
 30
0.0
  9
$PUCSORGBOTTOM
 10
0.0
 20
0.0
 30
0.0
  9
$PUCSORGLEFT
 10
0.0
 20
0.0
 30
0.0
  9
$PUCSORGRIGHT
 10
0.0
 20
0.0
 30
0.0
  9
$PUCSORGFRONT
 10
0.0
 20
0.0
 30
0.0
  9
$PUCSORGBACK
 10
0.0
 20
0.0
 30
0.0
  9
$USERI1
 70
     0
  9
$USERI2
 70
     0
  9
$USERI3
 70
     0
  9
$USERI4
 70
     0
  9
$USERI5
 70
     0
  9
$USERR1
 40
0.0
  9
$USERR2
 40
0.0
  9
$USERR3
 40
0.0
  9
$USERR4
 40
0.0
  9
$USERR5
 40
0.0
  9
$WORLDVIEW
 70
     1
  9
$SHADEDGE
 70
     3
  9
$SHADEDIF
 70
    70
  9
$TILEMODE
 70
     1
  9
$MAXACTVP
 70
    64
  9
$PINSBASE
 10
0.0
 20
0.0
 30
0.0
  9
$PLIMCHECK
 70
     0
  9
$PEXTMIN
 10
1.000000000000000E+20
 20
1.000000000000000E+20
 30
1.000000000000000E+20
  9
$PEXTMAX
 10
-1.000000000000000E+20
 20
-1.000000000000000E+20
 30
-1.000000000000000E+20
  9
$PLIMMIN
 10
0.0
 20
0.0
  9
$PLIMMAX
 10
12.0
 20
9.0
  9
$UNITMODE
 70
     0
  9
$VISRETAIN
 70
     1
  9
$PLINEGEN
 70
     0
  9
$PSLTSCALE
 70
     1
  9
$TREEDEPTH
 70
  3020
  9
$CMLSTYLE
  2
Standard
  9
$CMLJUST
 70
     0
  9
$CMLSCALE
 40
1.0
  9
$PROXYGRAPHICS
 70
     1
  9
$MEASUREMENT
 70
     0
  9
$CELWEIGHT
370
    -1
  9
$ENDCAPS
280
     0
  9
$JOINSTYLE
280
     0
  9
$LWDISPLAY
290
     0
  9
$INSUNITS
 70
     0
  9
$HYPERLINKBASE
  1

  9
$STYLESHEET
  1

  9
$XEDIT
290
     1
  9
$CEPSNTYPE
380
     0
  9
$PSTYLEMODE
290
     1
  9
$FINGERPRINTGUID
  2
{34A29C76-28A2-4227-912B-AD7A359D3D6D}
  9
$VERSIONGUID
  2
{81E2F310-78CC-4860-9BC5-D8B19C2FE7E4}
  9
$EXTNAMES
290
     1
  9
$PSVPSCALE
 40
0.0
  9
$OLESTARTUP
290
     0
  9
$SORTENTS
280
   127
  9
$INDEXCTL
280
     0
  9
$HIDETEXT
280
     0
  9
$XCLIPFRAME
290
     0
  9
$HALOGAP
280
     0
  9
$OBSCOLOR
 70
   257
  9
$OBSLTYPE
280
     0
  9
$INTERSECTIONDISPLAY
280
     0
  9
$INTERSECTIONCOLOR
 70
   257
  9
$DIMASSOC
280
     1
  9
$PROJECTNAME
  1

  0
ENDSEC
  0
SECTION
  2
CLASSES
  0
CLASS
  1
ACDBDICTIONARYWDFLT
  2
AcDbDictionaryWithDefault
  3
ObjectDBX Classes
 90
        0
 91
        1
280
     0
281
     0
  0
ENDSEC
  0
SECTION
  2
TABLES
  0
TABLE
  2
VPORT
  5
8
330
0
100
AcDbSymbolTable
 70
     4
  0
VPORT
  5
265
330
8
100
AcDbSymbolTableRecord
100
AcDbViewportTableRecord
  2
*Active
 70
     0
 10
0.0
 20
0.0
 11
1.0
 21
1.0
 12
1649.872022622348
 22
1009.00451411295
 13
0.0
 23
0.0
 14
1.0
 24
1.0
 15
0.0
 25
0.0
 16
0.0
 26
0.0
 36
1.0
 17
0.0
 27
0.0
 37
0.0
 40
731.496812108151
 41
1.326027397260274
 42
50.0
 43
0.0
 44
0.0
 50
0.0
 51
0.0
 71
     0
 72
   100
 73
     1
 74
     1
 75
     0
 76
     0
 77
     0
 78
     0
281
     0
 65
     1
110
0.0
120
0.0
130
0.0
111
1.0
121
0.0
131
0.0
112
0.0
122
1.0
132
0.0
 79
     0
146
0.0
  0
ENDTAB
  0
TABLE
  2
LTYPE
  5
5
330
0
100
AcDbSymbolTable
 70
    35
  0
LTYPE
  5
13
330
5
100
AcDbSymbolTableRecord
100
AcDbLinetypeTableRecord
  2
ByBlock
 70
     0
  3

 72
    65
 73
     0
 40
0.0
  0
LTYPE
  5
14
330
5
100
AcDbSymbolTableRecord
100
AcDbLinetypeTableRecord
  2
ByLayer
 70
     0
  3

 72
    65
 73
     0
 40
0.0
  0
LTYPE
  5
15
330
5
100
AcDbSymbolTableRecord
100
AcDbLinetypeTableRecord
  2
CONTINUOUS
 70
     0
  3
実線
 72
    65
 73
     0
 40
0.0
  0
LTYPE
  5
24
330
5
100
AcDbSymbolTableRecord
100
AcDbLinetypeTableRecord
  2
DASHED1
 70
     0
  3
--  --  --  --  --  --  --  --  
 72
    65
 73
     2
 40
2.5
 49
1.25
 74
     0
 49
-1.25
 74
     0
  0
LTYPE
  5
25
330
5
100
AcDbSymbolTableRecord
100
AcDbLinetypeTableRecord
  2
DASHED2
 70
     0
  3
----    ----    ----    ----    
 72
    65
 73
     2
 40
5.0
 49
2.5
 74
     0
 49
-2.5
 74
     0
  0
LTYPE
  5
26
330
5
100
AcDbSymbolTableRecord
100
AcDbLinetypeTableRecord
  2
DASHED3
 70
     0
  3
------  ------  ------  ------  
 72
    65
 73
     2
 40
5.0
 49
3.75
 74
     0
 49
-1.25
 74
     0
  0
LTYPE
  5
27
330
5
100
AcDbSymbolTableRecord
100
AcDbLinetypeTableRecord
  2
CENTER1
 70
     0
  3
----- - ----- - ----- - ----- - 
 72
    65
 73
     4
 40
10.0
 49
6.25
 74
     0
 49
-1.25
 74
     0
 49
1.25
 74
     0
 49
-1.25
 74
     0
  0
LTYPE
  5
28
330
5
100
AcDbSymbolTableRecord
100
AcDbLinetypeTableRecord
  2
CENTER2
 70
     0
  3
----------  --  ----------  --  
 72
    65
 73
     4
 40
20.0
 49
12.5
 74
     0
 49
-2.5
 74
     0
 49
2.5
 74
     0
 49
-2.5
 74
     0
  0
LTYPE
  5
29
330
5
100
AcDbSymbolTableRecord
100
AcDbLinetypeTableRecord
  2
PHANTOM1
 70
     0
  3
--- - - --- - - --- - - --- - - 
 72
    65
 73
     6
 40
10.0
 49
3.25
 74
     0
 49
-1.25
 74
     0
 49
1.25
 74
     0
 49
-1.25
 74
     0
 49
1.25
 74
     0
 49
-1.25
 74
     0
  0
LTYPE
  5
2A
330
5
100
AcDbSymbolTableRecord
100
AcDbLinetypeTableRecord
  2
PHANTOM2
 70
     0
  3
--------  -  -  --------  -  -  
 72
    65
 73
     6
 40
20.0
 49
10.0
 74
     0
 49
-2.5
 74
     0
 49
1.25
 74
     0
 49
-2.5
 74
     0
 49
1.25
 74
     0
 49
-2.5
 74
     0
  0
LTYPE
  5
2B
330
5
100
AcDbSymbolTableRecord
100
AcDbLinetypeTableRecord
  2
DOT
 70
     0
  3
-   -   -   -   -   -   -   -   
 72
    65
 73
     2
 40
2.5
 49
0.625
 74
     0
 49
-1.875
 74
     0
  0
LTYPE
  5
2C
330
5
100
AcDbSymbolTableRecord
100
AcDbLinetypeTableRecord
  2
DUMMY
 70
     0
  3
ダミー
 72
    65
 73
     0
 40
0.0
  0
LTYPE
  5
2D
330
5
100
AcDbSymbolTableRecord
100
AcDbLinetypeTableRecord
  2
RAND1
 70
     0
  3
ランダム線1
 72
    65
 73
     4
 40
10.0
 49
1.0
 74
     0
 49
-2.0
 74
     0
 49
3.0
 74
     0
 49
-4.0
 74
     0
  0
LTYPE
  5
2E
330
5
100
AcDbSymbolTableRecord
100
AcDbLinetypeTableRecord
  2
RAND2
 70
     0
  3
ランダム線2
 72
    65
 73
     4
 40
14.0
 49
2.0
 74
     0
 49
-3.0
 74
     0
 49
4.0
 74
     0
 49
-5.0
 74
     0
  0
LTYPE
  5
2F
330
5
100
AcDbSymbolTableRecord
100
AcDbLinetypeTableRecord
  2
RAND3
 70
     0
  3
ランダム線3
 72
    65
 73
     4
 40
18.0
 49
3.0
 74
     0
 49
-4.0
 74
     0
 49
5.0
 74
     0
 49
-6.0
 74
     0
  0
LTYPE
  5
30
330
5
100
AcDbSymbolTableRecord
100
AcDbLinetypeTableRecord
  2
RAND4
 70
     0
  3
ランダム線4
 72
    65
 73
     4
 40
22.0
 49
4.0
 74
     0
 49
-5.0
 74
     0
 49
6.0
 74
     0
 49
-7.0
 74
     0
  0
LTYPE
  5
31
330
5
100
AcDbSymbolTableRecord
100
AcDbLinetypeTableRecord
  2
RAND5
 70
     0
  3
ランダム線5
 72
    65
 73
     4
 40
26.0
 49
5.0
 74
     0
 49
-6.0
 74
     0
 49
7.0
 74
     0
 49
-8.0
 74
     0
  0
LTYPE
  5
32
330
5
100
AcDbSymbolTableRecord
100
AcDbLinetypeTableRecord
  2
LONG1
 70
     0
  3
----------  --  ----------  --  
 72
    65
 73
     4
 40
40.0
 49
32.5
 74
     0
 49
-2.5
 74
     0
 49
2.5
 74
     0
 49
-2.5
 74
     0
  0
LTYPE
  5
33
330
5
100
AcDbSymbolTableRecord
100
AcDbLinetypeTableRecord
  2
LONG2
 70
     0
  3
--------  -  -  --------  -  -  
 72
    65
 73
     6
 40
40.0
 49
30.0
 74
     0
 49
-2.5
 74
     0
 49
1.25
 74
     0
 49
-2.5
 74
     0
 49
1.25
 74
     0
 49
-2.5
 74
     0
  0
LTYPE
  5
34
330
5
100
AcDbSymbolTableRecord
100
AcDbLinetypeTableRecord
  2
LONG3
 70
     0
  3
+++++++++++++++..+++++++++++++++
 72
    65
 73
     2
 40
40.0
 49
37.5
 74
     0
 49
-2.5
 74
     0
  0
LTYPE
  5
35
330
5
100
AcDbSymbolTableRecord
100
AcDbLinetypeTableRecord
  2
LONG4
 70
     0
  3
+++++++++++++++..+++++++++++++++
 72
    65
 73
     2
 40
80.0
 49
75.0
 74
     0
 49
-5.0
 74
     0
  0
LTYPE
  5
36
330
5
100
AcDbSymbolTableRecord
100
AcDbLinetypeTableRecord
  2
LONG5
 70
     0
  3
----------  --  ----------  --  
 72
    65
 73
     4
 40
60.0
 49
37.5
 74
     0
 49
-7.5
 74
     0
 49
7.5
 74
     0
 49
-7.5
 74
     0
  0
LTYPE
  5
37
330
5
100
AcDbSymbolTableRecord
100
AcDbLinetypeTableRecord
  2
DASHED
 70
     0
  3
-------   -------------   ------
 72
    65
 73
     2
 40
7.5
 49
6.0
 74
     0
 49
-1.5
 74
     0
  0
LTYPE
  5
38
330
5
100
AcDbSymbolTableRecord
100
AcDbLinetypeTableRecord
  2
DASHED_SPACED
 70
     0
  3
----        --------        ----
 72
    65
 73
     2
 40
12.0
 49
6.0
 74
     0
 49
-6.0
 74
     0
  0
LTYPE
  5
39
330
5
100
AcDbSymbolTableRecord
100
AcDbLinetypeTableRecord
  2
LONG_DASHED_DOTTED
 70
     0
  3
------------- --- --------------
 72
    65
 73
     4
 40
15.25
 49
12.0
 74
     0
 49
-1.5
 74
     0
 49
0.25
 74
     0
 49
-1.5
 74
     0
  0
LTYPE
  5
3A
330
5
100
AcDbSymbolTableRecord
100
AcDbLinetypeTableRecord
  2
LONG_DASHED_DOUBLE-DOTTED
 70
     0
  3
----------- --- --- ------------
 72
    65
 73
     6
 40
17.0
 49
12.0
 74
     0
 49
-1.5
 74
     0
 49
0.25
 74
     0
 49
-1.5
 74
     0
 49
0.25
 74
     0
 49
-1.5
 74
     0
  0
LTYPE
  5
3B
330
5
100
AcDbSymbolTableRecord
100
AcDbLinetypeTableRecord
  2
LONG_DASHED_TRIPLICATE-DOTTED
 70
     0
  3
--------- --- --- --- ----------
 72
    65
 73
     8
 40
18.75
 49
12.0
 74
     0
 49
-1.5
 74
     0
 49
0.25
 74
     0
 49
-1.5
 74
     0
 49
0.25
 74
     0
 49
-1.5
 74
     0
 49
0.25
 74
     0
 49
-1.5
 74
     0
  0
LTYPE
  5
3C
330
5
100
AcDbSymbolTableRecord
100
AcDbLinetypeTableRecord
  2
DOTTED
 70
     0
  3
   -       -       -       -    
 72
    65
 73
     2
 40
1.75
 49
0.25
 74
     0
 49
-1.5
 74
     0
  0
LTYPE
  5
3D
330
5
100
AcDbSymbolTableRecord
100
AcDbLinetypeTableRecord
  2
CHAIN
 70
     0
  3
-------------- -- --------------
 72
    65
 73
     4
 40
18.5
 49
12.0
 74
     0
 49
-1.5
 74
     0
 49
3.5
 74
     0
 49
-1.5
 74
     0
  0
LTYPE
  5
3E
330
5
100
AcDbSymbolTableRecord
100
AcDbLinetypeTableRecord
  2
CHAIN_DOUBLE_DASH
 70
     0
  3
------------ -- -- -------------
 72
    65
 73
     6
 40
23.5
 49
12.0
 74
     0
 49
-1.5
 74
     0
 49
3.5
 74
     0
 49
-1.5
 74
     0
 49
3.5
 74
     0
 49
-1.5
 74
     0
  0
LTYPE
  5
3F
330
5
100
AcDbSymbolTableRecord
100
AcDbLinetypeTableRecord
  2
DASHED_DOTTED
 70
     0
  3
-----------     -     ----------
 72
    65
 73
     4
 40
9.25
 49
6.0
 74
     0
 49
-1.5
 74
     0
 49
0.25
 74
     0
 49
-1.5
 74
     0
  0
LTYPE
  5
40
330
5
100
AcDbSymbolTableRecord
100
AcDbLinetypeTableRecord
  2
DOUBLE-DASHED_DOTTED
 70
     0
  3
------   -----------   -   -----
 72
    65
 73
     6
 40
16.75
 49
6.0
 74
     0
 49
-1.5
 74
     0
 49
6.0
 74
     0
 49
-1.5
 74
     0
 49
0.25
 74
     0
 49
-1.5
 74
     0
  0
LTYPE
  5
41
330
5
100
AcDbSymbolTableRecord
100
AcDbLinetypeTableRecord
  2
DASHED_DOUBLE-DOTTED
 70
     0
  3
---------    -    -    ---------
 72
    65
 73
     6
 40
11.0
 49
6.0
 74
     0
 49
-1.5
 74
     0
 49
0.25
 74
     0
 49
-1.5
 74
     0
 49
0.25
 74
     0
 49
-1.5
 74
     0
  0
LTYPE
  5
42
330
5
100
AcDbSymbolTableRecord
100
AcDbLinetypeTableRecord
  2
DOUBLE-DASHED_DOUBLE-DOTTED
 70
     0
  3
-----   ---------   -   -   ----
 72
    65
 73
     8
 40
18.5
 49
6.0
 74
     0
 49
-1.5
 74
     0
 49
6.0
 74
     0
 49
-1.5
 74
     0
 49
0.25
 74
     0
 49
-1.5
 74
     0
 49
0.25
 74
     0
 49
-1.5
 74
     0
  0
LTYPE
  5
43
330
5
100
AcDbSymbolTableRecord
100
AcDbLinetypeTableRecord
  2
DASHED_TRIPLICATE-DOTTED
 70
     0
  3
-------    -    -    -    ------
 72
    65
 73
     8
 40
12.75
 49
6.0
 74
     0
 49
-1.5
 74
     0
 49
0.25
 74
     0
 49
-1.5
 74
     0
 49
0.25
 74
     0
 49
-1.5
 74
     0
 49
0.25
 74
     0
 49
-1.5
 74
     0
  0
LTYPE
  5
44
330
5
100
AcDbSymbolTableRecord
100
AcDbLinetypeTableRecord
  2
DOUBLE-DASHED_TRIPLICATE-DOTTED
 70
     0
  3
-----  ---------  -  -  -  -----
 72
    65
 73
    10
 40
20.25
 49
6.0
 74
     0
 49
-1.5
 74
     0
 49
6.0
 74
     0
 49
-1.5
 74
     0
 49
0.25
 74
     0
 49
-1.5
 74
     0
 49
0.25
 74
     0
 49
-1.5
 74
     0
 49
0.25
 74
     0
 49
-1.5
 74
     0
  0
LTYPE
  5
45
330
5
100
AcDbSymbolTableRecord
100
AcDbLinetypeTableRecord
  2
UNDEFINED
 70
     0
  3
--------------------------------
 72
    65
 73
     0
 40
0.0
  0
ENDTAB
  0
TABLE
  2
LAYER
  5
2
330
0
100
AcDbSymbolTable
 70
     5
  0
LAYER
  5
10
330
2
100
AcDbSymbolTableRecord
100
AcDbLayerTableRecord
  2
0
 70
     0
 62
     7
  6
CONTINUOUS
370
    -3
390
F
  0
LAYER
  5
47
330
2
100
AcDbSymbolTableRecord
100
AcDbLayerTableRecord
  2
_0-0_LAYER001
 70
     0
 62
     7
  6
CONTINUOUS
370
    -3
390
F
  0
LAYER
  5
48
330
2
100
AcDbSymbolTableRecord
100
AcDbLayerTableRecord
  2
_0-1_LAYER004
 70
     0
 62
     7
  6
CONTINUOUS
370
    -3
390
F
  0
LAYER
  5
49
330
2
100
AcDbSymbolTableRecord
100
AcDbLayerTableRecord
  2
_0-2_ADD_LINE
 70
     0
 62
     7
  6
CONTINUOUS
370
    -3
390
F
  0
LAYER
  5
4A
330
2
100
AcDbSymbolTableRecord
100
AcDbLayerTableRecord
  2
ADD_LINE
 70
     0
 62
     7
  6
CONTINUOUS
370
    -3
390
F
  0
ENDTAB
  0
TABLE
  2
STYLE
  5
3
330
0
100
AcDbSymbolTable
 70
     2
  0
STYLE
  5
11
330
3
100
AcDbSymbolTableRecord
100
AcDbTextStyleTableRecord
  2
STANDARD
 70
     0
 40
0.0
 41
1.0
 50
0.0
 71
     0
 42
0.2
  3
txt
  4
bigfont.shx
  0
STYLE
  5
46
330
3
100
AcDbSymbolTableRecord
100
AcDbTextStyleTableRecord
  2
TATEGAKI
 70
     4
 40
0.0
 41
1.0
 50
0.0
 71
     0
 42
1.0
  3
txt
  4
bigfont.shx
  0
ENDTAB
  0
TABLE
  2
VIEW
  5
6
330
0
100
AcDbSymbolTable
 70
     0
  0
ENDTAB
  0
TABLE
  2
UCS
  5
7
330
0
100
AcDbSymbolTable
 70
     0
  0
ENDTAB
  0
TABLE
  2
APPID
  5
9
330
0
100
AcDbSymbolTable
 70
     1
  0
APPID
  5
12
330
9
100
AcDbSymbolTableRecord
100
AcDbRegAppTableRecord
  2
ACAD
 70
     0
  0
ENDTAB
  0
TABLE
  2
DIMSTYLE
  5
A
330
0
100
AcDbSymbolTable
 70
     1
100
AcDbDimStyleTable
 71
     0
  0
DIMSTYLE
105
25B
330
A
100
AcDbSymbolTableRecord
100
AcDbDimStyleTableRecord
  2
Standard
 70
     0
340
11
  0
ENDTAB
  0
TABLE
  2
BLOCK_RECORD
  5
1
330
0
100
AcDbSymbolTable
 70
     0
  0
BLOCK_RECORD
  5
20
330
1
100
AcDbSymbolTableRecord
100
AcDbBlockTableRecord
  2
*Model_Space
340
23
  0
BLOCK_RECORD
  5
1C
330
1
100
AcDbSymbolTableRecord
100
AcDbBlockTableRecord
  2
*Paper_Space
340
1F
  0
ENDTAB
  0
ENDSEC
  0
SECTION
  2
BLOCKS
  0
BLOCK
  5
21
330
20
100
AcDbEntity
  8
0
100
AcDbBlockBegin
  2
*Model_Space
 70
     0
 10
0.0
 20
0.0
 30
0.0
  3
*Model_Space
  1

  0
ENDBLK
  5
22
330
20
100
AcDbEntity
  8
0
100
AcDbBlockEnd
  0
BLOCK
  5
1D
330
1C
100
AcDbEntity
 67
     1
  8
0
100
AcDbBlockBegin
  2
*Paper_Space
 70
     0
 10
0.0
 20
0.0
 30
0.0
  3
*Paper_Space
  1

  0
ENDBLK
  5
1E
330
1C
100
AcDbEntity
 67
     1
  8
0
100
AcDbBlockEnd
  0
ENDSEC
  0
SECTION
  2
ENTITIES
  0
ARC
  5
4E
330
20
100
AcDbEntity
  8
_0-0_LAYER001
  6
Continuous
 62
     4
100
AcDbCircle
 10
1562.007333333333
 20
1048.119066666666
 30
0.0
 40
3.881342666666665
100
AcDbArc
 50
113.22723
 51
164.79898
  0
LINE
  5
4F
330
20
100
AcDbEntity
  8
_0-0_LAYER001
  6
Continuous
 62
     2
100
AcDbLine
 10
1768.428533333333
 20
1077.043333333333
 30
0.0
 11
1158.989866666667
 21
802.796
 31
0.0
  0
LINE
  5
50
330
20
100
AcDbEntity
  8
_0-0_LAYER001
  6
Continuous
 62
     2
100
AcDbLine
 10
1200.026333333333
 20
711.6038466666665
 30
0.0
 11
1768.428533333333
 21
967.3847333333332
 31
0.0
  0
LINE
  5
51
330
20
100
AcDbEntity
  8
_0-0_LAYER001
  6
Continuous
 62
     2
100
AcDbLine
 10
1768.428533333333
 20
967.3847333333332
 30
0.0
 11
1768.428533333333
 21
854.5388
 31
0.0
  0
LINE
  5
52
330
20
100
AcDbEntity
  8
_0-0_LAYER001
  6
Continuous
 62
     2
100
AcDbLine
 10
1148.0468
 20
827.1138666666669
 30
0.0
 11
1768.428533333333
 21
1106.2856
 31
0.0
  0
LINE
  5
53
330
20
100
AcDbEntity
  8
_0-0_LAYER001
  6
Continuous
 62
     2
100
AcDbLine
 10
1570.7186
 20
878.4153333333332
 30
0.0
 11
1768.428533333333
 21
1076.1252
 31
0.0
  0
LINE
  5
54
330
20
100
AcDbEntity
  8
_0-0_LAYER001
  6
Continuous
 62
     2
100
AcDbLine
 10
1198.9286
 20
714.0432866666667
 30
0.0
 11
1392.9742
 21
908.0889333333333
 31
0.0
  0
LINE
  5
55
330
20
100
AcDbEntity
  8
_0-0_LAYER001
  6
Continuous
 62
     2
100
AcDbLine
 10
1553.5766
 20
870.7014
 30
0.0
 11
1752.9558
 21
1070.0806
 31
0.0
  0
LINE
  5
56
330
20
100
AcDbEntity
  8
_0-0_LAYER001
  6
Continuous
 62
     2
100
AcDbLine
 10
1196.0026
 20
720.5454199999997
 30
0.0
 11
1375.832266666666
 21
900.375
 31
0.0
  0
LINE
  5
57
330
20
100
AcDbEntity
  8
_0-0_LAYER001
  6
Continuous
 62
     2
100
AcDbLine
 10
1536.434666666667
 20
862.9875333333334
 30
0.0
 11
1735.813799999999
 21
1062.366666666666
 31
0.0
  0
LINE
  5
58
330
20
100
AcDbEntity
  8
_0-0_LAYER001
  6
Continuous
 62
     2
100
AcDbLine
 10
1193.076666666667
 20
727.0475333333331
 30
0.0
 11
1358.690266666666
 21
892.6611333333333
 31
0.0
  0
LINE
  5
59
330
20
100
AcDbEntity
  8
_0-0_LAYER001
  6
Continuous
 62
     4
100
AcDbLine
 10
1133.003733333333
 20
857.0699333333335
 30
0.0
 11
1239.026266666666
 21
890.562
 31
0.0
  0
LINE
  5
5A
330
20
100
AcDbEntity
  8
_0-0_LAYER001
  6
Continuous
 62
     4
100
AcDbLine
 10
1234.9736
 20
903.3910666666667
 30
0.0
 11
1219.3836
 21
898.4662666666665
 31
0.0
  0
LINE
  5
5B
330
20
100
AcDbEntity
  8
_0-0_LAYER001
  6
Continuous
 62
     4
100
AcDbLine
 10
1128.0828
 20
867.7503333333334
 30
0.0
 11
1217.7774
 21
896.0845333333333
 31
0.0
  0
ARC
  5
5C
330
20
100
AcDbEntity
  8
_0-0_LAYER001
  6
Continuous
 62
     4
100
AcDbCircle
 10
1221.531266666666
 20
895.0978666666667
 30
0.0
 40
3.881342666666665
100
AcDbArc
 50
113.70193
 51
165.27368
  0
LINE
  5
5D
330
20
100
AcDbEntity
  8
_0-0_LAYER001
  6
Continuous
 62
     4
100
AcDbLine
 10
1239.796866666666
 20
877.8212666666666
 30
0.0
 11
1238.622533333333
 21
881.5387999999996
 31
0.0
  0
LINE
  5
5E
330
20
100
AcDbEntity
  8
_0-0_LAYER001
  6
Continuous
 62
     4
100
AcDbLine
 10
1234.9736
 20
903.3910666666667
 30
0.0
 11
1242.755733333333
 21
878.7559999999999
 31
0.0
  0
LINE
  5
5F
330
20
100
AcDbEntity
  8
_0-0_LAYER001
  6
Continuous
 62
     4
100
AcDbLine
 10
1239.796866666666
 20
877.8212666666666
 30
0.0
 11
1242.755733333333
 21
878.7559999999999
 31
0.0
  0
LINE
  5
60
330
20
100
AcDbEntity
  8
_0-0_LAYER001
  6
Continuous
 62
     4
100
AcDbLine
 10
1136.581666666666
 20
849.3044666666667
 30
0.0
 11
1238.622533333333
 21
881.5387999999996
 31
0.0
  0
LINE
  5
61
330
20
100
AcDbEntity
  8
_0-0_LAYER001
  6
Continuous
 62
     2
100
AcDbLine
 10
1223.5572
 20
863.9132666666666
 30
0.0
 11
1241.937466666666
 21
871.7977333333333
 31
0.0
  0
LINE
  5
62
330
20
100
AcDbEntity
  8
_0-0_LAYER001
  6
Continuous
 62
     2
100
AcDbLine
 10
1241.937466666666
 20
871.7977333333333
 30
0.0
 11
1237.995266666666
 21
880.9878666666667
 31
0.0
  0
LINE
  5
63
330
20
100
AcDbEntity
  8
_0-0_LAYER001
  6
Continuous
 62
     2
100
AcDbLine
 10
1237.995266666666
 20
880.9878666666667
 30
0.0
 11
1219.615
 21
873.1034666666666
 31
0.0
  0
LINE
  5
64
330
20
100
AcDbEntity
  8
_0-0_LAYER001
  6
Continuous
 62
     2
100
AcDbLine
 10
1219.615
 20
873.1034666666666
 30
0.0
 11
1223.5572
 21
863.9132666666666
 31
0.0
  0
LINE
  5
65
330
20
100
AcDbEntity
  8
_0-0_LAYER001
  6
Continuous
 62
     2
100
AcDbLine
 10
1237.995266666666
 20
880.9878666666667
 30
0.0
 11
1223.5572
 21
863.9132666666666
 31
0.0
  0
LINE
  5
66
330
20
100
AcDbEntity
  8
_0-0_LAYER001
  6
Continuous
 62
     4
100
AcDbLine
 10
1188.567133333333
 20
901.9563333333334
 30
0.0
 11
1192.312733333333
 21
903.105533333333
 31
0.0
  0
ARC
  5
67
330
20
100
AcDbEntity
  8
_0-0_LAYER001
  6
Continuous
 62
     4
100
AcDbCircle
 10
1203.511666666666
 20
904.1551333333334
 30
0.0
 40
11.24801133333333
100
AcDbArc
 50
102.88244
 51
185.35433
  0
LINE
  5
68
330
20
100
AcDbEntity
  8
_0-0_LAYER001
  6
Continuous
 62
     4
100
AcDbLine
 10
1204.608066666666
 20
904.0224
 30
0.0
 11
1409.2516
 21
966.8086
 31
0.0
  0
LINE
  5
69
330
20
100
AcDbEntity
  8
_0-0_LAYER001
  6
Continuous
 62
     4
100
AcDbLine
 10
1405.3054
 20
979.6708
 30
0.0
 11
1389.675133333333
 21
974.8753333333334
 31
0.0
  0
LINE
  5
6A
330
20
100
AcDbEntity
  8
_0-0_LAYER001
  6
Continuous
 62
     4
100
AcDbLine
 10
1201.003933333333
 20
915.1200000000001
 30
0.0
 11
1388.049266666667
 21
972.507
 31
0.0
  0
ARC
  5
6B
330
20
100
AcDbEntity
  8
_0-0_LAYER001
  6
Continuous
 62
     4
100
AcDbCircle
 10
1391.7948
 20
971.4892666666667
 30
0.0
 40
3.881342666666665
100
AcDbArc
 50
113.22723
 51
164.79898
  0
LINE
  5
6C
330
20
100
AcDbEntity
  8
_0-0_LAYER001
  6
Continuous
 62
     4
100
AcDbLine
 10
1188.561066666666
 20
901.9762
 30
0.0
 11
1192.380133333333
 21
889.5284666666665
 31
0.0
  0
ARC
  5
6D
330
20
100
AcDbEntity
  8
_0-0_LAYER001
  6
Continuous
 62
     4
100
AcDbCircle
 10
1207.115866666667
 20
893.0574666666664
 30
0.0
 40
11.24801133333333
100
AcDbArc
 50
102.88244
 51
192.21985
  0
LINE
  5
6E
330
20
100
AcDbEntity
  8
_0-0_LAYER001
  6
Continuous
 62
     4
100
AcDbLine
 10
1409.916666666667
 20
954.0619333333333
 30
0.0
 11
1408.7732
 21
957.789
 31
0.0
  0
LINE
  5
6F
330
20
100
AcDbEntity
  8
_0-0_LAYER001
  6
Continuous
 62
     4
100
AcDbLine
 10
1405.3054
 20
979.6708
 30
0.0
 11
1412.883133333333
 21
954.9720666666667
 31
0.0
  0
LINE
  5
70
330
20
100
AcDbEntity
  8
_0-0_LAYER001
  6
Continuous
 62
     4
100
AcDbLine
 10
1409.916666666667
 20
954.0619333333333
 30
0.0
 11
1412.883133333333
 21
954.9720666666667
 31
0.0
  0
LINE
  5
71
330
20
100
AcDbEntity
  8
_0-0_LAYER001
  6
Continuous
 62
     4
100
AcDbLine
 10
1196.122666666666
 20
890.6767333333334
 30
0.0
 11
1192.380133333333
 21
889.5284666666665
 31
0.0
  0
LINE
  5
72
330
20
100
AcDbEntity
  8
_0-0_LAYER001
  6
Continuous
 62
     4
100
AcDbLine
 10
1195.8906
 20
892.4750000000001
 30
0.0
 11
1408.7732
 21
957.789
 31
0.0
  0
LINE
  5
73
330
20
100
AcDbEntity
  8
_0-0_LAYER001
  6
Continuous
 62
     2
100
AcDbLine
 10
1393.562266666666
 20
940.2889333333332
 30
0.0
 11
1412.007266666667
 21
948.0208666666667
 31
0.0
  0
LINE
  5
74
330
20
100
AcDbEntity
  8
_0-0_LAYER001
  6
Continuous
 62
     2
100
AcDbLine
 10
1412.007266666667
 20
948.0208666666667
 30
0.0
 11
1408.141333333333
 21
957.243333333333
 31
0.0
  0
LINE
  5
75
330
20
100
AcDbEntity
  8
_0-0_LAYER001
  6
Continuous
 62
     2
100
AcDbLine
 10
1408.141333333333
 20
957.243333333333
 30
0.0
 11
1389.696333333333
 21
949.5114666666664
 31
0.0
  0
LINE
  5
76
330
20
100
AcDbEntity
  8
_0-0_LAYER001
  6
Continuous
 62
     2
100
AcDbLine
 10
1389.696333333333
 20
949.5114666666664
 30
0.0
 11
1393.562266666666
 21
940.2889333333332
 31
0.0
  0
LINE
  5
77
330
20
100
AcDbEntity
  8
_0-0_LAYER001
  6
Continuous
 62
     2
100
AcDbLine
 10
1408.141333333333
 20
957.243333333333
 30
0.0
 11
1393.562266666666
 21
940.2889333333332
 31
0.0
  0
LINE
  5
78
330
20
100
AcDbEntity
  8
_0-0_LAYER001
  6
Continuous
 62
     4
100
AcDbLine
 10
1358.779666666666
 20
978.5861999999999
 30
0.0
 11
1362.525333333333
 21
979.7353333333333
 31
0.0
  0
ARC
  5
79
330
20
100
AcDbEntity
  8
_0-0_LAYER001
  6
Continuous
 62
     4
100
AcDbCircle
 10
1373.724266666666
 20
980.785
 30
0.0
 40
11.24801133333333
100
AcDbArc
 50
102.88244
 51
185.35433
  0
LINE
  5
7A
330
20
100
AcDbEntity
  8
_0-0_LAYER001
  6
Continuous
 62
     4
100
AcDbLine
 10
1374.8206
 20
980.6521999999999
 30
0.0
 11
1579.4642
 21
1043.438466666667
 31
0.0
  0
LINE
  5
7B
330
20
100
AcDbEntity
  8
_0-0_LAYER001
  6
Continuous
 62
     4
100
AcDbLine
 10
1575.517933333333
 20
1056.300666666666
 30
0.0
 11
1559.887666666666
 21
1051.505133333333
 31
0.0
  0
LINE
  5
7C
330
20
100
AcDbEntity
  8
_0-0_LAYER001
  6
Continuous
 62
     4
100
AcDbLine
 10
1371.216466666667
 20
991.7498666666665
 30
0.0
 11
1558.2618
 21
1049.1368
 31
0.0
  0
LINE
  5
7D
330
20
100
AcDbEntity
  8
_0-0_LAYER001
  6
Continuous
 62
     4
100
AcDbLine
 10
1358.7736
 20
978.6060666666667
 30
0.0
 11
1362.592666666667
 21
966.1582666666664
 31
0.0
  0
ARC
  5
7E
330
20
100
AcDbEntity
  8
_0-0_LAYER001
  6
Continuous
 62
     4
100
AcDbCircle
 10
1377.3284
 20
969.6873333333332
 30
0.0
 40
11.24801133333333
100
AcDbArc
 50
102.88244
 51
192.21985
  0
LINE
  5
7F
330
20
100
AcDbEntity
  8
_0-0_LAYER001
  6
Continuous
 62
     4
100
AcDbLine
 10
1580.1292
 20
1030.6918
 30
0.0
 11
1578.985733333333
 21
1034.418866666666
 31
0.0
  0
LINE
  5
80
330
20
100
AcDbEntity
  8
_0-0_LAYER001
  6
Continuous
 62
     4
100
AcDbLine
 10
1575.517933333333
 20
1056.300666666666
 30
0.0
 11
1583.095733333333
 21
1031.601933333333
 31
0.0
  0
LINE
  5
81
330
20
100
AcDbEntity
  8
_0-0_LAYER001
  6
Continuous
 62
     4
100
AcDbLine
 10
1580.1292
 20
1030.6918
 30
0.0
 11
1583.095733333333
 21
1031.601933333333
 31
0.0
  0
LINE
  5
82
330
20
100
AcDbEntity
  8
_0-0_LAYER001
  6
Continuous
 62
     4
100
AcDbLine
 10
1366.3352
 20
967.3065333333333
 30
0.0
 11
1362.592666666667
 21
966.1582666666664
 31
0.0
  0
LINE
  5
83
330
20
100
AcDbEntity
  8
_0-0_LAYER001
  6
Continuous
 62
     4
100
AcDbLine
 10
1366.103133333333
 20
969.1048666666665
 30
0.0
 11
1578.985733333333
 21
1034.418866666666
 31
0.0
  0
LINE
  5
84
330
20
100
AcDbEntity
  8
_0-0_LAYER001
  6
Continuous
 62
     2
100
AcDbLine
 10
1563.774866666667
 20
1016.9188
 30
0.0
 11
1582.219866666667
 21
1024.650666666667
 31
0.0
  0
LINE
  5
85
330
20
100
AcDbEntity
  8
_0-0_LAYER001
  6
Continuous
 62
     2
100
AcDbLine
 10
1582.219866666667
 20
1024.650666666667
 30
0.0
 11
1578.353933333333
 21
1033.8732
 31
0.0
  0
LINE
  5
86
330
20
100
AcDbEntity
  8
_0-0_LAYER001
  6
Continuous
 62
     2
100
AcDbLine
 10
1578.353933333333
 20
1033.8732
 30
0.0
 11
1559.908933333333
 21
1026.141266666666
 31
0.0
  0
LINE
  5
87
330
20
100
AcDbEntity
  8
_0-0_LAYER001
  6
Continuous
 62
     2
100
AcDbLine
 10
1559.908933333333
 20
1026.141266666666
 30
0.0
 11
1563.774866666667
 21
1016.9188
 31
0.0
  0
LINE
  5
88
330
20
100
AcDbEntity
  8
_0-0_LAYER001
  6
Continuous
 62
     2
100
AcDbLine
 10
1578.353933333333
 20
1033.8732
 30
0.0
 11
1563.774866666667
 21
1016.9188
 31
0.0
  0
LINE
  5
89
330
20
100
AcDbEntity
  8
_0-0_LAYER001
  6
Continuous
 62
     4
100
AcDbLine
 10
1545.0332
 20
1057.282066666666
 30
0.0
 11
1749.676733333333
 21
1120.068266666667
 31
0.0
  0
LINE
  5
8A
330
20
100
AcDbEntity
  8
_0-0_LAYER001
  6
Continuous
 62
     4
100
AcDbLine
 10
1745.730533333333
 20
1132.930466666667
 30
0.0
 11
1730.100266666667
 21
1128.135
 31
0.0
  0
LINE
  5
8B
330
20
100
AcDbEntity
  8
_0-0_LAYER001
  6
Continuous
 62
     4
100
AcDbLine
 10
1541.429066666666
 20
1068.379666666666
 30
0.0
 11
1728.474333333333
 21
1125.766666666667
 31
0.0
  0
ARC
  5
8C
330
20
100
AcDbEntity
  8
_0-0_LAYER001
  6
Continuous
 62
     4
100
AcDbCircle
 10
1732.219866666667
 20
1124.748933333333
 30
0.0
 40
3.881342666666665
100
AcDbArc
 50
113.22723
 51
164.79898
  0
LINE
  5
8D
330
20
100
AcDbEntity
  8
_0-0_LAYER001
  6
Continuous
 62
     4
100
AcDbLine
 10
1528.986133333333
 20
1055.235866666667
 30
0.0
 11
1532.8052
 21
1042.788133333333
 31
0.0
  0
ARC
  5
8E
330
20
100
AcDbEntity
  8
_0-0_LAYER001
  6
Continuous
 62
     4
100
AcDbCircle
 10
1547.540933333333
 20
1046.317133333333
 30
0.0
 40
11.24801133333333
100
AcDbArc
 50
102.88244
 51
192.21985
  0
LINE
  5
8F
330
20
100
AcDbEntity
  8
_0-0_LAYER001
  6
Continuous
 62
     4
100
AcDbLine
 10
1750.3418
 20
1107.3216
 30
0.0
 11
1749.198266666667
 21
1111.048666666667
 31
0.0
  0
LINE
  5
90
330
20
100
AcDbEntity
  8
_0-0_LAYER001
  6
Continuous
 62
     4
100
AcDbLine
 10
1745.730533333333
 20
1132.930466666667
 30
0.0
 11
1753.308266666667
 21
1108.231733333333
 31
0.0
  0
LINE
  5
91
330
20
100
AcDbEntity
  8
_0-0_LAYER001
  6
Continuous
 62
     4
100
AcDbLine
 10
1750.3418
 20
1107.3216
 30
0.0
 11
1753.308266666667
 21
1108.231733333333
 31
0.0
  0
LINE
  5
92
330
20
100
AcDbEntity
  8
_0-0_LAYER001
  6
Continuous
 62
     4
100
AcDbLine
 10
1536.547799999999
 20
1043.9364
 30
0.0
 11
1532.8052
 21
1042.788133333333
 31
0.0
  0
LINE
  5
93
330
20
100
AcDbEntity
  8
_0-0_LAYER001
  6
Continuous
 62
     4
100
AcDbLine
 10
1536.315666666667
 20
1045.734666666667
 30
0.0
 11
1749.198266666667
 21
1111.048666666667
 31
0.0
  0
LINE
  5
94
330
20
100
AcDbEntity
  8
_0-0_LAYER001
  6
Continuous
 62
     2
100
AcDbLine
 10
1733.9874
 20
1093.5486
 30
0.0
 11
1752.4324
 21
1101.280533333333
 31
0.0
  0
LINE
  5
95
330
20
100
AcDbEntity
  8
_0-0_LAYER001
  6
Continuous
 62
     2
100
AcDbLine
 10
1752.4324
 20
1101.280533333333
 30
0.0
 11
1748.566466666667
 21
1110.503
 31
0.0
  0
LINE
  5
96
330
20
100
AcDbEntity
  8
_0-0_LAYER001
  6
Continuous
 62
     2
100
AcDbLine
 10
1748.566466666667
 20
1110.503
 30
0.0
 11
1730.121466666667
 21
1102.771133333333
 31
0.0
  0
LINE
  5
97
330
20
100
AcDbEntity
  8
_0-0_LAYER001
  6
Continuous
 62
     2
100
AcDbLine
 10
1730.121466666667
 20
1102.771133333333
 30
0.0
 11
1733.9874
 21
1093.5486
 31
0.0
  0
LINE
  5
98
330
20
100
AcDbEntity
  8
_0-0_LAYER001
  6
Continuous
 62
     2
100
AcDbLine
 10
1748.566466666667
 20
1110.503
 30
0.0
 11
1733.9874
 21
1093.5486
 31
0.0
  0
LINE
  5
99
330
20
100
AcDbEntity
  8
_0-0_LAYER001
  6
Continuous
 62
     4
100
AcDbLine
 10
1682.7714
 20
1134.386
 30
0.0
 11
1684.041066666667
 21
1114.398333333333
 31
0.0
  0
LINE
  5
9A
330
20
100
AcDbEntity
  8
_0-0_LAYER001
  6
Continuous
 62
     4
100
AcDbLine
 10
1684.041066666667
 20
1114.398333333333
 30
0.0
 11
1689.726466666666
 21
1116.315466666667
 31
0.0
  0
ARC
  5
9B
330
20
100
AcDbEntity
  8
_0-0_LAYER001
  6
Continuous
 62
     4
100
AcDbCircle
 10
1750.9498
 20
1051.083266666666
 30
0.0
 40
89.46249999999997
100
AcDbArc
 50
114.79457
 51
133.1842
  0
ARC
  5
9C
330
20
100
AcDbEntity
  8
_0-0_LAYER001
  6
Continuous
 62
     4
100
AcDbCircle
 10
1721.2534
 20
1129.990733333333
 30
0.0
 40
8.154592666666667
100
AcDbArc
 50
103.69505
 51
163.55807
  0
LINE
  5
9D
330
20
100
AcDbEntity
  8
_0-0_LAYER001
  6
Continuous
 62
     4
100
AcDbLine
 10
1750.476733333333
 20
1154.781866666667
 30
0.0
 11
1751.978066666666
 21
1144.8952
 31
0.0
  0
ARC
  5
9E
330
20
100
AcDbEntity
  8
_0-0_LAYER001
  6
Continuous
 62
     4
100
AcDbCircle
 10
1793.831333333333
 20
869.2771333333331
 30
0.0
 40
278.7777733333333
100
AcDbArc
 50
98.63454500000001
 51
105.5018
  0
ARC
  5
9F
330
20
100
AcDbEntity
  8
_0-0_LAYER001
  6
Continuous
 62
     4
100
AcDbCircle
 10
1788.0096
 20
907.6154
 30
0.0
 40
250.0
100
AcDbArc
 50
98.63454500000001
 51
114.89475
  0
LINE
  5
A0
330
20
100
AcDbEntity
  8
_0-0_LAYER001
  6
Continuous
 62
     2
100
AcDbLine
 10
1755.0952
 20
1247.715466666666
 30
0.0
 11
1755.0952
 21
1388.396133333333
 31
0.0
  0
LINE
  5
A1
330
20
100
AcDbEntity
  8
_0-0_LAYER001
  6
DASHED1
 62
     2
100
AcDbLine
 10
1768.428533333333
 20
1247.715466666666
 30
0.0
 11
1768.428533333333
 21
1388.019733333333
 31
0.0
  0
LINE
  5
A2
330
20
100
AcDbEntity
  8
_0-0_LAYER001
  6
Continuous
 62
     2
100
AcDbLine
 10
1767.428533333333
 20
1234.382133333333
 30
0.0
 11
1767.428533333333
 21
1243.887866666667
 31
0.0
  0
LINE
  5
A3
330
20
100
AcDbEntity
  8
_0-0_LAYER001
  6
Continuous
 62
     2
100
AcDbLine
 10
1695.0952
 20
1141.531
 30
0.0
 11
1697.985933333333
 21
1146.276266666666
 31
0.0
  0
LINE
  5
A4
330
20
100
AcDbEntity
  8
_0-0_LAYER001
  6
Continuous
 62
     2
100
AcDbLine
 10
1695.0952
 20
1151.547333333333
 30
0.0
 11
1695.0952
 21
1141.1498
 31
0.0
  0
LINE
  5
A5
330
20
100
AcDbEntity
  8
_0-0_LAYER001
  6
Continuous
 62
     2
100
AcDbLine
 10
1755.0952
 20
1167.5306
 30
0.0
 11
1755.0952
 21
1234.382133333333
 31
0.0
  0
LINE
  5
A6
330
20
100
AcDbEntity
  8
_0-0_LAYER001
  6
Continuous
 62
     2
100
AcDbLine
 10
1695.0952
 20
1151.547333333333
 30
0.0
 11
1755.0952
 21
1167.5306
 31
0.0
  0
ARC
  5
A7
330
20
100
AcDbEntity
  8
_0-0_LAYER001
  6
Continuous
 62
     2
100
AcDbCircle
 10
1739.2228
 20
1241.0488
 30
0.0
 40
17.21559266666666
100
AcDbArc
 50
337.2167600000001
 51
22.78323500000003
  0
LINE
  5
A8
330
20
100
AcDbEntity
  8
_0-0_LAYER001
  6
Continuous
 62
     2
100
AcDbLine
 10
1755.0952
 20
1234.382133333333
 30
0.0
 11
1767.428533333333
 21
1234.382133333333
 31
0.0
  0
LINE
  5
A9
330
20
100
AcDbEntity
  8
_0-0_LAYER001
  6
Continuous
 62
     1
100
AcDbLine
 10
1766.687466666667
 20
1247.309933333333
 30
0.0
 11
1763.511
 21
1247.309933333333
 31
0.0
  0
LINE
  5
AA
330
20
100
AcDbEntity
  8
_0-0_LAYER001
  6
Continuous
 62
     1
100
AcDbLine
 10
1763.511
 20
1247.309933333333
 30
0.0
 11
1763.511
 21
1234.909533333333
 31
0.0
  0
LINE
  5
AB
330
20
100
AcDbEntity
  8
_0-0_LAYER001
  6
Continuous
 62
     1
100
AcDbLine
 10
1763.511
 20
1234.909533333333
 30
0.0
 11
1766.687466666667
 21
1234.909533333333
 31
0.0
  0
LINE
  5
AC
330
20
100
AcDbEntity
  8
_0-0_LAYER001
  6
Continuous
 62
     1
100
AcDbLine
 10
1766.687466666667
 20
1234.909533333333
 30
0.0
 11
1766.687466666667
 21
1247.309933333333
 31
0.0
  0
LINE
  5
AD
330
20
100
AcDbEntity
  8
_0-0_LAYER001
  6
Continuous
 62
     1
100
AcDbLine
 10
1766.687466666667
 20
1247.309933333333
 30
0.0
 11
1763.511
 21
1234.909533333333
 31
0.0
  0
LINE
  5
AE
330
20
100
AcDbEntity
  8
_0-0_LAYER001
  6
Continuous
 62
     1
100
AcDbLine
 10
1762.166266666667
 20
1234.382133333333
 30
0.0
 11
1763.113933333334
 21
1235.3298
 31
0.0
  0
LINE
  5
AF
330
20
100
AcDbEntity
  8
_0-0_LAYER001
  6
Continuous
 62
     1
100
AcDbLine
 10
1759.809266666666
 20
1234.382133333333
 30
0.0
 11
1763.113933333334
 21
1237.6868
 31
0.0
  0
LINE
  5
B0
330
20
100
AcDbEntity
  8
_0-0_LAYER001
  6
Continuous
 62
     1
100
AcDbLine
 10
1757.4522
 20
1234.382133333333
 30
0.0
 11
1763.113933333334
 21
1240.0438
 31
0.0
  0
LINE
  5
B1
330
20
100
AcDbEntity
  8
_0-0_LAYER001
  6
Continuous
 62
     1
100
AcDbLine
 10
1755.0952
 20
1234.382133333333
 30
0.0
 11
1763.113933333334
 21
1242.400866666666
 31
0.0
  0
LINE
  5
B2
330
20
100
AcDbEntity
  8
_0-0_LAYER001
  6
Continuous
 62
     1
100
AcDbLine
 10
1756.122666666666
 20
1237.7666
 30
0.0
 11
1763.113933333334
 21
1244.757866666666
 31
0.0
  0
LINE
  5
B3
330
20
100
AcDbEntity
  8
_0-0_LAYER001
  6
Continuous
 62
     1
100
AcDbLine
 10
1756.4272
 20
1240.4282
 30
0.0
 11
1763.113933333334
 21
1247.114866666666
 31
0.0
  0
LINE
  5
B4
330
20
100
AcDbEntity
  8
_0-0_LAYER001
  6
Continuous
 62
     1
100
AcDbLine
 10
1756.357533333333
 20
1242.715533333333
 30
0.0
 11
1761.287866666666
 21
1247.645866666666
 31
0.0
  0
LINE
  5
B5
330
20
100
AcDbEntity
  8
_0-0_LAYER001
  6
Continuous
 62
     1
100
AcDbLine
 10
1756.035666666667
 20
1244.750733333333
 30
0.0
 11
1758.930866666666
 21
1247.645866666666
 31
0.0
  0
LINE
  5
B6
330
20
100
AcDbEntity
  8
_0-0_LAYER001
  6
Continuous
 62
     1
100
AcDbLine
 10
1755.521200000001
 20
1246.5932
 30
0.0
 11
1756.573866666666
 21
1247.645866666666
 31
0.0
  0
LINE
  5
B7
330
20
100
AcDbEntity
  8
_0-0_LAYER001
  6
Continuous
 62
     2
100
AcDbLine
 10
1707.642666666666
 20
1154.889866666666
 30
0.0
 11
1710.216533333333
 21
1145.226933333333
 31
0.0
  0
LINE
  5
B8
330
20
100
AcDbEntity
  8
_0-0_LAYER001
  6
Continuous
 62
     2
100
AcDbLine
 10
1719.8796
 20
1147.800866666667
 30
0.0
 11
1717.3056
 21
1157.4642
 31
0.0
  0
LINE
  5
B9
330
20
100
AcDbEntity
  8
_0-0_LAYER001
  6
Continuous
 62
     1
100
AcDbLine
 10
1717.088066666666
 20
1147.308866666667
 30
0.0
 11
1719.396133333333
 21
1149.616933333333
 31
0.0
  0
LINE
  5
BA
330
20
100
AcDbEntity
  8
_0-0_LAYER001
  6
Continuous
 62
     1
100
AcDbLine
 10
1713.706533333333
 20
1146.284333333333
 30
0.0
 11
1718.9004
 21
1151.4782
 31
0.0
  0
LINE
  5
BB
330
20
100
AcDbEntity
  8
_0-0_LAYER001
  6
Continuous
 62
     1
100
AcDbLine
 10
1710.325
 20
1145.259799999999
 30
0.0
 11
1718.4046
 21
1153.339466666666
 31
0.0
  0
LINE
  5
BC
330
20
100
AcDbEntity
  8
_0-0_LAYER001
  6
Continuous
 62
     1
100
AcDbLine
 10
1709.736666666667
 20
1147.028533333333
 30
0.0
 11
1717.9088
 21
1155.200666666666
 31
0.0
  0
LINE
  5
BD
330
20
100
AcDbEntity
  8
_0-0_LAYER001
  6
Continuous
 62
     1
100
AcDbLine
 10
1709.240866666666
 20
1148.8898
 30
0.0
 11
1717.413066666667
 21
1157.061933333333
 31
0.0
  0
LINE
  5
BE
330
20
100
AcDbEntity
  8
_0-0_LAYER001
  6
Continuous
 62
     1
100
AcDbLine
 10
1708.745133333333
 20
1150.751
 30
0.0
 11
1714.7876
 21
1156.793533333333
 31
0.0
  0
LINE
  5
BF
330
20
100
AcDbEntity
  8
_0-0_LAYER001
  6
Continuous
 62
     1
100
AcDbLine
 10
1708.249333333333
 20
1152.612266666666
 30
0.0
 11
1711.5748
 21
1155.937733333333
 31
0.0
  0
LINE
  5
C0
330
20
100
AcDbEntity
  8
_0-0_LAYER001
  6
Continuous
 62
     1
100
AcDbLine
 10
1707.753533333333
 20
1154.473533333333
 30
0.0
 11
1708.362
 21
1155.081933333333
 31
0.0
  0
LINE
  5
C1
330
20
100
AcDbEntity
  8
_0-0_LAYER001
  6
Continuous
 62
     1
100
AcDbLine
 10
1710.0146
 20
1145.985
 30
0.0
 11
1710.643333333333
 21
1145.356266666667
 31
0.0
  0
LINE
  5
C2
330
20
100
AcDbEntity
  8
_0-0_LAYER001
  6
Continuous
 62
     1
100
AcDbLine
 10
1709.1588
 20
1149.1978
 30
0.0
 11
1712.452266666667
 21
1145.904333333333
 31
0.0
  0
LINE
  5
C3
330
20
100
AcDbEntity
  8
_0-0_LAYER001
  6
Continuous
 62
     1
100
AcDbLine
 10
1708.303066666667
 20
1152.4106
 30
0.0
 11
1714.261266666667
 21
1146.4524
 31
0.0
  0
LINE
  5
C4
330
20
100
AcDbEntity
  8
_0-0_LAYER001
  6
Continuous
 62
     1
100
AcDbLine
 10
1708.067266666667
 20
1155.0034
 30
0.0
 11
1716.0702
 21
1147.000466666666
 31
0.0
  0
LINE
  5
C5
330
20
100
AcDbEntity
  8
_0-0_LAYER001
  6
Continuous
 62
     1
100
AcDbLine
 10
1709.928533333333
 20
1155.4992
 30
0.0
 11
1717.8792
 21
1147.548533333333
 31
0.0
  0
LINE
  5
C6
330
20
100
AcDbEntity
  8
_0-0_LAYER001
  6
Continuous
 62
     1
100
AcDbLine
 10
1711.789733333333
 20
1155.995
 30
0.0
 11
1719.688133333333
 21
1148.0966
 31
0.0
  0
LINE
  5
C7
330
20
100
AcDbEntity
  8
_0-0_LAYER001
  6
Continuous
 62
     1
100
AcDbLine
 10
1713.651
 20
1156.490733333333
 30
0.0
 11
1718.986333333333
 21
1151.1554
 31
0.0
  0
LINE
  5
C8
330
20
100
AcDbEntity
  8
_0-0_LAYER001
  6
Continuous
 62
     1
100
AcDbLine
 10
1715.512266666667
 20
1156.986533333333
 30
0.0
 11
1718.130533333333
 21
1154.3682
 31
0.0
  0
LINE
  5
C9
330
20
100
AcDbEntity
  8
_0-0_LAYER001
  6
Continuous
 62
     2
100
AcDbLine
 10
1695.0952
 20
1204.301466666666
 30
0.0
 11
1695.0952
 21
1185.968133333333
 31
0.0
  0
CIRCLE
  5
CA
330
20
100
AcDbEntity
  8
_0-0_LAYER001
  6
Continuous
 62
     2
100
AcDbCircle
 10
1695.0952
 20
1202.6348
 30
0.0
 40
1.133333333333333
  0
LINE
  5
CB
330
20
100
AcDbEntity
  8
_0-0_LAYER001
  6
Continuous
 62
     2
100
AcDbLine
 10
1695.0952
 20
1202.6348
 30
0.0
 11
1755.0952
 21
1202.6348
 31
0.0
  0
CIRCLE
  5
CC
330
20
100
AcDbEntity
  8
_0-0_LAYER001
  6
Continuous
 62
     2
100
AcDbCircle
 10
1755.0952
 20
1202.6348
 30
0.0
 40
1.133333333333333
  0
LINE
  5
CD
330
20
100
AcDbEntity
  8
_0-0_LAYER001
  6
Continuous
 62
     2
100
AcDbLine
 10
1755.0952
 20
1204.301466666666
 30
0.0
 11
1755.0952
 21
1185.968133333333
 31
0.0
  0
LINE
  5
CE
330
20
100
AcDbEntity
  8
_0-0_LAYER001
  6
Continuous
 62
     2
100
AcDbLine
 10
1755.0952
 20
1288.395533333333
 30
0.0
 11
1835.784
 21
1369.084333333333
 31
0.0
  0
LINE
  5
CF
330
20
100
AcDbEntity
  8
_0-0_LAYER001
  6
Continuous
 62
     2
100
AcDbLine
 10
1755.0952
 20
1297.8236
 30
0.0
 11
1835.784
 21
1378.5124
 31
0.0
  0
LINE
  5
D0
330
20
100
AcDbEntity
  8
_0-0_LAYER001
  6
Continuous
 62
     2
100
AcDbLine
 10
1755.0952
 20
1307.251733333333
 30
0.0
 11
1833.070133333333
 21
1385.226666666666
 31
0.0
  0
LINE
  5
D1
330
20
100
AcDbEntity
  8
_0-0_LAYER001
  6
Continuous
 62
     2
100
AcDbLine
 10
1734.187933333333
 20
1168.3974
 30
0.0
 11
1735.482
 21
1163.5678
 31
0.0
  0
LINE
  5
D2
330
20
100
AcDbEntity
  8
_0-0_LAYER001
  6
Continuous
 62
     2
100
AcDbLine
 10
1735.482
 20
1163.5678
 30
0.0
 11
1731.946466666667
 21
1167.103333333333
 31
0.0
  0
LINE
  5
D3
330
20
100
AcDbEntity
  8
_0-0_LAYER001
  6
Continuous
 62
     2
100
AcDbLine
 10
1735.482
 20
1163.5678
 30
0.0
 11
1658.178866666666
 21
1297.4608
 31
0.0
  0
LINE
  5
D4
330
20
100
AcDbEntity
  8
_0-0_LAYER001
  6
Continuous
 62
     2
100
AcDbLine
 10
1658.178866666666
 20
1297.4608
 30
0.0
 11
1502.178866666667
 21
1297.4608
 31
0.0
  0
LINE
  5
D5
330
20
100
AcDbEntity
  8
_0-0_LAYER001
  6
Continuous
 62
     2
100
AcDbLine
 10
1807.991266666667
 20
1167.715466666666
 30
0.0
 11
1789.657933333333
 21
1167.715466666666
 31
0.0
  0
CIRCLE
  5
D6
330
20
100
AcDbEntity
  8
_0-0_LAYER001
  6
Continuous
 62
     2
100
AcDbCircle
 10
1806.3246
 20
1167.715466666666
 30
0.0
 40
1.133333333333333
  0
LINE
  5
D7
330
20
100
AcDbEntity
  8
_0-0_LAYER001
  6
Continuous
 62
     2
100
AcDbLine
 10
1806.3246
 20
1167.715466666666
 30
0.0
 11
1806.3246
 21
1234.382133333333
 31
0.0
  0
CIRCLE
  5
D8
330
20
100
AcDbEntity
  8
_0-0_LAYER001
  6
Continuous
 62
     2
100
AcDbCircle
 10
1806.3246
 20
1234.382133333333
 30
0.0
 40
1.133333333333333
  0
LINE
  5
D9
330
20
100
AcDbEntity
  8
_0-0_LAYER001
  6
Continuous
 62
     2
100
AcDbLine
 10
1807.991266666667
 20
1234.382133333333
 30
0.0
 11
1789.657933333333
 21
1234.382133333333
 31
0.0
  0
LINE
  5
DA
330
20
100
AcDbEntity
  8
_0-0_LAYER001
  6
Continuous
 62
     1
100
AcDbLine
 10
1764.297799999999
 20
1075.184466666667
 30
0.0
 11
1768.428533333333
 21
1079.3152
 31
0.0
  0
LINE
  5
DB
330
20
100
AcDbEntity
  8
_0-0_LAYER001
  6
Continuous
 62
     1
100
AcDbLine
 10
1751.441333333333
 20
1069.399066666666
 30
0.0
 11
1768.428533333333
 21
1086.386266666666
 31
0.0
  0
LINE
  5
DC
330
20
100
AcDbEntity
  8
_0-0_LAYER001
  6
Continuous
 62
     1
100
AcDbLine
 10
1738.584866666666
 20
1063.613666666666
 30
0.0
 11
1768.428533333333
 21
1093.457333333333
 31
0.0
  0
LINE
  5
DD
330
20
100
AcDbEntity
  8
_0-0_LAYER001
  6
Continuous
 62
     1
100
AcDbLine
 10
1725.7284
 20
1057.828266666666
 30
0.0
 11
1768.428533333333
 21
1100.5284
 31
0.0
  0
LINE
  5
DE
330
20
100
AcDbEntity
  8
_0-0_LAYER001
  6
Continuous
 62
     1
100
AcDbLine
 10
1712.871866666667
 20
1052.0428
 30
0.0
 11
1766.039666666667
 21
1105.2106
 31
0.0
  0
LINE
  5
DF
330
20
100
AcDbEntity
  8
_0-0_LAYER001
  6
Continuous
 62
     1
100
AcDbLine
 10
1700.0154
 20
1046.2574
 30
0.0
 11
1753.1832
 21
1099.4252
 31
0.0
  0
LINE
  5
E0
330
20
100
AcDbEntity
  8
_0-0_LAYER001
  6
Continuous
 62
     1
100
AcDbLine
 10
1687.158933333333
 20
1040.472
 30
0.0
 11
1740.326666666667
 21
1093.639733333333
 31
0.0
  0
LINE
  5
E1
330
20
100
AcDbEntity
  8
_0-0_LAYER001
  6
Continuous
 62
     1
100
AcDbLine
 10
1674.3024
 20
1034.6866
 30
0.0
 11
1727.4702
 21
1087.854333333333
 31
0.0
  0
LINE
  5
E2
330
20
100
AcDbEntity
  8
_0-0_LAYER001
  6
Continuous
 62
     1
100
AcDbLine
 10
1661.445933333333
 20
1028.901133333333
 30
0.0
 11
1714.613733333333
 21
1082.068933333333
 31
0.0
  0
LINE
  5
E3
330
20
100
AcDbEntity
  8
_0-0_LAYER001
  6
Continuous
 62
     1
100
AcDbLine
 10
1648.589466666666
 20
1023.115733333333
 30
0.0
 11
1701.757266666667
 21
1076.283533333333
 31
0.0
  0
LINE
  5
E4
330
20
100
AcDbEntity
  8
_0-0_LAYER001
  6
Continuous
 62
     1
100
AcDbLine
 10
1635.733
 20
1017.330333333333
 30
0.0
 11
1688.900733333333
 21
1070.498066666667
 31
0.0
  0
LINE
  5
E5
330
20
100
AcDbEntity
  8
_0-0_LAYER001
  6
Continuous
 62
     1
100
AcDbLine
 10
1622.876466666667
 20
1011.544933333333
 30
0.0
 11
1676.044266666667
 21
1064.712666666666
 31
0.0
  0
LINE
  5
E6
330
20
100
AcDbEntity
  8
_0-0_LAYER001
  6
Continuous
 62
     1
100
AcDbLine
 10
1610.02
 20
1005.759466666666
 30
0.0
 11
1663.1878
 21
1058.927266666667
 31
0.0
  0
LINE
  5
E7
330
20
100
AcDbEntity
  8
_0-0_LAYER001
  6
Continuous
 62
     1
100
AcDbLine
 10
1597.163533333333
 20
999.9740666666664
 30
0.0
 11
1650.331266666667
 21
1053.141866666667
 31
0.0
  0
LINE
  5
E8
330
20
100
AcDbEntity
  8
_0-0_LAYER001
  6
Continuous
 62
     1
100
AcDbLine
 10
1584.307066666666
 20
994.1886666666665
 30
0.0
 11
1637.4748
 21
1047.3564
 31
0.0
  0
LINE
  5
E9
330
20
100
AcDbEntity
  8
_0-0_LAYER001
  6
Continuous
 62
     1
100
AcDbLine
 10
1571.450533333333
 20
988.4032666666668
 30
0.0
 11
1624.618333333333
 21
1041.571
 31
0.0
  0
LINE
  5
EA
330
20
100
AcDbEntity
  8
_0-0_LAYER001
  6
Continuous
 62
     1
100
AcDbLine
 10
1558.594066666666
 20
982.6178
 30
0.0
 11
1611.761866666667
 21
1035.7856
 31
0.0
  0
LINE
  5
EB
330
20
100
AcDbEntity
  8
_0-0_LAYER001
  6
Continuous
 62
     1
100
AcDbLine
 10
1545.7376
 20
976.8323999999999
 30
0.0
 11
1598.905333333333
 21
1030.0002
 31
0.0
  0
LINE
  5
EC
330
20
100
AcDbEntity
  8
_0-0_LAYER001
  6
Continuous
 62
     1
100
AcDbLine
 10
1532.881133333333
 20
971.047
 30
0.0
 11
1586.048866666666
 21
1024.214733333334
 31
0.0
  0
LINE
  5
ED
330
20
100
AcDbEntity
  8
_0-0_LAYER001
  6
Continuous
 62
     1
100
AcDbLine
 10
1520.0246
 20
965.2616
 30
0.0
 11
1573.1924
 21
1018.429333333333
 31
0.0
  0
LINE
  5
EE
330
20
100
AcDbEntity
  8
_0-0_LAYER001
  6
Continuous
 62
     1
100
AcDbLine
 10
1507.168133333333
 20
959.476133333333
 30
0.0
 11
1560.335933333333
 21
1012.643933333333
 31
0.0
  0
LINE
  5
EF
330
20
100
AcDbEntity
  8
_0-0_LAYER001
  6
Continuous
 62
     1
100
AcDbLine
 10
1494.311666666667
 20
953.6907333333331
 30
0.0
 11
1547.479399999999
 21
1006.858533333333
 31
0.0
  0
LINE
  5
F0
330
20
100
AcDbEntity
  8
_0-0_LAYER001
  6
Continuous
 62
     1
100
AcDbLine
 10
1481.455133333333
 20
947.9053333333332
 30
0.0
 11
1534.622933333333
 21
1001.073066666666
 31
0.0
  0
LINE
  5
F1
330
20
100
AcDbEntity
  8
_0-0_LAYER001
  6
Continuous
 62
     1
100
AcDbLine
 10
1468.598666666667
 20
942.1199333333332
 30
0.0
 11
1521.766466666667
 21
995.2876666666666
 31
0.0
  0
LINE
  5
F2
330
20
100
AcDbEntity
  8
_0-0_LAYER001
  6
Continuous
 62
     1
100
AcDbLine
 10
1455.7422
 20
936.3344666666666
 30
0.0
 11
1508.91
 21
989.5022666666664
 31
0.0
  0
LINE
  5
F3
330
20
100
AcDbEntity
  8
_0-0_LAYER001
  6
Continuous
 62
     1
100
AcDbLine
 10
1442.885733333333
 20
930.5490666666667
 30
0.0
 11
1496.053466666667
 21
983.7168666666665
 31
0.0
  0
LINE
  5
F4
330
20
100
AcDbEntity
  8
_0-0_LAYER001
  6
Continuous
 62
     1
100
AcDbLine
 10
1430.0292
 20
924.7636666666666
 30
0.0
 11
1483.197
 21
977.9314000000001
 31
0.0
  0
LINE
  5
F5
330
20
100
AcDbEntity
  8
_0-0_LAYER001
  6
Continuous
 62
     1
100
AcDbLine
 10
1417.172733333333
 20
918.9782666666667
 30
0.0
 11
1470.340533333333
 21
972.146
 31
0.0
  0
LINE
  5
F6
330
20
100
AcDbEntity
  8
_0-0_LAYER001
  6
Continuous
 62
     1
100
AcDbLine
 10
1404.316266666667
 20
913.1928
 30
0.0
 11
1457.484
 21
966.3605999999999
 31
0.0
  0
LINE
  5
F7
330
20
100
AcDbEntity
  8
_0-0_LAYER001
  6
Continuous
 62
     1
100
AcDbLine
 10
1391.4598
 20
907.4074000000001
 30
0.0
 11
1444.627533333333
 21
960.5752
 31
0.0
  0
LINE
  5
F8
330
20
100
AcDbEntity
  8
_0-0_LAYER001
  6
Continuous
 62
     1
100
AcDbLine
 10
1378.603266666667
 20
901.622
 30
0.0
 11
1431.771066666667
 21
954.7897333333336
 31
0.0
  0
LINE
  5
F9
330
20
100
AcDbEntity
  8
_0-0_LAYER001
  6
Continuous
 62
     1
100
AcDbLine
 10
1365.7468
 20
895.8365999999998
 30
0.0
 11
1418.9146
 21
949.004333333333
 31
0.0
  0
LINE
  5
FA
330
20
100
AcDbEntity
  8
_0-0_LAYER001
  6
Continuous
 62
     1
100
AcDbLine
 10
1352.890333333333
 20
890.0511333333334
 30
0.0
 11
1406.058066666667
 21
943.2189333333333
 31
0.0
  0
LINE
  5
FB
330
20
100
AcDbEntity
  8
_0-0_LAYER001
  6
Continuous
 62
     1
100
AcDbLine
 10
1340.033866666666
 20
884.2657333333331
 30
0.0
 11
1393.2016
 21
937.4335333333332
 31
0.0
  0
LINE
  5
FC
330
20
100
AcDbEntity
  8
_0-0_LAYER001
  6
Continuous
 62
     1
100
AcDbLine
 10
1327.177333333333
 20
878.4803333333332
 30
0.0
 11
1380.345133333333
 21
931.6480666666663
 31
0.0
  0
LINE
  5
FD
330
20
100
AcDbEntity
  8
_0-0_LAYER001
  6
Continuous
 62
     1
100
AcDbLine
 10
1314.320866666667
 20
872.6949333333333
 30
0.0
 11
1367.488666666666
 21
925.8626666666668
 31
0.0
  0
LINE
  5
FE
330
20
100
AcDbEntity
  8
_0-0_LAYER001
  6
Continuous
 62
     1
100
AcDbLine
 10
1301.4644
 20
866.9094666666666
 30
0.0
 11
1354.632133333333
 21
920.0772666666663
 31
0.0
  0
LINE
  5
FF
330
20
100
AcDbEntity
  8
_0-0_LAYER001
  6
Continuous
 62
     1
100
AcDbLine
 10
1288.607866666667
 20
861.1240666666665
 30
0.0
 11
1341.775666666667
 21
914.2918666666666
 31
0.0
  0
LINE
  5
100
330
20
100
AcDbEntity
  8
_0-0_LAYER001
  6
Continuous
 62
     1
100
AcDbLine
 10
1275.7514
 20
855.3386666666666
 30
0.0
 11
1328.9192
 21
908.5064
 31
0.0
  0
LINE
  5
101
330
20
100
AcDbEntity
  8
_0-0_LAYER001
  6
Continuous
 62
     1
100
AcDbLine
 10
1262.894933333333
 20
849.5532666666665
 30
0.0
 11
1316.062733333333
 21
902.721
 31
0.0
  0
LINE
  5
102
330
20
100
AcDbEntity
  8
_0-0_LAYER001
  6
Continuous
 62
     1
100
AcDbLine
 10
1250.038466666667
 20
843.7677999999998
 30
0.0
 11
1303.2062
 21
896.9355999999997
 31
0.0
  0
LINE
  5
103
330
20
100
AcDbEntity
  8
_0-0_LAYER001
  6
Continuous
 62
     1
100
AcDbLine
 10
1237.181933333333
 20
837.9824000000001
 30
0.0
 11
1290.349733333333
 21
891.1502
 31
0.0
  0
LINE
  5
104
330
20
100
AcDbEntity
  8
_0-0_LAYER001
  6
Continuous
 62
     1
100
AcDbLine
 10
1224.325466666666
 20
832.197
 30
0.0
 11
1277.493266666666
 21
885.3647333333332
 31
0.0
  0
LINE
  5
105
330
20
100
AcDbEntity
  8
_0-0_LAYER001
  6
Continuous
 62
     1
100
AcDbLine
 10
1211.469
 20
826.4115999999997
 30
0.0
 11
1264.6368
 21
879.5793333333332
 31
0.0
  0
LINE
  5
106
330
20
100
AcDbEntity
  8
_0-0_LAYER001
  6
Continuous
 62
     1
100
AcDbLine
 10
1198.612533333333
 20
820.6261333333333
 30
0.0
 11
1251.780266666666
 21
873.7939333333333
 31
0.0
  0
LINE
  5
107
330
20
100
AcDbEntity
  8
_0-0_LAYER001
  6
Continuous
 62
     1
100
AcDbLine
 10
1185.756
 20
814.8407333333331
 30
0.0
 11
1238.9238
 21
868.0085333333332
 31
0.0
  0
LINE
  5
108
330
20
100
AcDbEntity
  8
_0-0_LAYER001
  6
Continuous
 62
     1
100
AcDbLine
 10
1172.899533333333
 20
809.0553333333332
 30
0.0
 11
1226.067333333333
 21
862.2230666666665
 31
0.0
  0
LINE
  5
109
330
20
100
AcDbEntity
  8
_0-0_LAYER001
  6
Continuous
 62
     1
100
AcDbLine
 10
1160.043066666666
 20
803.2699333333333
 30
0.0
 11
1213.2108
 21
856.4376666666667
 31
0.0
  0
LINE
  5
10A
330
20
100
AcDbEntity
  8
_0-0_LAYER001
  6
Continuous
 62
     1
100
AcDbLine
 10
1156.975133333333
 20
807.2730666666664
 30
0.0
 11
1200.354333333333
 21
850.6522666666665
 31
0.0
  0
LINE
  5
10B
330
20
100
AcDbEntity
  8
_0-0_LAYER001
  6
Continuous
 62
     1
100
AcDbLine
 10
1154.780666666667
 20
812.1496666666667
 30
0.0
 11
1187.497866666666
 21
844.8668666666668
 31
0.0
  0
LINE
  5
10C
330
20
100
AcDbEntity
  8
_0-0_LAYER001
  6
Continuous
 62
     1
100
AcDbLine
 10
1152.5862
 20
817.0262666666666
 30
0.0
 11
1174.6414
 21
839.0814
 31
0.0
  0
LINE
  5
10D
330
20
100
AcDbEntity
  8
_0-0_LAYER001
  6
Continuous
 62
     1
100
AcDbLine
 10
1150.391733333333
 20
821.9028666666666
 30
0.0
 11
1161.784866666667
 21
833.2959999999998
 31
0.0
  0
LINE
  5
10E
330
20
100
AcDbEntity
  8
_0-0_LAYER001
  6
Continuous
 62
     1
100
AcDbLine
 10
1148.197266666666
 20
826.7794666666667
 30
0.0
 11
1148.9284
 21
827.5105999999999
 31
0.0
  0
LINE
  5
10F
330
20
100
AcDbEntity
  8
_0-0_LAYER001
  6
Continuous
 62
     1
100
AcDbLine
 10
1156.204
 20
808.9868
 30
0.0
 11
1161.338133333333
 21
803.8526666666665
 31
0.0
  0
LINE
  5
110
330
20
100
AcDbEntity
  8
_0-0_LAYER001
  6
Continuous
 62
     1
100
AcDbLine
 10
1150.4186
 20
821.8433333333335
 30
0.0
 11
1166.214733333333
 21
806.0471333333332
 31
0.0
  0
LINE
  5
111
330
20
100
AcDbEntity
  8
_0-0_LAYER001
  6
Continuous
 62
     1
100
AcDbLine
 10
1150.9242
 20
828.4087333333333
 30
0.0
 11
1171.091333333333
 21
808.2415999999996
 31
0.0
  0
LINE
  5
112
330
20
100
AcDbEntity
  8
_0-0_LAYER001
  6
Continuous
 62
     1
100
AcDbLine
 10
1155.8008
 20
830.6032
 30
0.0
 11
1175.967933333333
 21
810.4360666666668
 31
0.0
  0
LINE
  5
113
330
20
100
AcDbEntity
  8
_0-0_LAYER001
  6
Continuous
 62
     1
100
AcDbLine
 10
1160.6774
 20
832.7976666666668
 30
0.0
 11
1180.844533333333
 21
812.6305333333331
 31
0.0
  0
LINE
  5
114
330
20
100
AcDbEntity
  8
_0-0_LAYER001
  6
Continuous
 62
     1
100
AcDbLine
 10
1165.554
 20
834.9921333333334
 30
0.0
 11
1185.721133333333
 21
814.825
 31
0.0
  0
LINE
  5
115
330
20
100
AcDbEntity
  8
_0-0_LAYER001
  6
Continuous
 62
     1
100
AcDbLine
 10
1170.4306
 20
837.1866
 30
0.0
 11
1190.597733333333
 21
817.0194666666667
 31
0.0
  0
LINE
  5
116
330
20
100
AcDbEntity
  8
_0-0_LAYER001
  6
Continuous
 62
     1
100
AcDbLine
 10
1175.3072
 20
839.3810666666665
 30
0.0
 11
1195.474333333333
 21
819.2139333333331
 31
0.0
  0
LINE
  5
117
330
20
100
AcDbEntity
  8
_0-0_LAYER001
  6
Continuous
 62
     1
100
AcDbLine
 10
1180.1838
 20
841.5755333333331
 30
0.0
 11
1200.350933333333
 21
821.4084666666664
 31
0.0
  0
LINE
  5
118
330
20
100
AcDbEntity
  8
_0-0_LAYER001
  6
Continuous
 62
     1
100
AcDbLine
 10
1185.0604
 20
843.7699999999999
 30
0.0
 11
1205.227533333333
 21
823.602933333333
 31
0.0
  0
LINE
  5
119
330
20
100
AcDbEntity
  8
_0-0_LAYER001
  6
Continuous
 62
     1
100
AcDbLine
 10
1189.937
 20
845.9644666666665
 30
0.0
 11
1210.104133333333
 21
825.7974
 31
0.0
  0
LINE
  5
11A
330
20
100
AcDbEntity
  8
_0-0_LAYER001
  6
Continuous
 62
     1
100
AcDbLine
 10
1194.8136
 20
848.1589333333332
 30
0.0
 11
1214.980733333333
 21
827.9918666666667
 31
0.0
  0
LINE
  5
11B
330
20
100
AcDbEntity
  8
_0-0_LAYER001
  6
Continuous
 62
     1
100
AcDbLine
 10
1199.6902
 20
850.3533999999998
 30
0.0
 11
1219.857333333333
 21
830.1863333333335
 31
0.0
  0
LINE
  5
11C
330
20
100
AcDbEntity
  8
_0-0_LAYER001
  6
Continuous
 62
     1
100
AcDbLine
 10
1204.5668
 20
852.5478666666666
 30
0.0
 11
1224.733933333333
 21
832.3808000000001
 31
0.0
  0
LINE
  5
11D
330
20
100
AcDbEntity
  8
_0-0_LAYER001
  6
Continuous
 62
     1
100
AcDbLine
 10
1209.4434
 20
854.7423333333332
 30
0.0
 11
1229.610533333333
 21
834.5752666666667
 31
0.0
  0
LINE
  5
11E
330
20
100
AcDbEntity
  8
_0-0_LAYER001
  6
Continuous
 62
     1
100
AcDbLine
 10
1214.32
 20
856.9367999999997
 30
0.0
 11
1234.487133333333
 21
836.7697333333333
 31
0.0
  0
LINE
  5
11F
330
20
100
AcDbEntity
  8
_0-0_LAYER001
  6
Continuous
 62
     1
100
AcDbLine
 10
1219.1966
 20
859.1312666666667
 30
0.0
 11
1239.363666666666
 21
838.9642000000003
 31
0.0
  0
LINE
  5
120
330
20
100
AcDbEntity
  8
_0-0_LAYER001
  6
Continuous
 62
     1
100
AcDbLine
 10
1224.0732
 20
861.3257333333331
 30
0.0
 11
1244.240266666666
 21
841.1586666666666
 31
0.0
  0
LINE
  5
121
330
20
100
AcDbEntity
  8
_0-0_LAYER001
  6
Continuous
 62
     1
100
AcDbLine
 10
1228.9498
 20
863.5201999999997
 30
0.0
 11
1249.116866666666
 21
843.3531333333334
 31
0.0
  0
LINE
  5
122
330
20
100
AcDbEntity
  8
_0-0_LAYER001
  6
Continuous
 62
     1
100
AcDbLine
 10
1233.8264
 20
865.7146666666665
 30
0.0
 11
1253.993466666666
 21
845.5476
 31
0.0
  0
LINE
  5
123
330
20
100
AcDbEntity
  8
_0-0_LAYER001
  6
Continuous
 62
     1
100
AcDbLine
 10
1238.703
 20
867.9091333333333
 30
0.0
 11
1258.870066666667
 21
847.7420666666667
 31
0.0
  0
LINE
  5
124
330
20
100
AcDbEntity
  8
_0-0_LAYER001
  6
Continuous
 62
     1
100
AcDbLine
 10
1243.5796
 20
870.1036
 30
0.0
 11
1263.746666666667
 21
849.9365333333331
 31
0.0
  0
LINE
  5
125
330
20
100
AcDbEntity
  8
_0-0_LAYER001
  6
Continuous
 62
     1
100
AcDbLine
 10
1248.4562
 20
872.2980666666668
 30
0.0
 11
1268.623266666667
 21
852.1309999999997
 31
0.0
  0
LINE
  5
126
330
20
100
AcDbEntity
  8
_0-0_LAYER001
  6
Continuous
 62
     1
100
AcDbLine
 10
1253.3328
 20
874.4925333333332
 30
0.0
 11
1273.499866666666
 21
854.3254666666665
 31
0.0
  0
LINE
  5
127
330
20
100
AcDbEntity
  8
_0-0_LAYER001
  6
Continuous
 62
     1
100
AcDbLine
 10
1258.2094
 20
876.687
 30
0.0
 11
1278.376466666667
 21
856.5199333333332
 31
0.0
  0
LINE
  5
128
330
20
100
AcDbEntity
  8
_0-0_LAYER001
  6
Continuous
 62
     1
100
AcDbLine
 10
1263.086
 20
878.8814666666667
 30
0.0
 11
1283.253066666667
 21
858.7144
 31
0.0
  0
LINE
  5
129
330
20
100
AcDbEntity
  8
_0-0_LAYER001
  6
Continuous
 62
     1
100
AcDbLine
 10
1267.9626
 20
881.076
 30
0.0
 11
1288.129666666667
 21
860.9088666666668
 31
0.0
  0
LINE
  5
12A
330
20
100
AcDbEntity
  8
_0-0_LAYER001
  6
Continuous
 62
     1
100
AcDbLine
 10
1272.8392
 20
883.2704666666666
 30
0.0
 11
1293.006266666666
 21
863.1033333333332
 31
0.0
  0
LINE
  5
12B
330
20
100
AcDbEntity
  8
_0-0_LAYER001
  6
Continuous
 62
     1
100
AcDbLine
 10
1277.7158
 20
885.4649333333332
 30
0.0
 11
1297.882866666667
 21
865.2977999999999
 31
0.0
  0
LINE
  5
12C
330
20
100
AcDbEntity
  8
_0-0_LAYER001
  6
Continuous
 62
     1
100
AcDbLine
 10
1282.5924
 20
887.6594
 30
0.0
 11
1302.759466666667
 21
867.4922666666665
 31
0.0
  0
LINE
  5
12D
330
20
100
AcDbEntity
  8
_0-0_LAYER001
  6
Continuous
 62
     1
100
AcDbLine
 10
1287.469
 20
889.8538666666667
 30
0.0
 11
1307.636066666667
 21
869.6867333333331
 31
0.0
  0
LINE
  5
12E
330
20
100
AcDbEntity
  8
_0-0_LAYER001
  6
Continuous
 62
     1
100
AcDbLine
 10
1292.3456
 20
892.0483333333333
 30
0.0
 11
1312.512666666666
 21
871.8811999999998
 31
0.0
  0
LINE
  5
12F
330
20
100
AcDbEntity
  8
_0-0_LAYER001
  6
Continuous
 62
     1
100
AcDbLine
 10
1297.2222
 20
894.2427999999999
 30
0.0
 11
1317.389266666667
 21
874.0756666666666
 31
0.0
  0
LINE
  5
130
330
20
100
AcDbEntity
  8
_0-0_LAYER001
  6
Continuous
 62
     1
100
AcDbLine
 10
1302.0988
 20
896.4372666666667
 30
0.0
 11
1322.265866666666
 21
876.2701333333334
 31
0.0
  0
LINE
  5
131
330
20
100
AcDbEntity
  8
_0-0_LAYER001
  6
Continuous
 62
     1
100
AcDbLine
 10
1306.9754
 20
898.6317333333332
 30
0.0
 11
1327.142466666666
 21
878.4645999999996
 31
0.0
  0
LINE
  5
132
330
20
100
AcDbEntity
  8
_0-0_LAYER001
  6
Continuous
 62
     1
100
AcDbLine
 10
1311.852
 20
900.8262
 30
0.0
 11
1332.019066666666
 21
880.6590666666666
 31
0.0
  0
LINE
  5
133
330
20
100
AcDbEntity
  8
_0-0_LAYER001
  6
Continuous
 62
     1
100
AcDbLine
 10
1316.7286
 20
903.0206666666664
 30
0.0
 11
1336.895666666667
 21
882.8535333333332
 31
0.0
  0
LINE
  5
134
330
20
100
AcDbEntity
  8
_0-0_LAYER001
  6
Continuous
 62
     1
100
AcDbLine
 10
1321.6052
 20
905.215133333333
 30
0.0
 11
1341.772266666666
 21
885.0480666666667
 31
0.0
  0
LINE
  5
135
330
20
100
AcDbEntity
  8
_0-0_LAYER001
  6
Continuous
 62
     1
100
AcDbLine
 10
1326.4818
 20
907.4095999999999
 30
0.0
 11
1346.648866666666
 21
887.2425333333334
 31
0.0
  0
LINE
  5
136
330
20
100
AcDbEntity
  8
_0-0_LAYER001
  6
Continuous
 62
     1
100
AcDbLine
 10
1331.3584
 20
909.6040666666665
 30
0.0
 11
1351.525466666666
 21
889.4370000000003
 31
0.0
  0
LINE
  5
137
330
20
100
AcDbEntity
  8
_0-0_LAYER001
  6
Continuous
 62
     1
100
AcDbLine
 10
1336.235
 20
911.7985333333333
 30
0.0
 11
1356.402066666667
 21
891.6314666666666
 31
0.0
  0
LINE
  5
138
330
20
100
AcDbEntity
  8
_0-0_LAYER001
  6
Continuous
 62
     1
100
AcDbLine
 10
1341.1116
 20
913.9930000000001
 30
0.0
 11
1361.278666666666
 21
893.8259333333332
 31
0.0
  0
LINE
  5
139
330
20
100
AcDbEntity
  8
_0-0_LAYER001
  6
Continuous
 62
     1
100
AcDbLine
 10
1345.9882
 20
916.1874666666664
 30
0.0
 11
1366.155266666666
 21
896.0204
 31
0.0
  0
LINE
  5
13A
330
20
100
AcDbEntity
  8
_0-0_LAYER001
  6
Continuous
 62
     1
100
AcDbLine
 10
1350.864799999999
 20
918.381933333333
 30
0.0
 11
1371.031866666666
 21
898.2148666666667
 31
0.0
  0
LINE
  5
13B
330
20
100
AcDbEntity
  8
_0-0_LAYER001
  6
Continuous
 62
     1
100
AcDbLine
 10
1355.7414
 20
920.5764
 30
0.0
 11
1375.908466666667
 21
900.4093333333331
 31
0.0
  0
LINE
  5
13C
330
20
100
AcDbEntity
  8
_0-0_LAYER001
  6
Continuous
 62
     1
100
AcDbLine
 10
1360.618
 20
922.7708666666668
 30
0.0
 11
1380.785066666667
 21
902.6037999999999
 31
0.0
  0
LINE
  5
13D
330
20
100
AcDbEntity
  8
_0-0_LAYER001
  6
Continuous
 62
     1
100
AcDbLine
 10
1365.4946
 20
924.9653333333332
 30
0.0
 11
1385.661666666667
 21
904.7982666666666
 31
0.0
  0
LINE
  5
13E
330
20
100
AcDbEntity
  8
_0-0_LAYER001
  6
Continuous
 62
     1
100
AcDbLine
 10
1370.3712
 20
927.1598
 30
0.0
 11
1390.538266666666
 21
906.9927333333332
 31
0.0
  0
LINE
  5
13F
330
20
100
AcDbEntity
  8
_0-0_LAYER001
  6
Continuous
 62
     1
100
AcDbLine
 10
1375.2478
 20
929.3542666666667
 30
0.0
 11
1395.414866666666
 21
909.1872
 31
0.0
  0
LINE
  5
140
330
20
100
AcDbEntity
  8
_0-0_LAYER001
  6
Continuous
 62
     1
100
AcDbLine
 10
1380.1244
 20
931.5487333333337
 30
0.0
 11
1400.291466666666
 21
911.3816666666664
 31
0.0
  0
LINE
  5
141
330
20
100
AcDbEntity
  8
_0-0_LAYER001
  6
Continuous
 62
     1
100
AcDbLine
 10
1385.001
 20
933.7431999999999
 30
0.0
 11
1405.168066666666
 21
913.5761333333332
 31
0.0
  0
LINE
  5
142
330
20
100
AcDbEntity
  8
_0-0_LAYER001
  6
Continuous
 62
     1
100
AcDbLine
 10
1389.8776
 20
935.9376666666667
 30
0.0
 11
1410.044666666667
 21
915.7705999999999
 31
0.0
  0
LINE
  5
143
330
20
100
AcDbEntity
  8
_0-0_LAYER001
  6
Continuous
 62
     1
100
AcDbLine
 10
1394.754133333333
 20
938.1321333333334
 30
0.0
 11
1414.921266666667
 21
917.9650666666663
 31
0.0
  0
LINE
  5
144
330
20
100
AcDbEntity
  8
_0-0_LAYER001
  6
Continuous
 62
     1
100
AcDbLine
 10
1399.630733333333
 20
940.3266
 30
0.0
 11
1419.797866666666
 21
920.1595333333331
 31
0.0
  0
LINE
  5
145
330
20
100
AcDbEntity
  8
_0-0_LAYER001
  6
Continuous
 62
     1
100
AcDbLine
 10
1404.507333333333
 20
942.5210666666666
 30
0.0
 11
1424.674466666666
 21
922.3539999999999
 31
0.0
  0
LINE
  5
146
330
20
100
AcDbEntity
  8
_0-0_LAYER001
  6
Continuous
 62
     1
100
AcDbLine
 10
1409.383933333333
 20
944.7155999999999
 30
0.0
 11
1429.551066666667
 21
924.5484666666666
 31
0.0
  0
LINE
  5
147
330
20
100
AcDbEntity
  8
_0-0_LAYER001
  6
Continuous
 62
     1
100
AcDbLine
 10
1414.260533333333
 20
946.9100666666667
 30
0.0
 11
1434.427666666667
 21
926.742933333333
 31
0.0
  0
LINE
  5
148
330
20
100
AcDbEntity
  8
_0-0_LAYER001
  6
Continuous
 62
     1
100
AcDbLine
 10
1419.137133333333
 20
949.1045333333332
 30
0.0
 11
1439.304266666667
 21
928.9374
 31
0.0
  0
LINE
  5
149
330
20
100
AcDbEntity
  8
_0-0_LAYER001
  6
Continuous
 62
     1
100
AcDbLine
 10
1424.013733333333
 20
951.299
 30
0.0
 11
1444.180866666667
 21
931.1318666666666
 31
0.0
  0
LINE
  5
14A
330
20
100
AcDbEntity
  8
_0-0_LAYER001
  6
Continuous
 62
     1
100
AcDbLine
 10
1428.890333333333
 20
953.4934666666664
 30
0.0
 11
1449.057466666667
 21
933.3263333333333
 31
0.0
  0
LINE
  5
14B
330
20
100
AcDbEntity
  8
_0-0_LAYER001
  6
Continuous
 62
     1
100
AcDbLine
 10
1433.766933333333
 20
955.6879333333332
 30
0.0
 11
1453.934066666667
 21
935.5208000000001
 31
0.0
  0
LINE
  5
14C
330
20
100
AcDbEntity
  8
_0-0_LAYER001
  6
Continuous
 62
     1
100
AcDbLine
 10
1438.643533333333
 20
957.8823999999999
 30
0.0
 11
1458.810666666667
 21
937.7152666666663
 31
0.0
  0
LINE
  5
14D
330
20
100
AcDbEntity
  8
_0-0_LAYER001
  6
Continuous
 62
     1
100
AcDbLine
 10
1443.520133333333
 20
960.0768666666665
 30
0.0
 11
1463.687266666667
 21
939.9097333333333
 31
0.0
  0
LINE
  5
14E
330
20
100
AcDbEntity
  8
_0-0_LAYER001
  6
Continuous
 62
     1
100
AcDbLine
 10
1448.396733333333
 20
962.2713333333333
 30
0.0
 11
1468.563866666667
 21
942.1041999999999
 31
0.0
  0
LINE
  5
14F
330
20
100
AcDbEntity
  8
_0-0_LAYER001
  6
Continuous
 62
     1
100
AcDbLine
 10
1453.273333333333
 20
964.4657999999999
 30
0.0
 11
1473.440466666666
 21
944.2986666666667
 31
0.0
  0
LINE
  5
150
330
20
100
AcDbEntity
  8
_0-0_LAYER001
  6
Continuous
 62
     1
100
AcDbLine
 10
1458.149933333333
 20
966.6602666666666
 30
0.0
 11
1478.317066666667
 21
946.4931333333332
 31
0.0
  0
LINE
  5
151
330
20
100
AcDbEntity
  8
_0-0_LAYER001
  6
Continuous
 62
     1
100
AcDbLine
 10
1463.026533333333
 20
968.854733333333
 30
0.0
 11
1483.193666666666
 21
948.6876666666667
 31
0.0
  0
LINE
  5
152
330
20
100
AcDbEntity
  8
_0-0_LAYER001
  6
Continuous
 62
     1
100
AcDbLine
 10
1467.903133333333
 20
971.0492
 30
0.0
 11
1488.070266666666
 21
950.8821333333333
 31
0.0
  0
LINE
  5
153
330
20
100
AcDbEntity
  8
_0-0_LAYER001
  6
Continuous
 62
     1
100
AcDbLine
 10
1472.779733333333
 20
973.2436666666668
 30
0.0
 11
1492.946866666667
 21
953.0765999999999
 31
0.0
  0
LINE
  5
154
330
20
100
AcDbEntity
  8
_0-0_LAYER001
  6
Continuous
 62
     1
100
AcDbLine
 10
1477.656333333333
 20
975.4381333333332
 30
0.0
 11
1497.823466666667
 21
955.2710666666666
 31
0.0
  0
LINE
  5
155
330
20
100
AcDbEntity
  8
_0-0_LAYER001
  6
Continuous
 62
     1
100
AcDbLine
 10
1482.532933333333
 20
977.6326
 30
0.0
 11
1502.700066666666
 21
957.4655333333332
 31
0.0
  0
LINE
  5
156
330
20
100
AcDbEntity
  8
_0-0_LAYER001
  6
Continuous
 62
     1
100
AcDbLine
 10
1487.409533333333
 20
979.8270666666667
 30
0.0
 11
1507.576666666667
 21
959.66
 31
0.0
  0
LINE
  5
157
330
20
100
AcDbEntity
  8
_0-0_LAYER001
  6
Continuous
 62
     1
100
AcDbLine
 10
1492.286133333333
 20
982.0215333333335
 30
0.0
 11
1512.453266666667
 21
961.8544666666664
 31
0.0
  0
LINE
  5
158
330
20
100
AcDbEntity
  8
_0-0_LAYER001
  6
Continuous
 62
     1
100
AcDbLine
 10
1497.162733333333
 20
984.2159999999999
 30
0.0
 11
1517.329866666667
 21
964.0489333333333
 31
0.0
  0
LINE
  5
159
330
20
100
AcDbEntity
  8
_0-0_LAYER001
  6
Continuous
 62
     1
100
AcDbLine
 10
1502.039333333333
 20
986.4104666666667
 30
0.0
 11
1522.2064
 21
966.2433999999999
 31
0.0
  0
LINE
  5
15A
330
20
100
AcDbEntity
  8
_0-0_LAYER001
  6
Continuous
 62
     1
100
AcDbLine
 10
1506.915933333333
 20
988.6049333333334
 30
0.0
 11
1527.083
 21
968.4378666666667
 31
0.0
  0
LINE
  5
15B
330
20
100
AcDbEntity
  8
_0-0_LAYER001
  6
Continuous
 62
     1
100
AcDbLine
 10
1511.792533333333
 20
990.7994
 30
0.0
 11
1531.9596
 21
970.6323333333331
 31
0.0
  0
LINE
  5
15C
330
20
100
AcDbEntity
  8
_0-0_LAYER001
  6
Continuous
 62
     1
100
AcDbLine
 10
1516.669133333333
 20
992.9938666666666
 30
0.0
 11
1536.8362
 21
972.8267999999999
 31
0.0
  0
LINE
  5
15D
330
20
100
AcDbEntity
  8
_0-0_LAYER001
  6
Continuous
 62
     1
100
AcDbLine
 10
1521.545733333333
 20
995.1883333333332
 30
0.0
 11
1541.7128
 21
975.0212666666666
 31
0.0
  0
LINE
  5
15E
330
20
100
AcDbEntity
  8
_0-0_LAYER001
  6
Continuous
 62
     1
100
AcDbLine
 10
1526.422333333333
 20
997.3828000000002
 30
0.0
 11
1546.5894
 21
977.215733333333
 31
0.0
  0
LINE
  5
15F
330
20
100
AcDbEntity
  8
_0-0_LAYER001
  6
Continuous
 62
     1
100
AcDbLine
 10
1531.298933333333
 20
999.5772666666665
 30
0.0
 11
1551.466
 21
979.4102
 31
0.0
  0
LINE
  5
160
330
20
100
AcDbEntity
  8
_0-0_LAYER001
  6
Continuous
 62
     1
100
AcDbLine
 10
1536.175533333334
 20
1001.771733333333
 30
0.0
 11
1556.3426
 21
981.6046666666666
 31
0.0
  0
LINE
  5
161
330
20
100
AcDbEntity
  8
_0-0_LAYER001
  6
Continuous
 62
     1
100
AcDbLine
 10
1541.052133333333
 20
1003.9662
 30
0.0
 11
1561.2192
 21
983.7991333333333
 31
0.0
  0
LINE
  5
162
330
20
100
AcDbEntity
  8
_0-0_LAYER001
  6
Continuous
 62
     1
100
AcDbLine
 10
1545.928733333333
 20
1006.160666666667
 30
0.0
 11
1566.0958
 21
985.9936000000001
 31
0.0
  0
LINE
  5
163
330
20
100
AcDbEntity
  8
_0-0_LAYER001
  6
Continuous
 62
     1
100
AcDbLine
 10
1550.805333333333
 20
1008.3552
 30
0.0
 11
1570.9724
 21
988.1880666666663
 31
0.0
  0
LINE
  5
164
330
20
100
AcDbEntity
  8
_0-0_LAYER001
  6
Continuous
 62
     1
100
AcDbLine
 10
1555.681933333333
 20
1010.549666666666
 30
0.0
 11
1575.848999999999
 21
990.3825333333333
 31
0.0
  0
LINE
  5
165
330
20
100
AcDbEntity
  8
_0-0_LAYER001
  6
Continuous
 62
     1
100
AcDbLine
 10
1560.558533333333
 20
1012.744133333333
 30
0.0
 11
1580.7256
 21
992.5769999999999
 31
0.0
  0
LINE
  5
166
330
20
100
AcDbEntity
  8
_0-0_LAYER001
  6
Continuous
 62
     1
100
AcDbLine
 10
1565.435133333333
 20
1014.9386
 30
0.0
 11
1585.602199999999
 21
994.7714666666668
 31
0.0
  0
LINE
  5
167
330
20
100
AcDbEntity
  8
_0-0_LAYER001
  6
Continuous
 62
     1
100
AcDbLine
 10
1570.311733333333
 20
1017.133066666667
 30
0.0
 11
1590.4788
 21
996.9659333333334
 31
0.0
  0
LINE
  5
168
330
20
100
AcDbEntity
  8
_0-0_LAYER001
  6
Continuous
 62
     1
100
AcDbLine
 10
1575.188333333333
 20
1019.327533333333
 30
0.0
 11
1595.3554
 21
999.1604
 31
0.0
  0
LINE
  5
169
330
20
100
AcDbEntity
  8
_0-0_LAYER001
  6
Continuous
 62
     1
100
AcDbLine
 10
1580.064933333333
 20
1021.522
 30
0.0
 11
1600.232
 21
1001.354866666666
 31
0.0
  0
LINE
  5
16A
330
20
100
AcDbEntity
  8
_0-0_LAYER001
  6
Continuous
 62
     1
100
AcDbLine
 10
1584.941533333333
 20
1023.716466666666
 30
0.0
 11
1605.1086
 21
1003.549333333333
 31
0.0
  0
LINE
  5
16B
330
20
100
AcDbEntity
  8
_0-0_LAYER001
  6
Continuous
 62
     1
100
AcDbLine
 10
1589.818133333333
 20
1025.910933333333
 30
0.0
 11
1609.9852
 21
1005.7438
 31
0.0
  0
LINE
  5
16C
330
20
100
AcDbEntity
  8
_0-0_LAYER001
  6
Continuous
 62
     1
100
AcDbLine
 10
1594.694733333333
 20
1028.1054
 30
0.0
 11
1614.8618
 21
1007.938266666666
 31
0.0
  0
LINE
  5
16D
330
20
100
AcDbEntity
  8
_0-0_LAYER001
  6
Continuous
 62
     1
100
AcDbLine
 10
1599.571333333333
 20
1030.299866666666
 30
0.0
 11
1619.7384
 21
1010.132733333333
 31
0.0
  0
LINE
  5
16E
330
20
100
AcDbEntity
  8
_0-0_LAYER001
  6
Continuous
 62
     1
100
AcDbLine
 10
1604.447933333333
 20
1032.494333333333
 30
0.0
 11
1624.615
 21
1012.327266666666
 31
0.0
  0
LINE
  5
16F
330
20
100
AcDbEntity
  8
_0-0_LAYER001
  6
Continuous
 62
     1
100
AcDbLine
 10
1609.324533333333
 20
1034.6888
 30
0.0
 11
1629.4916
 21
1014.521733333333
 31
0.0
  0
LINE
  5
170
330
20
100
AcDbEntity
  8
_0-0_LAYER001
  6
Continuous
 62
     1
100
AcDbLine
 10
1614.201133333333
 20
1036.883266666666
 30
0.0
 11
1634.3682
 21
1016.7162
 31
0.0
  0
LINE
  5
171
330
20
100
AcDbEntity
  8
_0-0_LAYER001
  6
Continuous
 62
     1
100
AcDbLine
 10
1619.077733333333
 20
1039.077733333333
 30
0.0
 11
1639.2448
 21
1018.910666666666
 31
0.0
  0
LINE
  5
172
330
20
100
AcDbEntity
  8
_0-0_LAYER001
  6
Continuous
 62
     1
100
AcDbLine
 10
1623.954333333333
 20
1041.2722
 30
0.0
 11
1644.1214
 21
1021.105133333333
 31
0.0
  0
LINE
  5
173
330
20
100
AcDbEntity
  8
_0-0_LAYER001
  6
Continuous
 62
     1
100
AcDbLine
 10
1628.830933333333
 20
1043.466666666666
 30
0.0
 11
1648.998
 21
1023.2996
 31
0.0
  0
LINE
  5
174
330
20
100
AcDbEntity
  8
_0-0_LAYER001
  6
Continuous
 62
     1
100
AcDbLine
 10
1633.707533333333
 20
1045.661133333333
 30
0.0
 11
1653.8746
 21
1025.494066666666
 31
0.0
  0
LINE
  5
175
330
20
100
AcDbEntity
  8
_0-0_LAYER001
  6
Continuous
 62
     1
100
AcDbLine
 10
1638.584133333333
 20
1047.8556
 30
0.0
 11
1658.7512
 21
1027.688533333333
 31
0.0
  0
LINE
  5
176
330
20
100
AcDbEntity
  8
_0-0_LAYER001
  6
Continuous
 62
     1
100
AcDbLine
 10
1643.460733333333
 20
1050.050066666667
 30
0.0
 11
1663.627799999999
 21
1029.883
 31
0.0
  0
LINE
  5
177
330
20
100
AcDbEntity
  8
_0-0_LAYER001
  6
Continuous
 62
     1
100
AcDbLine
 10
1648.337333333333
 20
1052.244533333333
 30
0.0
 11
1668.504400000001
 21
1032.077466666666
 31
0.0
  0
LINE
  5
178
330
20
100
AcDbEntity
  8
_0-0_LAYER001
  6
Continuous
 62
     1
100
AcDbLine
 10
1653.213933333333
 20
1054.439
 30
0.0
 11
1673.381
 21
1034.271933333333
 31
0.0
  0
LINE
  5
179
330
20
100
AcDbEntity
  8
_0-0_LAYER001
  6
Continuous
 62
     1
100
AcDbLine
 10
1658.090533333333
 20
1056.633466666666
 30
0.0
 11
1678.2576
 21
1036.4664
 31
0.0
  0
LINE
  5
17A
330
20
100
AcDbEntity
  8
_0-0_LAYER001
  6
Continuous
 62
     1
100
AcDbLine
 10
1662.967133333333
 20
1058.827933333333
 30
0.0
 11
1683.1342
 21
1038.660866666666
 31
0.0
  0
LINE
  5
17B
330
20
100
AcDbEntity
  8
_0-0_LAYER001
  6
Continuous
 62
     1
100
AcDbLine
 10
1667.843733333333
 20
1061.022399999999
 30
0.0
 11
1688.0108
 21
1040.855333333333
 31
0.0
  0
LINE
  5
17C
330
20
100
AcDbEntity
  8
_0-0_LAYER001
  6
Continuous
 62
     1
100
AcDbLine
 10
1672.720333333333
 20
1063.216866666667
 30
0.0
 11
1692.8874
 21
1043.0498
 31
0.0
  0
LINE
  5
17D
330
20
100
AcDbEntity
  8
_0-0_LAYER001
  6
Continuous
 62
     1
100
AcDbLine
 10
1677.596866666667
 20
1065.411333333333
 30
0.0
 11
1697.764
 21
1045.244266666666
 31
0.0
  0
LINE
  5
17E
330
20
100
AcDbEntity
  8
_0-0_LAYER001
  6
Continuous
 62
     1
100
AcDbLine
 10
1682.473466666666
 20
1067.605799999999
 30
0.0
 11
1702.6406
 21
1047.438733333333
 31
0.0
  0
LINE
  5
17F
330
20
100
AcDbEntity
  8
_0-0_LAYER001
  6
Continuous
 62
     1
100
AcDbLine
 10
1687.350066666666
 20
1069.800266666666
 30
0.0
 11
1707.5172
 21
1049.6332
 31
0.0
  0
LINE
  5
180
330
20
100
AcDbEntity
  8
_0-0_LAYER001
  6
Continuous
 62
     1
100
AcDbLine
 10
1692.226666666667
 20
1071.9948
 30
0.0
 11
1712.3938
 21
1051.827666666666
 31
0.0
  0
LINE
  5
181
330
20
100
AcDbEntity
  8
_0-0_LAYER001
  6
Continuous
 62
     1
100
AcDbLine
 10
1697.103266666667
 20
1074.189266666667
 30
0.0
 11
1717.2704
 21
1054.022133333333
 31
0.0
  0
LINE
  5
182
330
20
100
AcDbEntity
  8
_0-0_LAYER001
  6
Continuous
 62
     1
100
AcDbLine
 10
1701.979866666667
 20
1076.383733333333
 30
0.0
 11
1722.147
 21
1056.2166
 31
0.0
  0
LINE
  5
183
330
20
100
AcDbEntity
  8
_0-0_LAYER001
  6
Continuous
 62
     1
100
AcDbLine
 10
1706.856466666667
 20
1078.5782
 30
0.0
 11
1727.0236
 21
1058.411066666667
 31
0.0
  0
LINE
  5
184
330
20
100
AcDbEntity
  8
_0-0_LAYER001
  6
Continuous
 62
     1
100
AcDbLine
 10
1711.733066666667
 20
1080.772666666667
 30
0.0
 11
1731.9002
 21
1060.605533333333
 31
0.0
  0
LINE
  5
185
330
20
100
AcDbEntity
  8
_0-0_LAYER001
  6
Continuous
 62
     1
100
AcDbLine
 10
1716.609666666667
 20
1082.967133333333
 30
0.0
 11
1736.7768
 21
1062.8
 31
0.0
  0
LINE
  5
186
330
20
100
AcDbEntity
  8
_0-0_LAYER001
  6
Continuous
 62
     1
100
AcDbLine
 10
1721.486266666667
 20
1085.1616
 30
0.0
 11
1741.6534
 21
1064.994466666667
 31
0.0
  0
LINE
  5
187
330
20
100
AcDbEntity
  8
_0-0_LAYER001
  6
Continuous
 62
     1
100
AcDbLine
 10
1726.362866666667
 20
1087.356066666667
 30
0.0
 11
1746.53
 21
1067.188933333333
 31
0.0
  0
LINE
  5
188
330
20
100
AcDbEntity
  8
_0-0_LAYER001
  6
Continuous
 62
     1
100
AcDbLine
 10
1731.239466666666
 20
1089.550533333333
 30
0.0
 11
1751.4066
 21
1069.3834
 31
0.0
  0
LINE
  5
189
330
20
100
AcDbEntity
  8
_0-0_LAYER001
  6
Continuous
 62
     1
100
AcDbLine
 10
1736.116066666667
 20
1091.745
 30
0.0
 11
1756.2832
 21
1071.577866666665
 31
0.0
  0
LINE
  5
18A
330
20
100
AcDbEntity
  8
_0-0_LAYER001
  6
Continuous
 62
     1
100
AcDbLine
 10
1740.992666666667
 20
1093.939466666666
 30
0.0
 11
1761.1598
 21
1073.772333333333
 31
0.0
  0
LINE
  5
18B
330
20
100
AcDbEntity
  8
_0-0_LAYER001
  6
Continuous
 62
     1
100
AcDbLine
 10
1745.869266666667
 20
1096.133933333333
 30
0.0
 11
1766.0364
 21
1075.966866666666
 31
0.0
  0
LINE
  5
18C
330
20
100
AcDbEntity
  8
_0-0_LAYER001
  6
Continuous
 62
     1
100
AcDbLine
 10
1750.745866666667
 20
1098.3284
 30
0.0
 11
1768.428533333333
 21
1080.645733333333
 31
0.0
  0
LINE
  5
18D
330
20
100
AcDbEntity
  8
_0-0_LAYER001
  6
Continuous
 62
     1
100
AcDbLine
 10
1755.622466666667
 20
1100.522866666667
 30
0.0
 11
1768.428533333333
 21
1087.7168
 31
0.0
  0
LINE
  5
18E
330
20
100
AcDbEntity
  8
_0-0_LAYER001
  6
Continuous
 62
     1
100
AcDbLine
 10
1760.499066666666
 20
1102.3064
 30
0.0
 11
1768.428533333333
 21
1094.376933333333
 31
0.0
  0
LINE
  5
18F
330
20
100
AcDbEntity
  8
_0-0_LAYER001
  6
Continuous
 62
     1
100
AcDbLine
 10
1765.375666666667
 20
1104.500866666667
 30
0.0
 11
1768.428533333333
 21
1101.448
 31
0.0
  0
LINE
  5
190
330
20
100
AcDbEntity
  8
_0-0_LAYER001
  6
DASHED3
 62
     2
100
AcDbLine
 10
1147.636466666667
 20
828.0258000000001
 30
0.0
 11
1767.428533333333
 21
1106.9322
 31
0.0
  0
LINE
  5
191
330
20
100
AcDbEntity
  8
_0-0_LAYER001
  6
DASHED3
 62
     2
100
AcDbLine
 10
1767.428533333333
 20
1225.1178
 30
0.0
 11
1767.428533333333
 21
1106.9322
 31
0.0
  0
LINE
  5
192
330
20
100
AcDbEntity
  8
_0-0_LAYER001
  6
Continuous
 62
     2
100
AcDbLine
 10
1768.428533333333
 20
1247.715466666666
 30
0.0
 11
1768.428533333333
 21
1077.043333333333
 31
0.0
  0
LINE
  5
193
330
20
100
AcDbEntity
  8
_0-0_LAYER001
  6
Continuous
 62
     2
100
AcDbLine
 10
1755.0952
 20
1247.715466666666
 30
0.0
 11
1768.428533333333
 21
1247.715466666666
 31
0.0
  0
LINE
  5
194
330
20
100
AcDbEntity
  8
_0-0_LAYER001
  6
Continuous
 62
     2
100
AcDbLine
 10
1879.1056
 20
1106.9322
 30
0.0
 11
1844.1056
 21
1106.9322
 31
0.0
  0
CIRCLE
  5
195
330
20
100
AcDbEntity
  8
_0-0_LAYER001
  6
Continuous
 62
     2
100
AcDbCircle
 10
1877.438933333333
 20
1106.9322
 30
0.0
 40
1.133333333333333
  0
LINE
  5
196
330
20
100
AcDbEntity
  8
_0-0_LAYER001
  6
Continuous
 62
     2
100
AcDbLine
 10
1877.438933333333
 20
1106.9322
 30
0.0
 11
1877.438933333333
 21
1240.265533333333
 31
0.0
  0
CIRCLE
  5
197
330
20
100
AcDbEntity
  8
_0-0_LAYER001
  6
Continuous
 62
     2
100
AcDbCircle
 10
1877.438933333333
 20
1240.265533333333
 30
0.0
 40
1.133333333333333
  0
LINE
  5
198
330
20
100
AcDbEntity
  8
_0-0_LAYER001
  6
Continuous
 62
     2
100
AcDbLine
 10
1879.1056
 20
1240.265533333333
 30
0.0
 11
1844.1056
 21
1240.265533333333
 31
0.0
  0
LINE
  5
199
330
20
100
AcDbEntity
  8
_0-0_LAYER001
  6
Continuous
 62
     2
100
AcDbLine
 10
1716.1212
 20
1142.882333333333
 30
0.0
 11
1714.827066666667
 21
1147.712
 31
0.0
  0
LINE
  5
19A
330
20
100
AcDbEntity
  8
_0-0_LAYER001
  6
Continuous
 62
     2
100
AcDbLine
 10
1714.827066666667
 20
1147.712
 30
0.0
 11
1718.3626
 21
1144.176466666666
 31
0.0
  0
LINE
  5
19B
330
20
100
AcDbEntity
  8
_0-0_LAYER001
  6
Continuous
 62
     2
100
AcDbLine
 10
1714.827066666667
 20
1147.712
 30
0.0
 11
1775.5942
 21
1042.460266666666
 31
0.0
  0
LINE
  5
19C
330
20
100
AcDbEntity
  8
_0-0_LAYER001
  6
Continuous
 62
     2
100
AcDbLine
 10
1775.5942
 20
1042.460266666666
 30
0.0
 11
1840.5942
 21
1042.460266666666
 31
0.0
  0
LINE
  5
19D
330
20
100
AcDbEntity
  8
_0-0_LAYER001
  6
Continuous
 62
     2
100
AcDbLine
 10
1078.5954
 20
975.6199999999999
 30
0.0
 11
1141.0018
 21
1003.7028
 31
0.0
  0
CIRCLE
  5
19E
330
20
100
AcDbEntity
  8
_0-0_LAYER001
  6
Continuous
 62
     2
100
AcDbCircle
 10
1141.0018
 20
1003.7028
 30
0.0
 40
1.133333333333333
  0
LINE
  5
19F
330
20
100
AcDbEntity
  8
_0-0_LAYER001
  6
Continuous
 62
     2
100
AcDbLine
 10
1140.317866666666
 20
1005.222666666667
 30
0.0
 11
1154.6806
 21
973.3053999999999
 31
0.0
  0
LINE
  5
1A0
330
20
100
AcDbEntity
  8
_0-0_LAYER001
  6
Continuous
 62
     2
100
AcDbLine
 10
1134.846333333333
 20
1017.381666666667
 30
0.0
 11
1149.209066666667
 21
985.4644
 31
0.0
  0
CIRCLE
  5
1A1
330
20
100
AcDbEntity
  8
_0-0_LAYER001
  6
Continuous
 62
     2
100
AcDbCircle
 10
1135.530266666666
 20
1015.8618
 30
0.0
 40
1.133333333333333
  0
LINE
  5
1A2
330
20
100
AcDbEntity
  8
_0-0_LAYER001
  6
Continuous
 62
     2
100
AcDbLine
 10
1135.530266666666
 20
1015.8618
 30
0.0
 11
1305.755666666666
 21
1092.463
 31
0.0
  0
LINE
  5
1A3
330
20
100
AcDbEntity
  8
_0-0_LAYER001
  6
Continuous
 62
     2
100
AcDbLine
 10
1465.038066666666
 20
1193.3822
 30
0.0
 11
1635.263466666667
 21
1269.983466666667
 31
0.0
  0
CIRCLE
  5
1A4
330
20
100
AcDbEntity
  8
_0-0_LAYER001
  6
Continuous
 62
     2
100
AcDbCircle
 10
1635.263466666667
 20
1269.983466666667
 30
0.0
 40
1.133333333333333
  0
LINE
  5
1A5
330
20
100
AcDbEntity
  8
_0-0_LAYER001
  6
Continuous
 62
     2
100
AcDbLine
 10
1634.579533333333
 20
1271.503333333333
 30
0.0
 11
1648.942266666667
 21
1239.586066666667
 31
0.0
  0
LINE
  5
1A6
330
20
100
AcDbEntity
  8
_0-0_LAYER001
  6
Continuous
 62
     2
100
AcDbLine
 10
1692.9288
 20
1131.730333333333
 30
0.0
 11
1694.222866666666
 21
1126.900666666666
 31
0.0
  0
LINE
  5
1A7
330
20
100
AcDbEntity
  8
_0-0_LAYER001
  6
Continuous
 62
     2
100
AcDbLine
 10
1694.222866666666
 20
1126.900666666666
 30
0.0
 11
1690.687333333333
 21
1130.4362
 31
0.0
  0
LINE
  5
1A8
330
20
100
AcDbEntity
  8
_0-0_LAYER001
  6
Continuous
 62
     2
100
AcDbLine
 10
1694.222866666666
 20
1126.900666666666
 30
0.0
 11
1650.232733333333
 21
1203.093866666666
 31
0.0
  0
LINE
  5
1A9
330
20
100
AcDbEntity
  8
_0-0_LAYER001
  6
Continuous
 62
     2
100
AcDbLine
 10
1650.232733333333
 20
1203.093866666666
 30
0.0
 11
1618.232733333333
 21
1203.093866666666
 31
0.0
  0
LINE
  5
1AA
330
20
100
AcDbEntity
  8
_0-0_LAYER001
  6
Continuous
 62
     2
100
AcDbLine
 10
1755.063466666667
 20
1247.5452
 30
0.0
 11
1756.357533333333
 21
1242.715533333333
 31
0.0
  0
LINE
  5
1AB
330
20
100
AcDbEntity
  8
_0-0_LAYER001
  6
Continuous
 62
     2
100
AcDbLine
 10
1756.357533333333
 20
1242.715533333333
 30
0.0
 11
1752.822
 21
1246.251066666667
 31
0.0
  0
LINE
  5
1AC
330
20
100
AcDbEntity
  8
_0-0_LAYER001
  6
Continuous
 62
     2
100
AcDbLine
 10
1756.357533333333
 20
1242.715533333333
 30
0.0
 11
1708.661066666666
 21
1325.3282
 31
0.0
  0
LINE
  5
1AD
330
20
100
AcDbEntity
  8
_0-0_LAYER001
  6
Continuous
 62
     2
100
AcDbLine
 10
1708.661066666666
 20
1325.3282
 30
0.0
 11
1654.661066666666
 21
1325.3282
 31
0.0
  0
CIRCLE
  5
1AE
330
20
100
AcDbEntity
  8
_0-1_LAYER004
  6
Continuous
 62
     3
100
AcDbCircle
 10
1744.4594
 20
1077.307333333333
 30
0.0
 40
0.8699479999999999
  0
LINE
  5
1AF
330
20
100
AcDbEntity
  8
_0-1_LAYER004
  6
DASHED1
 62
     2
100
AcDbLine
 10
1202.157066666666
 20
779.9593999999999
 30
0.0
 11
1199.475
 21
786.0627999999997
 31
0.0
  0
LINE
  5
1B0
330
20
100
AcDbEntity
  8
_0-1_LAYER004
  6
DASHED1
 62
     2
100
AcDbLine
 10
1169.416133333333
 20
821.3723333333334
 30
0.0
 11
1187.285933333333
 21
780.7065333333333
 31
0.0
  0
LINE
  5
1B1
330
20
100
AcDbEntity
  8
_0-1_LAYER004
  6
DASHED1
 62
     2
100
AcDbLine
 10
1163.3128
 20
818.6902666666666
 30
0.0
 11
1183.864533333333
 21
771.9211333333332
 31
0.0
  0
LINE
  5
1B2
330
20
100
AcDbEntity
  8
_0-1_LAYER004
  6
DASHED1
 62
     2
100
AcDbLine
 10
1187.285933333333
 20
780.7065333333333
 30
0.0
 11
1199.475
 21
786.0627999999997
 31
0.0
  0
LINE
  5
1B3
330
20
100
AcDbEntity
  8
_0-1_LAYER004
  6
DASHED1
 62
     2
100
AcDbLine
 10
1183.864533333333
 20
771.9211333333332
 30
0.0
 11
1202.157066666666
 21
779.9593999999999
 31
0.0
  0
LINE
  5
1B4
330
20
100
AcDbEntity
  8
_0-1_LAYER004
  6
Continuous
 62
     3
100
AcDbLine
 10
1155.158266666667
 20
811.3106
 30
0.0
 11
1747.9532
 21
1078.0686
 31
0.0
  0
CIRCLE
  5
1B5
330
20
100
AcDbEntity
  8
_0-1_LAYER004
  6
Continuous
 62
     3
100
AcDbCircle
 10
1197.3066
 20
831.0883333333331
 30
0.0
 40
0.8699479999999999
  0
CIRCLE
  5
1B6
330
20
100
AcDbEntity
  8
_0-1_LAYER004
  6
Continuous
 62
     3
100
AcDbCircle
 10
1288.498733333333
 20
872.1248
 30
0.0
 40
0.8699479999999999
  0
CIRCLE
  5
1B7
330
20
100
AcDbEntity
  8
_0-1_LAYER004
  6
Continuous
 62
     3
100
AcDbCircle
 10
1379.690866666667
 20
913.1613333333332
 30
0.0
 40
0.8699479999999999
  0
CIRCLE
  5
1B8
330
20
100
AcDbEntity
  8
_0-1_LAYER004
  6
Continuous
 62
     3
100
AcDbCircle
 10
1470.883
 20
954.1978
 30
0.0
 40
0.8699479999999999
  0
CIRCLE
  5
1B9
330
20
100
AcDbEntity
  8
_0-1_LAYER004
  6
Continuous
 62
     3
100
AcDbCircle
 10
1562.075133333333
 20
995.2343333333333
 30
0.0
 40
0.8699479999999999
  0
CIRCLE
  5
1BA
330
20
100
AcDbEntity
  8
_0-1_LAYER004
  6
Continuous
 62
     3
100
AcDbCircle
 10
1653.267266666667
 20
1036.270866666667
 30
0.0
 40
0.8699479999999999
  0
LINE
  5
1BB
330
20
100
AcDbEntity
  8
_0-1_LAYER004
  6
DASHED1
 62
     2
100
AcDbLine
 10
1566.9398
 20
944.1118000000001
 30
0.0
 11
1564.2578
 21
950.2152
 31
0.0
  0
LINE
  5
1BC
330
20
100
AcDbEntity
  8
_0-1_LAYER004
  6
DASHED1
 62
     2
100
AcDbLine
 10
1534.198866666666
 20
985.5247333333334
 30
0.0
 11
1552.068666666666
 21
944.8589333333332
 31
0.0
  0
LINE
  5
1BD
330
20
100
AcDbEntity
  8
_0-1_LAYER004
  6
DASHED1
 62
     2
100
AcDbLine
 10
1528.095533333333
 20
982.8427333333333
 30
0.0
 11
1548.647266666666
 21
936.073533333333
 31
0.0
  0
LINE
  5
1BE
330
20
100
AcDbEntity
  8
_0-1_LAYER004
  6
DASHED1
 62
     2
100
AcDbLine
 10
1552.068666666666
 20
944.8589333333332
 30
0.0
 11
1564.2578
 21
950.2152
 31
0.0
  0
LINE
  5
1BF
330
20
100
AcDbEntity
  8
_0-1_LAYER004
  6
DASHED1
 62
     2
100
AcDbLine
 10
1548.647266666666
 20
936.073533333333
 30
0.0
 11
1566.9398
 21
944.1118000000001
 31
0.0
  0
LINE
  5
1C0
330
20
100
AcDbEntity
  8
_0-1_LAYER004
  6
DASHED1
 62
     2
100
AcDbLine
 10
1534.198866666666
 20
985.5247333333334
 30
0.0
 11
1528.095533333333
 21
982.8427333333333
 31
0.0
  0
LINE
  5
1C1
330
20
100
AcDbEntity
  8
_0-1_LAYER004
  6
DASHED1
 62
     2
100
AcDbLine
 10
1169.416133333333
 20
821.3723333333334
 30
0.0
 11
1163.3128
 21
818.6902666666666
 31
0.0
  0
LINE
  5
1C2
330
20
100
AcDbEntity
  8
_0-1_LAYER004
  6
Continuous
 62
     2
100
AcDbLine
 10
1542.995666666667
 20
944.9856666666663
 30
0.0
 11
1546.5312
 21
948.5212
 31
0.0
  0
LINE
  5
1C3
330
20
100
AcDbEntity
  8
_0-1_LAYER004
  6
Continuous
 62
     2
100
AcDbLine
 10
1546.5312
 20
948.5212
 30
0.0
 11
1545.237066666667
 21
943.6916
 31
0.0
  0
LINE
  5
1C4
330
20
100
AcDbEntity
  8
_0-1_LAYER004
  6
Continuous
 62
     2
100
AcDbLine
 10
1546.5312
 20
948.5212
 30
0.0
 11
1532.172466666666
 21
923.6511333333332
 31
0.0
  0
LINE
  5
1C5
330
20
100
AcDbEntity
  8
_0-1_LAYER004
  6
Continuous
 62
     2
100
AcDbLine
 10
1532.172466666666
 20
923.6511333333332
 30
0.0
 11
1492.172466666666
 21
923.6511333333332
 31
0.0
  0
LINE
  5
1C6
330
20
100
AcDbEntity
  8
_0-1_LAYER004
  6
Continuous
 62
     2
100
AcDbLine
 10
1591.2012
 20
1002.118133333333
 30
0.0
 11
1589.907066666667
 21
1006.947733333333
 31
0.0
  0
LINE
  5
1C7
330
20
100
AcDbEntity
  8
_0-1_LAYER004
  6
Continuous
 62
     2
100
AcDbLine
 10
1589.907066666667
 20
1006.947733333333
 30
0.0
 11
1593.4426
 21
1003.4122
 31
0.0
  0
LINE
  5
1C8
330
20
100
AcDbEntity
  8
_0-1_LAYER004
  6
Continuous
 62
     2
100
AcDbLine
 10
1589.907066666667
 20
1006.947733333333
 30
0.0
 11
1607.829
 21
975.9061333333333
 31
0.0
  0
LINE
  5
1C9
330
20
100
AcDbEntity
  8
_0-1_LAYER004
  6
Continuous
 62
     2
100
AcDbLine
 10
1607.829
 20
975.9061333333333
 30
0.0
 11
1647.829
 21
975.9061333333333
 31
0.0
  0
LINE
  5
1CA
330
20
100
AcDbEntity
  8
_0-0_LAYER001
  6
Continuous
 62
     2
100
AcDbLine
 10
1461.2266
 20
725.3788533333334
 30
0.0
 11
1630.003866666666
 21
725.3788533333334
 31
0.0
  0
LINE
  5
1CB
330
20
100
AcDbEntity
  8
_0-0_LAYER001
  6
Continuous
 62
     2
100
AcDbLine
 10
1455.417533333333
 20
745.4424000000001
 30
0.0
 11
1618.663733333333
 21
745.4424000000001
 31
0.0
  0
LINE
  5
1CC
330
20
100
AcDbEntity
  8
_0-0_LAYER001
  6
Continuous
 62
     2
100
AcDbLine
 10
1402.317066666667
 20
940.2319999999999
 30
0.0
 11
1402.317066666667
 21
945.232
 31
0.0
  0
LINE
  5
1CD
330
20
100
AcDbEntity
  8
_0-0_LAYER001
  6
Continuous
 62
     2
100
AcDbLine
 10
1402.317066666667
 20
945.232
 30
0.0
 11
1404.817066666667
 21
940.9018666666666
 31
0.0
  0
LINE
  5
1CE
330
20
100
AcDbEntity
  8
_0-0_LAYER001
  6
Continuous
 62
     2
100
AcDbLine
 10
1402.317066666667
 20
945.232
 30
0.0
 11
1461.2266
 21
725.3788533333334
 31
0.0
  0
LINE
  5
1CF
330
20
100
AcDbEntity
  8
_0-0_LAYER001
  6
Continuous
 62
     2
100
AcDbLine
 10
1450.495
 20
765.4296666666665
 30
0.0
 11
1587.043466666666
 21
765.4296666666665
 31
0.0
  0
LINE
  5
1D0
330
20
100
AcDbEntity
  8
_0-2_ADD_LINE
  6
Continuous
 62
    18
100
AcDbLine
 10
1078.5954
 20
975.6199999999999
 30
0.0
 11
1141.0018
 21
1003.7028
 31
0.0
  0
LINE
  5
1D1
330
20
100
AcDbEntity
  8
_0-2_ADD_LINE
  6
Continuous
 62
    18
100
AcDbLine
 10
1141.0018
 20
1003.7028
 30
0.0
 11
1154.6806
 21
973.3053999999999
 31
0.0
  0
LINE
  5
1D2
330
20
100
AcDbEntity
  8
_0-2_ADD_LINE
  6
Continuous
 62
    18
100
AcDbLine
 10
1141.0018
 20
1003.7028
 30
0.0
 11
1135.530266666666
 21
1015.8618
 31
0.0
  0
LINE
  5
1D3
330
20
100
AcDbEntity
  8
_0-2_ADD_LINE
  6
Continuous
 62
    18
100
AcDbLine
 10
1135.530266666666
 20
1015.8618
 30
0.0
 11
1305.755666666666
 21
1092.463
 31
0.0
  0
LINE
  5
1D4
330
20
100
AcDbEntity
  8
_0-2_ADD_LINE
  6
Continuous
 62
    18
100
AcDbLine
 10
1466.071578076967
 20
1193.847279142968
 30
0.0
 11
1635.263466666667
 21
1269.983466666667
 31
0.0
  0
LINE
  5
1D5
330
20
100
AcDbEntity
  8
_0-2_ADD_LINE
  6
Continuous
 62
    18
100
AcDbLine
 10
1635.263466666667
 20
1269.983466666667
 30
0.0
 11
1648.942266666667
 21
1239.586066666667
 31
0.0
  0
LINE
  5
1D6
330
20
100
AcDbEntity
  8
_0-2_ADD_LINE
  6
Continuous
 62
    18
100
AcDbLine
 10
1502.178866666667
 20
1297.4608
 30
0.0
 11
1658.178866666666
 21
1297.4608
 31
0.0
  0
LINE
  5
1D7
330
20
100
AcDbEntity
  8
_0-2_ADD_LINE
  6
Continuous
 62
    18
100
AcDbLine
 10
1658.178866666666
 20
1297.4608
 30
0.0
 11
1735.482
 21
1163.5678
 31
0.0
  0
LINE
  5
1D8
330
20
100
AcDbEntity
  8
_0-2_ADD_LINE
  6
Continuous
 62
    18
100
AcDbLine
 10
1735.482
 20
1163.5678
 30
0.0
 11
1734.187933333333
 21
1168.3974
 31
0.0
  0
LINE
  5
1D9
330
20
100
AcDbEntity
  8
_0-2_ADD_LINE
  6
Continuous
 62
    18
100
AcDbLine
 10
1734.187933333333
 20
1168.3974
 30
0.0
 11
1735.482
 21
1163.5678
 31
0.0
  0
LINE
  5
1DA
330
20
100
AcDbEntity
  8
_0-2_ADD_LINE
  6
Continuous
 62
    18
100
AcDbLine
 10
1735.482
 20
1163.5678
 30
0.0
 11
1731.946466666667
 21
1167.103333333333
 31
0.0
  0
LINE
  5
1DB
330
20
100
AcDbEntity
  8
_0-2_ADD_LINE
  6
Continuous
 62
    18
100
AcDbLine
 10
1695.0952
 20
1185.968133333333
 30
0.0
 11
1695.0952
 21
1204.301466666666
 31
0.0
  0
LINE
  5
1DC
330
20
100
AcDbEntity
  8
_0-2_ADD_LINE
  6
Continuous
 62
    18
100
AcDbLine
 10
1695.0952
 20
1202.6348
 30
0.0
 11
1755.0952
 21
1202.6348
 31
0.0
  0
LINE
  5
1DD
330
20
100
AcDbEntity
  8
_0-2_ADD_LINE
  6
Continuous
 62
    18
100
AcDbLine
 10
1755.0952
 20
1167.5306
 30
0.0
 11
1695.0952
 21
1151.547333333333
 31
0.0
  0
LINE
  5
1DE
330
20
100
AcDbEntity
  8
_0-2_ADD_LINE
  6
Continuous
 62
    18
100
AcDbLine
 10
1695.0952
 20
1151.547333333333
 30
0.0
 11
1695.0952
 21
1141.1498
 31
0.0
  0
LINE
  5
1DF
330
20
100
AcDbEntity
  8
_0-2_ADD_LINE
  6
Continuous
 62
    18
100
AcDbLine
 10
1695.0952
 20
1141.1498
 30
0.0
 11
1695.0952
 21
1141.531
 31
0.0
  0
LINE
  5
1E0
330
20
100
AcDbEntity
  8
_0-2_ADD_LINE
  6
Continuous
 62
    18
100
AcDbLine
 10
1695.0952
 20
1141.1498
 30
0.0
 11
1697.985933333333
 21
1146.276266666666
 31
0.0
  0
LINE
  5
1E1
330
20
100
AcDbEntity
  8
_0-2_ADD_LINE
  6
Continuous
 62
    18
100
AcDbLine
 10
1707.642666666666
 20
1154.889866666666
 30
0.0
 11
1710.216533333333
 21
1145.226933333333
 31
0.0
  0
LINE
  5
1E2
330
20
100
AcDbEntity
  8
_0-2_ADD_LINE
  6
Continuous
 62
    18
100
AcDbLine
 10
1717.305671523494
 20
1157.463931485874
 30
0.0
 11
1719.792404909543
 21
1148.128215238586
 31
0.0
  0
LINE
  5
1E3
330
20
100
AcDbEntity
  8
_0-2_ADD_LINE
  6
Continuous
 62
    18
100
AcDbLine
 10
1714.827066666667
 20
1147.712
 30
0.0
 11
1718.3626
 21
1144.176466666666
 31
0.0
  0
LINE
  5
1E4
330
20
100
AcDbEntity
  8
_0-2_ADD_LINE
  6
Continuous
 62
    18
100
AcDbLine
 10
1714.827066666667
 20
1147.712
 30
0.0
 11
1716.1212
 21
1142.882333333333
 31
0.0
  0
LINE
  5
1E5
330
20
100
AcDbEntity
  8
_0-2_ADD_LINE
  6
Continuous
 62
    18
100
AcDbLine
 10
1714.827066666667
 20
1147.712
 30
0.0
 11
1775.5942
 21
1042.460266666666
 31
0.0
  0
LINE
  5
1E6
330
20
100
AcDbEntity
  8
_0-2_ADD_LINE
  6
Continuous
 62
    18
100
AcDbLine
 10
1775.5942
 20
1042.460266666666
 30
0.0
 11
1840.5942
 21
1042.460266666666
 31
0.0
  0
LINE
  5
1E7
330
20
100
AcDbEntity
  8
_0-2_ADD_LINE
  6
Continuous
 62
    18
100
AcDbLine
 10
1768.428533333333
 20
1077.043333333333
 30
0.0
 11
1768.428533333333
 21
1388.019733333333
 31
0.0
  0
LINE
  5
1E8
330
20
100
AcDbEntity
  8
_0-2_ADD_LINE
  6
Continuous
 62
    18
100
AcDbLine
 10
1755.0952
 20
1388.396133333333
 30
0.0
 11
1755.0952
 21
1167.5306
 31
0.0
  0
LINE
  5
1E9
330
20
100
AcDbEntity
  8
_0-2_ADD_LINE
  6
Continuous
 62
    18
100
AcDbLine
 10
1767.428533333333
 20
1106.9322
 30
0.0
 11
1767.428533333333
 21
1225.1178
 31
0.0
  0
LINE
  5
1EA
330
20
100
AcDbEntity
  8
_0-2_ADD_LINE
  6
Continuous
 62
    18
100
AcDbLine
 10
1767.428533333333
 20
1225.1178
 30
0.0
 11
1767.428533333333
 21
1106.9322
 31
0.0
  0
LINE
  5
1EB
330
20
100
AcDbEntity
  8
_0-2_ADD_LINE
  6
Continuous
 62
    18
100
AcDbLine
 10
1767.428533333333
 20
1106.9322
 30
0.0
 11
1147.636466666667
 21
828.0258000000001
 31
0.0
  0
LINE
  5
1EC
330
20
100
AcDbEntity
  8
_0-2_ADD_LINE
  6
Continuous
 62
    18
100
AcDbLine
 10
1148.0468
 20
827.1138666666669
 30
0.0
 11
1768.428533333333
 21
1106.2856
 31
0.0
  0
LINE
  5
1ED
330
20
100
AcDbEntity
  8
_0-2_ADD_LINE
  6
Continuous
 62
    18
100
AcDbLine
 10
1752.4324
 20
1101.280533333333
 30
0.0
 11
1748.566466666667
 21
1110.503
 31
0.0
  0
LINE
  5
1EE
330
20
100
AcDbEntity
  8
_0-2_ADD_LINE
  6
Continuous
 62
    18
100
AcDbLine
 10
1748.566466666667
 20
1110.503
 30
0.0
 11
1730.121466666667
 21
1102.771133333333
 31
0.0
  0
LINE
  5
1EF
330
20
100
AcDbEntity
  8
_0-2_ADD_LINE
  6
Continuous
 62
    18
100
AcDbLine
 10
1730.121466666667
 20
1102.771133333333
 30
0.0
 11
1733.9874
 21
1093.5486
 31
0.0
  0
LINE
  5
1F0
330
20
100
AcDbEntity
  8
_0-2_ADD_LINE
  6
Continuous
 62
    18
100
AcDbLine
 10
1733.9874
 20
1093.5486
 30
0.0
 11
1752.4324
 21
1101.280533333333
 31
0.0
  0
LINE
  5
1F1
330
20
100
AcDbEntity
  8
_0-2_ADD_LINE
  6
Continuous
 62
    18
100
AcDbLine
 10
1748.566466666667
 20
1110.503
 30
0.0
 11
1733.9874
 21
1093.5486
 31
0.0
  0
LINE
  5
1F2
330
20
100
AcDbEntity
  8
_0-2_ADD_LINE
  6
Continuous
 62
    18
100
AcDbLine
 10
1582.219866666667
 20
1024.650666666667
 30
0.0
 11
1578.353933333333
 21
1033.8732
 31
0.0
  0
LINE
  5
1F3
330
20
100
AcDbEntity
  8
_0-2_ADD_LINE
  6
Continuous
 62
    18
100
AcDbLine
 10
1578.353933333333
 20
1033.8732
 30
0.0
 11
1559.908933333333
 21
1026.141266666666
 31
0.0
  0
LINE
  5
1F4
330
20
100
AcDbEntity
  8
_0-2_ADD_LINE
  6
Continuous
 62
    18
100
AcDbLine
 10
1559.908933333333
 20
1026.141266666666
 30
0.0
 11
1563.774866666667
 21
1016.9188
 31
0.0
  0
LINE
  5
1F5
330
20
100
AcDbEntity
  8
_0-2_ADD_LINE
  6
Continuous
 62
    18
100
AcDbLine
 10
1563.774866666667
 20
1016.9188
 30
0.0
 11
1582.219866666667
 21
1024.650666666667
 31
0.0
  0
LINE
  5
1F6
330
20
100
AcDbEntity
  8
_0-2_ADD_LINE
  6
Continuous
 62
    18
100
AcDbLine
 10
1578.353933333333
 20
1033.8732
 30
0.0
 11
1563.774866666667
 21
1016.9188
 31
0.0
  0
LINE
  5
1F7
330
20
100
AcDbEntity
  8
_0-2_ADD_LINE
  6
Continuous
 62
    18
100
AcDbLine
 10
1412.007266666667
 20
948.0208666666667
 30
0.0
 11
1408.141333333333
 21
957.243333333333
 31
0.0
  0
LINE
  5
1F8
330
20
100
AcDbEntity
  8
_0-2_ADD_LINE
  6
Continuous
 62
    18
100
AcDbLine
 10
1408.141333333333
 20
957.243333333333
 30
0.0
 11
1389.696333333333
 21
949.5114666666664
 31
0.0
  0
LINE
  5
1F9
330
20
100
AcDbEntity
  8
_0-2_ADD_LINE
  6
Continuous
 62
    18
100
AcDbLine
 10
1389.696333333333
 20
949.5114666666664
 30
0.0
 11
1393.562266666666
 21
940.2889333333332
 31
0.0
  0
LINE
  5
1FA
330
20
100
AcDbEntity
  8
_0-2_ADD_LINE
  6
Continuous
 62
    18
100
AcDbLine
 10
1393.562266666666
 20
940.2889333333332
 30
0.0
 11
1412.007266666667
 21
948.0208666666667
 31
0.0
  0
LINE
  5
1FB
330
20
100
AcDbEntity
  8
_0-2_ADD_LINE
  6
Continuous
 62
    18
100
AcDbLine
 10
1408.141333333333
 20
957.243333333333
 30
0.0
 11
1393.562266666666
 21
940.2889333333332
 31
0.0
  0
LINE
  5
1FC
330
20
100
AcDbEntity
  8
_0-2_ADD_LINE
  6
Continuous
 62
    18
100
AcDbLine
 10
1402.317066666667
 20
945.232
 30
0.0
 11
1404.817066666667
 21
940.9018666666666
 31
0.0
  0
LINE
  5
1FD
330
20
100
AcDbEntity
  8
_0-2_ADD_LINE
  6
Continuous
 62
    18
100
AcDbLine
 10
1402.317066666667
 20
945.232
 30
0.0
 11
1402.317066666667
 21
940.2319999999999
 31
0.0
  0
LINE
  5
1FE
330
20
100
AcDbEntity
  8
_0-2_ADD_LINE
  6
Continuous
 62
    18
100
AcDbLine
 10
1402.317066666667
 20
945.232
 30
0.0
 11
1461.2266
 21
725.3788533333334
 31
0.0
  0
LINE
  5
1FF
330
20
100
AcDbEntity
  8
_0-2_ADD_LINE
  6
Continuous
 62
    18
100
AcDbLine
 10
1461.2266
 20
725.3788533333334
 30
0.0
 11
1630.003866666666
 21
725.3788533333334
 31
0.0
  0
LINE
  5
200
330
20
100
AcDbEntity
  8
_0-2_ADD_LINE
  6
Continuous
 62
    18
100
AcDbLine
 10
1618.663733333333
 20
745.4424000000001
 30
0.0
 11
1455.417533333333
 21
745.4424000000001
 31
0.0
  0
LINE
  5
201
330
20
100
AcDbEntity
  8
_0-2_ADD_LINE
  6
Continuous
 62
    18
100
AcDbLine
 10
1587.043466666666
 20
765.4296666666665
 30
0.0
 11
1450.495
 21
765.4296666666665
 31
0.0
  0
LINE
  5
202
330
20
100
AcDbEntity
  8
_0-2_ADD_LINE
  6
Continuous
 62
    18
100
AcDbLine
 10
1241.937466666666
 20
871.7977333333333
 30
0.0
 11
1237.995266666666
 21
880.9878666666667
 31
0.0
  0
LINE
  5
203
330
20
100
AcDbEntity
  8
_0-2_ADD_LINE
  6
Continuous
 62
    18
100
AcDbLine
 10
1237.995266666666
 20
880.9878666666667
 30
0.0
 11
1219.615
 21
873.1034666666666
 31
0.0
  0
LINE
  5
204
330
20
100
AcDbEntity
  8
_0-2_ADD_LINE
  6
Continuous
 62
    18
100
AcDbLine
 10
1219.615
 20
873.1034666666666
 30
0.0
 11
1223.5572
 21
863.9132666666666
 31
0.0
  0
LINE
  5
205
330
20
100
AcDbEntity
  8
_0-2_ADD_LINE
  6
Continuous
 62
    18
100
AcDbLine
 10
1223.5572
 20
863.9132666666666
 30
0.0
 11
1241.937466666666
 21
871.7977333333333
 31
0.0
  0
LINE
  5
206
330
20
100
AcDbEntity
  8
_0-2_ADD_LINE
  6
Continuous
 62
    18
100
AcDbLine
 10
1237.995266666666
 20
880.9878666666667
 30
0.0
 11
1223.5572
 21
863.9132666666666
 31
0.0
  0
LINE
  5
207
330
20
100
AcDbEntity
  8
_0-2_ADD_LINE
  6
Continuous
 62
    18
100
AcDbLine
 10
1223.5572
 20
863.9132666666666
 30
0.0
 11
1219.615
 21
873.1034666666666
 31
0.0
  0
LINE
  5
208
330
20
100
AcDbEntity
  8
_0-2_ADD_LINE
  6
Continuous
 62
    18
100
AcDbLine
 10
1158.989866666667
 20
802.796
 30
0.0
 11
1768.428533333333
 21
1077.043333333333
 31
0.0
  0
LINE
  5
209
330
20
100
AcDbEntity
  8
_0-2_ADD_LINE
  6
Continuous
 62
    18
100
AcDbLine
 10
1768.428533333333
 20
854.5388
 30
0.0
 11
1768.428533333333
 21
967.3847333333332
 31
0.0
  0
LINE
  5
20A
330
20
100
AcDbEntity
  8
_0-2_ADD_LINE
  6
Continuous
 62
    18
100
AcDbLine
 10
1768.428533333333
 20
967.3847333333332
 30
0.0
 11
1200.026333333333
 21
711.6038466666665
 31
0.0
  0
LINE
  5
20B
330
20
100
AcDbEntity
  8
_0-2_ADD_LINE
  6
Continuous
 62
    18
100
AcDbLine
 10
1198.9286
 20
714.0432866666667
 30
0.0
 11
1392.974183765565
 21
908.0889170988941
 31
0.0
  0
LINE
  5
20C
330
20
100
AcDbEntity
  8
_0-2_ADD_LINE
  6
Continuous
 62
    18
100
AcDbLine
 10
1392.974183765565
 20
908.0889170988941
 30
0.0
 11
1391.459881036251
 21
907.4074810363526
 31
0.0
  0
LINE
  5
20D
330
20
100
AcDbEntity
  8
_0-2_ADD_LINE
  6
Continuous
 62
    18
100
AcDbLine
 10
1196.0026
 20
720.5454199999997
 30
0.0
 11
1375.832266666666
 21
900.375
 31
0.0
  0
LINE
  5
20E
330
20
100
AcDbEntity
  8
_0-2_ADD_LINE
  6
Continuous
 62
    18
100
AcDbLine
 10
1358.690266666666
 20
892.6611333333333
 30
0.0
 11
1193.076666666667
 21
727.0475333333331
 31
0.0
  0
LINE
  5
20F
330
20
100
AcDbEntity
  8
_0-2_ADD_LINE
  6
Continuous
 62
    18
100
AcDbLine
 10
1492.172466666666
 20
923.6511333333332
 30
0.0
 11
1532.172466666666
 21
923.6511333333332
 31
0.0
  0
LINE
  5
210
330
20
100
AcDbEntity
  8
_0-2_ADD_LINE
  6
Continuous
 62
    18
100
AcDbLine
 10
1532.172466666666
 20
923.6511333333332
 30
0.0
 11
1546.5312
 21
948.5212
 31
0.0
  0
LINE
  5
211
330
20
100
AcDbEntity
  8
_0-2_ADD_LINE
  6
Continuous
 62
    18
100
AcDbLine
 10
1546.5312
 20
948.5212
 30
0.0
 11
1542.995666666667
 21
944.9856666666663
 31
0.0
  0
LINE
  5
212
330
20
100
AcDbEntity
  8
_0-2_ADD_LINE
  6
Continuous
 62
    18
100
AcDbLine
 10
1546.5312
 20
948.5212
 30
0.0
 11
1545.237066666667
 21
943.6916
 31
0.0
  0
LINE
  5
213
330
20
100
AcDbEntity
  8
_0-2_ADD_LINE
  6
Continuous
 62
    18
100
AcDbLine
 10
1528.095533333333
 20
982.8427333333333
 30
0.0
 11
1534.198866666666
 21
985.5247333333334
 31
0.0
  0
LINE
  5
214
330
20
100
AcDbEntity
  8
_0-2_ADD_LINE
  6
Continuous
 62
    18
100
AcDbLine
 10
1552.068666666666
 20
944.8589333333332
 30
0.0
 11
1564.2578
 21
950.2152
 31
0.0
  0
LINE
  5
215
330
20
100
AcDbEntity
  8
_0-2_ADD_LINE
  6
Continuous
 62
    18
100
AcDbLine
 10
1564.2578
 20
950.2152
 30
0.0
 11
1566.9398
 21
944.1118000000001
 31
0.0
  0
LINE
  5
216
330
20
100
AcDbEntity
  8
_0-2_ADD_LINE
  6
Continuous
 62
    18
100
AcDbLine
 10
1566.9398
 20
944.1118000000001
 30
0.0
 11
1548.647266666666
 21
936.073533333333
 31
0.0
  0
LINE
  5
217
330
20
100
AcDbEntity
  8
_0-2_ADD_LINE
  6
Continuous
 62
    18
100
AcDbLine
 10
1548.647266666666
 20
936.073533333333
 30
0.0
 11
1528.095533333333
 21
982.8427333333333
 31
0.0
  0
LINE
  5
218
330
20
100
AcDbEntity
  8
_0-2_ADD_LINE
  6
Continuous
 62
    18
100
AcDbLine
 10
1552.068666666666
 20
944.8589333333332
 30
0.0
 11
1534.198866666666
 21
985.5247333333334
 31
0.0
  0
LINE
  5
219
330
20
100
AcDbEntity
  8
_0-2_ADD_LINE
  6
Continuous
 62
    18
100
AcDbLine
 10
1589.907066666667
 20
1006.947733333333
 30
0.0
 11
1607.829
 21
975.9061333333333
 31
0.0
  0
LINE
  5
21A
330
20
100
AcDbEntity
  8
_0-2_ADD_LINE
  6
Continuous
 62
    18
100
AcDbLine
 10
1607.829
 20
975.9061333333333
 30
0.0
 11
1647.829
 21
975.9061333333333
 31
0.0
  0
LINE
  5
21B
330
20
100
AcDbEntity
  8
_0-2_ADD_LINE
  6
Continuous
 62
    18
100
AcDbLine
 10
1593.4426
 20
1003.4122
 30
0.0
 11
1589.907066666667
 21
1006.947733333333
 31
0.0
  0
LINE
  5
21C
330
20
100
AcDbEntity
  8
_0-2_ADD_LINE
  6
Continuous
 62
    18
100
AcDbLine
 10
1591.2012
 20
1002.118133333333
 30
0.0
 11
1589.907066666667
 21
1006.947733333333
 31
0.0
  0
LINE
  5
21D
330
20
100
AcDbEntity
  8
_0-2_ADD_LINE
  6
Continuous
 62
    18
100
AcDbLine
 10
1752.9558
 20
1070.0806
 30
0.0
 11
1553.576604350159
 21
870.701404350159
 31
0.0
  0
LINE
  5
21E
330
20
100
AcDbEntity
  8
_0-2_ADD_LINE
  6
Continuous
 62
    18
100
AcDbLine
 10
1536.434670622288
 20
862.9875372889545
 30
0.0
 11
1735.813799999999
 21
1062.366666666666
 31
0.0
  0
LINE
  5
21F
330
20
100
AcDbEntity
  8
_0-2_ADD_LINE
  6
Continuous
 62
    18
100
AcDbLine
 10
1768.428533333333
 20
1076.1252
 30
0.0
 11
1570.7186
 21
878.4153333333332
 31
0.0
  0
LINE
  5
220
330
20
100
AcDbEntity
  8
_0-2_ADD_LINE
  6
Continuous
 62
    18
100
AcDbLine
 10
1654.661066666666
 20
1325.3282
 30
0.0
 11
1708.661066666666
 21
1325.3282
 31
0.0
  0
LINE
  5
221
330
20
100
AcDbEntity
  8
_0-2_ADD_LINE
  6
Continuous
 62
    18
100
AcDbLine
 10
1708.661066666666
 20
1325.3282
 30
0.0
 11
1756.357512463722
 21
1242.715611222106
 31
0.0
  0
LINE
  5
222
330
20
100
AcDbEntity
  8
_0-2_ADD_LINE
  6
Continuous
 62
    18
100
AcDbLine
 10
1755.095171887867
 20
1247.715466447169
 30
0.0
 11
1768.428533333333
 21
1247.715466666666
 31
0.0
  0
LINE
  5
223
330
20
100
AcDbEntity
  8
_0-2_ADD_LINE
  6
Continuous
 62
    18
100
AcDbLine
 10
1767.428533333333
 20
1243.887866666667
 30
0.0
 11
1767.428533333333
 21
1234.382133333333
 31
0.0
  0
LINE
  5
224
330
20
100
AcDbEntity
  8
_0-2_ADD_LINE
  6
Continuous
 62
    18
100
AcDbLine
 10
1767.428533333333
 20
1234.382133333333
 30
0.0
 11
1755.0952
 21
1234.382133333333
 31
0.0
  0
LINE
  5
225
330
20
100
AcDbEntity
  8
_0-2_ADD_LINE
  6
Continuous
 62
    18
100
AcDbLine
 10
1756.357512463722
 20
1242.715611222106
 30
0.0
 11
1752.822
 21
1246.251066666667
 31
0.0
  0
LINE
  5
226
330
20
100
AcDbEntity
  8
_0-2_ADD_LINE
  6
Continuous
 62
    18
100
AcDbLine
 10
1756.357512463722
 20
1242.715611222106
 30
0.0
 11
1755.063466666667
 21
1247.5452
 31
0.0
  0
LINE
  5
227
330
20
100
AcDbEntity
  8
_0-2_ADD_LINE
  6
Continuous
 62
    18
100
AcDbLine
 10
1618.232733333333
 20
1203.093866666666
 30
0.0
 11
1650.232733333333
 21
1203.093866666666
 31
0.0
  0
LINE
  5
228
330
20
100
AcDbEntity
  8
_0-2_ADD_LINE
  6
Continuous
 62
    18
100
AcDbLine
 10
1650.232733333333
 20
1203.093866666666
 30
0.0
 11
1694.222866666666
 21
1126.900666666666
 31
0.0
  0
LINE
  5
229
330
20
100
AcDbEntity
  8
_0-2_ADD_LINE
  6
Continuous
 62
    18
100
AcDbLine
 10
1694.222866666666
 20
1126.900666666666
 30
0.0
 11
1692.9288
 21
1131.730333333333
 31
0.0
  0
LINE
  5
22A
330
20
100
AcDbEntity
  8
_0-2_ADD_LINE
  6
Continuous
 62
    18
100
AcDbLine
 10
1694.222866666666
 20
1126.900666666666
 30
0.0
 11
1690.687333333333
 21
1130.4362
 31
0.0
  0
LINE
  5
22B
330
20
100
AcDbEntity
  8
_0-2_ADD_LINE
  6
Continuous
 62
    18
100
AcDbLine
 10
1789.657933333333
 20
1234.382133333333
 30
0.0
 11
1807.457933333333
 21
1234.382133333333
 31
0.0
  0
LINE
  5
22C
330
20
100
AcDbEntity
  8
_0-2_ADD_LINE
  6
Continuous
 62
    18
100
AcDbLine
 10
1806.3246
 20
1234.382133333333
 30
0.0
 11
1806.3246
 21
1167.715466666666
 31
0.0
  0
LINE
  5
22D
330
20
100
AcDbEntity
  8
_0-2_ADD_LINE
  6
Continuous
 62
    18
100
AcDbLine
 10
1807.991266666667
 20
1167.715466666666
 30
0.0
 11
1789.657933333333
 21
1167.715466666666
 31
0.0
  0
LINE
  5
22E
330
20
100
AcDbEntity
  8
_0-2_ADD_LINE
  6
Continuous
 62
    18
100
AcDbLine
 10
1844.1056
 20
1240.265533333333
 30
0.0
 11
1879.1056
 21
1240.265533333333
 31
0.0
  0
LINE
  5
22F
330
20
100
AcDbEntity
  8
_0-2_ADD_LINE
  6
Continuous
 62
    18
100
AcDbLine
 10
1877.438933333333
 20
1240.265533333333
 30
0.0
 11
1877.438933333333
 21
1106.9322
 31
0.0
  0
LINE
  5
230
330
20
100
AcDbEntity
  8
_0-2_ADD_LINE
  6
Continuous
 62
    18
100
AcDbLine
 10
1878.572266666665
 20
1106.9322
 30
0.0
 11
1844.1056
 21
1106.9322
 31
0.0
  0
LINE
  5
231
330
20
100
AcDbEntity
  8
_0-2_ADD_LINE
  6
Continuous
 62
    18
100
AcDbLine
 10
1755.0952
 20
1307.251733333333
 30
0.0
 11
1833.070133333333
 21
1385.226666666666
 31
0.0
  0
LINE
  5
232
330
20
100
AcDbEntity
  8
_0-2_ADD_LINE
  6
Continuous
 62
    18
100
AcDbLine
 10
1755.0952
 20
1297.8236
 30
0.0
 11
1835.784
 21
1378.5124
 31
0.0
  0
LINE
  5
233
330
20
100
AcDbEntity
  8
_0-2_ADD_LINE
  6
Continuous
 62
    18
100
AcDbLine
 10
1755.0952
 20
1288.395533333333
 30
0.0
 11
1835.784
 21
1369.084333333333
 31
0.0
  0
LINE
  5
234
330
20
100
AcDbEntity
  8
_0-2_ADD_LINE
  6
Continuous
 62
    18
100
AcDbLine
 10
1163.3128
 20
818.6902666666666
 30
0.0
 11
1169.416133333333
 21
821.3723333333334
 31
0.0
  0
LINE
  5
235
330
20
100
AcDbEntity
  8
_0-2_ADD_LINE
  6
Continuous
 62
    18
100
AcDbLine
 10
1169.416133333333
 20
821.3723333333334
 30
0.0
 11
1187.285933333333
 21
780.7065333333333
 31
0.0
  0
LINE
  5
236
330
20
100
AcDbEntity
  8
_0-2_ADD_LINE
  6
Continuous
 62
    18
100
AcDbLine
 10
1187.285933333333
 20
780.7065333333333
 30
0.0
 11
1199.475
 21
786.0627999999997
 31
0.0
  0
LINE
  5
237
330
20
100
AcDbEntity
  8
_0-2_ADD_LINE
  6
Continuous
 62
    18
100
AcDbLine
 10
1199.475
 20
786.0627999999997
 30
0.0
 11
1202.157066666666
 21
779.9593999999999
 31
0.0
  0
LINE
  5
238
330
20
100
AcDbEntity
  8
_0-2_ADD_LINE
  6
Continuous
 62
    18
100
AcDbLine
 10
1202.157066666666
 20
779.9593999999999
 30
0.0
 11
1183.864533333333
 21
771.9211333333332
 31
0.0
  0
LINE
  5
239
330
20
100
AcDbEntity
  8
_0-2_ADD_LINE
  6
Continuous
 62
    18
100
AcDbLine
 10
1183.864533333333
 20
771.9211333333332
 30
0.0
 11
1163.3128
 21
818.6902666666666
 31
0.0
  0
LINE
  5
23A
330
20
100
AcDbEntity
  8
_0-0_LAYER001
  6
Continuous
 62
     4
100
AcDbLine
 10
1528.992266666667
 20
1055.216
 30
0.0
 11
1532.737866666666
 21
1056.3652
 31
0.0
  0
ARC
  5
23B
330
20
100
AcDbEntity
  8
_0-0_LAYER001
  6
Continuous
 62
     4
100
AcDbCircle
 10
1543.9368
 20
1057.4148
 30
0.0
 40
11.24801133333333
100
AcDbArc
 50
102.88244
 51
185.35433
  0
CIRCLE
  5
23C
330
20
100
AcDbEntity
  8
_0-0_LAYER001
  6
Continuous
 62
     2
100
AcDbCircle
 10
1305.755666666666
 20
1092.463
 30
0.0
 40
1.133333333333333
  0
LINE
  5
23D
330
20
100
AcDbEntity
  8
_0-0_LAYER001
  6
Continuous
 62
     2
100
AcDbLine
 10
1305.071733333333
 20
1093.982866666666
 30
0.0
 11
1319.434466666666
 21
1062.0656
 31
0.0
  0
LINE
  5
23E
330
20
100
AcDbEntity
  8
_0-0_LAYER001
  6
Continuous
 62
     2
100
AcDbLine
 10
1299.6002
 20
1106.141866666666
 30
0.0
 11
1313.962933333333
 21
1074.2246
 31
0.0
  0
CIRCLE
  5
23F
330
20
100
AcDbEntity
  8
_0-0_LAYER001
  6
Continuous
 62
     2
100
AcDbCircle
 10
1300.284133333333
 20
1104.621999999999
 30
0.0
 40
1.133333333333333
  0
LINE
  5
240
330
20
100
AcDbEntity
  8
_0-0_LAYER001
  6
Continuous
 62
     2
100
AcDbLine
 10
1300.284133333333
 20
1104.621999999999
 30
0.0
 11
1470.5096
 21
1181.223266666666
 31
0.0
  0
CIRCLE
  5
241
330
20
100
AcDbEntity
  8
_0-0_LAYER001
  6
Continuous
 62
     2
100
AcDbCircle
 10
1470.5096
 20
1181.223266666666
 30
0.0
 40
1.133333333333333
  0
LINE
  5
242
330
20
100
AcDbEntity
  8
_0-0_LAYER001
  6
Continuous
 62
     2
100
AcDbLine
 10
1469.8256
 20
1182.743133333333
 30
0.0
 11
1484.1884
 21
1150.825866666667
 31
0.0
  0
LINE
  5
243
330
20
100
AcDbEntity
  8
_0-0_LAYER001
  6
Continuous
 62
     2
100
AcDbLine
 10
1464.354133333333
 20
1194.902066666666
 30
0.0
 11
1478.716866666666
 21
1162.9848
 31
0.0
  0
CIRCLE
  5
244
330
20
100
AcDbEntity
  8
_0-0_LAYER001
  6
Continuous
 62
     2
100
AcDbCircle
 10
1465.038066666666
 20
1193.3822
 30
0.0
 40
1.133333333333333
  0
LINE
  5
245
330
20
100
AcDbEntity
  8
_0-2_ADD_LINE
  6
Continuous
 62
    18
100
AcDbLine
 10
1319.434466666666
 20
1062.0656
 30
0.0
 11
1299.6002
 21
1106.141866666666
 31
0.0
  0
LINE
  5
246
330
20
100
AcDbEntity
  8
_0-2_ADD_LINE
  6
Continuous
 62
    18
100
AcDbLine
 10
1300.284133333333
 20
1104.621999999999
 30
0.0
 11
1470.5096
 21
1181.223266666666
 31
0.0
  0
LINE
  5
247
330
20
100
AcDbEntity
  8
_0-2_ADD_LINE
  6
Continuous
 62
    18
100
AcDbLine
 10
1470.5096
 20
1181.223266666666
 30
0.0
 11
1464.354133333333
 21
1194.902066666666
 31
0.0
  0
LINE
  5
248
330
20
100
AcDbEntity
  8
_0-2_ADD_LINE
  6
Continuous
 62
    18
100
AcDbLine
 10
1470.5096
 20
1181.223266666666
 30
0.0
 11
1484.1884
 21
1150.825866666667
 31
0.0
  0
LINE
  5
249
330
20
100
AcDbEntity
  8
_0-2_ADD_LINE
  6
Continuous
 62
    18
100
AcDbLine
 10
1465.038070758676
 20
1193.382201841401
 30
0.0
 11
1466.071578076967
 21
1193.847279142968
 31
0.0
  0
TEXT
  5
24A
330
20
100
AcDbEntity
  8
_0-0_LAYER001
 62
     7
100
AcDbText
 10
1609.684775355193
 20
1209.265805796125
 30
0.0
 40
15.0
  1
のし瓦
100
AcDbText
  0
TEXT
  5
24B
330
20
100
AcDbEntity
  8
_0-0_LAYER001
 62
     7
100
AcDbText
 10
1829.043343770245
 20
1111.299843202995
 30
0.0
 40
15.00000000000007
  1
水切り鉄板立上がり寸法
 50
90.0
100
AcDbText
  0
TEXT
  5
24C
330
20
100
AcDbEntity
  8
_0-0_LAYER001
 62
     7
100
AcDbText
 10
1906.777205393056
 20
1095.327131910637
 30
0.0
 40
14.99999999999993
  1
下葺き材立上がり寸法
 50
90.0
100
AcDbText
  0
TEXT
  5
24D
330
20
100
AcDbEntity
  8
_0-0_LAYER001
 62
     7
100
AcDbText
 10
1782.190057312661
 20
1047.408998033562
 30
0.0
 40
15.0
  1
弾性シール材
100
AcDbText
  0
TEXT
  5
24E
330
20
100
AcDbEntity
  8
_0-1_LAYER004
 62
     7
100
AcDbText
 10
1468.060068562949
 20
927.0812396311301
 30
0.0
 40
15.0
  1
アンカー
100
AcDbText
  0
TEXT
  5
24F
330
20
100
AcDbEntity
  8
_0-0_LAYER001
 62
     7
100
AcDbText
 10
1454.217052109572
 20
770.548668966019
 30
0.0
 40
14.99999999999993
  1
　瓦桟：１５ｘ３０以上
100
AcDbText
  0
TEXT
  5
250
330
20
100
AcDbEntity
  8
_0-0_LAYER001
 62
     7
100
AcDbText
 10
1457.411594368043
 20
725.8250773474159
 30
0.0
 40
14.99999999999993
  1
　パーライト系モルタルｔ＝４０
100
AcDbText
  0
TEXT
  5
251
330
20
100
AcDbEntity
  8
_0-0_LAYER001
 62
     7
100
AcDbText
 10
1714.675052846629
 20
1208.04565387808
 30
0.0
 40
20.0
  1
90
100
AcDbText
  0
TEXT
  5
252
330
20
100
AcDbEntity
  8
_0-0_LAYER001
 62
     7
100
AcDbText
 10
1798.239091997947
 20
1183.101164579179
 30
0.0
 40
20.0
  1
100
 50
90.0
100
AcDbText
  0
TEXT
  5
253
330
20
100
AcDbEntity
  8
_0-0_LAYER001
 62
     7
100
AcDbText
 10
1868.083662034869
 20
1155.662226350389
 30
0.0
 40
20.0
  1
200
 50
90.0
100
AcDbText
  0
TEXT
  5
254
330
20
100
AcDbEntity
  8
_0-2_ADD_LINE
 62
     7
100
AcDbText
 10
1531.333056499708
 20
1234.237367641926
 30
0.0
 40
20.0
  1
280
 50
24.22769300000001
100
AcDbText
  0
TEXT
  5
255
330
20
100
AcDbEntity
  8
_0-2_ADD_LINE
 62
     7
100
AcDbText
 10
1199.571348824326
 20
1067.10928933929
 30
0.0
 40
20.0
  1
280
 50
24.22769299999998
100
AcDbText
  0
TEXT
  5
256
330
20
100
AcDbEntity
  8
_0-0_LAYER001
 62
     7
100
AcDbText
 10
1382.010209683713
 20
1164.054891445937
 30
0.0
 40
20.0
  1
280
 50
24.22769300000001
100
AcDbText
  0
TEXT
  5
257
330
20
100
AcDbEntity
  8
_0-2_ADD_LINE
 62
     7
100
AcDbText
 10
1441.626264749588
 20
1300.675017638567
 30
0.0
 40
14.99999999999993
  1
雨押水切カラ-鋼板0.35ｍｍ以上
100
AcDbText
  0
TEXT
  5
258
330
20
100
AcDbEntity
  8
_0-2_ADD_LINE
 62
     7
100
AcDbText
 10
1632.89444141927
 20
1327.999042877093
 30
0.0
 40
15.0
  1
シーリング
100
AcDbText
  0
TEXT
  5
259
330
20
100
AcDbEntity
  8
_0-1_LAYER004
 62
     7
100
AcDbText
 10
1610.538420769567
 20
980.2387216594899
 30
0.0
 40
15.0
  1
溶接金網
100
AcDbText
  0
TEXT
  5
25A
330
20
100
AcDbEntity
  8
_0-0_LAYER001
 62
     7
100
AcDbText
 10
1458.476441787534
 20
747.1220257372269
 30
0.0
 40
15.00000000000007
  1
　下葺材：ルーフィング
100
AcDbText
  0
ENDSEC
  0
SECTION
  2
OBJECTS
  0
DICTIONARY
  5
C
330
0
100
AcDbDictionary
281
     1
  3
ACAD_COLOR
350
1B
  3
ACAD_GROUP
350
D
  3
ACAD_LAYOUT
350
19
  3
ACAD_MATERIAL
350
1A
  3
ACAD_MLINESTYLE
350
16
  3
ACAD_PLOTSETTINGS
350
18
  3
ACAD_PLOTSTYLENAME
350
E
  0
DICTIONARY
  5
1B
102
{ACAD_REACTORS
330
C
102
}
330
C
100
AcDbDictionary
281
     1
  0
DICTIONARY
  5
D
102
{ACAD_REACTORS
330
C
102
}
330
C
100
AcDbDictionary
281
     1
  0
DICTIONARY
  5
19
102
{ACAD_REACTORS
330
C
102
}
330
C
100
AcDbDictionary
281
     1
  3
Model
350
23
  3
レイアウト1
350
1F
  0
DICTIONARY
  5
1A
102
{ACAD_REACTORS
330
C
102
}
330
C
100
AcDbDictionary
281
     1
  0
DICTIONARY
  5
16
102
{ACAD_REACTORS
330
C
102
}
330
C
100
AcDbDictionary
281
     1
  3
Standard
350
17
  0
DICTIONARY
  5
18
102
{ACAD_REACTORS
330
C
102
}
330
C
100
AcDbDictionary
281
     1
  0
ACDBDICTIONARYWDFLT
  5
E
102
{ACAD_REACTORS
330
C
102
}
330
C
100
AcDbDictionary
281
     1
  3
Normal
350
F
100
AcDbDictionaryWithDefault
340
F
  0
LAYOUT
  5
23
102
{ACAD_REACTORS
330
19
102
}
330
19
100
AcDbPlotSettings
  1

  2
Microsoft Office Document Image Writer
  4

  6

 40
0.0
 41
0.0
 42
0.0
 43
0.0
 44
0.0
 45
0.0
 46
0.0
 47
0.0
 48
0.0
 49
0.0
140
0.0
141
0.0
142
1.0
143
1.0
 70
  1712
 72
     0
 73
     0
 74
     0
  7

 75
     0
147
1.0
 76
     0
 77
     2
 78
   300
148
0.0
149
0.0
100
AcDbLayout
  1
Model
 70
     1
 71
     0
 10
0.0
 20
0.0
 11
12.0
 21
9.0
 12
0.0
 22
0.0
 32
0.0
 14
0.0
 24
0.0
 34
0.0
 15
0.0
 25
0.0
 35
0.0
146
0.0
 13
0.0
 23
0.0
 33
0.0
 16
1.0
 26
0.0
 36
0.0
 17
0.0
 27
1.0
 37
0.0
 76
     0
330
20
  0
LAYOUT
  5
1F
102
{ACAD_REACTORS
330
19
102
}
330
19
100
AcDbPlotSettings
  1

  2
Microsoft Office Document Image Writer
  4

  6

 40
0.0
 41
0.0
 42
0.0
 43
0.0
 44
0.0
 45
0.0
 46
0.0
 47
0.0
 48
0.0
 49
0.0
140
0.0
141
0.0
142
1.0
143
1.0
 70
   688
 72
     0
 73
     0
 74
     5
  7

 75
    16
147
1.0
 76
     0
 77
     2
 78
   300
148
0.0
149
0.0
100
AcDbLayout
  1
レイアウト1
 70
     1
 71
     1
 10
0.0
 20
0.0
 11
12.0
 21
9.0
 12
0.0
 22
0.0
 32
0.0
 14
1.000000000000000E+20
 24
1.000000000000000E+20
 34
1.000000000000000E+20
 15
-1.000000000000000E+20
 25
-1.000000000000000E+20
 35
-1.000000000000000E+20
146
0.0
 13
0.0
 23
0.0
 33
0.0
 16
1.0
 26
0.0
 36
0.0
 17
0.0
 27
1.0
 37
0.0
 76
     0
330
1C
  0
MLINESTYLE
  5
17
102
{ACAD_REACTORS
330
16
102
}
330
16
100
AcDbMlineStyle
  2
STANDARD
 70
     0
  3

 62
   256
 51
90.0
 52
90.0
 71
     2
 49
0.5
 62
   256
  6
BYLAYER
 49
-0.5
 62
   256
  6
BYLAYER
  0
ACDBPLACEHOLDER
  5
F
102
{ACAD_REACTORS
330
E
102
}
330
E
  0
ENDSEC
  0
EOF
