  0
SECTION
  2
HEADER
  9
$ACADVER
  1
AC1009
  9
$INSBASE
 10
0
 20
0
 30
0
  9
$EXTMIN
 10
0
 20
0
  9
$EXTMAX
 10
2970
 20
2100
  9
$LIMMIN
 10
0
 20
0
  9
$LIMMAX
 10
2970
 20
2100
  9
$LTSCALE
 40
10
  0
ENDSEC
  0
SECTION
  2
TABLES
  0
TABLE
  2
LTYPE
 70
     9
  0
LTYPE
  2
CONTINUOUS
 70
    64
  3
実線
 72
    65
 73
     0
 40
0.0
  0
LTYPE
  2
DASHED1
 70
    64
  3
--  --  --  --  --  --  --  --  
 72
    65
 73
     2
 40
2.5
 49
1.25
 49
-1.25
  0
LTYPE
  2
DASHED2
 70
    64
  3
----    ----    ----    ----    
 72
    65
 73
     2
 40
5.0
 49
2.5
 49
-2.5
  0
LTYPE
  2
DASHED3
 70
    64
  3
------  ------  ------  ------  
 72
    65
 73
     2
 40
5.0
 49
3.75
 49
-1.25
  0
LTYPE
  2
CENTER1
 70
    64
  3
----- - ----- - ----- - ----- - 
 72
    65
 73
     4
 40
10.0
 49
6.25
 49
-1.25
 49
1.25
 49
-1.25
  0
LTYPE
  2
CENTER2
 70
    64
  3
----------  --  ----------  --  
 72
    65
 73
     4
 40
20.0
 49
12.5
 49
-2.5
 49
2.5
 49
-2.5
  0
LTYPE
  2
PHANTOM1
 70
    64
  3
--- - - --- - - --- - - --- - - 
 72
    65
 73
     6
 40
10.0
 49
3.25
 49
-1.25
 49
1.25
 49
-1.25
 49
1.25
 49
-1.25
  0
LTYPE
  2
PHANTOM2
 70
    64
  3
--------  -  -  --------  -  -  
 72
    65
 73
     6
 40
20.0
 49
10.0
 49
-2.5
 49
1.25
 49
-2.5
 49
1.25
 49
-2.5
  0
LTYPE
  2
DOT
 70
    64
  3
-   -   -   -   -   -   -   -   
 72
    65
 73
     2
 40
2.5
 49
0.625
 49
-1.875
  0
LTYPE
  2
DUMMY
 70
    64
  3
ダミー
 72
    65
 73
     0
 40
0.0
  0
LTYPE
  2
RAND1
 70
    64
  3
ランダム線1
 72
    65
 73
     4
 40
10.0
 49
1.0
 49
-2.0
 49
3.0
 49
-4.0
  0
LTYPE
  2
RAND2
 70
    64
  3
ランダム線2
 72
    65
 73
     4
 40
14.0
 49
2.0
 49
-3.0
 49
4.0
 49
-5.0
  0
LTYPE
  2
RAND3
 70
    64
  3
ランダム線3
 72
    65
 73
     4
 40
18.0
 49
3.0
 49
-4.0
 49
5.0
 49
-6.0
  0
LTYPE
  2
RAND4
 70
    64
  3
ランダム線4
 72
    65
 73
     4
 40
22.0
 49
4.0
 49
-5.0
 49
6.0
 49
-7.0
  0
LTYPE
  2
RAND5
 70
    64
  3
ランダム線5
 72
    65
 73
     4
 40
26.0
 49
5.0
 49
-6.0
 49
7.0
 49
-8.0
  0
LTYPE
  2
LONG1
 70
    64
  3
----------  --  ----------  --  
 72
    65
 73
     4
 40
40.0
 49
32.5
 49
-2.5
 49
2.5
 49
-2.5
  0
LTYPE
  2
LONG2
 70
    64
  3
--------  -  -  --------  -  -  
 72
    65
 73
     6
 40
40.0
 49
30.0
 49
-2.5
 49
1.25
 49
-2.5
 49
1.25
 49
-2.5
  0
LTYPE
  2
LONG3
 70
    64
  3
+++++++++++++++..+++++++++++++++
 72
    65
 73
     2
 40
40.0
 49
37.5
 49
-2.5
  0
LTYPE
  2
LONG4
 70
    64
  3
+++++++++++++++..+++++++++++++++
 72
    65
 73
     2
 40
80.0
 49
75.0
 49
-5.0
  0
LTYPE
  2
LONG5
 70
    64
  3
----------  --  ----------  --  
 72
    65
 73
     4
 40
60.0
 49
37.5
 49
-7.5
 49
7.5
 49
-7.5
  0
LTYPE
  2
dashed
 70
   64
  3
-------   -------------   ------
 72
   65
 73
    2
 40
7.5
 49
6
 49
-1.5
  0
LTYPE
  2
dashed_spaced
 70
   64
  3
----        --------        ----
 72
   65
 73
    2
 40
12
 49
6
 49
-6
  0
LTYPE
  2
long_dashed_dotted
 70
   64
  3
------------- --- --------------
 72
   65
 73
    4
 40
15.25
 49
12
 49
-1.5
 49
0.25
 49
-1.5
  0
LTYPE
  2
long_dashed_double-dotted
 70
   64
  3
----------- --- --- ------------
 72
   65
 73
    6
 40
17
 49
12
 49
-1.5
 49
0.25
 49
-1.5
 49
0.25
 49
-1.5
  0
LTYPE
  2
long_dashed_triplicate-dotted
 70
   64
  3
--------- --- --- --- ----------
 72
   65
 73
    8
 40
18.75
 49
12
 49
-1.5
 49
0.25
 49
-1.5
 49
0.25
 49
-1.5
 49
0.25
 49
-1.5
  0
LTYPE
  2
dotted
 70
   64
  3
   -       -       -       -    
 72
   65
 73
    2
 40
1.75
 49
0.25
 49
-1.5
  0
LTYPE
  2
chain
 70
   64
  3
-------------- -- --------------
 72
   65
 73
    4
 40
18.5
 49
12
 49
-1.5
 49
3.5
 49
-1.5
  0
LTYPE
  2
chain_double_dash
 70
   64
  3
------------ -- -- -------------
 72
   65
 73
    6
 40
23.5
 49
12
 49
-1.5
 49
3.5
 49
-1.5
 49
3.5
 49
-1.5
  0
LTYPE
  2
dashed_dotted
 70
   64
  3
-----------     -     ----------
 72
   65
 73
    4
 40
9.25
 49
6
 49
-1.5
 49
0.25
 49
-1.5
  0
LTYPE
  2
double-dashed_dotted
 70
   64
  3
------   -----------   -   -----
 72
   65
 73
    6
 40
16.75
 49
6
 49
-1.5
 49
6
 49
-1.5
 49
0.25
 49
-1.5
  0
LTYPE
  2
dashed_double-dotted
 70
   64
  3
---------    -    -    ---------
 72
   65
 73
    6
 40
11
 49
6
 49
-1.5
 49
0.25
 49
-1.5
 49
0.25
 49
-1.5
  0
LTYPE
  2
double-dashed_double-dotted
 70
   64
  3
-----   ---------   -   -   ----
 72
   65
 73
    8
 40
18.5
 49
6
 49
-1.5
 49
6
 49
-1.5
 49
0.25
 49
-1.5
 49
0.25
 49
-1.5
  0
LTYPE
  2
dashed_triplicate-dotted
 70
   64
  3
-------    -    -    -    ------
 72
   65
 73
    8
 40
12.75
 49
6
 49
-1.5
 49
0.25
 49
-1.5
 49
0.25
 49
-1.5
 49
0.25
 49
-1.5
  0
LTYPE
  2
double-dashed_triplicate-dotted
 70
   64
  3
-----  ---------  -  -  -  -----
 72
   65
 73
   10
 40
20.25
 49
6
 49
-1.5
 49
6
 49
-1.5
 49
0.25
 49
-1.5
 49
0.25
 49
-1.5
 49
0.25
 49
-1.5
  0
LTYPE
  2
undefined
 70
   64
  3
--------------------------------
 72
   65
 73
    0
 40
0
  0
ENDTAB
  0
TABLE
  2
STYLE
  5
3
100
AcDbSymbolTable
 70
     1
  0
STYLE
  5
10
100
AcDbSymbolTableRecord
100
AcDbTextStyleTableRecord
  2
STANDARD
 70
     0
 40
0.0
 41
1.0
 50
0.0
 71
     0
 42
0.2
  3
txt
  4
bigfont.shx
  0
STYLE
  5
26
100
AcDbSymbolTableRecord
100
AcDbTextStyleTableRecord
  2
TATEGAKI
 70
    68
 40
0.0
 41
1.0
 50
0.0
 71
     0
 42
1.0
  3
txt
  4
bigfont.shx
  0
ENDTAB
  0
TABLE
  2
LAYER
 70
    3
  0
LAYER
  2
_0-0_LAYER001
 70
   64
 62
    7
  6
CONTINUOUS
  0
LAYER
  2
_0-1_ADD_LINE
 70
   64
 62
    7
  6
CONTINUOUS
  0
LAYER
  2
ADD_LINE
 70
   64
 62
    7
  6
CONTINUOUS
  0
ENDTAB
  0
ENDSEC
  0
SECTION
  2
BLOCKS
  0
ENDSEC
  0
SECTION
  2
ENTITIES
  0
LINE
  8
_0-0_LAYER001
  6
CONTINUOUS
 62
    2
 10
1173.4311
 20
984.58459999999991
 11
1113.4311
 21
984.58459999999991
  0
LINE
  8
_0-0_LAYER001
  6
CONTINUOUS
 62
    2
 10
1113.4311
 20
984.58459999999991
 11
1113.4311
 21
1044.5845999999999
  0
LINE
  8
_0-0_LAYER001
  6
CONTINUOUS
 62
    2
 10
1113.4311
 20
1044.5845999999999
 11
1173.4311
 21
1044.5845999999999
  0
LINE
  8
_0-0_LAYER001
  6
CONTINUOUS
 62
    2
 10
1173.4311
 20
1044.5845999999999
 11
1173.4311
 21
984.58459999999991
  0
LINE
  8
_0-0_LAYER001
  6
CONTINUOUS
 62
    2
 10
1173.4311
 20
1044.5845999999999
 11
1113.4311
 21
984.58459999999991
  0
LINE
  8
_0-0_LAYER001
  6
CONTINUOUS
 62
    2
 10
1476.4310999999998
 20
984.58459999999991
 11
1416.4311
 21
984.58459999999991
  0
LINE
  8
_0-0_LAYER001
  6
CONTINUOUS
 62
    2
 10
1416.4311
 20
984.58459999999991
 11
1416.4311
 21
1044.5845999999999
  0
LINE
  8
_0-0_LAYER001
  6
CONTINUOUS
 62
    2
 10
1416.4311
 20
1044.5845999999999
 11
1476.4310999999998
 21
1044.5845999999999
  0
LINE
  8
_0-0_LAYER001
  6
CONTINUOUS
 62
    2
 10
1476.4310999999998
 20
1044.5845999999999
 11
1476.4310999999998
 21
984.58459999999991
  0
LINE
  8
_0-0_LAYER001
  6
CONTINUOUS
 62
    2
 10
1476.4310999999998
 20
1044.5845999999999
 11
1416.4311
 21
984.58459999999991
  0
LINE
  8
_0-0_LAYER001
  6
CONTINUOUS
 62
    2
 10
1779.4310999999998
 20
984.58459999999991
 11
1719.4310999999998
 21
984.58459999999991
  0
LINE
  8
_0-0_LAYER001
  6
CONTINUOUS
 62
    2
 10
1719.4310999999998
 20
984.58459999999991
 11
1719.4310999999998
 21
1044.5845999999999
  0
LINE
  8
_0-0_LAYER001
  6
CONTINUOUS
 62
    2
 10
1719.4310999999998
 20
1044.5845999999999
 11
1779.4310999999998
 21
1044.5845999999999
  0
LINE
  8
_0-0_LAYER001
  6
CONTINUOUS
 62
    2
 10
1779.4310999999998
 20
1044.5845999999999
 11
1779.4310999999998
 21
984.58459999999991
  0
LINE
  8
_0-0_LAYER001
  6
CONTINUOUS
 62
    2
 10
1779.4310999999998
 20
1044.5845999999999
 11
1719.4310999999998
 21
984.58459999999991
  0
LINE
  8
_0-0_LAYER001
  6
CONTINUOUS
 62
    2
 10
2082.4310999999998
 20
984.58459999999991
 11
2022.4310999999998
 21
984.58459999999991
  0
LINE
  8
_0-0_LAYER001
  6
CONTINUOUS
 62
    2
 10
2022.4310999999998
 20
984.58459999999991
 11
2022.4310999999998
 21
1044.5845999999999
  0
LINE
  8
_0-0_LAYER001
  6
CONTINUOUS
 62
    2
 10
2022.4310999999998
 20
1044.5845999999999
 11
2082.4310999999998
 21
1044.5845999999999
  0
LINE
  8
_0-0_LAYER001
  6
CONTINUOUS
 62
    2
 10
2082.4310999999998
 20
1044.5845999999999
 11
2082.4310999999998
 21
984.58459999999991
  0
LINE
  8
_0-0_LAYER001
  6
CONTINUOUS
 62
    2
 10
2082.4310999999998
 20
1044.5845999999999
 11
2022.4310999999998
 21
984.58459999999991
  0
LINE
  8
_0-0_LAYER001
  6
CONTINUOUS
 62
    2
 10
2186.6086
 20
984.58459999999991
 11
1113.4311
 21
984.58459999999991
  0
LINE
  8
_0-0_LAYER001
  6
CONTINUOUS
 62
    2
 10
2186.6086
 20
978.58459999999991
 11
1113.4311
 21
978.58459999999991
  0
LINE
  8
_0-0_LAYER001
  6
CONTINUOUS
 62
    2
 10
2186.6086
 20
1044.5845999999999
 11
1113.4311
 21
1044.5845999999999
  0
LINE
  8
_0-0_LAYER001
  6
CONTINUOUS
 62
    2
 10
1098.1678999999999
 20
986.99499999999989
 11
1103.4712
 21
992.29829999999993
  0
LINE
  8
_0-0_LAYER001
  6
CONTINUOUS
 62
    2
 10
1103.4712
 20
992.29829999999993
 11
1101.5300999999999
 21
985.05390000000011
  0
LINE
  8
_0-0_LAYER001
  6
CONTINUOUS
 62
    2
 10
1103.4712
 20
992.29829999999993
 11
1056.5187000000001
 21
910.97409999999991
  0
LINE
  8
_0-0_LAYER001
  6
CONTINUOUS
 62
    2
 10
1056.5187000000001
 20
910.97409999999991
 11
1008.5187000000001
 21
910.97409999999991
  0
LINE
  8
_0-0_LAYER001
  6
CONTINUOUS
 62
    3
 10
1113.4311
 20
1045.5103999999999
 11
1113.4311
 21
958.58459999999991
  0
LINE
  8
_0-0_LAYER001
  6
CONTINUOUS
 62
    3
 10
1113.4311
 20
958.58459999999991
 11
1092.4647
 21
958.58459999999991
  0
LINE
  8
_0-0_LAYER001
  6
CONTINUOUS
 62
    3
 10
1092.4647
 20
958.58459999999991
 11
1092.4647
 21
1045.559
  0
LINE
  8
_0-0_LAYER001
  6
CONTINUOUS
 62
    2
 10
1092.4647
 20
960.87840000000006
 11
1094.7584999999999
 21
958.58459999999991
  0
LINE
  8
_0-0_LAYER001
  6
CONTINUOUS
 62
    2
 10
1092.4647
 20
971.4849999999999
 11
1105.3651
 21
958.58459999999991
  0
LINE
  8
_0-0_LAYER001
  6
CONTINUOUS
 62
    2
 10
1092.4647
 20
982.09159999999997
 11
1113.4311
 21
961.12519999999995
  0
LINE
  8
_0-0_LAYER001
  6
CONTINUOUS
 62
    2
 10
1092.4647
 20
992.69820000000004
 11
1113.4311
 21
971.73180000000002
  0
LINE
  8
_0-0_LAYER001
  6
CONTINUOUS
 62
    2
 10
1092.4647
 20
1003.3047999999999
 11
1113.4311
 21
982.33840000000009
  0
LINE
  8
_0-0_LAYER001
  6
CONTINUOUS
 62
    2
 10
1092.4647
 20
1013.9114
 11
1113.4311
 21
992.94499999999994
  0
LINE
  8
_0-0_LAYER001
  6
CONTINUOUS
 62
    2
 10
1092.4647
 20
1024.518
 11
1113.4311
 21
1003.5516
  0
LINE
  8
_0-0_LAYER001
  6
CONTINUOUS
 62
    2
 10
1092.4647
 20
1035.1246000000001
 11
1113.4311
 21
1014.1582000000001
  0
LINE
  8
_0-0_LAYER001
  6
CONTINUOUS
 62
    2
 10
1092.4647
 20
1045.7311999999999
 11
1113.4311
 21
1024.7647999999999
  0
LINE
  8
_0-0_LAYER001
  6
CONTINUOUS
 62
    2
 10
1103.2435
 20
1045.559
 11
1113.4311
 21
1035.3714
  0
LINE
  8
_0-0_LAYER001
  6
CONTINUOUS
 62
    2
 10
1066.6992
 20
1151.9784
 11
1068.6403
 21
1144.7338999999999
  0
LINE
  8
_0-0_LAYER001
  6
CONTINUOUS
 62
    2
 10
1068.6403
 20
1144.7338999999999
 11
1063.337
 21
1150.0372
  0
LINE
  8
_0-0_LAYER001
  6
CONTINUOUS
 62
    2
 10
1068.6403
 20
1144.7338999999999
 11
1013.7999
 21
1239.7202
  0
LINE
  8
_0-0_LAYER001
  6
CONTINUOUS
 62
    2
 10
1013.7999
 20
1239.7202
 11
965.79989999999998
 21
1239.7202
  0
LINE
  8
_0-0_LAYER001
  6
CONTINUOUS
 62
    2
 10
1113.4177999999999
 20
1045.559
 11
1120.9953
 21
1053.1365000000001
  0
LINE
  8
_0-0_LAYER001
  6
CONTINUOUS
 62
    2
 10
1102.8112000000001
 20
1045.559
 11
1118.4268999999999
 21
1061.1747
  0
LINE
  8
_0-0_LAYER001
  6
CONTINUOUS
 62
    2
 10
1092.2046
 20
1045.559
 11
1115.8585
 21
1069.2129
  0
LINE
  8
_0-0_LAYER001
  6
CONTINUOUS
 62
    2
 10
1082.4647
 20
1046.4257
 11
1113.2900999999999
 21
1077.2511
  0
LINE
  8
_0-0_LAYER001
  6
CONTINUOUS
 62
    2
 10
1082.4647
 20
1057.0323000000001
 11
1110.7217000000001
 21
1085.2892999999999
  0
LINE
  8
_0-0_LAYER001
  6
CONTINUOUS
 62
    2
 10
1082.4647
 20
1067.6388999999999
 11
1108.1532
 21
1093.3273999999999
  0
LINE
  8
_0-0_LAYER001
  6
CONTINUOUS
 62
    2
 10
1082.4647
 20
1078.2455
 11
1105.5848000000001
 21
1101.3656000000001
  0
LINE
  8
_0-0_LAYER001
  6
CONTINUOUS
 62
    2
 10
1082.4647
 20
1088.8521000000001
 11
1103.0164
 21
1109.4038
  0
LINE
  8
_0-0_LAYER001
  6
CONTINUOUS
 62
    2
 10
1082.4647
 20
1099.4586999999999
 11
1100.4480000000001
 21
1117.442
  0
LINE
  8
_0-0_LAYER001
  6
CONTINUOUS
 62
    2
 10
1082.4647
 20
1110.0653
 11
1092.9584
 21
1120.559
  0
LINE
  8
_0-0_LAYER001
  6
CONTINUOUS
 62
    2
 10
1675.3072999999999
 20
1152.6165000000001
 11
1670.0039999999999
 21
1147.3132000000001
  0
LINE
  8
_0-0_LAYER001
  6
CONTINUOUS
 62
    2
 10
1670.0039999999999
 20
1147.3132000000001
 11
1671.9452000000001
 21
1154.5577000000001
  0
LINE
  8
_0-0_LAYER001
  6
CONTINUOUS
 62
    2
 10
1670.0039999999999
 20
1147.3132000000001
 11
1713.2689999999998
 21
1222.2503999999999
  0
LINE
  8
_0-0_LAYER001
  6
CONTINUOUS
 62
    2
 10
1713.2689999999998
 20
1222.2503999999999
 11
1753.7689999999998
 21
1222.2503999999999
  0
LINE
  8
_0-0_LAYER001
  6
CONTINUOUS
 62
    2
 10
1082.9748999999999
 20
1312.3076000000001
 11
1082.9748999999999
 21
1259.8076000000001
  0
CIRCLE
  8
_0-0_LAYER001
  6
CONTINUOUS
 62
    2
 10
1082.9748999999999
 20
1309.8076000000001
 40
1.6999999999999997
  0
LINE
  8
_0-0_LAYER001
  6
CONTINUOUS
 62
    2
 10
1082.9748999999999
 20
1309.8076000000001
 11
1112.9748999999999
 21
1309.8076000000001
  0
CIRCLE
  8
_0-0_LAYER001
  6
CONTINUOUS
 62
    2
 10
1112.9748999999999
 20
1309.8076000000001
 40
1.6999999999999997
  0
LINE
  8
_0-0_LAYER001
  6
CONTINUOUS
 62
    2
 10
1112.9748999999999
 20
1312.3076000000001
 11
1112.9748999999999
 21
1259.8076000000001
  0
CIRCLE
  8
_0-0_LAYER001
  6
CONTINUOUS
 62
    2
 10
1112.9748999999999
 20
1309.8076000000001
 40
1.6999999999999997
  0
LINE
  8
_0-0_LAYER001
  6
CONTINUOUS
 62
    2
 10
1112.9748999999999
 20
1309.8076000000001
 11
1372.9748999999997
 21
1309.8076000000001
  0
CIRCLE
  8
_0-0_LAYER001
  6
CONTINUOUS
 62
    2
 10
1372.9748999999997
 20
1309.8076000000001
 40
1.6999999999999997
  0
LINE
  8
_0-0_LAYER001
  6
CONTINUOUS
 62
    2
 10
1372.9748999999997
 20
1312.3076000000001
 11
1372.9748999999997
 21
1259.8076000000001
  0
CIRCLE
  8
_0-0_LAYER001
  6
CONTINUOUS
 62
    2
 10
1372.9748999999997
 20
1309.8076000000001
 40
1.6999999999999997
  0
LINE
  8
_0-0_LAYER001
  6
CONTINUOUS
 62
    2
 10
1372.9748999999997
 20
1309.8076000000001
 11
1632.9749000000002
 21
1309.8076000000001
  0
CIRCLE
  8
_0-0_LAYER001
  6
CONTINUOUS
 62
    2
 10
1632.9749000000002
 20
1309.8076000000001
 40
1.6999999999999997
  0
LINE
  8
_0-0_LAYER001
  6
CONTINUOUS
 62
    2
 10
1632.9749000000002
 20
1312.3076000000001
 11
1632.9749000000002
 21
1259.8076000000001
  0
CIRCLE
  8
_0-0_LAYER001
  6
CONTINUOUS
 62
    2
 10
1632.9749000000002
 20
1309.8076000000001
 40
1.6999999999999997
  0
LINE
  8
_0-0_LAYER001
  6
CONTINUOUS
 62
    2
 10
1632.9749000000002
 20
1309.8076000000001
 11
1892.9748
 21
1309.8076000000001
  0
CIRCLE
  8
_0-0_LAYER001
  6
CONTINUOUS
 62
    2
 10
1892.9748
 20
1309.8076000000001
 40
1.6999999999999997
  0
LINE
  8
_0-0_LAYER001
  6
CONTINUOUS
 62
    2
 10
1892.9748
 20
1312.3076000000001
 11
1892.9748
 21
1259.8076000000001
  0
CIRCLE
  8
_0-0_LAYER001
  6
CONTINUOUS
 62
    2
 10
1892.9748
 20
1309.8076000000001
 40
1.6999999999999997
  0
LINE
  8
_0-0_LAYER001
  6
CONTINUOUS
 62
    2
 10
1892.9748
 20
1309.8076000000001
 11
2152.9748
 21
1309.8076000000001
  0
CIRCLE
  8
_0-0_LAYER001
  6
CONTINUOUS
 62
    2
 10
2152.9748
 20
1309.8076000000001
 40
1.6999999999999997
  0
LINE
  8
_0-0_LAYER001
  6
CONTINUOUS
 62
    2
 10
2152.9748
 20
1312.3076000000001
 11
2152.9748
 21
1259.8076000000001
  0
LINE
  8
_0-0_LAYER001
  6
DASHED1
 62
    1
 10
1055.0173
 20
1068.6643999999999
 11
1055.0173
 21
1084.6643999999999
  0
LINE
  8
_0-0_LAYER001
  6
DASHED1
 62
    1
 10
1055.0173
 20
1084.6643999999999
 11
1058.0173
 21
1084.6643999999999
  0
LINE
  8
_0-0_LAYER001
  6
DASHED1
 62
    1
 10
1055.0173
 20
1068.6643999999999
 11
1058.0173
 21
1068.6643999999999
  0
LINE
  8
_0-0_LAYER001
  6
DASHED1
 62
    1
 10
1058.0173
 20
1068.6643999999999
 11
1058.0173
 21
1084.6643999999999
  0
LINE
  8
_0-0_LAYER001
  6
DASHED1
 62
    1
 10
1112.9133999999999
 20
1079.6643999999999
 11
1127.4223
 21
1076.6143
  0
LINE
  8
_0-0_LAYER001
  6
DASHED1
 62
    1
 10
1058.0173
 20
1079.6643999999999
 11
1112.9133999999999
 21
1079.6643999999999
  0
LINE
  8
_0-0_LAYER001
  6
DASHED1
 62
    1
 10
1127.4223
 20
1076.6143
 11
1113.1648
 21
1073.6643999999999
  0
LINE
  8
_0-0_LAYER001
  6
DASHED1
 62
    1
 10
1058.0173
 20
1073.6643999999999
 11
1113.1648
 21
1073.6643999999999
  0
LINE
  8
_0-0_LAYER001
  6
DASHED1
 62
    1
 10
1524.1655999999998
 20
1101.9791
 11
1540.1655999999998
 21
1101.9791
  0
LINE
  8
_0-0_LAYER001
  6
DASHED1
 62
    1
 10
1540.1655999999998
 20
1101.9791
 11
1540.1655999999998
 21
1098.9791
  0
LINE
  8
_0-0_LAYER001
  6
DASHED1
 62
    1
 10
1524.1655999999998
 20
1101.9791
 11
1524.1655999999998
 21
1098.9791
  0
LINE
  8
_0-0_LAYER001
  6
DASHED1
 62
    1
 10
1524.1655999999998
 20
1098.9791
 11
1540.1655999999998
 21
1098.9791
  0
LINE
  8
_0-0_LAYER001
  6
DASHED1
 62
    1
 10
1535.1655999999998
 20
1044.0831000000001
 11
1532.1154000000001
 21
1029.5741
  0
LINE
  8
_0-0_LAYER001
  6
DASHED1
 62
    1
 10
1535.1655999999998
 20
1098.9791
 11
1535.1655999999998
 21
1044.0831000000001
  0
LINE
  8
_0-0_LAYER001
  6
DASHED1
 62
    1
 10
1532.1154000000001
 20
1029.5741
 11
1529.1655999999998
 21
1043.8316
  0
LINE
  8
_0-0_LAYER001
  6
DASHED1
 62
    1
 10
1529.1655999999998
 20
1098.9791
 11
1529.1655999999998
 21
1043.8316
  0
LINE
  8
_0-0_LAYER001
  6
CONTINUOUS
 62
    4
 10
1539.4634999999998
 20
1070.6257000000001
 11
1533.8002999999999
 21
1080.0644
  0
LINE
  8
_0-0_LAYER001
  6
CONTINUOUS
 62
    3
 10
1082.4647
 20
1045.559
 11
1123.4165
 21
1045.559
  0
LINE
  8
_0-0_LAYER001
  6
CONTINUOUS
 62
    3
 10
1099.452
 20
1120.559
 11
1123.4165
 21
1045.559
  0
LINE
  8
_0-0_LAYER001
  6
CONTINUOUS
 62
    3
 10
1082.4647
 20
1120.559
 11
1082.4647
 21
1045.559
  0
LINE
  8
_0-0_LAYER001
  6
CONTINUOUS
 62
    3
 10
1082.4647
 20
1120.559
 11
1099.452
 21
1120.559
  0
LINE
  8
_0-0_LAYER001
  6
DASHED1
 62
    1
 10
1785.3557000000001
 20
1098.5197000000001
 11
1801.3557000000001
 21
1098.5197000000001
  0
LINE
  8
_0-0_LAYER001
  6
DASHED1
 62
    1
 10
1801.3557000000001
 20
1098.5197000000001
 11
1801.3557000000001
 21
1095.5197000000001
  0
LINE
  8
_0-0_LAYER001
  6
DASHED1
 62
    1
 10
1785.3557000000001
 20
1098.5197000000001
 11
1785.3557000000001
 21
1095.5197000000001
  0
LINE
  8
_0-0_LAYER001
  6
DASHED1
 62
    1
 10
1785.3557000000001
 20
1095.5197000000001
 11
1801.3557000000001
 21
1095.5197000000001
  0
LINE
  8
_0-0_LAYER001
  6
DASHED1
 62
    1
 10
1796.3557000000001
 20
1040.6235999999999
 11
1793.3054999999999
 21
1026.1147000000001
  0
LINE
  8
_0-0_LAYER001
  6
DASHED1
 62
    1
 10
1796.3557000000001
 20
1095.5197000000001
 11
1796.3557000000001
 21
1040.6235999999999
  0
LINE
  8
_0-0_LAYER001
  6
DASHED1
 62
    1
 10
1793.3054999999999
 20
1026.1147000000001
 11
1790.3557000000001
 21
1040.3722
  0
LINE
  8
_0-0_LAYER001
  6
DASHED1
 62
    1
 10
1790.3557000000001
 20
1095.5197000000001
 11
1790.3557000000001
 21
1040.3722
  0
LINE
  8
_0-0_LAYER001
  6
DASHED1
 62
    1
 10
2044.8161
 20
1100.2493999999999
 11
2060.8161
 21
1100.2493999999999
  0
LINE
  8
_0-0_LAYER001
  6
DASHED1
 62
    1
 10
2060.8161
 20
1100.2493999999999
 11
2060.8161
 21
1097.2493999999999
  0
LINE
  8
_0-0_LAYER001
  6
DASHED1
 62
    1
 10
2044.8161
 20
1100.2493999999999
 11
2044.8161
 21
1097.2493999999999
  0
LINE
  8
_0-0_LAYER001
  6
DASHED1
 62
    1
 10
2044.8161
 20
1097.2493999999999
 11
2060.8161
 21
1097.2493999999999
  0
LINE
  8
_0-0_LAYER001
  6
DASHED1
 62
    1
 10
2055.8161
 20
1042.3533
 11
2052.7658999999999
 21
1027.8444
  0
LINE
  8
_0-0_LAYER001
  6
DASHED1
 62
    1
 10
2055.8161
 20
1097.2493999999999
 11
2055.8161
 21
1042.3533
  0
LINE
  8
_0-0_LAYER001
  6
DASHED1
 62
    1
 10
2052.7658999999999
 20
1027.8444
 11
2049.8161
 21
1042.1018999999999
  0
LINE
  8
_0-0_LAYER001
  6
DASHED1
 62
    1
 10
2049.8161
 20
1097.2493999999999
 11
2049.8161
 21
1042.1018999999999
  0
LINE
  8
_0-0_LAYER001
  6
CONTINUOUS
 62
    4
 10
2060.7188999999998
 20
1070.6512
 11
2055.0556999999999
 21
1080.0898999999999
  0
LINE
  8
_0-0_LAYER001
  6
CONTINUOUS
 62
    4
 10
1800.2894000000001
 20
1070.6257000000001
 11
1794.6262000000002
 21
1080.0644
  0
ARC
  8
_0-0_LAYER001
  6
CONTINUOUS
 62
    4
 10
2272.9740999999999
 20
1307.5853000000002
 40
212.52318
 50
244.57801000000001
 51
246.02226999999999
  0
ARC
  8
_0-0_LAYER001
  6
CONTINUOUS
 62
    4
 10
2272.9740999999999
 20
1307.5853000000002
 40
214.52317999999997
 50
244.57801000000001
 51
246.25963000000002
  0
ARC
  8
_0-0_LAYER001
  6
CONTINUOUS
 62
    4
 10
2222.0302999999999
 20
1177.3123000000001
 40
73.645919000000006
 50
225.20483999999999
 51
236.85617999999999
  0
ARC
  8
_0-0_LAYER001
  6
CONTINUOUS
 62
    4
 10
2210.9376999999999
 20
1169.4070999999999
 40
81.008393999999996
 50
226.46691000000004
 51
242.05489
  0
ARC
  8
_0-0_LAYER001
  6
CONTINUOUS
 62
    4
 10
2264.4602
 20
1244.0119
 40
154.70135999999999
 50
229.79871999999997
 51
237.31520999999998
  0
LINE
  8
_0-0_LAYER001
  6
CONTINUOUS
 62
    4
 10
2155.1412999999998
 20
1128.5070000000001
 11
2155.1412999999998
 21
1110.6778999999999
  0
ARC
  8
_0-0_LAYER001
  6
CONTINUOUS
 62
    4
 10
2159.1412999999998
 20
1128.5070000000001
 40
4
 50
90
 51
180
  0
LINE
  8
_0-0_LAYER001
  6
CONTINUOUS
 62
    4
 10
2160.6044000000002
 20
1132.5070000000001
 11
2159.1412999999998
 21
1132.5070000000001
  0
LINE
  8
_0-0_LAYER001
  6
CONTINUOUS
 62
    4
 10
2164.6044000000002
 20
1128.5070000000001
 11
2164.6044000000002
 21
1125.8538000000001
  0
ARC
  8
_0-0_LAYER001
  6
CONTINUOUS
 62
    4
 10
2160.6044000000002
 20
1128.5070000000001
 40
4
 50
0
 51
90
  0
LINE
  8
_0-0_LAYER001
  6
CONTINUOUS
 62
    4
 10
2170.1412999999998
 20
1127.8976
 11
2170.1412999999998
 21
1125.0509
  0
LINE
  8
_0-0_LAYER001
  6
CONTINUOUS
 62
    4
 10
2174.1412999999998
 20
1131.8976
 11
2186.6086
 21
1131.8976
  0
ARC
  8
_0-0_LAYER001
  6
CONTINUOUS
 62
    4
 10
2174.1412999999998
 20
1127.8976
 40
4
 50
90
 51
180
  0
ARC
  8
_0-0_LAYER001
  6
CONTINUOUS
 62
    4
 10
2272.9740999999999
 20
1307.5853000000002
 40
232.52318
 50
244.57801000000001
 51
248.19632000000001
  0
ARC
  8
_0-0_LAYER001
  6
CONTINUOUS
 62
    4
 10
2152.5275000000001
 20
1108.7635
 40
69.214101999999997
 50
60.501471999999993
 51
163.33506
  0
ARC
  8
_0-0_LAYER001
  6
CONTINUOUS
 62
    4
 10
2152.1324
 20
1110.2469000000001
 40
50.327697999999998
 50
46.761682999999998
 51
173.62688
  0
ARC
  8
_0-0_LAYER001
  6
CONTINUOUS
 62
    4
 10
2014.0592999999999
 20
1309.2556999999999
 40
212.52318
 50
244.57801000000001
 51
294.47764000000006
  0
ARC
  8
_0-0_LAYER001
  6
CONTINUOUS
 62
    4
 10
2014.0592999999999
 20
1309.2556999999999
 40
214.52317999999997
 50
244.57801000000001
 51
294.78532999999999
  0
ARC
  8
_0-0_LAYER001
  6
CONTINUOUS
 62
    4
 10
2152.1324
 20
1110.2469000000001
 40
48.327697999999998
 50
88.109851000000006
 51
174.95909000000003
  0
LINE
  8
_0-0_LAYER001
  6
CONTINUOUS
 62
    4
 10
2153.7264
 20
1158.5482999999999
 11
2153.7264
 21
1146.4193
  0
LINE
  8
_0-0_LAYER001
  6
CONTINUOUS
 62
    4
 10
1981.7143000000001
 20
1067.941
 11
1975.1473999999998
 21
1080.0898999999999
  0
LINE
  8
_0-0_LAYER001
  6
CONTINUOUS
 62
    4
 10
1993.8404999999998
 20
1067.6116999999999
 11
1999.2707
 21
1076.4713999999999
  0
ARC
  8
_0-0_LAYER001
  6
CONTINUOUS
 62
    4
 10
1987.8723
 20
1071.2696000000001
 40
7
 50
208.39301
 51
328.49572999999998
  0
LINE
  8
_0-0_LAYER001
  6
CONTINUOUS
 62
    4
 10
2073.2311
 20
1071.6791000000001
 11
2079.1790000000001
 21
1086.7238
  0
ARC
  8
_0-0_LAYER001
  6
CONTINUOUS
 62
    4
 10
2066.7213999999999
 20
1074.2527
 40
7
 50
210.96375
 51
338.42869000000002
  0
LINE
  8
_0-0_LAYER001
  6
CONTINUOUS
 62
    4
 10
2100.8723
 20
1078.6205
 11
2093.9544999999998
 21
1090.3423
  0
ARC
  8
_0-0_LAYER001
  6
CONTINUOUS
 62
    4
 10
2104.3171000000002
 20
1080.6534999999999
 40
4
 50
210.54757000000001
 51
342.13990000000001
  0
ARC
  8
_0-0_LAYER001
  6
CONTINUOUS
 62
    4
 10
2014.0592999999999
 20
1309.2556999999999
 40
194.52317999999997
 50
244.57801000000001
 51
291.77512000000002
  0
ARC
  8
_0-0_LAYER001
  6
CONTINUOUS
 62
    4
 10
1963.1154000000001
 20
1178.9827
 40
73.645919000000006
 50
225.20483999999999
 51
236.85617999999999
  0
ARC
  8
_0-0_LAYER001
  6
CONTINUOUS
 62
    4
 10
1952.0228000000002
 20
1171.0775000000001
 40
81.008393999999996
 50
226.46691000000004
 51
242.05489
  0
ARC
  8
_0-0_LAYER001
  6
CONTINUOUS
 62
    4
 10
2005.5453000000002
 20
1245.6822999999999
 40
154.70135999999999
 50
229.79871999999997
 51
237.31520999999998
  0
LINE
  8
_0-0_LAYER001
  6
CONTINUOUS
 62
    4
 10
1896.2264
 20
1130.1774
 11
1896.2264
 21
1112.3483000000001
  0
ARC
  8
_0-0_LAYER001
  6
CONTINUOUS
 62
    4
 10
1900.2264
 20
1130.1774
 40
4
 50
90
 51
180
  0
LINE
  8
_0-0_LAYER001
  6
CONTINUOUS
 62
    4
 10
1901.6895
 20
1134.1774
 11
1900.2264
 21
1134.1774
  0
LINE
  8
_0-0_LAYER001
  6
CONTINUOUS
 62
    4
 10
1905.6895
 20
1130.1774
 11
1905.6895
 21
1127.5242000000001
  0
ARC
  8
_0-0_LAYER001
  6
CONTINUOUS
 62
    4
 10
1901.6895
 20
1130.1774
 40
4
 50
0
 51
90
  0
LINE
  8
_0-0_LAYER001
  6
CONTINUOUS
 62
    4
 10
1911.2264
 20
1129.568
 11
1911.2264
 21
1126.7213999999999
  0
LINE
  8
_0-0_LAYER001
  6
CONTINUOUS
 62
    4
 10
1915.2264
 20
1133.568
 11
1930.5540000000001
 21
1133.568
  0
ARC
  8
_0-0_LAYER001
  6
CONTINUOUS
 62
    4
 10
1915.2264
 20
1129.568
 40
4
 50
90
 51
180
  0
ARC
  8
_0-0_LAYER001
  6
CONTINUOUS
 62
    4
 10
2014.0592999999999
 20
1309.2556999999999
 40
232.52318
 50
244.57801000000001
 51
295.00637
  0
ARC
  8
_0-0_LAYER001
  6
CONTINUOUS
 62
    4
 10
2154.7255
 20
1106.1828
 40
40.248902000000001
 50
91.422393999999997
 51
185.22383000000002
  0
ARC
  8
_0-0_LAYER001
  6
CONTINUOUS
 62
    4
 10
2110.6604000000002
 20
1102.1541
 40
4
 50
295.00637
 51
5.2238350000000304
  0
LINE
  8
_0-0_LAYER001
  6
CONTINUOUS
 62
    4
 10
2112.2118999999998
 20
1097.9847
 11
2108.3130000000001
 21
1079.9522999999999
  0
ARC
  8
_0-0_LAYER001
  6
CONTINUOUS
 62
    4
 10
1892.0979000000002
 20
1108.7380000000001
 40
69.214101999999997
 50
13.791351000000001
 51
163.33506000000003
  0
ARC
  8
_0-0_LAYER001
  6
CONTINUOUS
 62
    4
 10
1891.7028
 20
1110.2213999999999
 40
50.327697999999998
 50
23.01118
 51
173.62688000000003
  0
ARC
  8
_0-0_LAYER001
  6
CONTINUOUS
 62
    4
 10
1753.6297
 20
1309.2302
 40
212.52318
 50
244.57801000000001
 51
294.47764000000006
  0
ARC
  8
_0-0_LAYER001
  6
CONTINUOUS
 62
    4
 10
1753.6297
 20
1309.2302
 40
214.52317999999997
 50
244.57801000000001
 51
294.78532999999999
  0
ARC
  8
_0-0_LAYER001
  6
CONTINUOUS
 62
    4
 10
1891.7028
 20
1110.2213999999999
 40
48.327697999999998
 50
88.109851000000006
 51
174.95909000000003
  0
LINE
  8
_0-0_LAYER001
  6
CONTINUOUS
 62
    4
 10
1893.2968000000001
 20
1158.5228
 11
1893.2968000000001
 21
1146.3938000000001
  0
LINE
  8
_0-0_LAYER001
  6
CONTINUOUS
 62
    4
 10
1959.3166000000001
 20
1125.2376999999999
 11
1938.0259000000001
 21
1129.8951
  0
LINE
  8
_0-0_LAYER001
  6
CONTINUOUS
 62
    4
 10
1721.2847999999999
 20
1067.9155000000001
 11
1714.7177999999999
 21
1080.0644
  0
LINE
  8
_0-0_LAYER001
  6
CONTINUOUS
 62
    4
 10
1733.4108999999999
 20
1067.5862
 11
1738.8411000000001
 21
1076.4458999999999
  0
ARC
  8
_0-0_LAYER001
  6
CONTINUOUS
 62
    4
 10
1727.4427000000001
 20
1071.2440999999999
 40
7
 50
208.39301
 51
328.49572999999998
  0
LINE
  8
_0-0_LAYER001
  6
CONTINUOUS
 62
    4
 10
1812.8015
 20
1071.6536000000001
 11
1818.7494000000002
 21
1086.6983
  0
ARC
  8
_0-0_LAYER001
  6
CONTINUOUS
 62
    4
 10
1806.2918
 20
1074.2272
 40
7
 50
210.96375
 51
338.42869000000002
  0
LINE
  8
_0-0_LAYER001
  6
CONTINUOUS
 62
    4
 10
1840.4427000000001
 20
1078.595
 11
1833.5250000000001
 21
1090.3168000000001
  0
ARC
  8
_0-0_LAYER001
  6
CONTINUOUS
 62
    4
 10
1843.8874999999998
 20
1080.6279999999999
 40
4
 50
210.54757000000001
 51
342.13990000000001
  0
ARC
  8
_0-0_LAYER001
  6
CONTINUOUS
 62
    4
 10
1753.6297
 20
1309.2302
 40
194.52317999999997
 50
244.57801000000001
 51
291.77512000000002
  0
ARC
  8
_0-0_LAYER001
  6
CONTINUOUS
 62
    4
 10
1702.6858000000002
 20
1178.9573
 40
73.645919000000006
 50
225.20483999999999
 51
236.85617999999999
  0
ARC
  8
_0-0_LAYER001
  6
CONTINUOUS
 62
    4
 10
1691.5933
 20
1171.0519999999999
 40
81.008393999999996
 50
226.46691000000004
 51
242.05489
  0
ARC
  8
_0-0_LAYER001
  6
CONTINUOUS
 62
    4
 10
1745.1158
 20
1245.6568
 40
154.70135999999999
 50
229.79871999999997
 51
237.31520999999998
  0
LINE
  8
_0-0_LAYER001
  6
CONTINUOUS
 62
    4
 10
1635.7968999999998
 20
1130.1519000000001
 11
1635.7968999999998
 21
1112.3227999999999
  0
ARC
  8
_0-0_LAYER001
  6
CONTINUOUS
 62
    4
 10
1639.7968999999998
 20
1130.1519000000001
 40
4
 50
90
 51
180
  0
LINE
  8
_0-0_LAYER001
  6
CONTINUOUS
 62
    4
 10
1641.2601
 20
1134.1519000000001
 11
1639.7968999999998
 21
1134.1519000000001
  0
LINE
  8
_0-0_LAYER001
  6
CONTINUOUS
 62
    4
 10
1645.2601
 20
1130.1519000000001
 11
1645.2601
 21
1127.4987000000001
  0
ARC
  8
_0-0_LAYER001
  6
CONTINUOUS
 62
    4
 10
1641.2601
 20
1130.1519000000001
 40
4
 50
0
 51
90
  0
LINE
  8
_0-0_LAYER001
  6
CONTINUOUS
 62
    4
 10
1650.7968999999998
 20
1129.5426
 11
1650.7968999999998
 21
1126.6958999999999
  0
LINE
  8
_0-0_LAYER001
  6
CONTINUOUS
 62
    4
 10
1654.7968999999998
 20
1133.5426
 11
1670.1244000000002
 21
1133.5426
  0
ARC
  8
_0-0_LAYER001
  6
CONTINUOUS
 62
    4
 10
1654.7968999999998
 20
1129.5426
 40
4
 50
90
 51
180
  0
ARC
  8
_0-0_LAYER001
  6
CONTINUOUS
 62
    4
 10
1753.6297
 20
1309.2302
 40
232.52318
 50
244.57801000000001
 51
295.00637
  0
ARC
  8
_0-0_LAYER001
  6
CONTINUOUS
 62
    4
 10
1894.2959000000001
 20
1106.1573000000001
 40
40.248902000000001
 50
91.422393999999997
 51
185.22383000000002
  0
ARC
  8
_0-0_LAYER001
  6
CONTINUOUS
 62
    4
 10
1850.2307999999998
 20
1102.1286
 40
4
 50
295.00637
 51
5.2238350000000304
  0
LINE
  8
_0-0_LAYER001
  6
CONTINUOUS
 62
    4
 10
1851.7824000000001
 20
1097.9592
 11
1847.8834999999999
 21
1079.9268
  0
ARC
  8
_0-0_LAYER001
  6
CONTINUOUS
 62
    4
 10
1631.2721000000001
 20
1108.7380000000001
 40
69.214101999999997
 50
13.791351000000001
 51
163.33506000000003
  0
ARC
  8
_0-0_LAYER001
  6
CONTINUOUS
 62
    4
 10
1630.877
 20
1110.2213999999999
 40
50.327697999999998
 50
23.01118
 51
173.62688000000003
  0
ARC
  8
_0-0_LAYER001
  6
CONTINUOUS
 62
    4
 10
1492.8038999999999
 20
1309.2302
 40
212.52318
 50
244.57801000000001
 51
294.47764000000006
  0
ARC
  8
_0-0_LAYER001
  6
CONTINUOUS
 62
    4
 10
1492.8038999999999
 20
1309.2302
 40
214.52317999999997
 50
244.57801000000001
 51
294.78532999999999
  0
ARC
  8
_0-0_LAYER001
  6
CONTINUOUS
 62
    4
 10
1630.877
 20
1110.2213999999999
 40
48.327697999999998
 50
88.109851000000006
 51
174.95909000000003
  0
LINE
  8
_0-0_LAYER001
  6
CONTINUOUS
 62
    4
 10
1632.471
 20
1158.5228
 11
1632.471
 21
1146.3938000000001
  0
LINE
  8
_0-0_LAYER001
  6
CONTINUOUS
 62
    4
 10
1698.4906999999998
 20
1125.2376999999999
 11
1677.1999999999998
 21
1129.8951
  0
LINE
  8
_0-0_LAYER001
  6
CONTINUOUS
 62
    4
 10
1460.4589999999998
 20
1067.9155000000001
 11
1453.8919999999998
 21
1080.0644
  0
LINE
  8
_0-0_LAYER001
  6
CONTINUOUS
 62
    4
 10
1472.5850999999998
 20
1067.5862
 11
1478.0153
 21
1076.4458999999999
  0
ARC
  8
_0-0_LAYER001
  6
CONTINUOUS
 62
    4
 10
1466.6169
 20
1071.2440999999999
 40
7
 50
208.39301
 51
328.49572999999998
  0
LINE
  8
_0-0_LAYER001
  6
CONTINUOUS
 62
    4
 10
1551.9757
 20
1071.6536000000001
 11
1557.9236000000001
 21
1086.6983
  0
ARC
  8
_0-0_LAYER001
  6
CONTINUOUS
 62
    4
 10
1545.4659999999999
 20
1074.2272
 40
7
 50
210.96375
 51
338.42869000000002
  0
LINE
  8
_0-0_LAYER001
  6
CONTINUOUS
 62
    4
 10
1579.6169
 20
1078.595
 11
1572.6990999999998
 21
1090.3168000000001
  0
ARC
  8
_0-0_LAYER001
  6
CONTINUOUS
 62
    4
 10
1583.0617000000002
 20
1080.6279999999999
 40
4
 50
210.54757000000001
 51
342.13990000000001
  0
ARC
  8
_0-0_LAYER001
  6
CONTINUOUS
 62
    4
 10
1492.8038999999999
 20
1309.2302
 40
194.52317999999997
 50
244.57801000000001
 51
291.77512000000002
  0
ARC
  8
_0-0_LAYER001
  6
CONTINUOUS
 62
    4
 10
1441.8600000000001
 20
1178.9573
 40
73.645919000000006
 50
225.20483999999999
 51
236.85617999999999
  0
ARC
  8
_0-0_LAYER001
  6
CONTINUOUS
 62
    4
 10
1430.7674000000002
 20
1171.0519999999999
 40
81.008393999999996
 50
226.46691000000004
 51
242.05489
  0
ARC
  8
_0-0_LAYER001
  6
CONTINUOUS
 62
    4
 10
1484.2899000000002
 20
1245.6568
 40
154.70135999999999
 50
229.79871999999997
 51
237.31520999999998
  0
LINE
  8
_0-0_LAYER001
  6
CONTINUOUS
 62
    4
 10
1374.971
 20
1130.1519000000001
 11
1374.971
 21
1112.3227999999999
  0
ARC
  8
_0-0_LAYER001
  6
CONTINUOUS
 62
    4
 10
1378.971
 20
1130.1519000000001
 40
4
 50
90
 51
180
  0
LINE
  8
_0-0_LAYER001
  6
CONTINUOUS
 62
    4
 10
1380.4340999999999
 20
1134.1519000000001
 11
1378.971
 21
1134.1519000000001
  0
LINE
  8
_0-0_LAYER001
  6
CONTINUOUS
 62
    4
 10
1384.4340999999999
 20
1130.1519000000001
 11
1384.4340999999999
 21
1127.4987000000001
  0
ARC
  8
_0-0_LAYER001
  6
CONTINUOUS
 62
    4
 10
1380.4340999999999
 20
1130.1519000000001
 40
4
 50
0
 51
90
  0
LINE
  8
_0-0_LAYER001
  6
CONTINUOUS
 62
    4
 10
1389.971
 20
1129.5426
 11
1389.971
 21
1126.6958999999999
  0
LINE
  8
_0-0_LAYER001
  6
CONTINUOUS
 62
    4
 10
1393.971
 20
1133.5426
 11
1409.2986000000001
 21
1133.5426
  0
ARC
  8
_0-0_LAYER001
  6
CONTINUOUS
 62
    4
 10
1393.971
 20
1129.5426
 40
4
 50
90
 51
180
  0
ARC
  8
_0-0_LAYER001
  6
CONTINUOUS
 62
    4
 10
1492.8038999999999
 20
1309.2302
 40
232.52318
 50
244.57801000000001
 51
295.00637
  0
ARC
  8
_0-0_LAYER001
  6
CONTINUOUS
 62
    4
 10
1633.4701
 20
1106.1573000000001
 40
40.248902000000001
 50
91.422393999999997
 51
185.22383000000002
  0
ARC
  8
_0-0_LAYER001
  6
CONTINUOUS
 62
    4
 10
1589.4050000000002
 20
1102.1286
 40
4
 50
295.00637
 51
5.2238350000000304
  0
LINE
  8
_0-0_LAYER001
  6
CONTINUOUS
 62
    4
 10
1590.9564999999998
 20
1097.9592
 11
1587.0576000000001
 21
1079.9268
  0
ARC
  8
_0-0_LAYER001
  6
CONTINUOUS
 62
    4
 10
1372.5383999999999
 20
1108.0103999999999
 40
69.214101999999997
 50
13.791351000000001
 51
163.33506000000003
  0
ARC
  8
_0-0_LAYER001
  6
CONTINUOUS
 62
    4
 10
1372.1433
 20
1109.4938
 40
50.327697999999998
 50
23.01118
 51
173.62688000000003
  0
ARC
  8
_0-0_LAYER001
  6
CONTINUOUS
 62
    4
 10
1234.0702000000001
 20
1308.5025999999998
 40
212.52318
 50
244.57801000000001
 51
294.47764000000006
  0
ARC
  8
_0-0_LAYER001
  6
CONTINUOUS
 62
    4
 10
1234.0702000000001
 20
1308.5025999999998
 40
214.52317999999997
 50
244.57801000000001
 51
294.78532999999999
  0
ARC
  8
_0-0_LAYER001
  6
CONTINUOUS
 62
    4
 10
1372.1433
 20
1109.4938
 40
48.327697999999998
 50
88.109851000000006
 51
174.95909000000003
  0
LINE
  8
_0-0_LAYER001
  6
CONTINUOUS
 62
    4
 10
1373.7373
 20
1157.7952
 11
1373.7373
 21
1145.6661999999999
  0
LINE
  8
_0-0_LAYER001
  6
CONTINUOUS
 62
    4
 10
1439.7570999999998
 20
1124.5101
 11
1418.4664
 21
1129.1675
  0
LINE
  8
_0-0_LAYER001
  6
CONTINUOUS
 62
    4
 10
1201.7253000000001
 20
1067.1878999999999
 11
1195.1583000000001
 21
1079.3368
  0
LINE
  8
_0-0_LAYER001
  6
CONTINUOUS
 62
    4
 10
1213.8514
 20
1066.8586
 11
1219.2816
 21
1075.7183
  0
ARC
  8
_0-0_LAYER001
  6
CONTINUOUS
 62
    4
 10
1207.8832
 20
1070.5165
 40
7
 50
208.39301
 51
328.49572999999998
  0
LINE
  8
_0-0_LAYER001
  6
CONTINUOUS
 62
    4
 10
1280.7299
 20
1069.8981000000001
 11
1275.0667000000001
 21
1079.3368
  0
LINE
  8
_0-0_LAYER001
  6
CONTINUOUS
 62
    4
 10
1293.242
 20
1070.9259999999999
 11
1299.1899000000001
 21
1085.9707000000001
  0
ARC
  8
_0-0_LAYER001
  6
CONTINUOUS
 62
    4
 10
1286.7322999999999
 20
1073.4996000000001
 40
7
 50
210.96375
 51
338.42869000000002
  0
LINE
  8
_0-0_LAYER001
  6
CONTINUOUS
 62
    4
 10
1320.8832000000002
 20
1077.8674000000001
 11
1313.9654999999998
 21
1089.5891999999999
  0
ARC
  8
_0-0_LAYER001
  6
CONTINUOUS
 62
    4
 10
1324.3280999999999
 20
1079.9004
 40
4
 50
210.54757000000001
 51
342.13990000000001
  0
ARC
  8
_0-0_LAYER001
  6
CONTINUOUS
 62
    4
 10
1234.0702000000001
 20
1308.5025999999998
 40
194.52317999999997
 50
244.57801000000001
 51
291.77512000000002
  0
ARC
  8
_0-0_LAYER001
  6
CONTINUOUS
 62
    4
 10
1183.1264000000001
 20
1178.2295999999999
 40
73.645919000000006
 50
225.20483999999999
 51
236.85617999999999
  0
ARC
  8
_0-0_LAYER001
  6
CONTINUOUS
 62
    4
 10
1172.0337999999999
 20
1170.3244
 40
81.008393999999996
 50
226.46691000000004
 51
242.05489
  0
ARC
  8
_0-0_LAYER001
  6
CONTINUOUS
 62
    4
 10
1225.5563
 20
1244.9292
 40
154.70135999999999
 50
229.79871999999997
 51
237.31520999999998
  0
LINE
  8
_0-0_LAYER001
  6
CONTINUOUS
 62
    4
 10
1116.2373
 20
1129.4242999999999
 11
1116.2373
 21
1111.5952
  0
ARC
  8
_0-0_LAYER001
  6
CONTINUOUS
 62
    4
 10
1120.2373
 20
1129.4242999999999
 40
4
 50
90
 51
180
  0
LINE
  8
_0-0_LAYER001
  6
CONTINUOUS
 62
    4
 10
1121.7004999999999
 20
1133.4242999999999
 11
1120.2373
 21
1133.4242999999999
  0
LINE
  8
_0-0_LAYER001
  6
CONTINUOUS
 62
    4
 10
1125.7004999999999
 20
1129.4242999999999
 11
1125.7004999999999
 21
1126.7710999999999
  0
ARC
  8
_0-0_LAYER001
  6
CONTINUOUS
 62
    4
 10
1121.7004999999999
 20
1129.4242999999999
 40
4
 50
0
 51
90
  0
LINE
  8
_0-0_LAYER001
  6
CONTINUOUS
 62
    4
 10
1131.2373
 20
1128.8149000000001
 11
1131.2373
 21
1125.9683
  0
LINE
  8
_0-0_LAYER001
  6
CONTINUOUS
 62
    4
 10
1135.2373
 20
1132.8149000000001
 11
1150.5649000000001
 21
1132.8149000000001
  0
ARC
  8
_0-0_LAYER001
  6
CONTINUOUS
 62
    4
 10
1135.2373
 20
1128.8149000000001
 40
4
 50
90
 51
180
  0
ARC
  8
_0-0_LAYER001
  6
CONTINUOUS
 62
    4
 10
1234.0702000000001
 20
1308.5025999999998
 40
232.52318
 50
244.57801000000001
 51
295.00637
  0
ARC
  8
_0-0_LAYER001
  6
CONTINUOUS
 62
    4
 10
1374.7363999999998
 20
1105.4296999999999
 40
40.248902000000001
 50
91.422393999999997
 51
185.22383000000002
  0
ARC
  8
_0-0_LAYER001
  6
CONTINUOUS
 62
    4
 10
1330.6713
 20
1101.4010000000001
 40
4
 50
295.00637
 51
5.2238350000000304
  0
LINE
  8
_0-0_LAYER001
  6
CONTINUOUS
 62
    4
 10
1332.2228999999998
 20
1097.2315000000001
 11
1328.3240000000001
 21
1079.1992
  0
ARC
  8
_0-0_LAYER001
  6
CONTINUOUS
 62
    4
 10
1111.8958
 20
1107.9087
 40
69.214101999999997
 50
13.791351000000001
 51
163.33506000000003
  0
ARC
  8
_0-0_LAYER001
  6
CONTINUOUS
 62
    4
 10
1111.5008
 20
1109.3922
 40
50.327697999999998
 50
23.01118
 51
173.62688000000003
  0
ARC
  8
_0-0_LAYER001
  6
CONTINUOUS
 62
    4
 10
1111.5008
 20
1109.3922
 40
48.327697999999998
 50
88.109851000000006
 51
174.95909000000003
  0
LINE
  8
_0-0_LAYER001
  6
CONTINUOUS
 62
    4
 10
1113.0948000000001
 20
1157.6936000000001
 11
1113.0948000000001
 21
1145.5645999999999
  0
LINE
  8
_0-0_LAYER001
  6
CONTINUOUS
 62
    4
 10
1179.1144999999999
 20
1124.4085
 11
1157.8237999999999
 21
1129.0658000000001
  0
LINE
  8
_0-0_LAYER001
  6
CONTINUOUS
 62
    4
 10
1045.5672999999999
 20
1128.4046000000001
 11
1036.4472000000001
 21
1057.268
  0
LINE
  8
_0-0_LAYER001
  6
CONTINUOUS
 62
    4
 10
1036.4472000000001
 20
1057.268
 11
1053.5862999999999
 21
1057.268
  0
LINE
  8
_0-0_LAYER001
  6
CONTINUOUS
 62
    4
 10
1060.9290000000001
 20
1114.5409999999999
 11
1053.5862999999999
 21
1057.268
  0
LINE
  8
_0-0_LAYER001
  6
CONTINUOUS
 62
    4
 10
1063.2258999999999
 20
1112.8058000000001
 11
1056.1056000000001
 21
1057.268
  0
LINE
  8
_0-0_LAYER001
  6
CONTINUOUS
 62
    4
 10
1056.1056000000001
 20
1057.268
 11
1073.2447999999999
 21
1057.268
  0
LINE
  8
_0-0_LAYER001
  6
CONTINUOUS
 62
    4
 10
1082.2399
 20
1127.4301
 11
1073.2447999999999
 21
1057.268
  0
ARC
  8
_0-0_LAYER001
  6
CONTINUOUS
 62
    4
 10
1116.4593
 20
1104.1059
 40
41.412356000000003
 50
94.526103000000006
 51
145.72146000000001
  0
LINE
  8
_0-0_LAYER001
  6
CONTINUOUS
 62
    2
 10
1372.9748999999997
 20
1075.559
 11
1373.6217999999999
 21
1075.559
  0
LINE
  8
_0-0_LAYER001
  6
CONTINUOUS
 62
    2
 10
1632.9749000000002
 20
1075.559
 11
1633.6217999999999
 21
1075.559
  0
LINE
  8
_0-0_LAYER001
  6
CONTINUOUS
 62
    2
 10
1892.9748
 20
1075.559
 11
1893.6217999999999
 21
1075.559
  0
LINE
  8
_0-0_LAYER001
  6
CONTINUOUS
 62
    2
 10
2152.9748
 20
1075.559
 11
2153.6217999999999
 21
1075.559
  0
LINE
  8
_0-0_LAYER001
  6
DASHED3
 62
    2
 10
2186.6086
 20
1058.0845999999999
 11
1120.989
 21
1058.0845999999999
  0
LINE
  8
_0-0_LAYER001
  6
DASHED3
 62
    2
 10
1085.9376
 20
1122.059
 11
1100.5474999999999
 21
1122.059
  0
LINE
  8
_0-0_LAYER001
  6
DASHED3
 62
    2
 10
1100.5474999999999
 20
1122.059
 11
1120.989
 21
1058.0845999999999
  0
LINE
  8
_0-0_LAYER001
  6
CONTINUOUS
 62
    2
 10
2186.6086
 20
1056.5845999999999
 11
1125.7384
 21
1056.5845999999999
  0
LINE
  8
_0-0_LAYER001
  6
CONTINUOUS
 62
    2
 10
1170.0011
 20
1059.7853
 11
1170.0011
 21
1072.3503000000001
  0
LINE
  8
_0-0_LAYER001
  6
CONTINUOUS
 62
    2
 10
1170.0011
 20
1072.3503000000001
 11
1163.3733999999999
 21
1072.3503000000001
  0
LINE
  8
_0-0_LAYER001
  6
CONTINUOUS
 62
    2
 10
2186.6086
 20
1075.559
 11
1172.3485000000001
 21
1075.559
  0
LINE
  8
_0-0_LAYER001
  6
CONTINUOUS
 62
    2
 10
2180.5029
 20
1060.559
 11
1172.3485000000001
 21
1060.559
  0
LINE
  8
_0-0_LAYER001
  6
CONTINUOUS
 62
    2
 10
1172.3485000000001
 20
1075.559
 11
1172.3485000000001
 21
1060.559
  0
LINE
  8
_0-0_LAYER001
  6
CONTINUOUS
 62
    2
 10
1125.7384
 20
1056.5845999999999
 11
1125.7384
 21
1044.5845999999999
  0
LINE
  8
_0-0_LAYER001
  6
CONTINUOUS
 62
    2
 10
1103.9803999999999
 20
1116.2435
 11
1110.5592999999999
 21
1108.1031
  0
LINE
  8
_0-0_LAYER001
  6
CONTINUOUS
 62
    2
 10
1122.0202999999999
 20
1059.7853
 11
1170.0011
 21
1059.7853
  0
LINE
  8
_0-0_LAYER001
  6
CONTINUOUS
 62
    2
 10
1122.0202999999999
 20
1059.7853
 11
1103.9803999999999
 21
1116.2435
  0
LINE
  8
_0-0_LAYER001
  6
CONTINUOUS
 62
    2
 10
1153.8552
 20
1052.3402000000001
 11
1151.9141
 21
1059.5845999999999
  0
LINE
  8
_0-0_LAYER001
  6
CONTINUOUS
 62
    2
 10
1151.9141
 20
1059.5845999999999
 11
1157.2174
 21
1054.2813000000001
  0
LINE
  8
_0-0_LAYER001
  6
CONTINUOUS
 62
    2
 10
1151.9141
 20
1059.5845999999999
 11
1241.3905
 21
904.6069
  0
LINE
  8
_0-0_LAYER001
  6
CONTINUOUS
 62
    2
 10
1241.3905
 20
904.6069
 11
1458.8905
 21
904.6069
  0
LINE
  8
_0-0_LAYER001
  6
CONTINUOUS
 62
    2
 10
1056.0762
 20
1080.9088999999999
 11
1058.0173
 21
1073.6643999999999
  0
LINE
  8
_0-0_LAYER001
  6
CONTINUOUS
 62
    2
 10
1058.0173
 20
1073.6643999999999
 11
1052.7139999999999
 21
1078.9676999999999
  0
LINE
  8
_0-0_LAYER001
  6
CONTINUOUS
 62
    2
 10
1058.0173
 20
1073.6643999999999
 11
1007.3943999999999
 21
1161.3459
  0
LINE
  8
_0-0_LAYER001
  6
CONTINUOUS
 62
    2
 10
1007.3943999999999
 20
1161.3459
 11
827.39439999999991
 21
1161.3459
  0
LINE
  8
_0-0_LAYER001
  6
CONTINUOUS
 62
    2
 10
1083.0746999999999
 20
1055.8246999999999
 11
1088.3779999999999
 21
1061.1279999999999
  0
LINE
  8
_0-0_LAYER001
  6
CONTINUOUS
 62
    2
 10
1088.3779999999999
 20
1061.1279999999999
 11
1086.4368999999999
 21
1053.8835999999999
  0
LINE
  8
_0-0_LAYER001
  6
CONTINUOUS
 62
    2
 10
1088.3779999999999
 20
1061.1279999999999
 11
1029.3913
 21
958.95990000000006
  0
LINE
  8
_0-0_LAYER001
  6
CONTINUOUS
 62
    2
 10
1029.3913
 20
958.95990000000006
 11
783.3913
 21
958.95990000000006
  0
LINE
  8
_0-0_LAYER001
  6
CONTINUOUS
 62
    2
 10
1715.3319999999999
 20
774.69229999999993
 11
1781.0702999999999
 21
774.69229999999993
  0
LINE
  8
_0-0_LAYER001
  6
CONTINUOUS
 62
    2
 10
1708.1588000000002
 20
804.55889999999999
 11
1929.0994999999998
 21
804.55889999999999
  0
LINE
  8
_0-0_LAYER001
  6
CONTINUOUS
 62
    2
 10
1698.6156999999998
 20
834.65419999999995
 11
1942.4328999999998
 21
834.65419999999995
  0
LINE
  8
_0-0_LAYER001
  6
CONTINUOUS
 62
    2
 10
1637.7242000000001
 20
1056.8287
 11
1637.7242000000001
 21
1064.3287
  0
LINE
  8
_0-0_LAYER001
  6
CONTINUOUS
 62
    2
 10
1637.7242000000001
 20
1064.3287
 11
1641.4742000000001
 21
1057.8335
  0
LINE
  8
_0-0_LAYER001
  6
CONTINUOUS
 62
    2
 10
1637.7242000000001
 20
1064.3287
 11
1715.3319999999999
 21
774.69229999999993
  0
LINE
  8
_0-0_LAYER001
  6
CONTINUOUS
 62
    2
 10
1691.2319000000002
 20
864.63519999999994
 11
1896.0545999999999
 21
864.63519999999994
  0
LINE
  8
_0-1_ADD_LINE
  6
CONTINUOUS
 62
    7
 10
1082.9748999999999
 20
1312.3076000000001
 11
1082.9748999999999
 21
1259.8076000000001
  0
LINE
  8
_0-1_ADD_LINE
  6
CONTINUOUS
 62
    7
 10
1082.9748999999999
 20
1309.8076000000001
 11
2152.9748
 21
1309.8076000000001
  0
LINE
  8
_0-1_ADD_LINE
  6
CONTINUOUS
 62
    7
 10
2152.9748
 20
1259.8076000000001
 11
2152.9748
 21
1312.3076000000001
  0
LINE
  8
_0-1_ADD_LINE
  6
CONTINUOUS
 62
    7
 10
1892.9748
 20
1259.8076000000001
 11
1892.9748
 21
1312.3076000000001
  0
LINE
  8
_0-1_ADD_LINE
  6
CONTINUOUS
 62
    7
 10
1632.9749000000002
 20
1259.8076000000001
 11
1632.9749000000002
 21
1312.3076000000001
  0
LINE
  8
_0-1_ADD_LINE
  6
CONTINUOUS
 62
    7
 10
1372.9748999999997
 20
1259.8076000000001
 11
1372.9748999999997
 21
1312.3076000000001
  0
LINE
  8
_0-1_ADD_LINE
  6
CONTINUOUS
 62
    7
 10
1112.9748999999999
 20
1259.8076000000001
 11
1112.9748999999999
 21
1312.3076000000001
  0
LINE
  8
_0-1_ADD_LINE
  6
CONTINUOUS
 62
    7
 10
965.79989999999998
 20
1239.7202
 11
1013.7999
 21
1239.7202
  0
LINE
  8
_0-1_ADD_LINE
  6
CONTINUOUS
 62
    7
 10
1007.3943999999999
 20
1161.3459
 11
827.39439999999991
 21
1161.3459
  0
LINE
  8
_0-1_ADD_LINE
  6
CONTINUOUS
 62
    7
 10
783.3913
 20
958.95990000000006
 11
1029.3913
 21
958.95990000000006
  0
LINE
  8
_0-1_ADD_LINE
  6
CONTINUOUS
 62
    7
 10
1008.5187000000001
 20
910.97409999999991
 11
1056.5187000000001
 21
910.97409999999991
  0
LINE
  8
_0-1_ADD_LINE
  6
CONTINUOUS
 62
    7
 10
1241.3905
 20
904.6069
 11
1458.8905
 21
904.6069
  0
LINE
  8
_0-1_ADD_LINE
  6
CONTINUOUS
 62
    7
 10
1713.2689999999998
 20
1222.2503999999999
 11
1753.7689999999998
 21
1222.2503999999999
  0
LINE
  8
_0-1_ADD_LINE
  6
CONTINUOUS
 62
    7
 10
1691.2319000000002
 20
864.63519999999994
 11
1896.0545999999999
 21
864.63519999999994
  0
LINE
  8
_0-1_ADD_LINE
  6
CONTINUOUS
 62
    7
 10
1699.265265491423
 20
834.65419999999995
 11
1928.1156999999998
 21
834.65419999999995
  0
LINE
  8
_0-1_ADD_LINE
  6
CONTINUOUS
 62
    7
 10
1708.1588000000002
 20
804.55889999999999
 11
1929.0994999999998
 21
804.55889999999999
  0
LINE
  8
_0-1_ADD_LINE
  6
CONTINUOUS
 62
    7
 10
1715.3319999999999
 20
774.69229999999993
 11
1781.0702999999999
 21
774.69229999999993
  0
LINE
  8
_0-1_ADD_LINE
  6
CONTINUOUS
 62
    7
 10
2186.6086
 20
978.58459999999991
 11
1113.4311
 21
978.58459999999991
  0
LINE
  8
_0-1_ADD_LINE
  6
CONTINUOUS
 62
    7
 10
2186.6086
 20
984.58459999999991
 11
1113.4311
 21
984.58459999999991
  0
LINE
  8
_0-1_ADD_LINE
  6
CONTINUOUS
 62
    7
 10
1173.4311
 20
984.58459999999991
 11
1173.4311
 21
1044.5845999999999
  0
LINE
  8
_0-1_ADD_LINE
  6
CONTINUOUS
 62
    7
 10
1416.4311
 20
984.58459999999991
 11
1416.4311
 21
1044.5845999999999
  0
LINE
  8
_0-1_ADD_LINE
  6
CONTINUOUS
 62
    7
 10
1476.4310999999998
 20
984.58459999999991
 11
1476.4310999999998
 21
1044.5845999999999
  0
LINE
  8
_0-1_ADD_LINE
  6
CONTINUOUS
 62
    7
 10
1719.4310999999998
 20
984.58459999999991
 11
1719.4310999999998
 21
1044.5845999999999
  0
LINE
  8
_0-1_ADD_LINE
  6
CONTINUOUS
 62
    7
 10
1779.4310999999998
 20
984.58459999999991
 11
1779.4310999999998
 21
1044.5845999999999
  0
LINE
  8
_0-1_ADD_LINE
  6
CONTINUOUS
 62
    7
 10
2022.4310999999998
 20
984.58459999999991
 11
2022.4310999999998
 21
1044.5845999999999
  0
LINE
  8
_0-1_ADD_LINE
  6
CONTINUOUS
 62
    7
 10
2082.4310999999998
 20
984.58459999999991
 11
2082.4310999999998
 21
1044.5845999999999
  0
LINE
  8
_0-1_ADD_LINE
  6
CONTINUOUS
 62
    7
 10
2186.6086
 20
1044.5845999999999
 11
1113.4177999999999
 21
1044.5845999999999
  0
LINE
  8
_0-1_ADD_LINE
  6
CONTINUOUS
 62
    7
 10
1125.7384
 20
1044.5845999999999
 11
1125.7384
 21
1056.5845999999999
  0
LINE
  8
_0-1_ADD_LINE
  6
CONTINUOUS
 62
    7
 10
1125.7384
 20
1056.5845999999999
 11
2186.6086
 21
1056.5845999999999
  0
LINE
  8
_0-1_ADD_LINE
  6
CONTINUOUS
 62
    7
 10
2186.6086
 20
1058.0845999999999
 11
1120.989
 21
1058.0845999999999
  0
LINE
  8
_0-1_ADD_LINE
  6
CONTINUOUS
 62
    7
 10
1122.0202999999999
 20
1059.7853
 11
1170.0011
 21
1059.7853
  0
LINE
  8
_0-1_ADD_LINE
  6
CONTINUOUS
 62
    7
 10
1170.0011
 20
1059.7853
 11
1170.0011
 21
1072.3503000000001
  0
LINE
  8
_0-1_ADD_LINE
  6
CONTINUOUS
 62
    7
 10
1170.0011
 20
1072.3503000000001
 11
1161.3251913934957
 21
1072.3503000000001
  0
LINE
  8
_0-1_ADD_LINE
  6
CONTINUOUS
 62
    7
 10
1172.3485000000001
 20
1060.559
 11
1172.3485000000001
 21
1075.559
  0
LINE
  8
_0-1_ADD_LINE
  6
CONTINUOUS
 62
    7
 10
1172.3485000000001
 20
1075.559
 11
2186.6086036106444
 21
1075.559
  0
LINE
  8
_0-1_ADD_LINE
  6
CONTINUOUS
 62
    7
 10
2180.5029
 20
1060.559
 11
1172.3485000000001
 21
1060.559
  0
LINE
  8
_0-1_ADD_LINE
  6
CONTINUOUS
 62
    7
 10
1085.9376
 20
1122.059
 11
1100.5474999999999
 21
1122.059
  0
LINE
  8
_0-1_ADD_LINE
  6
CONTINUOUS
 62
    7
 10
1007.3943999999999
 20
1161.3459
 11
1058.0173
 21
1073.6643999999999
  0
LINE
  8
_0-1_ADD_LINE
  6
CONTINUOUS
 62
    7
 10
1058.0173
 20
1073.6643999999999
 11
1056.0762
 21
1080.9088999999999
  0
LINE
  8
_0-1_ADD_LINE
  6
CONTINUOUS
 62
    7
 10
1058.0173
 20
1073.6643999999999
 11
1052.7139999999999
 21
1078.9676999999999
  0
LINE
  8
_0-1_ADD_LINE
  6
CONTINUOUS
 62
    7
 10
1066.6992
 20
1151.9784
 11
1068.6403
 21
1144.7338999999999
  0
LINE
  8
_0-1_ADD_LINE
  6
CONTINUOUS
 62
    7
 10
1068.6403
 20
1144.7338999999999
 11
1063.337
 21
1150.0372
  0
LINE
  8
_0-1_ADD_LINE
  6
CONTINUOUS
 62
    7
 10
1068.6403
 20
1144.7338999999999
 11
1013.7999
 21
1239.7202
  0
LINE
  8
_0-1_ADD_LINE
  6
CONTINUOUS
 62
    7
 10
1100.5474999999999
 20
1122.059
 11
1120.989
 21
1058.0845999999999
  0
LINE
  8
_0-1_ADD_LINE
  6
CONTINUOUS
 62
    7
 10
1122.0202999999999
 20
1059.7853
 11
1103.9803999999999
 21
1116.2435
  0
LINE
  8
_0-1_ADD_LINE
  6
CONTINUOUS
 62
    7
 10
1103.9803999999999
 20
1116.2435
 11
1110.5592999999999
 21
1108.1031
  0
LINE
  8
_0-1_ADD_LINE
  6
CONTINUOUS
 62
    7
 10
1151.9141
 20
1059.5845999999999
 11
1153.8552
 21
1052.3402000000001
  0
LINE
  8
_0-1_ADD_LINE
  6
CONTINUOUS
 62
    7
 10
1151.9141
 20
1059.5845999999999
 11
1157.2174
 21
1054.2813000000001
  0
LINE
  8
_0-1_ADD_LINE
  6
CONTINUOUS
 62
    7
 10
1151.9141
 20
1059.5845999999999
 11
1241.3905
 21
904.6069
  0
LINE
  8
_0-1_ADD_LINE
  6
CONTINUOUS
 62
    7
 10
1173.4311
 20
1044.5845999999999
 11
1113.4311
 21
984.58459999999991
  0
LINE
  8
_0-1_ADD_LINE
  6
CONTINUOUS
 62
    7
 10
1098.1678999999999
 20
986.99499999999989
 11
1103.4712
 21
992.29829999999993
  0
LINE
  8
_0-1_ADD_LINE
  6
CONTINUOUS
 62
    7
 10
1103.4712
 20
992.29829999999993
 11
1101.5300999999999
 21
985.05390000000011
  0
LINE
  8
_0-1_ADD_LINE
  6
CONTINUOUS
 62
    7
 10
1103.4712
 20
992.29829999999993
 11
1056.5187000000001
 21
910.97409999999991
  0
LINE
  8
_0-1_ADD_LINE
  6
CONTINUOUS
 62
    7
 10
1029.3913
 20
958.95990000000006
 11
1088.3779999999999
 21
1061.1279999999999
  0
LINE
  8
_0-1_ADD_LINE
  6
CONTINUOUS
 62
    7
 10
1088.3779999999999
 20
1061.1279999999999
 11
1083.0746999999999
 21
1055.8246999999999
  0
LINE
  8
_0-1_ADD_LINE
  6
CONTINUOUS
 62
    7
 10
1088.3779999999999
 20
1061.1279999999999
 11
1086.4368999999999
 21
1053.8835999999999
  0
LINE
  8
_0-1_ADD_LINE
  6
CONTINUOUS
 62
    7
 10
1416.4311
 20
984.58459999999991
 11
1476.4310999999998
 21
1044.5845999999999
  0
LINE
  8
_0-1_ADD_LINE
  6
CONTINUOUS
 62
    7
 10
1719.4310999999998
 20
984.58459999999991
 11
1779.4310999999998
 21
1044.5845999999999
  0
LINE
  8
_0-1_ADD_LINE
  6
CONTINUOUS
 62
    7
 10
2022.4310999999998
 20
984.58459999999991
 11
2082.4310999999998
 21
1044.5845999999999
  0
LINE
  8
_0-1_ADD_LINE
  6
CONTINUOUS
 62
    7
 10
1713.2689999999998
 20
1222.2503999999999
 11
1670.0039999999999
 21
1147.3132000000001
  0
LINE
  8
_0-1_ADD_LINE
  6
CONTINUOUS
 62
    7
 10
1670.0039999999999
 20
1147.3132000000001
 11
1671.9452000000001
 21
1154.5577000000001
  0
LINE
  8
_0-1_ADD_LINE
  6
CONTINUOUS
 62
    7
 10
1670.0039999999999
 20
1147.3132000000001
 11
1675.3072999999999
 21
1152.6165000000001
  0
LINE
  8
_0-1_ADD_LINE
  6
CONTINUOUS
 62
    7
 10
1637.7242000000001
 20
1056.8287
 11
1637.7242000000001
 21
1064.3287
  0
LINE
  8
_0-1_ADD_LINE
  6
CONTINUOUS
 62
    7
 10
1637.7242000000001
 20
1064.3287
 11
1641.4742000000001
 21
1057.8335
  0
LINE
  8
_0-1_ADD_LINE
  6
CONTINUOUS
 62
    7
 10
1637.7242000000001
 20
1064.3287
 11
1715.3319999999999
 21
774.69229999999993
  0
TEXT
  8
_0-0_LAYER001
 62
    7
 10
1008.5186999999996
 20
913.47410000000025
 40
20
 41
1
 50
0
  1
破風板
  0
TEXT
  8
_0-0_LAYER001
 62
    7
 10
965.79989999999952
 20
1242.2202000000002
 40
20
 41
1
 50
0
  1
左袖瓦
  0
TEXT
  8
_0-0_LAYER001
 62
    7
 10
827.39439999999956
 20
1162.8459000000003
 40
20
 41
1
 50
0
  1
パッキンステンレスネジ
  0
TEXT
  8
_0-0_LAYER001
 62
    7
 10
1715.3319999999997
 20
777.19230000000027
 40
20
 41
1
 50
0
  1
　垂木
  0
TEXT
  8
_0-0_LAYER001
 62
    7
 10
1708.1587999999997
 20
807.05890000000011
 40
20
 41
1
 50
0
  1
　野地板：耐水合板ｔ＝１２
  0
TEXT
  8
_0-0_LAYER001
 62
    7
 10
1691.2318999999998
 20
867.13520000000017
 40
20
 41
1
 50
0
  1
　瓦桟：１５ｘ３０以上
  0
TEXT
  8
_0-0_LAYER001
 62
    7
 10
1716.7118609106074
 20
1228.6147028358632
 40
20
 41
1
 50
0
  1
桟　瓦
  0
TEXT
  8
_0-0_LAYER001
 62
    7
 10
1089.5119334031915
 20
1323.3134730827041
 40
20
 41
1
 50
0
  1
30
  0
TEXT
  8
_0-0_LAYER001
 62
    7
 10
1232.1825829219415
 20
1319.6862531796853
 40
20
 41
1
 50
0
  1
260
  0
TEXT
  8
_0-0_LAYER001
 62
    7
 10
1492.1333426383078
 20
1320.895326480691
 40
20
 41
1
 50
0
  1
260
  0
TEXT
  8
_0-0_LAYER001
 62
    7
 10
1752.0841023546736
 20
1322.1043997816982
 40
20
 41
1
 50
0
  1
260
  0
TEXT
  8
_0-0_LAYER001
 62
    7
 10
2012.0348620710406
 20
1320.895326480691
 40
20
 41
1
 50
0
  1
260
  0
TEXT
  8
_0-0_LAYER001
 62
    7
 10
783.39129999999955
 20
961.45990000000006
 40
20
 41
1
 50
0
  1
登り淀：36x72（防腐処理）
  0
TEXT
  8
_0-0_LAYER001
 62
    7
 10
1241.3904999999997
 20
907.10690000000011
 40
20
 41
1
 50
0
  1
捨水切カラー鋼板0.35mm以上
  0
TEXT
  8
_0-0_LAYER001
 62
    7
 10
1698.6156999999998
 20
837.15420000000017
 40
20
 41
1
 50
0
  1
　下葺材：ルーフィング
  0
ENDSEC
  0
EOF
