  0
SECTION
  2
HEADER
  9
$ACADVER
  1
AC1009
  9
$INSBASE
 10
0
 20
0
 30
0
  9
$EXTMIN
 10
0
 20
0
  9
$EXTMAX
 10
2970
 20
2100
  9
$LIMMIN
 10
0
 20
0
  9
$LIMMAX
 10
2970
 20
2100
  9
$LTSCALE
 40
10
  0
ENDSEC
  0
SECTION
  2
TABLES
  0
TABLE
  2
LTYPE
 70
     9
  0
LTYPE
  2
CONTINUOUS
 70
    64
  3
実線
 72
    65
 73
     0
 40
0.0
  0
LTYPE
  2
DASHED1
 70
    64
  3
--  --  --  --  --  --  --  --  
 72
    65
 73
     2
 40
2.5
 49
1.25
 49
-1.25
  0
LTYPE
  2
DASHED2
 70
    64
  3
----    ----    ----    ----    
 72
    65
 73
     2
 40
5.0
 49
2.5
 49
-2.5
  0
LTYPE
  2
DASHED3
 70
    64
  3
------  ------  ------  ------  
 72
    65
 73
     2
 40
5.0
 49
3.75
 49
-1.25
  0
LTYPE
  2
CENTER1
 70
    64
  3
----- - ----- - ----- - ----- - 
 72
    65
 73
     4
 40
10.0
 49
6.25
 49
-1.25
 49
1.25
 49
-1.25
  0
LTYPE
  2
CENTER2
 70
    64
  3
----------  --  ----------  --  
 72
    65
 73
     4
 40
20.0
 49
12.5
 49
-2.5
 49
2.5
 49
-2.5
  0
LTYPE
  2
PHANTOM1
 70
    64
  3
--- - - --- - - --- - - --- - - 
 72
    65
 73
     6
 40
10.0
 49
3.25
 49
-1.25
 49
1.25
 49
-1.25
 49
1.25
 49
-1.25
  0
LTYPE
  2
PHANTOM2
 70
    64
  3
--------  -  -  --------  -  -  
 72
    65
 73
     6
 40
20.0
 49
10.0
 49
-2.5
 49
1.25
 49
-2.5
 49
1.25
 49
-2.5
  0
LTYPE
  2
DOT
 70
    64
  3
-   -   -   -   -   -   -   -   
 72
    65
 73
     2
 40
2.5
 49
0.625
 49
-1.875
  0
LTYPE
  2
DUMMY
 70
    64
  3
ダミー
 72
    65
 73
     0
 40
0.0
  0
LTYPE
  2
RAND1
 70
    64
  3
ランダム線1
 72
    65
 73
     4
 40
10.0
 49
1.0
 49
-2.0
 49
3.0
 49
-4.0
  0
LTYPE
  2
RAND2
 70
    64
  3
ランダム線2
 72
    65
 73
     4
 40
14.0
 49
2.0
 49
-3.0
 49
4.0
 49
-5.0
  0
LTYPE
  2
RAND3
 70
    64
  3
ランダム線3
 72
    65
 73
     4
 40
18.0
 49
3.0
 49
-4.0
 49
5.0
 49
-6.0
  0
LTYPE
  2
RAND4
 70
    64
  3
ランダム線4
 72
    65
 73
     4
 40
22.0
 49
4.0
 49
-5.0
 49
6.0
 49
-7.0
  0
LTYPE
  2
RAND5
 70
    64
  3
ランダム線5
 72
    65
 73
     4
 40
26.0
 49
5.0
 49
-6.0
 49
7.0
 49
-8.0
  0
LTYPE
  2
LONG1
 70
    64
  3
----------  --  ----------  --  
 72
    65
 73
     4
 40
40.0
 49
32.5
 49
-2.5
 49
2.5
 49
-2.5
  0
LTYPE
  2
LONG2
 70
    64
  3
--------  -  -  --------  -  -  
 72
    65
 73
     6
 40
40.0
 49
30.0
 49
-2.5
 49
1.25
 49
-2.5
 49
1.25
 49
-2.5
  0
LTYPE
  2
LONG3
 70
    64
  3
+++++++++++++++..+++++++++++++++
 72
    65
 73
     2
 40
40.0
 49
37.5
 49
-2.5
  0
LTYPE
  2
LONG4
 70
    64
  3
+++++++++++++++..+++++++++++++++
 72
    65
 73
     2
 40
80.0
 49
75.0
 49
-5.0
  0
LTYPE
  2
LONG5
 70
    64
  3
----------  --  ----------  --  
 72
    65
 73
     4
 40
60.0
 49
37.5
 49
-7.5
 49
7.5
 49
-7.5
  0
LTYPE
  2
dashed
 70
   64
  3
-------   -------------   ------
 72
   65
 73
    2
 40
7.5
 49
6
 49
-1.5
  0
LTYPE
  2
dashed_spaced
 70
   64
  3
----        --------        ----
 72
   65
 73
    2
 40
12
 49
6
 49
-6
  0
LTYPE
  2
long_dashed_dotted
 70
   64
  3
------------- --- --------------
 72
   65
 73
    4
 40
15.25
 49
12
 49
-1.5
 49
0.25
 49
-1.5
  0
LTYPE
  2
long_dashed_double-dotted
 70
   64
  3
----------- --- --- ------------
 72
   65
 73
    6
 40
17
 49
12
 49
-1.5
 49
0.25
 49
-1.5
 49
0.25
 49
-1.5
  0
LTYPE
  2
long_dashed_triplicate-dotted
 70
   64
  3
--------- --- --- --- ----------
 72
   65
 73
    8
 40
18.75
 49
12
 49
-1.5
 49
0.25
 49
-1.5
 49
0.25
 49
-1.5
 49
0.25
 49
-1.5
  0
LTYPE
  2
dotted
 70
   64
  3
   -       -       -       -    
 72
   65
 73
    2
 40
1.75
 49
0.25
 49
-1.5
  0
LTYPE
  2
chain
 70
   64
  3
-------------- -- --------------
 72
   65
 73
    4
 40
18.5
 49
12
 49
-1.5
 49
3.5
 49
-1.5
  0
LTYPE
  2
chain_double_dash
 70
   64
  3
------------ -- -- -------------
 72
   65
 73
    6
 40
23.5
 49
12
 49
-1.5
 49
3.5
 49
-1.5
 49
3.5
 49
-1.5
  0
LTYPE
  2
dashed_dotted
 70
   64
  3
-----------     -     ----------
 72
   65
 73
    4
 40
9.25
 49
6
 49
-1.5
 49
0.25
 49
-1.5
  0
LTYPE
  2
double-dashed_dotted
 70
   64
  3
------   -----------   -   -----
 72
   65
 73
    6
 40
16.75
 49
6
 49
-1.5
 49
6
 49
-1.5
 49
0.25
 49
-1.5
  0
LTYPE
  2
dashed_double-dotted
 70
   64
  3
---------    -    -    ---------
 72
   65
 73
    6
 40
11
 49
6
 49
-1.5
 49
0.25
 49
-1.5
 49
0.25
 49
-1.5
  0
LTYPE
  2
double-dashed_double-dotted
 70
   64
  3
-----   ---------   -   -   ----
 72
   65
 73
    8
 40
18.5
 49
6
 49
-1.5
 49
6
 49
-1.5
 49
0.25
 49
-1.5
 49
0.25
 49
-1.5
  0
LTYPE
  2
dashed_triplicate-dotted
 70
   64
  3
-------    -    -    -    ------
 72
   65
 73
    8
 40
12.75
 49
6
 49
-1.5
 49
0.25
 49
-1.5
 49
0.25
 49
-1.5
 49
0.25
 49
-1.5
  0
LTYPE
  2
double-dashed_triplicate-dotted
 70
   64
  3
-----  ---------  -  -  -  -----
 72
   65
 73
   10
 40
20.25
 49
6
 49
-1.5
 49
6
 49
-1.5
 49
0.25
 49
-1.5
 49
0.25
 49
-1.5
 49
0.25
 49
-1.5
  0
LTYPE
  2
undefined
 70
   64
  3
--------------------------------
 72
   65
 73
    0
 40
0
  0
ENDTAB
  0
TABLE
  2
STYLE
  5
3
100
AcDbSymbolTable
 70
     1
  0
STYLE
  5
10
100
AcDbSymbolTableRecord
100
AcDbTextStyleTableRecord
  2
STANDARD
 70
     0
 40
0.0
 41
1.0
 50
0.0
 71
     0
 42
0.2
  3
txt
  4
bigfont.shx
  0
STYLE
  5
26
100
AcDbSymbolTableRecord
100
AcDbTextStyleTableRecord
  2
TATEGAKI
 70
    68
 40
0.0
 41
1.0
 50
0.0
 71
     0
 42
1.0
  3
txt
  4
bigfont.shx
  0
ENDTAB
  0
TABLE
  2
LAYER
 70
    3
  0
LAYER
  2
_0-0_LAYER001
 70
   64
 62
    7
  6
CONTINUOUS
  0
LAYER
  2
_0-1_ADD_LINE
 70
   64
 62
    7
  6
CONTINUOUS
  0
LAYER
  2
ADD_LINE
 70
   64
 62
    7
  6
CONTINUOUS
  0
ENDTAB
  0
ENDSEC
  0
SECTION
  2
BLOCKS
  0
ENDSEC
  0
SECTION
  2
ENTITIES
  0
LINE
  8
_0-0_LAYER001
  6
CONTINUOUS
 62
    2
 10
1712.8442
 20
1025.3187
 11
1720.2305000000001
 21
1008.9047
  0
LINE
  8
_0-0_LAYER001
  6
CONTINUOUS
 62
    2
 10
1747.4971999999998
 20
1040.9126000000001
 11
1754.8834999999999
 21
1024.4985999999999
  0
LINE
  8
_0-0_LAYER001
  6
CONTINUOUS
 62
    2
 10
1439.2674999999999
 20
902.20910000000003
 11
1446.6538
 21
885.79510000000005
  0
LINE
  8
_0-0_LAYER001
  6
CONTINUOUS
 62
    2
 10
1473.9205000000002
 20
917.80289999999991
 11
1481.3067999999998
 21
901.3889999999999
  0
LINE
  8
_0-0_LAYER001
  6
CONTINUOUS
 62
    2
 10
1473.9205000000002
 20
917.80289999999991
 11
1446.6538
 21
885.79510000000005
  0
LINE
  8
_0-0_LAYER001
  6
CONTINUOUS
 62
    2
 10
1747.4971999999998
 20
1040.9126000000001
 11
1720.2305000000001
 21
1008.9047
  0
LINE
  8
_0-0_LAYER001
  6
CONTINUOUS
 62
    2
 10
1641.2152000000001
 20
1140.2856999999999
 11
1643.1563000000001
 21
1133.0411999999999
  0
LINE
  8
_0-0_LAYER001
  6
CONTINUOUS
 62
    2
 10
1643.1563000000001
 20
1133.0411999999999
 11
1637.8530000000001
 21
1138.3444999999999
  0
LINE
  8
_0-0_LAYER001
  6
CONTINUOUS
 62
    2
 10
1643.1563000000001
 20
1133.0411999999999
 11
1596.8915000000002
 21
1213.1742999999999
  0
LINE
  8
_0-0_LAYER001
  6
CONTINUOUS
 62
    2
 10
1596.8915000000002
 20
1213.1742999999999
 11
1556.3915000000002
 21
1213.1742999999999
  0
LINE
  8
_0-0_LAYER001
  6
CONTINUOUS
 62
    2
 10
1295.6576
 20
938.81580000000008
 11
1274.7833000000001
 21
912.97360000000003
  0
LINE
  8
_0-0_LAYER001
  6
CONTINUOUS
 62
    2
 10
1533.3942000000002
 20
1045.7974999999999
 11
1512.52
 21
1019.9553000000001
  0
LINE
  8
_0-0_LAYER001
  6
CONTINUOUS
 62
    2
 10
1771.1309000000001
 20
1152.7792999999999
 11
1750.2566000000002
 21
1126.9371000000001
  0
LINE
  8
_0-0_LAYER001
  6
CONTINUOUS
 62
    2
 10
2008.8674999999998
 20
1259.7610999999999
 11
1987.9931999999999
 21
1233.9186999999999
  0
LINE
  8
_0-0_LAYER001
  6
CONTINUOUS
 62
    2
 10
941.82909999999993
 20
1042.8022000000001
 11
959.27590000000009
 21
993.28590000000008
  0
CIRCLE
  8
_0-0_LAYER001
  6
CONTINUOUS
 62
    2
 10
942.65990000000011
 20
1040.4443000000001
 40
1.6999999999999997
  0
LINE
  8
_0-0_LAYER001
  6
CONTINUOUS
 62
    2
 10
942.65990000000011
 20
1040.4443000000001
 11
1187.8832
 21
1126.8475000000001
  0
CIRCLE
  8
_0-0_LAYER001
  6
CONTINUOUS
 62
    2
 10
1187.8832
 20
1126.8475000000001
 40
1.6999999999999997
  0
LINE
  8
_0-0_LAYER001
  6
CONTINUOUS
 62
    2
 10
1187.0524
 20
1129.2054000000001
 11
1204.4992
 21
1079.6892
  0
LINE
  8
_0-0_LAYER001
  6
CONTINUOUS
 62
    2
 10
1647.3589999999999
 20
1386.8154
 11
1664.8058000000001
 21
1337.2991999999999
  0
CIRCLE
  8
_0-0_LAYER001
  6
CONTINUOUS
 62
    2
 10
1648.1898000000001
 20
1384.4575
 40
1.6999999999999997
  0
LINE
  8
_0-0_LAYER001
  6
CONTINUOUS
 62
    2
 10
1648.1898000000001
 20
1384.4575
 11
1893.413
 21
1470.8607000000002
  0
CIRCLE
  8
_0-0_LAYER001
  6
CONTINUOUS
 62
    2
 10
1893.413
 20
1470.8607000000002
 40
1.6999999999999997
  0
LINE
  8
_0-0_LAYER001
  6
CONTINUOUS
 62
    2
 10
1892.5821999999998
 20
1473.2185999999999
 11
1910.029
 21
1423.7023999999999
  0
LINE
  8
_0-0_LAYER001
  6
CONTINUOUS
 62
    2
 10
1176.8516
 20
1157.4188999999999
 11
1194.2983999999999
 21
1107.9027000000001
  0
CIRCLE
  8
_0-0_LAYER001
  6
CONTINUOUS
 62
    2
 10
1177.6823999999999
 20
1155.0609999999999
 40
1.6999999999999997
  0
LINE
  8
_0-0_LAYER001
  6
CONTINUOUS
 62
    2
 10
1177.6823999999999
 20
1155.0609999999999
 11
1422.9057
 21
1241.4643000000001
  0
CIRCLE
  8
_0-0_LAYER001
  6
CONTINUOUS
 62
    2
 10
1422.9057
 20
1241.4643000000001
 40
1.6999999999999997
  0
LINE
  8
_0-0_LAYER001
  6
CONTINUOUS
 62
    2
 10
1422.0749000000001
 20
1243.8222000000001
 11
1439.5216999999998
 21
1194.3059000000001
  0
LINE
  8
_0-0_LAYER001
  6
CONTINUOUS
 62
    2
 10
1412.1053000000002
 20
1272.1171999999999
 11
1429.5521000000003
 21
1222.6008999999999
  0
CIRCLE
  8
_0-0_LAYER001
  6
CONTINUOUS
 62
    2
 10
1412.9360999999999
 20
1269.7592999999999
 40
1.6999999999999997
  0
LINE
  8
_0-0_LAYER001
  6
CONTINUOUS
 62
    2
 10
1412.9360999999999
 20
1269.7592999999999
 11
1658.1594
 21
1356.1624999999999
  0
CIRCLE
  8
_0-0_LAYER001
  6
CONTINUOUS
 62
    2
 10
1658.1594
 20
1356.1624999999999
 40
1.6999999999999997
  0
LINE
  8
_0-0_LAYER001
  6
CONTINUOUS
 62
    2
 10
1657.3285999999998
 20
1358.5204000000001
 11
1674.7754
 21
1309.0041999999999
  0
LINE
  8
_0-0_LAYER001
  6
CONTINUOUS
 62
    2
 10
1124.345
 20
777.92530000000011
 11
1129.6483000000001
 21
783.22859999999991
  0
LINE
  8
_0-0_LAYER001
  6
CONTINUOUS
 62
    2
 10
1129.6483000000001
 20
783.22859999999991
 11
1127.7072000000001
 21
775.9842000000001
  0
LINE
  8
_0-0_LAYER001
  6
CONTINUOUS
 62
    2
 10
1129.6483000000001
 20
783.22859999999991
 11
1058.6619000000001
 21
660.27649999999994
  0
LINE
  8
_0-0_LAYER001
  6
CONTINUOUS
 62
    2
 10
1058.6619000000001
 20
660.27649999999994
 11
1010.6619000000001
 21
660.27649999999994
  0
LINE
  8
_0-0_LAYER001
  6
CONTINUOUS
 62
    2
 10
1192.8171
 20
791.30719999999997
 11
1200.2035000000001
 21
774.89239999999995
  0
LINE
  8
_0-0_LAYER001
  6
CONTINUOUS
 62
    2
 10
1302.1492000000001
 20
925.28819999999996
 11
1274.7833000000001
 21
912.97360000000003
  0
LINE
  8
_0-0_LAYER001
  6
CONTINUOUS
 62
    2
 10
1539.8859000000002
 20
1032.27
 11
1512.52
 21
1019.9553000000001
  0
LINE
  8
_0-0_LAYER001
  6
CONTINUOUS
 62
    2
 10
1777.6224999999999
 20
1139.2518
 11
1750.2566000000002
 21
1126.9371000000001
  0
LINE
  8
_0-0_LAYER001
  6
CONTINUOUS
 62
    4
 10
1766.009
 20
1174.0360000000001
 11
1767.0059000000001
 21
1171.2066
  0
LINE
  8
_0-0_LAYER001
  6
CONTINUOUS
 62
    4
 10
1766.009
 20
1174.0360000000001
 11
1774.4974999999999
 21
1177.0269000000001
  0
LINE
  8
_0-0_LAYER001
  6
CONTINUOUS
 62
    4
 10
1699.7606000000001
 20
1239.2761
 11
1727.0983000000001
 21
1161.6882000000001
  0
LINE
  8
_0-0_LAYER001
  6
CONTINUOUS
 62
    4
 10
1727.0983000000001
 20
1161.6882000000001
 11
2010.9915000000001
 21
1261.7165
  0
LINE
  8
_0-0_LAYER001
  6
CONTINUOUS
 62
    4
 10
1718.4430000000002
 20
1189.8353999999999
 11
1956.9090999999999
 21
1291.8342000000002
  0
LINE
  8
_0-0_LAYER001
  6
CONTINUOUS
 62
    4
 10
2010.9915000000001
 20
1261.7165
 11
2014.9793
 21
1250.3985
  0
LINE
  8
_0-0_LAYER001
  6
CONTINUOUS
 62
    4
 10
2014.9793
 20
1250.3985
 11
2023.4677999999999
 21
1253.3894
  0
LINE
  8
_0-0_LAYER001
  6
CONTINUOUS
 62
    4
 10
2004.0127000000002
 20
1281.5229999999999
 11
2005.0095999999999
 21
1278.6935000000001
  0
LINE
  8
_0-0_LAYER001
  6
CONTINUOUS
 62
    4
 10
1721.1165999999998
 20
1178.6651999999999
 11
2005.0095999999999
 21
1278.6935000000001
  0
LINE
  8
_0-0_LAYER001
  6
CONTINUOUS
 62
    4
 10
1699.7703999999999
 20
1239.6785
 11
1944.8588
 21
1326.0342000000001
  0
LINE
  8
_0-0_LAYER001
  6
CONTINUOUS
 62
    4
 10
2004.0127000000002
 20
1281.5229999999999
 11
2012.5012000000002
 21
1284.5138999999999
  0
LINE
  8
_0-0_LAYER001
  6
CONTINUOUS
 62
    4
 10
2012.5012000000002
 20
1284.5138999999999
 11
2023.4677999999999
 21
1253.3894
  0
LINE
  8
_0-0_LAYER001
  6
CONTINUOUS
 62
    4
 10
1938.0697
 20
1345.7348999999999
 11
1965.4074000000001
 21
1268.1469
  0
LINE
  8
_0-0_LAYER001
  6
CONTINUOUS
 62
    4
 10
1965.4074000000001
 20
1268.1469
 11
2144.5722999999998
 21
1331.2747999999999
  0
LINE
  8
_0-0_LAYER001
  6
CONTINUOUS
 62
    4
 10
1956.7521000000002
 20
1296.2941000000001
 11
2128.1531
 21
1369.6072999999999
  0
LINE
  8
_0-0_LAYER001
  6
CONTINUOUS
 62
    4
 10
1959.4256
 20
1285.1239
 11
2137.4695999999999
 21
1347.8568
  0
LINE
  8
_0-0_LAYER001
  6
CONTINUOUS
 62
    4
 10
1938.0794000000001
 20
1346.1372000000001
 11
2111.9634000000001
 21
1407.4043000000001
  0
LINE
  8
_0-0_LAYER001
  6
CONTINUOUS
 62
    4
 10
1013.3243
 20
839.88979999999992
 11
1297.2174
 21
939.91820000000007
  0
LINE
  8
_0-0_LAYER001
  6
CONTINUOUS
 62
    4
 10
1004.6688999999999
 20
868.03710000000001
 11
1243.135
 21
970.03590000000008
  0
LINE
  8
_0-0_LAYER001
  6
CONTINUOUS
 62
    4
 10
1297.2174
 20
939.91820000000007
 11
1301.2053000000001
 21
928.60020000000009
  0
LINE
  8
_0-0_LAYER001
  6
CONTINUOUS
 62
    4
 10
1301.2053000000001
 20
928.60020000000009
 11
1309.6938
 21
931.5911000000001
  0
LINE
  8
_0-0_LAYER001
  6
CONTINUOUS
 62
    4
 10
1290.2387000000001
 20
959.72469999999998
 11
1291.2356
 21
956.89519999999993
  0
LINE
  8
_0-0_LAYER001
  6
CONTINUOUS
 62
    4
 10
1007.3425
 20
856.86680000000001
 11
1291.2356
 21
956.89519999999993
  0
LINE
  8
_0-0_LAYER001
  6
CONTINUOUS
 62
    4
 10
1290.2387000000001
 20
959.72469999999998
 11
1298.7272000000003
 21
962.71559999999999
  0
LINE
  8
_0-0_LAYER001
  6
CONTINUOUS
 62
    4
 10
1298.7272000000003
 20
962.71559999999999
 11
1309.6938
 21
931.5911000000001
  0
LINE
  8
_0-0_LAYER001
  6
CONTINUOUS
 62
    4
 10
1224.2349999999999
 20
1025.3923
 11
1251.5727999999999
 21
947.80430000000001
  0
LINE
  8
_0-0_LAYER001
  6
CONTINUOUS
 62
    4
 10
1251.5727999999999
 20
947.80430000000001
 11
1535.4659000000001
 21
1047.8326999999999
  0
LINE
  8
_0-0_LAYER001
  6
CONTINUOUS
 62
    4
 10
1242.9175
 20
975.9516000000001
 11
1481.3836000000001
 21
1077.9503
  0
LINE
  8
_0-0_LAYER001
  6
CONTINUOUS
 62
    4
 10
1535.4659000000001
 20
1047.8326999999999
 11
1539.4537999999998
 21
1036.5146999999999
  0
LINE
  8
_0-0_LAYER001
  6
CONTINUOUS
 62
    4
 10
1539.4537999999998
 20
1036.5146999999999
 11
1547.9423000000002
 21
1039.5056
  0
LINE
  8
_0-0_LAYER001
  6
CONTINUOUS
 62
    4
 10
1528.4872
 20
1067.6392000000001
 11
1529.4841999999999
 21
1064.8097
  0
LINE
  8
_0-0_LAYER001
  6
CONTINUOUS
 62
    4
 10
1245.5909999999999
 20
964.7813000000001
 11
1529.4841999999999
 21
1064.8097
  0
LINE
  8
_0-0_LAYER001
  6
CONTINUOUS
 62
    4
 10
1224.2448999999999
 20
1025.7945999999999
 11
1469.3334
 21
1112.1503
  0
LINE
  8
_0-0_LAYER001
  6
CONTINUOUS
 62
    4
 10
1528.4872
 20
1067.6392000000001
 11
1536.9757
 21
1070.6300000000001
  0
LINE
  8
_0-0_LAYER001
  6
CONTINUOUS
 62
    4
 10
1536.9757
 20
1070.6300000000001
 11
1547.9423000000002
 21
1039.5056
  0
LINE
  8
_0-0_LAYER001
  6
CONTINUOUS
 62
    4
 10
1461.7568000000001
 20
1131.7891999999999
 11
1489.0945000000002
 21
1054.2012
  0
LINE
  8
_0-0_LAYER001
  6
CONTINUOUS
 62
    4
 10
1489.0945000000002
 20
1054.2012
 11
1772.9877000000001
 21
1154.2295999999999
  0
LINE
  8
_0-0_LAYER001
  6
CONTINUOUS
 62
    4
 10
1480.4391999999998
 20
1082.3485000000001
 11
1718.9052999999999
 21
1184.3471999999999
  0
LINE
  8
_0-0_LAYER001
  6
CONTINUOUS
 62
    4
 10
1772.9877000000001
 20
1154.2295999999999
 11
1776.9755
 21
1142.9115999999999
  0
LINE
  8
_0-0_LAYER001
  6
CONTINUOUS
 62
    4
 10
1776.9755
 20
1142.9115999999999
 11
1785.4639999999999
 21
1145.9023999999999
  0
LINE
  8
_0-0_LAYER001
  6
CONTINUOUS
 62
    4
 10
1483.1127999999999
 20
1071.1782000000001
 11
1767.0059000000001
 21
1171.2066
  0
LINE
  8
_0-0_LAYER001
  6
CONTINUOUS
 62
    4
 10
1461.7665999999999
 20
1132.1914999999999
 11
1706.8551000000002
 21
1218.5472
  0
LINE
  8
_0-0_LAYER001
  6
CONTINUOUS
 62
    4
 10
1774.4974999999999
 20
1177.0269000000001
 11
1785.4639999999999
 21
1145.9023999999999
  0
LINE
  8
_0-0_LAYER001
  6
CONTINUOUS
 62
    4
 10
985.86149999999998
 20
917.83259999999996
 11
1013.3243
 21
839.88979999999992
  0
LINE
  8
_0-0_LAYER001
  6
CONTINUOUS
 62
    4
 10
985.86149999999998
 20
917.83259999999996
 11
1231.0848000000001
 21
1004.2357999999999
  0
LINE
  8
_0-0_LAYER001
  6
CONTINUOUS
 62
    2
 10
2008.8674999999998
 20
1259.7610999999999
 11
1981.5016000000001
 21
1247.4463000000001
  0
LINE
  8
_0-0_LAYER001
  6
CONTINUOUS
 62
    2
 10
1743.7649999999999
 20
1140.4646
 11
1750.2566000000002
 21
1126.9371000000001
  0
LINE
  8
_0-0_LAYER001
  6
CONTINUOUS
 62
    2
 10
1533.3942000000002
 20
1045.7974999999999
 11
1539.8859000000002
 21
1032.27
  0
LINE
  8
_0-0_LAYER001
  6
CONTINUOUS
 62
    2
 10
1506.0284000000001
 20
1033.4829
 11
1512.52
 21
1019.9553000000001
  0
LINE
  8
_0-0_LAYER001
  6
CONTINUOUS
 62
    2
 10
1533.3942000000002
 20
1045.7974999999999
 11
1506.0284000000001
 21
1033.4829
  0
LINE
  8
_0-0_LAYER001
  6
CONTINUOUS
 62
    2
 10
1268.2917
 20
926.50109999999995
 11
1274.7833000000001
 21
912.97360000000003
  0
LINE
  8
_0-0_LAYER001
  6
CONTINUOUS
 62
    2
 10
2008.8674999999998
 20
1259.7610999999999
 11
2015.2053000000001
 21
1246.5537999999999
  0
LINE
  8
_0-0_LAYER001
  6
CONTINUOUS
 62
    2
 10
1981.5016000000001
 20
1247.4463000000001
 11
1987.9931999999999
 21
1233.9186999999999
  0
LINE
  8
_0-0_LAYER001
  6
CONTINUOUS
 62
    2
 10
2015.6237000000001
 20
1246.3525
 11
1987.9931999999999
 21
1233.9186999999999
  0
LINE
  8
_0-0_LAYER001
  6
CONTINUOUS
 62
    2
 10
1771.1309000000001
 20
1152.7792999999999
 11
1743.7649999999999
 21
1140.4646
  0
LINE
  8
_0-0_LAYER001
  6
CONTINUOUS
 62
    2
 10
1771.1309000000001
 20
1152.7792999999999
 11
1777.6224999999999
 21
1139.2518
  0
LINE
  8
_0-0_LAYER001
  6
CONTINUOUS
 62
    2
 10
1295.6576
 20
938.81580000000008
 11
1302.1492000000001
 21
925.28819999999996
  0
LINE
  8
_0-0_LAYER001
  6
CONTINUOUS
 62
    2
 10
1295.6576
 20
938.81580000000008
 11
1268.2917
 21
926.50109999999995
  0
LINE
  8
_0-0_LAYER001
  6
CONTINUOUS
 62
    3
 10
1085.5329999999999
 20
864.5603000000001
 11
1116.0603000000001
 21
869.82770000000005
  0
LINE
  8
_0-0_LAYER001
  6
DASHED1
 62
    1
 10
1982.3887
 20
1279.0349000000001
 11
1997.7370000000001
 21
1283.5549000000001
  0
LINE
  8
_0-0_LAYER001
  6
DASHED1
 62
    1
 10
1997.7370000000001
 20
1283.5549000000001
 11
1998.5844999999999
 21
1280.6771000000001
  0
LINE
  8
_0-0_LAYER001
  6
DASHED1
 62
    1
 10
1982.3887
 20
1279.0349000000001
 11
1983.2361999999998
 21
1276.1569999999999
  0
LINE
  8
_0-0_LAYER001
  6
DASHED1
 62
    1
 10
1983.2361999999998
 20
1276.1569999999999
 11
1998.5844999999999
 21
1280.6771000000001
  0
LINE
  8
_0-0_LAYER001
  6
DASHED1
 62
    1
 10
2008.6379000000002
 20
1216.952
 11
2000.4142999999999
 21
1235.5263
  0
LINE
  8
_0-0_LAYER001
  6
DASHED1
 62
    1
 10
1988.0326
 20
1277.5695000000001
 11
2000.4142999999999
 21
1235.5263
  0
LINE
  8
_0-0_LAYER001
  6
DASHED1
 62
    1
 10
2008.8307
 20
1216.2974999999999
 11
2007.1624000000002
 21
1233.8507999999999
  0
LINE
  8
_0-0_LAYER001
  6
DASHED1
 62
    1
 10
1993.7882
 20
1279.2646
 11
2007.1624000000002
 21
1233.8507999999999
  0
LINE
  8
_0-0_LAYER001
  6
DASHED1
 62
    1
 10
1742.8051
 20
1173.8058000000001
 11
1758.1532999999999
 21
1178.3258000000001
  0
LINE
  8
_0-0_LAYER001
  6
DASHED1
 62
    1
 10
1758.1532999999999
 20
1178.3258000000001
 11
1759.0009
 21
1175.4480000000001
  0
LINE
  8
_0-0_LAYER001
  6
DASHED1
 62
    1
 10
1742.8051
 20
1173.8058000000001
 11
1743.6525999999999
 21
1170.9280000000001
  0
LINE
  8
_0-0_LAYER001
  6
DASHED1
 62
    1
 10
1743.6525999999999
 20
1170.9280000000001
 11
1759.0009
 21
1175.4480000000001
  0
LINE
  8
_0-0_LAYER001
  6
DASHED1
 62
    1
 10
1769.0542999999998
 20
1111.723
 11
1760.8307
 21
1130.2972
  0
LINE
  8
_0-0_LAYER001
  6
DASHED1
 62
    1
 10
1748.4488999999999
 20
1172.3405
 11
1760.8307
 21
1130.2972
  0
LINE
  8
_0-0_LAYER001
  6
DASHED1
 62
    1
 10
1769.2471
 20
1111.0685000000001
 11
1767.5787999999998
 21
1128.6217999999999
  0
LINE
  8
_0-0_LAYER001
  6
DASHED1
 62
    1
 10
1754.2044999999998
 20
1174.0355
 11
1767.5787999999998
 21
1128.6217999999999
  0
LINE
  8
_0-0_LAYER001
  6
DASHED1
 62
    1
 10
1507.0808999999999
 20
1062.5423000000001
 11
1522.4290999999998
 21
1067.0624
  0
LINE
  8
_0-0_LAYER001
  6
DASHED1
 62
    1
 10
1522.4290999999998
 20
1067.0624
 11
1523.2766999999999
 21
1064.1846
  0
LINE
  8
_0-0_LAYER001
  6
DASHED1
 62
    1
 10
1507.0808999999999
 20
1062.5423000000001
 11
1507.9283999999998
 21
1059.6645000000001
  0
LINE
  8
_0-0_LAYER001
  6
DASHED1
 62
    1
 10
1507.9283999999998
 20
1059.6645000000001
 11
1523.2766999999999
 21
1064.1846
  0
LINE
  8
_0-0_LAYER001
  6
DASHED1
 62
    1
 10
1533.3301000000001
 20
1000.4594999999999
 11
1525.1064999999999
 21
1019.0337
  0
LINE
  8
_0-0_LAYER001
  6
DASHED1
 62
    1
 10
1512.7247000000002
 20
1061.077
 11
1525.1064999999999
 21
1019.0337
  0
LINE
  8
_0-0_LAYER001
  6
DASHED1
 62
    1
 10
1533.5228999999999
 20
999.80500000000006
 11
1531.8546000000001
 21
1017.3583000000001
  0
LINE
  8
_0-0_LAYER001
  6
DASHED1
 62
    1
 10
1518.4803000000002
 20
1062.7719999999999
 11
1531.8546000000001
 21
1017.3583000000001
  0
LINE
  8
_0-0_LAYER001
  6
DASHED1
 62
    1
 10
1270.4603
 20
956.30040000000008
 11
1285.8085000000001
 21
960.82050000000004
  0
LINE
  8
_0-0_LAYER001
  6
DASHED1
 62
    1
 10
1285.8085000000001
 20
960.82050000000004
 11
1286.6560999999999
 21
957.94270000000006
  0
LINE
  8
_0-0_LAYER001
  6
DASHED1
 62
    1
 10
1270.4603
 20
956.30040000000008
 11
1271.3078
 21
953.4226000000001
  0
LINE
  8
_0-0_LAYER001
  6
DASHED1
 62
    1
 10
1271.3078
 20
953.4226000000001
 11
1286.6560999999999
 21
957.94270000000006
  0
LINE
  8
_0-0_LAYER001
  6
DASHED1
 62
    1
 10
1296.7094999999999
 20
894.21759999999995
 11
1288.4857999999999
 21
912.79179999999997
  0
LINE
  8
_0-0_LAYER001
  6
DASHED1
 62
    1
 10
1276.1041
 20
954.83510000000001
 11
1288.4857999999999
 21
912.79179999999997
  0
LINE
  8
_0-0_LAYER001
  6
DASHED1
 62
    1
 10
1296.9022999999997
 20
893.56310000000008
 11
1295.2339999999999
 21
911.11650000000009
  0
LINE
  8
_0-0_LAYER001
  6
DASHED1
 62
    1
 10
1281.8597
 20
956.53009999999995
 11
1295.2339999999999
 21
911.11650000000009
  0
LINE
  8
_0-0_LAYER001
  6
DASHED1
 62
    1
 10
1072.5618999999999
 20
951.70029999999997
 11
1113.4006999999999
 21
847.54369999999994
  0
LINE
  8
_0-0_LAYER001
  6
DASHED1
 62
    1
 10
1116.4541999999999
 20
829.80189999999993
 11
1113.4006999999999
 21
847.54369999999994
  0
LINE
  8
_0-0_LAYER001
  6
DASHED1
 62
    1
 10
1066.9760000000001
 20
949.51009999999997
 11
1108.0911000000001
 21
844.64859999999999
  0
LINE
  8
_0-0_LAYER001
  6
DASHED1
 62
    1
 10
1116.4919
 20
829.31330000000003
 11
1108.0911000000001
 21
844.64859999999999
  0
LINE
  8
_0-0_LAYER001
  6
DASHED1
 62
    1
 10
1062.3209999999999
 20
947.68489999999997
 11
1077.2168999999999
 21
953.52539999999999
  0
LINE
  8
_0-0_LAYER001
  6
DASHED1
 62
    1
 10
1061.2258999999999
 20
950.47790000000009
 11
1062.3209999999999
 21
947.68489999999997
  0
LINE
  8
_0-0_LAYER001
  6
DASHED1
 62
    1
 10
1076.1217999999999
 20
956.31840000000011
 11
1077.2168999999999
 21
953.52539999999999
  0
LINE
  8
_0-0_LAYER001
  6
DASHED1
 62
    1
 10
1061.2258999999999
 20
950.47790000000009
 11
1076.1217999999999
 21
956.31840000000011
  0
LINE
  8
_0-0_LAYER001
  6
CONTINUOUS
 62
    3
 10
1085.5329999999999
 20
864.5603000000001
 11
1147.0166999999999
 21
727.93010000000004
  0
LINE
  8
_0-0_LAYER001
  6
CONTINUOUS
 62
    3
 10
1116.0603000000001
 20
869.82770000000005
 11
1174.3742999999999
 21
740.24099999999999
  0
LINE
  8
_0-0_LAYER001
  6
CONTINUOUS
 62
    3
 10
1174.3742999999999
 20
740.24099999999999
 11
1147.0166999999999
 21
727.93010000000004
  0
LINE
  8
_0-0_LAYER001
  6
CONTINUOUS
 62
    2
 10
1133.7482
 20
830.52119999999991
 11
2161.0493000000001
 21
1292.8069
  0
LINE
  8
_0-0_LAYER001
  6
DASHED3
 62
    2
 10
1126.7720999999999
 20
846.02369999999996
 11
2154.0734000000002
 21
1308.3091999999999
  0
LINE
  8
_0-0_LAYER001
  6
CONTINUOUS
 62
    2
 10
1127.5926999999999
 20
844.20000000000005
 11
2154.8939
 21
1306.4857999999999
  0
LINE
  8
_0-0_LAYER001
  6
CONTINUOUS
 62
    2
 10
1158.3701000000001
 20
775.80590000000007
 11
1786.5785999999998
 21
1058.4999
  0
LINE
  8
_0-0_LAYER001
  6
CONTINUOUS
 62
    2
 10
1165.7566999999999
 20
759.39139999999998
 11
1792.5628000000002
 21
1041.4541999999999
  0
LINE
  8
_0-0_LAYER001
  6
CONTINUOUS
 62
    2
 10
1168.2189000000001
 20
753.9197999999999
 11
1794.5574999999999
 21
1035.7723000000001
  0
LINE
  8
_0-0_LAYER001
  6
CONTINUOUS
 62
    2
 10
1139.8516
 20
743.85249999999996
 11
1153.0562
 21
730.64779999999996
  0
LINE
  8
_0-0_LAYER001
  6
CONTINUOUS
 62
    2
 10
1131.1735000000001
 20
763.13719999999989
 11
1160.3711000000001
 21
733.93959999999993
  0
LINE
  8
_0-0_LAYER001
  6
CONTINUOUS
 62
    2
 10
1122.4953
 20
782.42190000000005
 11
1167.6859999999999
 21
737.23129999999992
  0
LINE
  8
_0-0_LAYER001
  6
CONTINUOUS
 62
    2
 10
1113.8172
 20
801.70669999999996
 11
1173.6310000000001
 21
741.89290000000005
  0
LINE
  8
_0-0_LAYER001
  6
CONTINUOUS
 62
    2
 10
1105.1391000000001
 20
820.99140000000011
 11
1164.9528
 21
761.17759999999998
  0
LINE
  8
_0-0_LAYER001
  6
CONTINUOUS
 62
    2
 10
1096.4609
 20
840.27610000000004
 11
1156.2746999999999
 21
780.46239999999989
  0
LINE
  8
_0-0_LAYER001
  6
CONTINUOUS
 62
    2
 10
1087.7828
 20
859.56089999999995
 11
1147.5966000000001
 21
799.74710000000005
  0
LINE
  8
_0-0_LAYER001
  6
CONTINUOUS
 62
    2
 10
1092.2338
 20
865.7165
 11
1138.9184
 21
819.03179999999998
  0
LINE
  8
_0-0_LAYER001
  6
CONTINUOUS
 62
    2
 10
1101.2795000000001
 20
867.27729999999997
 11
1130.2402999999999
 21
838.31660000000011
  0
LINE
  8
_0-0_LAYER001
  6
CONTINUOUS
 62
    2
 10
1110.3253
 20
868.83819999999992
 11
1121.5622000000001
 21
857.60130000000004
  0
LINE
  8
_0-0_LAYER001
  6
CONTINUOUS
 62
    2
 10
1109.2230999999999
 20
626.7813000000001
 11
1087.6789000000001
 21
674.6570999999999
  0
CIRCLE
  8
_0-0_LAYER001
  6
CONTINUOUS
 62
    2
 10
1108.1972000000001
 20
629.0610999999999
 40
1.6999999999999997
  0
LINE
  8
_0-0_LAYER001
  6
CONTINUOUS
 62
    2
 10
1108.1972000000001
 20
629.0610999999999
 11
1177.4783
 21
660.23759999999993
  0
CIRCLE
  8
_0-0_LAYER001
  6
CONTINUOUS
 62
    2
 10
1177.4783
 20
660.23759999999993
 40
1.6999999999999997
  0
LINE
  8
_0-0_LAYER001
  6
CONTINUOUS
 62
    2
 10
1178.5042000000001
 20
657.95779999999991
 11
1156.96
 21
705.83359999999993
  0
LINE
  8
_0-0_LAYER001
  6
CONTINUOUS
 62
    2
 10
977.18810000000008
 20
760.06909999999993
 11
1025.0639000000001
 21
781.61329999999998
  0
CIRCLE
  8
_0-0_LAYER001
  6
CONTINUOUS
 62
    2
 10
979.4679000000001
 20
761.09500000000003
 40
1.6999999999999997
  0
LINE
  8
_0-0_LAYER001
  6
CONTINUOUS
 62
    2
 10
979.4679000000001
 20
761.09500000000003
 11
973.31240000000003
 21
774.77389999999991
  0
CIRCLE
  8
_0-0_LAYER001
  6
CONTINUOUS
 62
    2
 10
973.31240000000003
 20
774.77389999999991
 40
1.6999999999999997
  0
LINE
  8
_0-0_LAYER001
  6
CONTINUOUS
 62
    2
 10
971.0326
 20
773.74800000000005
 11
1018.9085
 21
795.29209999999989
  0
CIRCLE
  8
_0-0_LAYER001
  6
CONTINUOUS
 62
    2
 10
973.31240000000003
 20
774.77389999999991
 40
1.6999999999999997
  0
LINE
  8
_0-0_LAYER001
  6
CONTINUOUS
 62
    2
 10
973.31240000000003
 20
774.77389999999991
 11
958.61030000000005
 21
807.44509999999991
  0
CIRCLE
  8
_0-0_LAYER001
  6
CONTINUOUS
 62
    2
 10
958.61030000000005
 20
807.44509999999991
 40
1.6999999999999997
  0
LINE
  8
_0-0_LAYER001
  6
CONTINUOUS
 62
    2
 10
956.33050000000003
 20
806.41920000000005
 11
1004.2064
 21
827.96329999999989
  0
LINE
  8
_0-0_LAYER001
  6
CONTINUOUS
 62
    2
 10
1070.6207999999999
 20
958.94470000000001
 11
1072.5618999999999
 21
951.70029999999997
  0
LINE
  8
_0-0_LAYER001
  6
CONTINUOUS
 62
    2
 10
1072.5618999999999
 20
951.70029999999997
 11
1067.2585999999999
 21
957.00360000000001
  0
LINE
  8
_0-0_LAYER001
  6
CONTINUOUS
 62
    2
 10
1072.5618999999999
 20
951.70029999999997
 11
988.95059999999989
 21
1096.5193999999999
  0
LINE
  8
_0-0_LAYER001
  6
CONTINUOUS
 62
    2
 10
988.95059999999989
 20
1096.5193999999999
 11
808.95059999999989
 21
1096.5193999999999
  0
LINE
  8
_0-0_LAYER001
  6
CONTINUOUS
 62
    2
 10
1604.1997999999999
 20
740.02430000000004
 11
1669.9380000000001
 21
740.02430000000004
  0
LINE
  8
_0-0_LAYER001
  6
CONTINUOUS
 62
    2
 10
1597.0266000000001
 20
769.8909000000001
 11
1817.9672
 21
769.8909000000001
  0
LINE
  8
_0-0_LAYER001
  6
CONTINUOUS
 62
    2
 10
1587.4834999999998
 20
799.98620000000005
 11
1831.3006
 21
799.98620000000005
  0
LINE
  8
_0-0_LAYER001
  6
CONTINUOUS
 62
    2
 10
1526.5918999999999
 20
1022.1606999999999
 11
1526.5918999999999
 21
1029.6606999999999
  0
LINE
  8
_0-0_LAYER001
  6
CONTINUOUS
 62
    2
 10
1526.5918999999999
 20
1029.6606999999999
 11
1530.3418999999999
 21
1023.1655000000001
  0
LINE
  8
_0-0_LAYER001
  6
CONTINUOUS
 62
    2
 10
1526.5918999999999
 20
1029.6606999999999
 11
1604.1997999999999
 21
740.02430000000004
  0
LINE
  8
_0-0_LAYER001
  6
CONTINUOUS
 62
    2
 10
1580.0997000000002
 20
829.96710000000007
 11
1784.9223999999999
 21
829.96710000000007
  0
LINE
  8
_0-1_ADD_LINE
  6
CONTINUOUS
 62
    7
 10
808.95059999999989
 20
1096.5193999999999
 11
988.95059999999989
 21
1096.5193999999999
  0
LINE
  8
_0-1_ADD_LINE
  6
CONTINUOUS
 62
    7
 10
1010.6619000000001
 20
660.27649999999994
 11
1058.6619000000001
 21
660.27649999999994
  0
LINE
  8
_0-1_ADD_LINE
  6
CONTINUOUS
 62
    7
 10
1580.0997000000002
 20
829.96710000000007
 11
1784.9223999999999
 21
829.96710000000007
  0
LINE
  8
_0-1_ADD_LINE
  6
CONTINUOUS
 62
    7
 10
1588.1330447889491
 20
799.98620000000005
 11
1831.3006
 21
799.98620000000005
  0
LINE
  8
_0-1_ADD_LINE
  6
CONTINUOUS
 62
    7
 10
1597.0266000000001
 20
769.8909000000001
 11
1817.9672
 21
769.8909000000001
  0
LINE
  8
_0-1_ADD_LINE
  6
CONTINUOUS
 62
    7
 10
1604.1997999999999
 20
740.02430000000004
 11
1669.9380000000001
 21
740.02430000000004
  0
LINE
  8
_0-1_ADD_LINE
  6
CONTINUOUS
 62
    7
 10
1556.3915000000002
 20
1213.1742999999999
 11
1596.8915000000002
 21
1213.1742999999999
  0
LINE
  8
_0-1_ADD_LINE
  6
CONTINUOUS
 62
    7
 10
1910.029
 20
1423.7023999999999
 11
1892.5821999999998
 21
1473.2185999999999
  0
LINE
  8
_0-1_ADD_LINE
  6
CONTINUOUS
 62
    7
 10
1648.1898000000001
 20
1384.4575
 11
1893.4129955223796
 21
1470.860698422332
  0
LINE
  8
_0-1_ADD_LINE
  6
CONTINUOUS
 62
    7
 10
1647.6248509989618
 20
1386.0608816221429
 11
1674.7754
 21
1309.0041999999999
  0
LINE
  8
_0-1_ADD_LINE
  6
CONTINUOUS
 62
    7
 10
1658.1594
 20
1356.1624999999999
 11
1412.9360999999999
 21
1269.7592999999999
  0
LINE
  8
_0-1_ADD_LINE
  6
CONTINUOUS
 62
    7
 10
1412.3711505213591
 20
1271.3626814538604
 11
1439.5216999999998
 21
1194.3059000000001
  0
LINE
  8
_0-1_ADD_LINE
  6
CONTINUOUS
 62
    7
 10
1422.9056850746267
 20
1241.4642947411135
 11
1177.6823999999999
 21
1155.0609999999999
  0
LINE
  8
_0-1_ADD_LINE
  6
CONTINUOUS
 62
    7
 10
1177.1174509989619
 20
1156.6643816221429
 11
1204.4992
 21
1079.6892
  0
LINE
  8
_0-1_ADD_LINE
  6
CONTINUOUS
 62
    7
 10
1187.6519926174776
 20
1126.7660352382356
 11
942.65990000000011
 21
1040.4443000000001
  0
LINE
  8
_0-1_ADD_LINE
  6
CONTINUOUS
 62
    7
 10
942.09495052135935
 20
1042.0476814538606
 11
959.27590000000009
 21
993.28590000000008
  0
LINE
  8
_0-1_ADD_LINE
  6
CONTINUOUS
 62
    7
 10
988.95059999999989
 20
1096.5193999999999
 11
1072.5619232802965
 21
951.70024062517678
  0
LINE
  8
_0-1_ADD_LINE
  6
CONTINUOUS
 62
    7
 10
1072.5619232802965
 20
951.70024062517678
 11
1070.6207999999999
 21
958.94470000000001
  0
LINE
  8
_0-1_ADD_LINE
  6
CONTINUOUS
 62
    7
 10
1072.5619232802965
 20
951.70024062517678
 11
1067.2585999999999
 21
957.00360000000001
  0
LINE
  8
_0-1_ADD_LINE
  6
CONTINUOUS
 62
    7
 10
1004.2064
 20
827.96329999999989
 11
957.06003001264639
 21
806.74748766760433
  0
LINE
  8
_0-1_ADD_LINE
  6
CONTINUOUS
 62
    7
 10
958.61030000000005
 20
807.44509999999991
 11
979.46789465400218
 21
761.09501188000513
  0
LINE
  8
_0-1_ADD_LINE
  6
CONTINUOUS
 62
    7
 10
977.91762918581583
 20
760.39738950503283
 11
1025.0639000000001
 21
781.61329999999998
  0
LINE
  8
_0-1_ADD_LINE
  6
CONTINUOUS
 62
    7
 10
1018.9085
 20
795.29209999999989
 11
973.31237958162524
 21
774.77389819271264
  0
LINE
  8
_0-1_ADD_LINE
  6
CONTINUOUS
 62
    7
 10
971.76213001264637
 20
774.07628766760422
 11
973.31237958162524
 21
774.77389819271264
  0
LINE
  8
_0-1_ADD_LINE
  6
CONTINUOUS
 62
    7
 10
1129.6483000000001
 20
783.22859999999991
 11
1124.4648756225583
 21
778.04517562255853
  0
LINE
  8
_0-1_ADD_LINE
  6
CONTINUOUS
 62
    7
 10
1129.6483000000001
 20
783.22859999999991
 11
1127.7072000000001
 21
775.9842000000001
  0
LINE
  8
_0-1_ADD_LINE
  6
CONTINUOUS
 62
    7
 10
1129.6483000000001
 20
783.22859999999991
 11
1058.6619000000001
 21
660.27649999999994
  0
LINE
  8
_0-1_ADD_LINE
  6
CONTINUOUS
 62
    7
 10
1087.6789000000001
 20
674.6570999999999
 11
1108.8948104949673
 21
627.51082918581562
  0
LINE
  8
_0-1_ADD_LINE
  6
CONTINUOUS
 62
    7
 10
1108.1972000000001
 20
629.0610999999999
 11
1177.4782881199967
 21
660.23759465399758
  0
LINE
  8
_0-1_ADD_LINE
  6
CONTINUOUS
 62
    7
 10
1177.4783
 20
660.23759999999993
 11
1156.96
 21
705.83359999999993
  0
LINE
  8
_0-1_ADD_LINE
  6
CONTINUOUS
 62
    7
 10
1177.4782881199967
 20
660.23759465399758
 11
1178.1759104949672
 21
658.68732918581577
  0
LINE
  8
_0-1_ADD_LINE
  6
CONTINUOUS
 62
    7
 10
1178.1759104949672
 20
658.68732918581577
 11
1177.4782881199967
 21
660.23759465399758
  0
LINE
  8
_0-1_ADD_LINE
  6
CONTINUOUS
 62
    7
 10
1168.2189000000001
 20
753.9197999999999
 11
1794.5574999999999
 21
1035.7723000000001
  0
LINE
  8
_0-1_ADD_LINE
  6
CONTINUOUS
 62
    7
 10
1792.5628000000002
 20
1041.4541999999999
 11
1165.7566999999999
 21
759.39139999999998
  0
LINE
  8
_0-1_ADD_LINE
  6
CONTINUOUS
 62
    7
 10
1158.3701000000001
 20
775.80590000000007
 11
1786.5785999999998
 21
1058.4999
  0
LINE
  8
_0-1_ADD_LINE
  6
CONTINUOUS
 62
    7
 10
1512.52
 20
1019.9553000000001
 11
1506.0284000000001
 21
1033.4829
  0
LINE
  8
_0-1_ADD_LINE
  6
CONTINUOUS
 62
    7
 10
1506.0284000000001
 20
1033.4829
 11
1533.3942000000002
 21
1045.7974999999999
  0
LINE
  8
_0-1_ADD_LINE
  6
CONTINUOUS
 62
    7
 10
1533.3942000000002
 20
1045.7974999999999
 11
1539.8859000000002
 21
1032.27
  0
LINE
  8
_0-1_ADD_LINE
  6
CONTINUOUS
 62
    7
 10
1539.8859000000002
 20
1032.27
 11
1512.52
 21
1019.9553000000001
  0
LINE
  8
_0-1_ADD_LINE
  6
CONTINUOUS
 62
    7
 10
1512.52
 20
1019.9553000000001
 11
1533.3942000000002
 21
1045.7974999999999
  0
LINE
  8
_0-1_ADD_LINE
  6
CONTINUOUS
 62
    7
 10
1526.5918999999999
 20
1029.6606999999999
 11
1526.5918999999999
 21
1022.1606999999999
  0
LINE
  8
_0-1_ADD_LINE
  6
CONTINUOUS
 62
    7
 10
1526.5918999999999
 20
1029.6606999999999
 11
1529.9387334630233
 21
1023.8638059442585
  0
LINE
  8
_0-1_ADD_LINE
  6
CONTINUOUS
 62
    7
 10
1526.5918999999999
 20
1029.6606999999999
 11
1604.1997999999999
 21
740.02430000000004
  0
LINE
  8
_0-1_ADD_LINE
  6
CONTINUOUS
 62
    7
 10
1439.2674999999999
 20
902.20910000000003
 11
1446.6538
 21
885.79510000000005
  0
LINE
  8
_0-1_ADD_LINE
  6
CONTINUOUS
 62
    7
 10
1446.6538
 20
885.79510000000005
 11
1473.9205000000002
 21
917.80289999999991
  0
LINE
  8
_0-1_ADD_LINE
  6
CONTINUOUS
 62
    7
 10
1473.9205000000002
 20
917.80289999999991
 11
1481.3067999999998
 21
901.3889999999999
  0
LINE
  8
_0-1_ADD_LINE
  6
CONTINUOUS
 62
    7
 10
1712.8442
 20
1025.3187
 11
1720.2305000000001
 21
1008.9047
  0
LINE
  8
_0-1_ADD_LINE
  6
CONTINUOUS
 62
    7
 10
1720.2305000000001
 20
1008.9047
 11
1747.4971999999998
 21
1040.9126000000001
  0
LINE
  8
_0-1_ADD_LINE
  6
CONTINUOUS
 62
    7
 10
1747.4971999999998
 20
1040.9126000000001
 11
1754.8834999999999
 21
1024.4985999999999
  0
LINE
  8
_0-1_ADD_LINE
  6
CONTINUOUS
 62
    7
 10
2161.0493000000001
 20
1292.8069
 11
1133.7482170063777
 21
830.52120765287327
  0
LINE
  8
_0-1_ADD_LINE
  6
CONTINUOUS
 62
    7
 10
1127.5927515871297
 20
844.20002321422146
 11
2154.8939
 21
1306.4857999999999
  0
LINE
  8
_0-1_ADD_LINE
  6
CONTINUOUS
 62
    7
 10
2154.0734000000002
 20
1308.3091999999999
 11
1126.7720999999999
 21
846.02369999999996
  0
LINE
  8
_0-1_ADD_LINE
  6
CONTINUOUS
 62
    7
 10
1274.7833000000001
 20
912.97360000000003
 11
1268.2917
 21
926.50109999999995
  0
LINE
  8
_0-1_ADD_LINE
  6
CONTINUOUS
 62
    7
 10
1268.2917
 20
926.50109999999995
 11
1295.6576
 21
938.81580000000008
  0
LINE
  8
_0-1_ADD_LINE
  6
CONTINUOUS
 62
    7
 10
1295.6576
 20
938.81580000000008
 11
1302.1492000000001
 21
925.28819999999996
  0
LINE
  8
_0-1_ADD_LINE
  6
CONTINUOUS
 62
    7
 10
1302.1492000000001
 20
925.28819999999996
 11
1274.7833000000001
 21
912.97360000000003
  0
LINE
  8
_0-1_ADD_LINE
  6
CONTINUOUS
 62
    7
 10
1274.7833000000001
 20
912.97360000000003
 11
1295.6576
 21
938.81580000000008
  0
LINE
  8
_0-1_ADD_LINE
  6
CONTINUOUS
 62
    7
 10
1750.2566000000002
 20
1126.9371000000001
 11
1743.7649999999999
 21
1140.4646
  0
LINE
  8
_0-1_ADD_LINE
  6
CONTINUOUS
 62
    7
 10
1743.7649999999999
 20
1140.4646
 11
1771.1309000000001
 21
1152.7792999999999
  0
LINE
  8
_0-1_ADD_LINE
  6
CONTINUOUS
 62
    7
 10
1771.1309000000001
 20
1152.7792999999999
 11
1777.6224999999999
 21
1139.2518
  0
LINE
  8
_0-1_ADD_LINE
  6
CONTINUOUS
 62
    7
 10
1777.6224999999999
 20
1139.2518
 11
1750.2566000000002
 21
1126.9371000000001
  0
LINE
  8
_0-1_ADD_LINE
  6
CONTINUOUS
 62
    7
 10
1750.2566000000002
 20
1126.9371000000001
 11
1771.1309000000001
 21
1152.7792999999999
  0
LINE
  8
_0-1_ADD_LINE
  6
CONTINUOUS
 62
    7
 10
1596.8915000000002
 20
1213.1742999999999
 11
1643.1563000000001
 21
1133.0411999999999
  0
LINE
  8
_0-1_ADD_LINE
  6
CONTINUOUS
 62
    7
 10
1643.1563000000001
 20
1133.0411999999999
 11
1641.2152000000001
 21
1140.2856999999999
  0
LINE
  8
_0-1_ADD_LINE
  6
CONTINUOUS
 62
    7
 10
1643.1563000000001
 20
1133.0411999999999
 11
1637.8530000000001
 21
1138.3444999999999
  0
LINE
  8
_0-1_ADD_LINE
  6
CONTINUOUS
 62
    7
 10
1165.7566999999999
 20
759.39139999999998
 11
1192.8171
 21
791.30719999999997
  0
LINE
  8
_0-1_ADD_LINE
  6
CONTINUOUS
 62
    7
 10
1192.8171
 20
791.30719999999997
 11
1200.2034764163564
 21
774.89245240994205
  0
TEXT
  8
_0-0_LAYER001
 62
    7
 10
1604.1997999999994
 20
742.52429999999936
 40
20
 41
1
 50
0
  1
　垂木
  0
TEXT
  8
_0-0_LAYER001
 62
    7
 10
1597.0265999999995
 20
772.39090000000033
 40
20
 41
1
 50
0
  1
　野地板：耐水合板ｔ＝１２
  0
TEXT
  8
_0-0_LAYER001
 62
    7
 10
1580.0997000000007
 20
832.4671000000003
 40
20
 41
1
 50
0
  1
　瓦桟：１５ｘ３０以上
  0
TEXT
  8
_0-0_LAYER001
 62
    7
 10
1557.3566536117457
 20
1224.6607337246273
 40
20
 41
1
 50
0
  1
　
  0
TEXT
  8
_0-0_LAYER001
 62
    7
 10
1550.8613281497846
 20
1216.0002997753463
 40
20
 41
1
 50
0
  1
桟　瓦
  0
TEXT
  8
_0-0_LAYER001
 62
    7
 10
1057.8379476869716
 20
1099.0324784451673
 40
20
 41
1
 50
19.409660999999996
  1
260
  0
TEXT
  8
_0-0_LAYER001
 62
    7
 10
1287.6755281918472
 20
1213.7216876583166
 40
20
 41
1
 50
19.40966100000001
  1
260
  0
TEXT
  8
_0-0_LAYER001
 62
    7
 10
1522.2587858747675
 20
1319.4002839412165
 40
20
 41
1
 50
19.40966100000001
  1
260
  0
TEXT
  8
_0-0_LAYER001
 62
    7
 10
1755.6807403018324
 20
1433.2080030151085
 40
20
 41
1
 50
19.40966099999995
  1
260
  0
TEXT
  8
_0-0_LAYER001
 62
    7
 10
972.96234585485968
 20
752.68429508346742
 40
20
 41
1
 50
114.22780000000007
  1
12
  0
TEXT
  8
_0-0_LAYER001
 62
    7
 10
960.18801004044349
 20
781.71687647986823
 40
20
 41
1
 50
114.22780000000007
  1
38
  0
TEXT
  8
_0-0_LAYER001
 62
    7
 10
1151.8030472566907
 20
611.00529786902928
 40
20
 41
1
 50
24.227800000000073
  1
75
  0
TEXT
  8
_0-0_LAYER001
 62
    7
 10
992.21778012337495
 20
667.32084973729434
 40
20
 41
1
 50
0
  1
鼻隠し
  0
TEXT
  8
_0-0_LAYER001
 62
    7
 10
1587.4834999999996
 20
802.48620000000051
 40
20
 41
1
 50
0
  1
　下葺材：ルーフィング
  0
TEXT
  8
_0-0_LAYER001
 62
    7
 10
786.72304485842744
 20
1102.4861714748304
 40
20
 41
1
 50
0
  1
パッキンステンレスネジ
  0
ENDSEC
  0
EOF
