  0
SECTION
  2
HEADER
  9
$ACADVER
  1
AC1009
  9
$INSBASE
 10
0
 20
0
 30
0
  9
$EXTMIN
 10
0
 20
0
  9
$EXTMAX
 10
2970
 20
2100
  9
$LIMMIN
 10
0
 20
0
  9
$LIMMAX
 10
2970
 20
2100
  9
$LTSCALE
 40
10
  0
ENDSEC
  0
SECTION
  2
TABLES
  0
TABLE
  2
LTYPE
 70
     9
  0
LTYPE
  2
CONTINUOUS
 70
    64
  3
実線
 72
    65
 73
     0
 40
0.0
  0
LTYPE
  2
DASHED1
 70
    64
  3
--  --  --  --  --  --  --  --  
 72
    65
 73
     2
 40
2.5
 49
1.25
 49
-1.25
  0
LTYPE
  2
DASHED2
 70
    64
  3
----    ----    ----    ----    
 72
    65
 73
     2
 40
5.0
 49
2.5
 49
-2.5
  0
LTYPE
  2
DASHED3
 70
    64
  3
------  ------  ------  ------  
 72
    65
 73
     2
 40
5.0
 49
3.75
 49
-1.25
  0
LTYPE
  2
CENTER1
 70
    64
  3
----- - ----- - ----- - ----- - 
 72
    65
 73
     4
 40
10.0
 49
6.25
 49
-1.25
 49
1.25
 49
-1.25
  0
LTYPE
  2
CENTER2
 70
    64
  3
----------  --  ----------  --  
 72
    65
 73
     4
 40
20.0
 49
12.5
 49
-2.5
 49
2.5
 49
-2.5
  0
LTYPE
  2
PHANTOM1
 70
    64
  3
--- - - --- - - --- - - --- - - 
 72
    65
 73
     6
 40
10.0
 49
3.25
 49
-1.25
 49
1.25
 49
-1.25
 49
1.25
 49
-1.25
  0
LTYPE
  2
PHANTOM2
 70
    64
  3
--------  -  -  --------  -  -  
 72
    65
 73
     6
 40
20.0
 49
10.0
 49
-2.5
 49
1.25
 49
-2.5
 49
1.25
 49
-2.5
  0
LTYPE
  2
DOT
 70
    64
  3
-   -   -   -   -   -   -   -   
 72
    65
 73
     2
 40
2.5
 49
0.625
 49
-1.875
  0
LTYPE
  2
DUMMY
 70
    64
  3
ダミー
 72
    65
 73
     0
 40
0.0
  0
LTYPE
  2
RAND1
 70
    64
  3
ランダム線1
 72
    65
 73
     4
 40
10.0
 49
1.0
 49
-2.0
 49
3.0
 49
-4.0
  0
LTYPE
  2
RAND2
 70
    64
  3
ランダム線2
 72
    65
 73
     4
 40
14.0
 49
2.0
 49
-3.0
 49
4.0
 49
-5.0
  0
LTYPE
  2
RAND3
 70
    64
  3
ランダム線3
 72
    65
 73
     4
 40
18.0
 49
3.0
 49
-4.0
 49
5.0
 49
-6.0
  0
LTYPE
  2
RAND4
 70
    64
  3
ランダム線4
 72
    65
 73
     4
 40
22.0
 49
4.0
 49
-5.0
 49
6.0
 49
-7.0
  0
LTYPE
  2
RAND5
 70
    64
  3
ランダム線5
 72
    65
 73
     4
 40
26.0
 49
5.0
 49
-6.0
 49
7.0
 49
-8.0
  0
LTYPE
  2
LONG1
 70
    64
  3
----------  --  ----------  --  
 72
    65
 73
     4
 40
40.0
 49
32.5
 49
-2.5
 49
2.5
 49
-2.5
  0
LTYPE
  2
LONG2
 70
    64
  3
--------  -  -  --------  -  -  
 72
    65
 73
     6
 40
40.0
 49
30.0
 49
-2.5
 49
1.25
 49
-2.5
 49
1.25
 49
-2.5
  0
LTYPE
  2
LONG3
 70
    64
  3
+++++++++++++++..+++++++++++++++
 72
    65
 73
     2
 40
40.0
 49
37.5
 49
-2.5
  0
LTYPE
  2
LONG4
 70
    64
  3
+++++++++++++++..+++++++++++++++
 72
    65
 73
     2
 40
80.0
 49
75.0
 49
-5.0
  0
LTYPE
  2
LONG5
 70
    64
  3
----------  --  ----------  --  
 72
    65
 73
     4
 40
60.0
 49
37.5
 49
-7.5
 49
7.5
 49
-7.5
  0
LTYPE
  2
dashed
 70
   64
  3
-------   -------------   ------
 72
   65
 73
    2
 40
7.5
 49
6
 49
-1.5
  0
LTYPE
  2
dashed_spaced
 70
   64
  3
----        --------        ----
 72
   65
 73
    2
 40
12
 49
6
 49
-6
  0
LTYPE
  2
long_dashed_dotted
 70
   64
  3
------------- --- --------------
 72
   65
 73
    4
 40
15.25
 49
12
 49
-1.5
 49
0.25
 49
-1.5
  0
LTYPE
  2
long_dashed_double-dotted
 70
   64
  3
----------- --- --- ------------
 72
   65
 73
    6
 40
17
 49
12
 49
-1.5
 49
0.25
 49
-1.5
 49
0.25
 49
-1.5
  0
LTYPE
  2
long_dashed_triplicate-dotted
 70
   64
  3
--------- --- --- --- ----------
 72
   65
 73
    8
 40
18.75
 49
12
 49
-1.5
 49
0.25
 49
-1.5
 49
0.25
 49
-1.5
 49
0.25
 49
-1.5
  0
LTYPE
  2
dotted
 70
   64
  3
   -       -       -       -    
 72
   65
 73
    2
 40
1.75
 49
0.25
 49
-1.5
  0
LTYPE
  2
chain
 70
   64
  3
-------------- -- --------------
 72
   65
 73
    4
 40
18.5
 49
12
 49
-1.5
 49
3.5
 49
-1.5
  0
LTYPE
  2
chain_double_dash
 70
   64
  3
------------ -- -- -------------
 72
   65
 73
    6
 40
23.5
 49
12
 49
-1.5
 49
3.5
 49
-1.5
 49
3.5
 49
-1.5
  0
LTYPE
  2
dashed_dotted
 70
   64
  3
-----------     -     ----------
 72
   65
 73
    4
 40
9.25
 49
6
 49
-1.5
 49
0.25
 49
-1.5
  0
LTYPE
  2
double-dashed_dotted
 70
   64
  3
------   -----------   -   -----
 72
   65
 73
    6
 40
16.75
 49
6
 49
-1.5
 49
6
 49
-1.5
 49
0.25
 49
-1.5
  0
LTYPE
  2
dashed_double-dotted
 70
   64
  3
---------    -    -    ---------
 72
   65
 73
    6
 40
11
 49
6
 49
-1.5
 49
0.25
 49
-1.5
 49
0.25
 49
-1.5
  0
LTYPE
  2
double-dashed_double-dotted
 70
   64
  3
-----   ---------   -   -   ----
 72
   65
 73
    8
 40
18.5
 49
6
 49
-1.5
 49
6
 49
-1.5
 49
0.25
 49
-1.5
 49
0.25
 49
-1.5
  0
LTYPE
  2
dashed_triplicate-dotted
 70
   64
  3
-------    -    -    -    ------
 72
   65
 73
    8
 40
12.75
 49
6
 49
-1.5
 49
0.25
 49
-1.5
 49
0.25
 49
-1.5
 49
0.25
 49
-1.5
  0
LTYPE
  2
double-dashed_triplicate-dotted
 70
   64
  3
-----  ---------  -  -  -  -----
 72
   65
 73
   10
 40
20.25
 49
6
 49
-1.5
 49
6
 49
-1.5
 49
0.25
 49
-1.5
 49
0.25
 49
-1.5
 49
0.25
 49
-1.5
  0
LTYPE
  2
undefined
 70
   64
  3
--------------------------------
 72
   65
 73
    0
 40
0
  0
ENDTAB
  0
TABLE
  2
STYLE
  5
3
100
AcDbSymbolTable
 70
     1
  0
STYLE
  5
10
100
AcDbSymbolTableRecord
100
AcDbTextStyleTableRecord
  2
STANDARD
 70
     0
 40
0.0
 41
1.0
 50
0.0
 71
     0
 42
0.2
  3
txt
  4
bigfont.shx
  0
STYLE
  5
26
100
AcDbSymbolTableRecord
100
AcDbTextStyleTableRecord
  2
TATEGAKI
 70
    68
 40
0.0
 41
1.0
 50
0.0
 71
     0
 42
1.0
  3
txt
  4
bigfont.shx
  0
ENDTAB
  0
TABLE
  2
LAYER
 70
    4
  0
LAYER
  2
_0-0_LAYER001
 70
   64
 62
    7
  6
CONTINUOUS
  0
LAYER
  2
_0-1_LAYER003
 70
   64
 62
    7
  6
CONTINUOUS
  0
LAYER
  2
_0-2_LAYER009
 70
   64
 62
    7
  6
CONTINUOUS
  0
LAYER
  2
ADD_LINE
 70
   64
 62
    7
  6
CONTINUOUS
  0
ENDTAB
  0
ENDSEC
  0
SECTION
  2
BLOCKS
  0
ENDSEC
  0
SECTION
  2
ENTITIES
  0
LINE
  8
_0-2_LAYER009
  6
CONTINUOUS
 62
    2
 10
1864.5137
 20
1086.6303
 11
936.83179999999993
 21
669.17440000000011
  0
LINE
  8
_0-1_LAYER003
  6
CONTINUOUS
 62
    7
 10
938.6549
 20
671.30320000000006
 11
1863.0137
 21
1088.1485
  0
LINE
  8
_0-0_LAYER001
  6
CONTINUOUS
 62
    2
 10
1606.587
 20
989.19609999999989
 11
1585.7127
 21
963.35369999999989
  0
LINE
  8
_0-0_LAYER001
  6
CONTINUOUS
 62
    2
 10
1864.5137
 20
991.7047
 11
1789.5137
 21
841.7047
  0
LINE
  8
_0-0_LAYER001
  6
CONTINUOUS
 62
    2
 10
1864.5137
 20
841.7047
 11
1789.5137
 21
841.7047
  0
LINE
  8
_0-0_LAYER001
  6
CONTINUOUS
 62
    2
 10
1789.5137
 20
841.7047
 11
1789.5137
 21
973.92620000000011
  0
LINE
  8
_0-0_LAYER001
  6
CONTINUOUS
 62
    2
 10
1829.0214000000001
 20
991.7047
 11
1864.5137
 21
991.7047
  0
LINE
  8
_0-0_LAYER001
  6
CONTINUOUS
 62
    2
 10
1864.5137
 20
991.7047
 11
1864.5137
 21
841.7047
  0
LINE
  8
_0-0_LAYER001
  6
CONTINUOUS
 62
    2
 10
1864.5137
 20
1007.6762000000001
 11
966.37799999999993
 21
603.51600000000008
  0
LINE
  8
_0-0_LAYER001
  6
CONTINUOUS
 62
    2
 10
1864.5137
 20
1073.4712999999999
 11
941.75620000000004
 21
658.23129999999992
  0
LINE
  8
_0-0_LAYER001
  6
CONTINUOUS
 62
    2
 10
2017.9049
 20
1338.1485
 11
1965.4049
 21
1338.1485
  0
CIRCLE
  8
_0-0_LAYER001
  6
CONTINUOUS
 62
    2
 10
2015.4049
 20
1338.1485
 40
1.6999999999999997
  0
LINE
  8
_0-0_LAYER001
  6
CONTINUOUS
 62
    2
 10
2015.4049
 20
1338.1485
 11
2015.4049
 21
1088.1485
  0
CIRCLE
  8
_0-0_LAYER001
  6
CONTINUOUS
 62
    2
 10
2015.4049
 20
1088.1485
 40
1.6999999999999997
  0
LINE
  8
_0-0_LAYER001
  6
CONTINUOUS
 62
    2
 10
2017.9049
 20
1088.1485
 11
1965.4049
 21
1088.1485
  0
LINE
  8
_0-0_LAYER001
  6
CONTINUOUS
 62
    2
 10
1850.3240000000001
 20
1083.6739
 11
1822.9641000000001
 21
1071.3465000000001
  0
LINE
  8
_0-0_LAYER001
  6
CONTINUOUS
 62
    4
 10
1137.6053999999999
 20
761.70499999999993
 11
1110.2394999999999
 21
749.39030000000002
  0
LINE
  8
_0-0_LAYER001
  6
CONTINUOUS
 62
    4
 10
1375.3420000000001
 20
868.68679999999995
 11
1347.9761000000003
 21
856.37210000000005
  0
LINE
  8
_0-0_LAYER001
  6
CONTINUOUS
 62
    4
 10
1363.7284999999999
 20
903.47109999999998
 11
1364.7254
 21
900.64159999999993
  0
LINE
  8
_0-0_LAYER001
  6
CONTINUOUS
 62
    4
 10
1363.7284999999999
 20
903.47109999999998
 11
1372.2170000000001
 21
906.46199999999999
  0
LINE
  8
_0-0_LAYER001
  6
CONTINUOUS
 62
    4
 10
1297.4801
 20
968.71109999999999
 11
1324.8178000000003
 21
891.1232
  0
LINE
  8
_0-0_LAYER001
  6
CONTINUOUS
 62
    4
 10
1324.8178000000003
 20
891.1232
 11
1608.7109999999998
 21
991.15159999999992
  0
LINE
  8
_0-0_LAYER001
  6
CONTINUOUS
 62
    4
 10
1316.1624999999999
 20
919.27050000000008
 11
1554.6286
 21
1021.2692
  0
LINE
  8
_0-0_LAYER001
  6
CONTINUOUS
 62
    4
 10
1608.7109999999998
 20
991.15159999999992
 11
1612.6988000000001
 21
979.83359999999993
  0
LINE
  8
_0-0_LAYER001
  6
CONTINUOUS
 62
    4
 10
1612.6988000000001
 20
979.83359999999993
 11
1621.1873000000001
 21
982.82439999999997
  0
LINE
  8
_0-0_LAYER001
  6
CONTINUOUS
 62
    4
 10
1601.7321999999999
 20
1010.9580000000001
 11
1602.7291
 21
1008.1285
  0
LINE
  8
_0-0_LAYER001
  6
CONTINUOUS
 62
    4
 10
1318.836
 20
908.10020000000009
 11
1602.7291
 21
1008.1285
  0
LINE
  8
_0-0_LAYER001
  6
CONTINUOUS
 62
    4
 10
1297.4899
 20
969.11349999999993
 11
1542.5783000000001
 21
1055.4692
  0
LINE
  8
_0-0_LAYER001
  6
CONTINUOUS
 62
    4
 10
1601.7321999999999
 20
1010.9580000000001
 11
1610.2206999999999
 21
1013.9489000000001
  0
LINE
  8
_0-0_LAYER001
  6
CONTINUOUS
 62
    4
 10
1610.2206999999999
 20
1013.9489000000001
 11
1621.1873000000001
 21
982.82439999999997
  0
LINE
  8
_0-0_LAYER001
  6
CONTINUOUS
 62
    4
 10
1535.7892000000002
 20
1075.1699000000001
 11
1563.1269000000002
 21
997.58189999999991
  0
LINE
  8
_0-0_LAYER001
  6
CONTINUOUS
 62
    4
 10
1563.1269000000002
 20
997.58189999999991
 11
1847.0201000000002
 21
1097.6103000000001
  0
LINE
  8
_0-0_LAYER001
  6
CONTINUOUS
 62
    4
 10
1554.4715999999999
 20
1025.7292
 11
1839.0075000000002
 21
1147.4333999999999
  0
LINE
  8
_0-0_LAYER001
  6
CONTINUOUS
 62
    4
 10
1847.0201000000002
 20
1097.6103000000001
 11
1851.0079000000001
 21
1086.2923000000001
  0
LINE
  8
_0-0_LAYER001
  6
CONTINUOUS
 62
    4
 10
1851.0079000000001
 20
1086.2923000000001
 11
1859.4964
 21
1089.2832000000001
  0
LINE
  8
_0-0_LAYER001
  6
CONTINUOUS
 62
    4
 10
1840.0414000000001
 20
1117.4168
 11
1841.0383000000002
 21
1114.5872999999999
  0
LINE
  8
_0-0_LAYER001
  6
CONTINUOUS
 62
    4
 10
1557.1451000000002
 20
1014.5589
 11
1841.0383000000002
 21
1114.5872999999999
  0
LINE
  8
_0-0_LAYER001
  6
CONTINUOUS
 62
    4
 10
1535.7988999999998
 20
1075.5722000000001
 11
1828.0457999999999
 21
1178.5438999999999
  0
LINE
  8
_0-0_LAYER001
  6
CONTINUOUS
 62
    4
 10
1840.0414000000001
 20
1117.4168
 11
1848.5299
 21
1120.4076
  0
LINE
  8
_0-0_LAYER001
  6
CONTINUOUS
 62
    4
 10
1828.0457999999999
 20
1178.5438999999999
 11
1859.4964
 21
1089.2832000000001
  0
LINE
  8
_0-0_LAYER001
  6
CONTINUOUS
 62
    4
 10
919.44949999999994
 20
701.95890000000009
 11
1133.1854000000001
 21
777.2677000000001
  0
LINE
  8
_0-0_LAYER001
  6
CONTINUOUS
 62
    4
 10
905.5643
 20
733.15789999999993
 11
1079.1030000000001
 21
807.38539999999989
  0
LINE
  8
_0-0_LAYER001
  6
CONTINUOUS
 62
    4
 10
1133.1854000000001
 20
777.2677000000001
 11
1137.1732999999999
 21
765.94969999999989
  0
LINE
  8
_0-0_LAYER001
  6
CONTINUOUS
 62
    4
 10
1137.1732999999999
 20
765.94969999999989
 11
1145.6618000000001
 21
768.9405999999999
  0
LINE
  8
_0-0_LAYER001
  6
CONTINUOUS
 62
    4
 10
1126.2067
 20
797.07420000000002
 11
1127.2037
 21
794.24469999999997
  0
LINE
  8
_0-0_LAYER001
  6
CONTINUOUS
 62
    4
 10
912.10719999999992
 20
718.45650000000001
 11
1127.2037
 21
794.24469999999997
  0
LINE
  8
_0-0_LAYER001
  6
CONTINUOUS
 62
    4
 10
885.74039999999991
 20
777.70080000000007
 11
1067.0527999999999
 21
841.58529999999996
  0
LINE
  8
_0-0_LAYER001
  6
CONTINUOUS
 62
    4
 10
1126.2067
 20
797.07420000000002
 11
1134.6952000000001
 21
800.06510000000003
  0
LINE
  8
_0-0_LAYER001
  6
CONTINUOUS
 62
    4
 10
1134.6952000000001
 20
800.06510000000003
 11
1145.6618000000001
 21
768.9405999999999
  0
LINE
  8
_0-0_LAYER001
  6
CONTINUOUS
 62
    4
 10
1059.4763
 20
861.22420000000011
 11
1086.8140000000001
 21
783.63619999999992
  0
LINE
  8
_0-0_LAYER001
  6
CONTINUOUS
 62
    4
 10
1086.8140000000001
 20
783.63619999999992
 11
1370.7071999999998
 21
883.66460000000006
  0
LINE
  8
_0-0_LAYER001
  6
CONTINUOUS
 62
    4
 10
1078.1587
 20
811.7835
 11
1316.6248000000001
 21
913.78230000000008
  0
LINE
  8
_0-0_LAYER001
  6
CONTINUOUS
 62
    4
 10
1370.7071999999998
 20
883.66460000000006
 11
1374.6949999999997
 21
872.34660000000008
  0
LINE
  8
_0-0_LAYER001
  6
CONTINUOUS
 62
    4
 10
1374.6949999999997
 20
872.34660000000008
 11
1383.1835000000001
 21
875.33739999999989
  0
LINE
  8
_0-0_LAYER001
  6
CONTINUOUS
 62
    4
 10
1080.8323
 20
800.61320000000001
 11
1364.7254
 21
900.64159999999993
  0
LINE
  8
_0-0_LAYER001
  6
CONTINUOUS
 62
    4
 10
1059.4861000000001
 20
861.62650000000008
 11
1304.5745999999999
 21
947.98219999999992
  0
LINE
  8
_0-0_LAYER001
  6
CONTINUOUS
 62
    4
 10
1372.2170000000001
 20
906.46199999999999
 11
1383.1835000000001
 21
875.33739999999989
  0
LINE
  8
_0-0_LAYER001
  6
CONTINUOUS
 62
    4
 10
1844.3236000000002
 20
1096.1777999999999
 11
1816.9576999999999
 21
1083.8631
  0
LINE
  8
_0-0_LAYER001
  6
CONTINUOUS
 62
    4
 10
1606.587
 20
989.19609999999989
 11
1579.2211000000002
 21
976.88139999999999
  0
LINE
  8
_0-0_LAYER001
  6
CONTINUOUS
 62
    4
 10
1341.4845
 20
869.89959999999996
 11
1347.9761000000003
 21
856.37210000000005
  0
LINE
  8
_0-0_LAYER001
  6
CONTINUOUS
 62
    4
 10
1131.1137000000001
 20
775.23260000000005
 11
1137.6053999999999
 21
761.70499999999993
  0
LINE
  8
_0-0_LAYER001
  6
CONTINUOUS
 62
    4
 10
1103.7478000000001
 20
762.91789999999992
 11
1110.2394999999999
 21
749.39030000000002
  0
LINE
  8
_0-0_LAYER001
  6
CONTINUOUS
 62
    4
 10
1131.1137000000001
 20
775.23260000000005
 11
1103.7478000000001
 21
762.91789999999992
  0
LINE
  8
_0-0_LAYER001
  6
CONTINUOUS
 62
    4
 10
1844.3236000000002
 20
1096.1777
 11
1850.3240000000001
 21
1083.6739
  0
LINE
  8
_0-0_LAYER001
  6
CONTINUOUS
 62
    4
 10
1816.9576999999999
 20
1083.8631
 11
1822.9641000000001
 21
1071.3465000000001
  0
LINE
  8
_0-0_LAYER001
  6
CONTINUOUS
 62
    4
 10
1579.2211000000002
 20
976.88139999999999
 11
1585.7127
 21
963.35369999999989
  0
LINE
  8
_0-0_LAYER001
  6
CONTINUOUS
 62
    4
 10
1368.8504
 20
882.21430000000009
 11
1341.4845
 21
869.89959999999996
  0
LINE
  8
_0-0_LAYER001
  6
CONTINUOUS
 62
    4
 10
1368.8504
 20
882.21430000000009
 11
1375.3420000000001
 21
868.68679999999995
  0
LINE
  8
_0-0_LAYER001
  6
DASHED1
 62
    1
 10
1822.1226999999999
 20
1114.6307999999999
 11
1837.4711000000002
 21
1119.1509000000001
  0
LINE
  8
_0-0_LAYER001
  6
DASHED1
 62
    1
 10
1837.4711000000002
 20
1119.1509000000001
 11
1838.3184999999999
 21
1116.2729999999999
  0
LINE
  8
_0-0_LAYER001
  6
DASHED1
 62
    1
 10
1822.1226999999999
 20
1114.6307999999999
 11
1822.9702000000002
 21
1111.7529999999999
  0
LINE
  8
_0-0_LAYER001
  6
DASHED1
 62
    1
 10
1822.9702000000002
 20
1111.7529999999999
 11
1838.3184999999999
 21
1116.2729999999999
  0
LINE
  8
_0-0_LAYER001
  6
DASHED1
 62
    1
 10
1848.3719999999998
 20
1052.548
 11
1840.1482999999998
 21
1071.1222
  0
LINE
  8
_0-0_LAYER001
  6
DASHED1
 62
    1
 10
1827.7665999999999
 20
1113.1655000000001
 11
1840.1482999999998
 21
1071.1222
  0
LINE
  8
_0-0_LAYER001
  6
DASHED1
 62
    1
 10
1848.5646999999999
 20
1051.8934999999999
 11
1846.8964999999998
 21
1069.4467999999999
  0
LINE
  8
_0-0_LAYER001
  6
DASHED1
 62
    1
 10
1833.5221999999999
 20
1114.8605
 11
1846.8964999999998
 21
1069.4467999999999
  0
LINE
  8
_0-0_LAYER001
  6
DASHED1
 62
    1
 10
1580.1082000000001
 20
1008.4699000000001
 11
1595.4564999999998
 21
1012.9899
  0
LINE
  8
_0-0_LAYER001
  6
DASHED1
 62
    1
 10
1595.4564999999998
 20
1012.9899
 11
1596.3040000000001
 21
1010.1121000000001
  0
LINE
  8
_0-0_LAYER001
  6
DASHED1
 62
    1
 10
1580.1082000000001
 20
1008.4699000000001
 11
1580.9557
 21
1005.5920000000001
  0
LINE
  8
_0-0_LAYER001
  6
DASHED1
 62
    1
 10
1580.9557
 20
1005.5920000000001
 11
1596.3040000000001
 21
1010.1121000000001
  0
LINE
  8
_0-0_LAYER001
  6
DASHED1
 62
    1
 10
1606.3573999999999
 20
946.38699999999994
 11
1598.1338000000001
 21
964.96129999999994
  0
LINE
  8
_0-0_LAYER001
  6
DASHED1
 62
    1
 10
1585.7521000000002
 20
1007.0045
 11
1598.1338000000001
 21
964.96129999999994
  0
LINE
  8
_0-0_LAYER001
  6
DASHED1
 62
    1
 10
1606.5502000000001
 20
945.73250000000007
 11
1604.8818999999999
 21
963.28580000000011
  0
LINE
  8
_0-0_LAYER001
  6
DASHED1
 62
    1
 10
1591.5077000000001
 20
1008.6995999999999
 11
1604.8818999999999
 21
963.28580000000011
  0
LINE
  8
_0-0_LAYER001
  6
DASHED1
 62
    1
 10
1340.5246
 20
903.24080000000004
 11
1355.8728000000001
 21
907.76080000000002
  0
LINE
  8
_0-0_LAYER001
  6
DASHED1
 62
    1
 10
1355.8728000000001
 20
907.76080000000002
 11
1356.7203999999997
 21
904.88300000000004
  0
LINE
  8
_0-0_LAYER001
  6
DASHED1
 62
    1
 10
1340.5246
 20
903.24080000000004
 11
1341.3721
 21
900.36300000000006
  0
LINE
  8
_0-0_LAYER001
  6
DASHED1
 62
    1
 10
1341.3721
 20
900.36300000000006
 11
1356.7203999999997
 21
904.88300000000004
  0
LINE
  8
_0-0_LAYER001
  6
DASHED1
 62
    1
 10
1366.7737999999999
 20
841.1579999999999
 11
1358.5501999999999
 21
859.73219999999992
  0
LINE
  8
_0-0_LAYER001
  6
DASHED1
 62
    1
 10
1346.1684
 20
901.77549999999997
 11
1358.5501999999999
 21
859.73219999999992
  0
LINE
  8
_0-0_LAYER001
  6
DASHED1
 62
    1
 10
1366.9666000000002
 20
840.50350000000003
 11
1365.2982999999999
 21
858.05680000000007
  0
LINE
  8
_0-0_LAYER001
  6
DASHED1
 62
    1
 10
1351.924
 20
903.4704999999999
 11
1365.2982999999999
 21
858.05680000000007
  0
LINE
  8
_0-0_LAYER001
  6
DASHED1
 62
    1
 10
1104.8004000000001
 20
791.97730000000001
 11
1120.1486
 21
796.49739999999997
  0
LINE
  8
_0-0_LAYER001
  6
DASHED1
 62
    1
 10
1120.1486
 20
796.49739999999997
 11
1120.9962
 21
793.61959999999999
  0
LINE
  8
_0-0_LAYER001
  6
DASHED1
 62
    1
 10
1104.8004000000001
 20
791.97730000000001
 11
1105.6478999999999
 21
789.09950000000003
  0
LINE
  8
_0-0_LAYER001
  6
DASHED1
 62
    1
 10
1105.6478999999999
 20
789.09950000000003
 11
1120.9962
 21
793.61959999999999
  0
LINE
  8
_0-0_LAYER001
  6
DASHED1
 62
    1
 10
1131.0496000000001
 20
729.89450000000011
 11
1122.826
 21
748.4686999999999
  0
LINE
  8
_0-0_LAYER001
  6
DASHED1
 62
    1
 10
1110.4441999999999
 20
790.51199999999994
 11
1122.826
 21
748.4686999999999
  0
LINE
  8
_0-0_LAYER001
  6
DASHED1
 62
    1
 10
1131.2424000000001
 20
729.24000000000001
 11
1129.5741
 21
746.79340000000002
  0
LINE
  8
_0-0_LAYER001
  6
DASHED1
 62
    1
 10
1116.1998000000001
 20
792.20710000000008
 11
1129.5741
 21
746.79340000000002
  0
LINE
  8
_0-0_LAYER001
  6
CONTINUOUS
 62
    2
 10
1131.1137000000001
 20
775.23260000000005
 11
1110.2394999999999
 21
749.39030000000002
  0
LINE
  8
_0-0_LAYER001
  6
CONTINUOUS
 62
    2
 10
1368.8504
 20
882.21430000000009
 11
1347.9761000000003
 21
856.37210000000005
  0
LINE
  8
_0-0_LAYER001
  6
CONTINUOUS
 62
    2
 10
1844.3236000000002
 20
1096.1777
 11
1822.9641000000001
 21
1071.3465000000001
  0
LINE
  8
_0-0_LAYER001
  6
CONTINUOUS
 62
    2
 10
1419.9672
 20
994.12020000000007
 11
1421.9083000000001
 21
986.87580000000003
  0
LINE
  8
_0-0_LAYER001
  6
CONTINUOUS
 62
    2
 10
1421.9083000000001
 20
986.87580000000003
 11
1416.605
 21
992.17910000000006
  0
LINE
  8
_0-0_LAYER001
  6
CONTINUOUS
 62
    2
 10
1421.9083000000001
 20
986.87580000000003
 11
1377.1702
 21
1064.3643999999999
  0
LINE
  8
_0-0_LAYER001
  6
CONTINUOUS
 62
    2
 10
1377.1702
 20
1064.3643999999999
 11
1336.6702
 21
1064.3643999999999
  0
LINE
  8
_0-0_LAYER001
  6
CONTINUOUS
 62
    2
 10
1432.623
 20
573.1404
 11
1497.2581
 21
573.1404
  0
LINE
  8
_0-0_LAYER001
  6
CONTINUOUS
 62
    2
 10
1425.4498000000001
 20
603.00690000000009
 11
1646.3904000000002
 21
603.00690000000009
  0
LINE
  8
_0-0_LAYER001
  6
CONTINUOUS
 62
    2
 10
1415.9067
 20
633.10230000000001
 11
1657.5201000000002
 21
633.10230000000001
  0
LINE
  8
_0-0_LAYER001
  6
CONTINUOUS
 62
    2
 10
1355.0151000000001
 20
855.27680000000009
 11
1355.0151000000001
 21
862.77680000000009
  0
LINE
  8
_0-0_LAYER001
  6
CONTINUOUS
 62
    2
 10
1355.0151000000001
 20
862.77680000000009
 11
1358.7651000000001
 21
856.28160000000003
  0
LINE
  8
_0-0_LAYER001
  6
CONTINUOUS
 62
    2
 10
1355.0151000000001
 20
862.77680000000009
 11
1432.623
 21
573.1404
  0
LINE
  8
_0-0_LAYER001
  6
CONTINUOUS
 62
    2
 10
1408.5228999999999
 20
663.08320000000003
 11
1613.3456000000001
 21
663.08320000000003
  0
LINE
  8
_0-0_LAYER001
  6
CONTINUOUS
 62
    2
 10
1839.5137
 20
1261.0037
 11
1857.5137
 21
1261.0037
  0
LINE
  8
_0-0_LAYER001
  6
CONTINUOUS
 62
    2
 10
1857.5137
 20
1261.0037
 11
1857.5137
 21
1297.0037
  0
LINE
  8
_0-0_LAYER001
  6
CONTINUOUS
 62
    2
 10
1857.5137
 20
1297.0037
 11
1839.5137
 21
1297.0037
  0
LINE
  8
_0-0_LAYER001
  6
CONTINUOUS
 62
    2
 10
1839.5137
 20
1297.0037
 11
1839.5137
 21
1261.0037
  0
LINE
  8
_0-0_LAYER001
  6
CONTINUOUS
 62
    2
 10
1857.5137
 20
1297.0037
 11
1839.5137
 21
1261.0037
  0
LINE
  8
_0-0_LAYER001
  6
CONTINUOUS
 62
    2
 10
1760.4515999999999
 20
1310.1745000000001
 11
1760.4515999999999
 21
1282.6745000000001
  0
CIRCLE
  8
_0-0_LAYER001
  6
CONTINUOUS
 62
    2
 10
1760.4515999999999
 20
1307.6745000000001
 40
1.6999999999999997
  0
LINE
  8
_0-0_LAYER001
  6
CONTINUOUS
 62
    2
 10
1760.4515999999999
 20
1307.6745000000001
 11
1827.5137
 21
1307.6745000000001
  0
CIRCLE
  8
_0-0_LAYER001
  6
CONTINUOUS
 62
    2
 10
1827.5137
 20
1307.6745000000001
 40
1.6999999999999997
  0
LINE
  8
_0-0_LAYER001
  6
CONTINUOUS
 62
    2
 10
1827.5137
 20
1310.1745000000001
 11
1827.5137
 21
1282.6745000000001
  0
LINE
  8
_0-0_LAYER001
  6
CONTINUOUS
 62
    2
 10
1926.2678000000001
 20
1368.4725000000001
 11
1898.7678000000001
 21
1368.4725000000001
  0
CIRCLE
  8
_0-0_LAYER001
  6
CONTINUOUS
 62
    2
 10
1923.7678000000001
 20
1368.4725000000001
 40
1.6999999999999997
  0
LINE
  8
_0-0_LAYER001
  6
CONTINUOUS
 62
    2
 10
1923.7678000000001
 20
1368.4725000000001
 11
1923.7678000000001
 21
1218.4725000000001
  0
CIRCLE
  8
_0-0_LAYER001
  6
CONTINUOUS
 62
    2
 10
1923.7678000000001
 20
1218.4725000000001
 40
1.6999999999999997
  0
LINE
  8
_0-0_LAYER001
  6
CONTINUOUS
 62
    2
 10
1926.2678000000001
 20
1218.4725000000001
 11
1898.7678000000001
 21
1218.4725000000001
  0
LINE
  8
_0-0_LAYER001
  6
CONTINUOUS
 62
    2
 10
1848.4798000000001
 20
1290.0626
 11
1850.4209000000001
 21
1282.8181999999997
  0
LINE
  8
_0-0_LAYER001
  6
CONTINUOUS
 62
    2
 10
1850.4209000000001
 20
1282.8181999999997
 11
1845.1176
 21
1288.1215
  0
LINE
  8
_0-0_LAYER001
  6
CONTINUOUS
 62
    2
 10
1850.4209000000001
 20
1282.8181999999997
 11
1798.5900999999999
 21
1372.5917999999999
  0
LINE
  8
_0-0_LAYER001
  6
CONTINUOUS
 62
    2
 10
1798.5900999999999
 20
1372.5917999999999
 11
1758.0900999999999
 21
1372.5917999999999
  0
LINE
  8
_0-0_LAYER001
  6
CONTINUOUS
 62
    2
 10
1861.5137
 20
1368.4725000000001
 11
1861.5137
 21
1218.5597
  0
LINE
  8
_0-0_LAYER001
  6
CONTINUOUS
 62
    2
 10
1827.5137
 20
1224.0621000000001
 11
1839.5137
 21
1224.0621000000001
  0
LINE
  8
_0-0_LAYER001
  6
CONTINUOUS
 62
    2
 10
1864.5137
 20
734.55569999999989
 11
1864.5137
 21
1459.1129000000001
  0
LINE
  8
_0-0_LAYER001
  6
DASHED3
 62
    2
 10
1863.0137
 20
1088.1485
 11
1863.0137
 21
1338.1485
  0
LINE
  8
_0-0_LAYER001
  6
CONTINUOUS
 62
    2
 10
1839.5137
 20
1418.0105000000001
 11
1839.5137
 21
1224.0621000000001
  0
LINE
  8
_0-0_LAYER001
  6
CONTINUOUS
 62
    2
 10
1827.5137
 20
1418.0105000000001
 11
1827.5137
 21
1224.0621000000001
  0
LINE
  8
_0-0_LAYER001
  6
CONTINUOUS
 62
    2
 10
1747.6959999999999
 20
1170.1203
 11
1755.6293999999998
 21
1168.7203
  0
LINE
  8
_0-0_LAYER001
  6
CONTINUOUS
 62
    2
 10
1772.8645999999999
 20
1177.5110999999999
 11
1747.6959999999999
 21
1170.1203
  0
LINE
  8
_0-0_LAYER001
  6
CONTINUOUS
 62
    2
 10
1775.8809999999999
 20
1186.1982
 11
1864.5137
 21
1201.8264999999999
  0
LINE
  8
_0-0_LAYER001
  6
CONTINUOUS
 62
    2
 10
1773.2764000000002
 20
1200.9703
 11
1861.9090000000001
 21
1216.5986
  0
LINE
  8
_0-0_LAYER001
  6
CONTINUOUS
 62
    2
 10
1773.2764000000002
 20
1200.9703
 11
1775.8809999999999
 21
1186.1982
  0
LINE
  8
_0-0_LAYER001
  6
CONTINUOUS
 62
    2
 10
1861.9090000000001
 20
1216.5986
 11
1864.5137
 21
1201.8264999999999
  0
LINE
  8
_0-0_LAYER001
  6
CONTINUOUS
 62
    2
 10
1864.5137
 20
1201.8264999999999
 11
1773.2764000000002
 21
1200.9703
  0
LINE
  8
_0-0_LAYER001
  6
DASHED1
 62
    2
 10
1912.5137
 20
1181.8264999999999
 11
1907.5136000000002
 21
1184.8264999999999
  0
LINE
  8
_0-0_LAYER001
  6
DASHED1
 62
    2
 10
1907.5136000000002
 20
1178.8266000000001
 11
1912.5137
 21
1181.8264999999999
  0
LINE
  8
_0-0_LAYER001
  6
CONTINUOUS
 62
    2
 10
1840.5136000000002
 20
1178.8266000000001
 11
1840.5136000000002
 21
1184.8264999999999
  0
LINE
  8
_0-0_LAYER001
  6
CONTINUOUS
 62
    2
 10
1834.5137
 20
1175.8264999999999
 11
1834.5137
 21
1187.8266000000001
  0
LINE
  8
_0-0_LAYER001
  6
CONTINUOUS
 62
    2
 10
1843.4005999999999
 20
1178.8266000000001
 11
1846.8636999999999
 21
1184.8264999999999
  0
LINE
  8
_0-0_LAYER001
  6
CONTINUOUS
 62
    2
 10
1834.5137
 20
1175.8264999999999
 11
1840.5136000000002
 21
1178.8266000000001
  0
LINE
  8
_0-0_LAYER001
  6
CONTINUOUS
 62
    2
 10
1840.5136000000002
 20
1184.8264999999999
 11
1834.5137
 21
1187.8266000000001
  0
LINE
  8
_0-0_LAYER001
  6
DASHED1
 62
    2
 10
1907.5136000000002
 20
1184.8264999999999
 11
1864.5137
 21
1184.8264999999999
  0
LINE
  8
_0-0_LAYER001
  6
DASHED1
 62
    2
 10
1907.5136000000002
 20
1178.8266000000001
 11
1864.5137
 21
1178.8266000000001
  0
LINE
  8
_0-0_LAYER001
  6
CONTINUOUS
 62
    2
 10
1864.5137
 20
1177.5764999999999
 11
1864.5137
 21
1186.0764999999999
  0
LINE
  8
_0-0_LAYER001
  6
CONTINUOUS
 62
    2
 10
1834.5137
 20
1161.8264999999999
 11
1864.5137
 21
1161.8264999999999
  0
LINE
  8
_0-0_LAYER001
  6
CONTINUOUS
 62
    2
 10
1864.5137
 20
1184.8264999999999
 11
1840.5136000000002
 21
1184.8264999999999
  0
LINE
  8
_0-0_LAYER001
  6
CONTINUOUS
 62
    2
 10
1864.5137
 20
1178.8266000000001
 11
1840.5136000000002
 21
1178.8266000000001
  0
LINE
  8
_0-0_LAYER001
  6
CONTINUOUS
 62
    2
 10
1849.1237999999998
 20
1178.8266000000001
 11
1852.5868
 21
1184.8264999999999
  0
LINE
  8
_0-0_LAYER001
  6
CONTINUOUS
 62
    2
 10
1854.8469
 20
1178.8266000000001
 11
1858.3099999999999
 21
1184.8264999999999
  0
LINE
  8
_0-0_LAYER001
  6
CONTINUOUS
 62
    2
 10
1860.5700000000002
 20
1178.8266000000001
 11
1864.0331000000001
 21
1184.8264999999999
  0
LINE
  8
_0-0_LAYER001
  6
CONTINUOUS
 62
    2
 10
1834.5137
 20
1161.8264999999999
 11
1834.5137
 21
1196.5367000000001
  0
LINE
  8
_0-0_LAYER001
  6
CONTINUOUS
 62
    2
 10
1864.5137
 20
1161.8264999999999
 11
1838.0176999999999
 21
1197.1546000000001
  0
LINE
  8
_0-0_LAYER001
  6
CONTINUOUS
 62
    2
 10
1768.518
 20
1202.162
 11
1861.5137
 21
1218.5597
  0
LINE
  8
_0-0_LAYER001
  6
CONTINUOUS
 62
    2
 10
1843.6918000000001
 20
1213.3864000000001
 11
1852.4612999999999
 21
1214.9327000000001
  0
LINE
  8
_0-0_LAYER001
  6
CONTINUOUS
 62
    2
 10
1851.2175000000002
 20
1185.6745000000001
 11
1854.6592000000001
 21
1177.4355
  0
LINE
  8
_0-0_LAYER001
  6
CONTINUOUS
 62
    2
 10
1850.1777000000002
 20
1212.9101000000001
 11
1854.8676
 21
1186.3182999999999
  0
LINE
  8
_0-0_LAYER001
  6
CONTINUOUS
 62
    2
 10
1854.6592000000001
 20
1177.4355
 11
1854.8676
 21
1186.3182999999999
  0
LINE
  8
_0-0_LAYER001
  6
CONTINUOUS
 62
    2
 10
1846.5277999999998
 20
1212.2678000000001
 11
1843.6918000000001
 21
1213.3864000000001
  0
LINE
  8
_0-0_LAYER001
  6
CONTINUOUS
 62
    2
 10
1850.1777000000002
 20
1212.9101000000001
 11
1852.4612999999999
 21
1214.9327000000001
  0
LINE
  8
_0-0_LAYER001
  6
CONTINUOUS
 62
    2
 10
1846.5277999999998
 20
1212.2678000000001
 11
1851.2175000000002
 21
1185.6745000000001
  0
LINE
  8
_0-0_LAYER001
  6
CONTINUOUS
 62
    2
 10
1768.518
 20
1202.162
 11
1772.8645999999999
 21
1177.5110999999999
  0
LINE
  8
_0-0_LAYER001
  6
CONTINUOUS
 62
    2
 10
1021.8357000000001
 20
967.46370000000002
 11
1030.9745
 21
941.52659999999992
  0
CIRCLE
  8
_0-0_LAYER001
  6
CONTINUOUS
 62
    2
 10
1022.6665
 20
965.10580000000004
 40
1.6999999999999997
  0
LINE
  8
_0-0_LAYER001
  6
CONTINUOUS
 62
    2
 10
1022.6665
 20
965.10580000000004
 11
1267.8897999999999
 21
1051.509
  0
CIRCLE
  8
_0-0_LAYER001
  6
CONTINUOUS
 62
    2
 10
1267.8897999999999
 20
1051.509
 40
1.6999999999999997
  0
LINE
  8
_0-0_LAYER001
  6
CONTINUOUS
 62
    2
 10
1267.059
 20
1053.8669
 11
1276.1977999999999
 21
1027.9299000000001
  0
LINE
  8
_0-0_LAYER001
  6
CONTINUOUS
 62
    2
 10
1257.0894000000001
 20
1082.1619000000001
 11
1266.2282
 21
1056.2248999999999
  0
CIRCLE
  8
_0-0_LAYER001
  6
CONTINUOUS
 62
    2
 10
1257.9202
 20
1079.8040000000001
 40
1.6999999999999997
  0
LINE
  8
_0-0_LAYER001
  6
CONTINUOUS
 62
    2
 10
1257.9202
 20
1079.8040000000001
 11
1503.1433999999999
 21
1166.2072000000001
  0
CIRCLE
  8
_0-0_LAYER001
  6
CONTINUOUS
 62
    2
 10
1503.1433999999999
 20
1166.2072000000001
 40
1.6999999999999997
  0
LINE
  8
_0-0_LAYER001
  6
CONTINUOUS
 62
    2
 10
1502.3126000000002
 20
1168.5652
 11
1511.4513999999999
 21
1142.6280999999999
  0
LINE
  8
_0-0_LAYER001
  6
CONTINUOUS
 62
    2
 10
1492.3429999999998
 20
1196.8601000000001
 11
1501.4818
 21
1170.9231
  0
CIRCLE
  8
_0-0_LAYER001
  6
CONTINUOUS
 62
    2
 10
1493.1738
 20
1194.5021999999999
 40
1.6999999999999997
  0
LINE
  8
_0-0_LAYER001
  6
CONTINUOUS
 62
    2
 10
1493.1738
 20
1194.5021999999999
 11
1786.0617999999999
 21
1297.6999000000001
  0
CIRCLE
  8
_0-0_LAYER001
  6
CONTINUOUS
 62
    2
 10
1786.0617999999999
 20
1297.6999000000001
 40
1.6999999999999997
  0
LINE
  8
_0-0_LAYER001
  6
CONTINUOUS
 62
    2
 10
1786.0617999999999
 20
1297.6999000000001
 11
1795.2006000000001
 21
1271.7628
  0
LINE
  8
_0-0_LAYER001
  6
CONTINUOUS
 62
    2
 10
1825.5726
 20
1423.0519999999999
 11
1827.5137
 21
1415.8074999999999
  0
LINE
  8
_0-0_LAYER001
  6
CONTINUOUS
 62
    2
 10
1827.5137
 20
1415.8074999999999
 11
1822.2103999999999
 21
1421.1107999999999
  0
LINE
  8
_0-0_LAYER001
  6
CONTINUOUS
 62
    2
 10
1827.5137
 20
1415.8074999999999
 11
1773.5014000000001
 21
1509.3595
  0
LINE
  8
_0-0_LAYER001
  6
CONTINUOUS
 62
    2
 10
1773.5014000000001
 20
1509.3595
 11
1601.0014000000001
 21
1509.3595
  0
LINE
  8
_0-0_LAYER001
  6
CONTINUOUS
 62
    2
 10
1787.9956000000002
 20
1200.75
 11
1789.9367999999999
 21
1193.5055
  0
LINE
  8
_0-0_LAYER001
  6
CONTINUOUS
 62
    2
 10
1789.9367999999999
 20
1193.5055
 11
1784.6334999999999
 21
1198.8088
  0
LINE
  8
_0-0_LAYER001
  6
CONTINUOUS
 62
    2
 10
1789.9367999999999
 20
1193.5055
 11
1700.0113999999999
 21
1349.2608999999998
  0
LINE
  8
_0-0_LAYER001
  6
CONTINUOUS
 62
    2
 10
1700.0113999999999
 20
1349.2608999999998
 11
1580.0113999999999
 21
1349.2608999999998
  0
LINE
  8
_0-0_LAYER001
  6
CONTINUOUS
 62
    2
 10
1813.1968999999999
 20
1217.6269
 11
1815.1381000000001
 21
1210.3824
  0
LINE
  8
_0-0_LAYER001
  6
CONTINUOUS
 62
    2
 10
1815.1381000000001
 20
1210.3824
 11
1809.8348000000001
 21
1215.6857
  0
LINE
  8
_0-0_LAYER001
  6
CONTINUOUS
 62
    2
 10
1815.1381000000001
 20
1210.3824
 11
1694.2157000000002
 21
1419.8261
  0
LINE
  8
_0-0_LAYER001
  6
CONTINUOUS
 62
    2
 10
1694.2157000000002
 20
1419.8261
 11
1460.2157000000002
 21
1419.8261
  0
LINE
  8
_0-0_LAYER001
  6
CONTINUOUS
 62
    2
 10
1850.2339999999999
 20
1177.4682
 11
1848.2928999999999
 21
1184.7126000000001
  0
LINE
  8
_0-0_LAYER001
  6
CONTINUOUS
 62
    2
 10
1848.2928999999999
 20
1184.7126000000001
 11
1853.5962
 21
1179.4093
  0
LINE
  8
_0-0_LAYER001
  6
CONTINUOUS
 62
    2
 10
1848.2928999999999
 20
1184.7126000000001
 11
1953.7595000000001
 21
1002.039
  0
LINE
  8
_0-0_LAYER001
  6
CONTINUOUS
 62
    2
 10
1953.7595000000001
 20
1002.039
 11
2084.2595000000001
 21
1002.039
  0
ARC
  8
_0-0_LAYER001
  6
CONTINUOUS
 62
    2
 10
1640.5183999999999
 20
1167.8887999999999
 40
151.60504
 50
344.53124000000003
 51
7.9076170000000028
  0
CIRCLE
  8
_0-0_LAYER001
  6
CONTINUOUS
 62
    2
 10
1804.7377000000001
 20
1178.1176
 40
0.9363839999999999
  0
CIRCLE
  8
_0-0_LAYER001
  6
CONTINUOUS
 62
    2
 10
1806.5524
 20
1182.3052
 40
0.326396
  0
CIRCLE
  8
_0-0_LAYER001
  6
CONTINUOUS
 62
    2
 10
1796.4935
 20
1183.7215000000001
 40
0.577968
  0
CIRCLE
  8
_0-0_LAYER001
  6
CONTINUOUS
 62
    2
 10
1797.7437
 20
1179.8669
 40
0.813673
  0
CIRCLE
  8
_0-0_LAYER001
  6
CONTINUOUS
 62
    2
 10
1802.3971000000001
 20
1186.1523999999999
 40
0.3489989999999999
  0
CIRCLE
  8
_0-0_LAYER001
  6
CONTINUOUS
 62
    2
 10
1804.7377000000001
 20
1158.3100999999999
 40
0.9363839999999999
  0
CIRCLE
  8
_0-0_LAYER001
  6
CONTINUOUS
 62
    2
 10
1806.5524
 20
1162.4978000000001
 40
0.326396
  0
CIRCLE
  8
_0-0_LAYER001
  6
CONTINUOUS
 62
    2
 10
1796.4935
 20
1163.9141
 40
0.577968
  0
CIRCLE
  8
_0-0_LAYER001
  6
CONTINUOUS
 62
    2
 10
1797.7437
 20
1160.0594000000001
 40
0.813673
  0
CIRCLE
  8
_0-0_LAYER001
  6
CONTINUOUS
 62
    2
 10
1802.3971000000001
 20
1166.3449000000001
 40
0.3489989999999999
  0
CIRCLE
  8
_0-0_LAYER001
  6
CONTINUOUS
 62
    2
 10
1822.3444
 20
1164.1790000000001
 40
0.9363839999999999
  0
CIRCLE
  8
_0-0_LAYER001
  6
CONTINUOUS
 62
    2
 10
1824.1590000000001
 20
1168.3666000000001
 40
0.326396
  0
CIRCLE
  8
_0-0_LAYER001
  6
CONTINUOUS
 62
    2
 10
1814.1001999999999
 20
1169.7828999999999
 40
0.577968
  0
CIRCLE
  8
_0-0_LAYER001
  6
CONTINUOUS
 62
    2
 10
1815.3503000000001
 20
1165.9283
 40
0.813673
  0
CIRCLE
  8
_0-0_LAYER001
  6
CONTINUOUS
 62
    2
 10
1820.0037000000002
 20
1172.2138
 40
0.3489989999999999
  0
CIRCLE
  8
_0-0_LAYER001
  6
CONTINUOUS
 62
    2
 10
1821.0605
 20
1181.7855999999999
 40
0.9363839999999999
  0
CIRCLE
  8
_0-0_LAYER001
  6
CONTINUOUS
 62
    2
 10
1822.8751999999999
 20
1185.9733000000001
 40
0.326396
  0
CIRCLE
  8
_0-0_LAYER001
  6
CONTINUOUS
 62
    2
 10
1812.8163
 20
1187.3896
 40
0.577968
  0
CIRCLE
  8
_0-0_LAYER001
  6
CONTINUOUS
 62
    2
 10
1814.0664999999999
 20
1183.5349000000001
 40
0.813673
  0
CIRCLE
  8
_0-0_LAYER001
  6
CONTINUOUS
 62
    2
 10
1818.7199000000001
 20
1189.8204000000001
 40
0.3489989999999999
  0
CIRCLE
  8
_0-0_LAYER001
  6
CONTINUOUS
 62
    2
 10
1804.7377000000001
 20
1141.2537
 40
0.9363839999999999
  0
CIRCLE
  8
_0-0_LAYER001
  6
CONTINUOUS
 62
    2
 10
1806.5524
 20
1145.4413
 40
0.326396
  0
CIRCLE
  8
_0-0_LAYER001
  6
CONTINUOUS
 62
    2
 10
1796.4935
 20
1146.8577
 40
0.577968
  0
CIRCLE
  8
_0-0_LAYER001
  6
CONTINUOUS
 62
    2
 10
1797.7437
 20
1143.0029999999999
 40
0.813673
  0
CIRCLE
  8
_0-0_LAYER001
  6
CONTINUOUS
 62
    2
 10
1802.3971000000001
 20
1149.2885000000001
 40
0.3489989999999999
  0
CIRCLE
  8
_0-0_LAYER001
  6
CONTINUOUS
 62
    2
 10
1814.1001999999999
 20
1152.7265
 40
0.577968
  0
CIRCLE
  8
_0-0_LAYER001
  6
CONTINUOUS
 62
    2
 10
1815.3503000000001
 20
1148.8719000000001
 40
0.813673
  0
LINE
  8
_0-0_LAYER001
  6
CONTINUOUS
 62
    2
 10
1793.1770999999999
 20
1154.3118999999999
 11
1800.4214999999999
 21
1156.2530999999999
  0
LINE
  8
_0-0_LAYER001
  6
CONTINUOUS
 62
    2
 10
1800.4214999999999
 20
1156.2530999999999
 11
1795.1181999999999
 21
1150.9498000000001
  0
LINE
  8
_0-0_LAYER001
  6
CONTINUOUS
 62
    2
 10
1800.4214999999999
 20
1156.2530999999999
 11
1754.6826999999998
 21
1129.8457000000001
  0
LINE
  8
_0-0_LAYER001
  6
CONTINUOUS
 62
    2
 10
1754.6826999999998
 20
1129.8457000000001
 11
1709.5075999999999
 21
1208.0913
  0
LINE
  8
_0-0_LAYER001
  6
CONTINUOUS
 62
    2
 10
1709.5075999999999
 20
1208.0913
 11
1673.5075999999999
 21
1208.0913
  0
LINE
  8
_0-1_LAYER003
  6
CONTINUOUS
 62
    7
 10
1601.0014000000001
 20
1509.3595
 11
1773.5014000000001
 21
1509.3595
  0
LINE
  8
_0-1_LAYER003
  6
CONTINUOUS
 62
    7
 10
1460.2157000000002
 20
1419.8261
 11
1694.2157000000002
 21
1419.8261
  0
LINE
  8
_0-1_LAYER003
  6
CONTINUOUS
 62
    7
 10
1580.0113999999999
 20
1349.2608999999998
 11
1700.0113999999999
 21
1349.2608999999998
  0
LINE
  8
_0-1_LAYER003
  6
CONTINUOUS
 62
    7
 10
1758.0900999999999
 20
1372.5917999999999
 11
1798.5900999999999
 21
1372.5917999999999
  0
LINE
  8
_0-1_LAYER003
  6
CONTINUOUS
 62
    7
 10
1898.7678000000001
 20
1368.4725000000001
 11
1926.2678000000001
 21
1368.4725000000001
  0
LINE
  8
_0-1_LAYER003
  6
CONTINUOUS
 62
    7
 10
1408.5228999999999
 20
663.08320000000003
 11
1613.3456000000001
 21
663.08320000000003
  0
LINE
  8
_0-1_LAYER003
  6
CONTINUOUS
 62
    7
 10
1416.5562447889492
 20
633.10230000000001
 11
1657.5201000000002
 21
633.10230000000001
  0
LINE
  8
_0-1_LAYER003
  6
CONTINUOUS
 62
    7
 10
1425.4498000000001
 20
603.00690000000009
 11
1646.3904000000002
 21
603.00690000000009
  0
LINE
  8
_0-1_LAYER003
  6
CONTINUOUS
 62
    7
 10
1432.623
 20
573.1404
 11
1497.2581
 21
573.1404
  0
LINE
  8
_0-1_LAYER003
  6
CONTINUOUS
 62
    7
 10
1953.7595000000001
 20
1002.039
 11
2084.2595000000001
 21
1002.039
  0
LINE
  8
_0-1_LAYER003
  6
CONTINUOUS
 62
    7
 10
1965.4049
 20
1088.1485
 11
2017.9049
 21
1088.1485
  0
LINE
  8
_0-1_LAYER003
  6
CONTINUOUS
 62
    7
 10
1965.4049
 20
1338.1485
 11
2017.9049
 21
1338.1485
  0
LINE
  8
_0-1_LAYER003
  6
CONTINUOUS
 62
    7
 10
2015.4049
 20
1338.1485
 11
2015.4049
 21
1088.1485
  0
LINE
  8
_0-1_LAYER003
  6
CONTINUOUS
 62
    7
 10
1898.7678000000001
 20
1218.4725000000001
 11
1926.2678000000001
 21
1218.4725000000001
  0
LINE
  8
_0-1_LAYER003
  6
CONTINUOUS
 62
    7
 10
1923.7678000000001
 20
1218.4725000000001
 11
1923.7678000000001
 21
1366.7725
  0
LINE
  8
_0-1_LAYER003
  6
CONTINUOUS
 62
    7
 10
1923.7678000000001
 20
1366.7725
 11
1923.7678000000001
 21
1368.4725000000001
  0
LINE
  8
_0-1_LAYER003
  6
CONTINUOUS
 62
    7
 10
1864.5137
 20
1459.1129000000001
 11
1864.5137
 21
734.55569999999989
  0
LINE
  8
_0-1_LAYER003
  6
CONTINUOUS
 62
    7
 10
1864.5137
 20
841.7047
 11
1789.5137
 21
841.7047
  0
LINE
  8
_0-1_LAYER003
  6
CONTINUOUS
 62
    7
 10
1789.5137
 20
841.7047
 11
1789.5137
 21
973.92620000000011
  0
LINE
  8
_0-1_LAYER003
  6
CONTINUOUS
 62
    7
 10
1829.0214000000001
 20
991.7047
 11
1864.5137
 21
991.7047
  0
LINE
  8
_0-1_LAYER003
  6
CONTINUOUS
 62
    7
 10
1864.5137
 20
1161.8264999999999
 11
1834.5137
 21
1161.8264999999999
  0
LINE
  8
_0-1_LAYER003
  6
CONTINUOUS
 62
    7
 10
1834.5137
 20
1161.8264999999999
 11
1834.5137
 21
1196.5367000000001
  0
LINE
  8
_0-1_LAYER003
  6
CONTINUOUS
 62
    7
 10
1863.0137
 20
1088.1485
 11
1863.0137
 21
1338.1485
  0
LINE
  8
_0-1_LAYER003
  6
CONTINUOUS
 62
    7
 10
1861.5137
 20
1368.4725000000001
 11
1861.5137
 21
1218.5597
  0
LINE
  8
_0-1_LAYER003
  6
CONTINUOUS
 62
    7
 10
1857.5137
 20
1261.0037
 11
1839.5137
 21
1261.0037
  0
LINE
  8
_0-1_LAYER003
  6
CONTINUOUS
 62
    7
 10
1839.5137
 20
1261.0037
 11
1839.5137
 21
1297.0037
  0
LINE
  8
_0-1_LAYER003
  6
CONTINUOUS
 62
    7
 10
1839.5137
 20
1297.0037
 11
1857.5137
 21
1297.0037
  0
LINE
  8
_0-1_LAYER003
  6
CONTINUOUS
 62
    7
 10
1857.5137
 20
1297.0037
 11
1857.5137
 21
1261.0037
  0
LINE
  8
_0-1_LAYER003
  6
CONTINUOUS
 62
    7
 10
1839.5137
 20
1224.0621000000001
 11
1827.5137
 21
1224.0621000000001
  0
LINE
  8
_0-1_LAYER003
  6
CONTINUOUS
 62
    7
 10
1827.5137
 20
1224.0621000000001
 11
1827.5137
 21
1415.8074999999999
  0
LINE
  8
_0-1_LAYER003
  6
CONTINUOUS
 62
    7
 10
1839.5137
 20
1418.0105000000001
 11
1839.5137
 21
1224.0621000000001
  0
LINE
  8
_0-1_LAYER003
  6
CONTINUOUS
 62
    7
 10
1760.4515999999999
 20
1288.6762672921391
 11
1760.4515999999999
 21
1309.3745000000001
  0
LINE
  8
_0-1_LAYER003
  6
CONTINUOUS
 62
    7
 10
1760.4515999999999
 20
1307.6745000000001
 11
1825.8136999999999
 21
1307.6745000000001
  0
LINE
  8
_0-1_LAYER003
  6
CONTINUOUS
 62
    7
 10
1825.8136999999999
 20
1307.6745000000001
 11
1827.5137
 21
1307.6745000000001
  0
LINE
  8
_0-1_LAYER003
  6
CONTINUOUS
 62
    7
 10
1673.5075999999999
 20
1208.0913
 11
1709.5075999999999
 21
1208.0913
  0
LINE
  8
_0-1_LAYER003
  6
CONTINUOUS
 62
    7
 10
1377.1702
 20
1064.3643999999999
 11
1336.6702
 21
1064.3643999999999
  0
LINE
  8
_0-1_LAYER003
  6
CONTINUOUS
 62
    7
 10
1822.2103999999999
 20
1421.1107999999999
 11
1827.5137
 21
1415.8074999999999
  0
LINE
  8
_0-1_LAYER003
  6
CONTINUOUS
 62
    7
 10
1827.5137
 20
1415.8074999999999
 11
1825.5726
 21
1423.0519999999999
  0
LINE
  8
_0-1_LAYER003
  6
CONTINUOUS
 62
    7
 10
1827.5137
 20
1415.8074999999999
 11
1773.5014000000001
 21
1509.3595
  0
LINE
  8
_0-1_LAYER003
  6
CONTINUOUS
 62
    7
 10
1694.2157000000002
 20
1419.8261
 11
1815.1380948672406
 21
1210.3824051327595
  0
LINE
  8
_0-1_LAYER003
  6
CONTINUOUS
 62
    7
 10
1813.1968999999999
 20
1217.6269
 11
1815.1380948672406
 21
1210.3824051327595
  0
LINE
  8
_0-1_LAYER003
  6
CONTINUOUS
 62
    7
 10
1815.1380948672406
 20
1210.3824051327595
 11
1809.8348000000001
 21
1215.6857
  0
LINE
  8
_0-1_LAYER003
  6
CONTINUOUS
 62
    7
 10
1857.5137
 20
1297.0037
 11
1839.5137
 21
1261.0037
  0
LINE
  8
_0-1_LAYER003
  6
CONTINUOUS
 62
    7
 10
1845.1176
 20
1288.1215
 11
1850.4209000000001
 21
1282.8181999999997
  0
LINE
  8
_0-1_LAYER003
  6
CONTINUOUS
 62
    7
 10
1850.4209000000001
 20
1282.8181999999997
 11
1848.4798000000001
 21
1290.0626
  0
LINE
  8
_0-1_LAYER003
  6
CONTINUOUS
 62
    7
 10
1850.4209000000001
 20
1282.8181999999997
 11
1798.5900999999999
 21
1372.5917999999999
  0
LINE
  8
_0-1_LAYER003
  6
CONTINUOUS
 62
    7
 10
1786.0617999999999
 20
1297.6999000000001
 11
1795.2006000000001
 21
1271.7628
  0
LINE
  8
_0-1_LAYER003
  6
CONTINUOUS
 62
    7
 10
1786.0617999999999
 20
1297.6999000000001
 11
1493.1738
 21
1194.5021999999999
  0
LINE
  8
_0-1_LAYER003
  6
CONTINUOUS
 62
    7
 10
1492.6088515199849
 20
1196.1055818057243
 11
1511.4513999999999
 21
1142.6280999999999
  0
LINE
  8
_0-1_LAYER003
  6
CONTINUOUS
 62
    7
 10
1503.1433999999999
 20
1166.2072000000001
 11
1257.9202
 21
1079.8040000000001
  0
LINE
  8
_0-1_LAYER003
  6
CONTINUOUS
 62
    7
 10
1257.3552515199847
 20
1081.4073818057248
 11
1276.1977999999999
 21
1027.9299000000001
  0
LINE
  8
_0-1_LAYER003
  6
CONTINUOUS
 62
    7
 10
1267.8897999999999
 20
1051.509
 11
1024.2698833545505
 21
965.6707440842689
  0
LINE
  8
_0-1_LAYER003
  6
CONTINUOUS
 62
    7
 10
1022.6665
 20
965.10580000000004
 11
1024.2698833545505
 21
965.6707440842689
  0
LINE
  8
_0-1_LAYER003
  6
CONTINUOUS
 62
    7
 10
1022.1015506081961
 20
966.7091814844573
 11
1030.9745
 21
941.52659999999992
  0
LINE
  8
_0-1_LAYER003
  6
CONTINUOUS
 62
    7
 10
1377.1702
 20
1064.3643999999999
 11
1421.9083000000001
 21
986.87580000000003
  0
LINE
  8
_0-1_LAYER003
  6
CONTINUOUS
 62
    7
 10
1421.9083000000001
 20
986.87580000000003
 11
1419.9672
 21
994.12020000000007
  0
LINE
  8
_0-1_LAYER003
  6
CONTINUOUS
 62
    7
 10
1421.9083000000001
 20
986.87580000000003
 11
1416.605
 21
992.17910000000006
  0
LINE
  8
_0-1_LAYER003
  6
CONTINUOUS
 62
    7
 10
1709.5075999999999
 20
1208.0913
 11
1754.6826999999998
 21
1129.8457000000001
  0
LINE
  8
_0-1_LAYER003
  6
CONTINUOUS
 62
    7
 10
1754.6826999999998
 20
1129.8457000000001
 11
1800.4214999999999
 21
1156.2530999999999
  0
LINE
  8
_0-1_LAYER003
  6
CONTINUOUS
 62
    7
 10
1800.4214999999999
 20
1156.2530999999999
 11
1793.1770999999999
 21
1154.3118999999999
  0
LINE
  8
_0-1_LAYER003
  6
CONTINUOUS
 62
    7
 10
1800.4214999999999
 20
1156.2530999999999
 11
1795.1181999999999
 21
1150.9498000000001
  0
LINE
  8
_0-1_LAYER003
  6
CONTINUOUS
 62
    7
 10
1755.6293999999998
 20
1168.7203
 11
1747.6959999999999
 21
1170.1203
  0
LINE
  8
_0-1_LAYER003
  6
CONTINUOUS
 62
    7
 10
1747.6959999999999
 20
1170.1203
 11
1772.8645999999999
 21
1177.5110999999999
  0
LINE
  8
_0-1_LAYER003
  6
CONTINUOUS
 62
    7
 10
1772.8645999999999
 20
1177.5110999999999
 11
1768.518
 21
1202.162
  0
LINE
  8
_0-1_LAYER003
  6
CONTINUOUS
 62
    7
 10
1768.518
 20
1202.162
 11
1861.5137
 21
1218.5597
  0
LINE
  8
_0-1_LAYER003
  6
CONTINUOUS
 62
    7
 10
1861.9090000000001
 20
1216.5986
 11
1864.5137
 21
1201.8264999999999
  0
LINE
  8
_0-1_LAYER003
  6
CONTINUOUS
 62
    7
 10
1864.5137
 20
1201.8264999999999
 11
1775.8809999999999
 21
1186.1982
  0
LINE
  8
_0-1_LAYER003
  6
CONTINUOUS
 62
    7
 10
1775.8809999999999
 20
1186.1982
 11
1773.2764000000002
 21
1200.9703
  0
LINE
  8
_0-1_LAYER003
  6
CONTINUOUS
 62
    7
 10
1773.2764000000002
 20
1200.9703
 11
1864.5137
 21
1201.8264999999999
  0
LINE
  8
_0-1_LAYER003
  6
CONTINUOUS
 62
    7
 10
1861.9090000000001
 20
1216.5986
 11
1773.2764000000002
 21
1200.9703
  0
LINE
  8
_0-1_LAYER003
  6
CONTINUOUS
 62
    7
 10
1787.9956000000002
 20
1200.75
 11
1789.9367999999999
 21
1193.5055
  0
LINE
  8
_0-1_LAYER003
  6
CONTINUOUS
 62
    7
 10
1789.9367999999999
 20
1193.5055
 11
1784.6334999999999
 21
1198.8088
  0
LINE
  8
_0-1_LAYER003
  6
CONTINUOUS
 62
    7
 10
1789.9367999999999
 20
1193.5055
 11
1700.0113999999999
 21
1349.2608999999998
  0
LINE
  8
_0-1_LAYER003
  6
CONTINUOUS
 62
    7
 10
1843.6918000000001
 20
1213.3864000000001
 11
1846.5277999999998
 21
1212.2678000000001
  0
LINE
  8
_0-1_LAYER003
  6
CONTINUOUS
 62
    7
 10
1846.5277999999998
 20
1212.2678000000001
 11
1851.2175000000002
 21
1185.6745000000001
  0
LINE
  8
_0-1_LAYER003
  6
CONTINUOUS
 62
    7
 10
1851.2175000000002
 20
1185.6745000000001
 11
1854.6592000000001
 21
1177.4355
  0
LINE
  8
_0-1_LAYER003
  6
CONTINUOUS
 62
    7
 10
1854.6592000000001
 20
1177.4355
 11
1854.8676
 21
1186.3182999999999
  0
LINE
  8
_0-1_LAYER003
  6
CONTINUOUS
 62
    7
 10
1854.8676
 20
1186.3182999999999
 11
1850.1777000000002
 21
1212.9101000000001
  0
LINE
  8
_0-1_LAYER003
  6
CONTINUOUS
 62
    7
 10
1850.1777000000002
 20
1212.9101000000001
 11
1852.4612999999999
 21
1214.9327000000001
  0
LINE
  8
_0-1_LAYER003
  6
CONTINUOUS
 62
    7
 10
1838.0176999999999
 20
1197.1546000000001
 11
1864.5137
 21
1161.8264999999999
  0
LINE
  8
_0-1_LAYER003
  6
CONTINUOUS
 62
    7
 10
1834.5137
 20
1187.8266000000001
 11
1840.5136000000002
 21
1184.8264999999999
  0
LINE
  8
_0-1_LAYER003
  6
CONTINUOUS
 62
    7
 10
1840.5136000000002
 20
1184.8264999999999
 11
1840.5136000000002
 21
1178.8266000000001
  0
LINE
  8
_0-1_LAYER003
  6
CONTINUOUS
 62
    7
 10
1840.5136000000002
 20
1178.8266000000001
 11
1834.5137
 21
1175.8264999999999
  0
LINE
  8
_0-1_LAYER003
  6
CONTINUOUS
 62
    7
 10
1840.5136000000002
 20
1184.8264999999999
 11
1907.5136000000002
 21
1184.8264999999999
  0
LINE
  8
_0-1_LAYER003
  6
CONTINUOUS
 62
    7
 10
1907.5136000000002
 20
1184.8264999999999
 11
1912.5137
 21
1181.8264999999999
  0
LINE
  8
_0-1_LAYER003
  6
CONTINUOUS
 62
    7
 10
1912.5137
 20
1181.8264999999999
 11
1907.5136000000002
 21
1178.8266000000001
  0
LINE
  8
_0-1_LAYER003
  6
CONTINUOUS
 62
    7
 10
1907.5136000000002
 20
1178.8266000000001
 11
1840.5136000000002
 21
1178.8266000000001
  0
LINE
  8
_0-1_LAYER003
  6
CONTINUOUS
 62
    7
 10
1848.2928999999999
 20
1184.7126000000001
 11
1850.2339999999999
 21
1177.4682
  0
LINE
  8
_0-1_LAYER003
  6
CONTINUOUS
 62
    7
 10
1848.2928999999999
 20
1184.7126000000001
 11
1853.5962
 21
1179.4093
  0
LINE
  8
_0-1_LAYER003
  6
CONTINUOUS
 62
    7
 10
1848.2928999999999
 20
1184.7126000000001
 11
1953.7595000000001
 21
1002.039
  0
LINE
  8
_0-1_LAYER003
  6
CONTINUOUS
 62
    7
 10
1864.5137
 20
1073.4712999999999
 11
941.75620000000004
 21
658.23129999999992
  0
LINE
  8
_0-1_LAYER003
  6
CONTINUOUS
 62
    7
 10
966.37799999999993
 20
603.51600000000008
 11
1864.5137
 21
1007.6762000000001
  0
LINE
  8
_0-1_LAYER003
  6
CONTINUOUS
 62
    7
 10
1864.5137
 20
991.7047
 11
1789.5137
 21
841.7047
  0
LINE
  8
_0-1_LAYER003
  6
CONTINUOUS
 62
    7
 10
1432.623
 20
573.1404
 11
1355.0151000000001
 21
862.77680000000009
  0
LINE
  8
_0-1_LAYER003
  6
CONTINUOUS
 62
    7
 10
1355.0151000000001
 20
862.77680000000009
 11
1355.0151000000001
 21
855.27680000000009
  0
LINE
  8
_0-1_LAYER003
  6
CONTINUOUS
 62
    7
 10
1355.0151000000001
 20
862.77680000000009
 11
1357.4991584655947
 21
858.47427825447221
  0
LINE
  8
_0-1_LAYER003
  6
CONTINUOUS
 62
    7
 10
1347.9761000000003
 20
856.37210000000005
 11
1341.4845
 21
869.89959999999996
  0
LINE
  8
_0-1_LAYER003
  6
CONTINUOUS
 62
    7
 10
1341.4845
 20
869.89959999999996
 11
1368.8504
 21
882.21430000000009
  0
LINE
  8
_0-1_LAYER003
  6
CONTINUOUS
 62
    7
 10
1368.8504
 20
882.21430000000009
 11
1375.3420000000001
 21
868.68679999999995
  0
LINE
  8
_0-1_LAYER003
  6
CONTINUOUS
 62
    7
 10
1375.3420000000001
 20
868.68679999999995
 11
1347.9761000000003
 21
856.37210000000005
  0
LINE
  8
_0-1_LAYER003
  6
CONTINUOUS
 62
    7
 10
1347.9761000000003
 20
856.37210000000005
 11
1368.8504
 21
882.21430000000009
  0
LINE
  8
_0-1_LAYER003
  6
CONTINUOUS
 62
    7
 10
1110.2394999999999
 20
749.39030000000002
 11
1103.7478000000001
 21
762.91789999999992
  0
LINE
  8
_0-1_LAYER003
  6
CONTINUOUS
 62
    7
 10
1103.7478000000001
 20
762.91789999999992
 11
1131.1137000000001
 21
775.23260000000005
  0
LINE
  8
_0-1_LAYER003
  6
CONTINUOUS
 62
    7
 10
1131.1137000000001
 20
775.23260000000005
 11
1137.6053999999999
 21
761.70499999999993
  0
LINE
  8
_0-1_LAYER003
  6
CONTINUOUS
 62
    7
 10
1137.6053999999999
 20
761.70499999999993
 11
1110.2394999999999
 21
749.39030000000002
  0
LINE
  8
_0-1_LAYER003
  6
CONTINUOUS
 62
    7
 10
1110.2394999999999
 20
749.39030000000002
 11
1131.1137000000001
 21
775.23260000000005
  0
LINE
  8
_0-1_LAYER003
  6
CONTINUOUS
 62
    7
 10
1864.5137
 20
1086.6303
 11
936.83179999999993
 21
669.17440000000011
  0
LINE
  8
_0-1_LAYER003
  6
CONTINUOUS
 62
    7
 10
1822.9641000000001
 20
1071.3465000000001
 11
1816.9576999999999
 21
1083.8631
  0
LINE
  8
_0-1_LAYER003
  6
CONTINUOUS
 62
    7
 10
1816.9576999999999
 20
1083.8631
 11
1844.3236000000002
 21
1096.1777
  0
LINE
  8
_0-1_LAYER003
  6
CONTINUOUS
 62
    7
 10
1844.3236000000002
 20
1096.1777
 11
1850.3240000000001
 21
1083.6739
  0
LINE
  8
_0-1_LAYER003
  6
CONTINUOUS
 62
    7
 10
1850.3240000000001
 20
1083.6739
 11
1822.9641000000001
 21
1071.3465000000001
  0
LINE
  8
_0-1_LAYER003
  6
CONTINUOUS
 62
    7
 10
1822.9641000000001
 20
1071.3465000000001
 11
1844.3236000000002
 21
1096.1777
  0
LINE
  8
_0-1_LAYER003
  6
CONTINUOUS
 62
    7
 10
1585.7127
 20
963.35369999999989
 11
1579.2211000000002
 21
976.88139999999999
  0
LINE
  8
_0-1_LAYER003
  6
CONTINUOUS
 62
    7
 10
1579.2211000000002
 20
976.88139999999999
 11
1606.587
 21
989.19609999999989
  0
LINE
  8
_0-1_LAYER003
  6
CONTINUOUS
 62
    7
 10
1606.587
 20
989.19609999999989
 11
1612.9247999999998
 21
975.98890000000006
  0
LINE
  8
_0-1_LAYER003
  6
CONTINUOUS
 62
    7
 10
1606.587
 20
989.19609999999989
 11
1585.7127
 21
963.35369999999989
  0
LINE
  8
_0-1_LAYER003
  6
CONTINUOUS
 62
    7
 10
1585.7127
 20
963.35369999999989
 11
1613.0785882907182
 21
975.66842401256338
  0
LINE
  8
_0-0_LAYER001
  6
CONTINUOUS
 62
    4
 10
1613.0785882907182
 20
975.66842401256338
 11
1585.7127
 21
963.35369999999989
  0
LINE
  8
_0-0_LAYER001
  6
CONTINUOUS
 62
    4
 10
1606.587
 20
989.19609999999989
 11
1613.0785882907182
 21
975.66842401256338
  0
LINE
  8
_0-1_LAYER003
  6
CONTINUOUS
 62
    7
 10
1613.0785882907182
 20
975.66842401256338
 11
1606.587
 21
989.19609999999989
  0
LINE
  8
_0-1_LAYER003
  6
CONTINUOUS
 62
    7
 10
1613.0785882907182
 20
975.66842401256338
 11
1585.7127
 21
963.35369999999989
  0
LINE
  8
_0-1_LAYER003
  6
CONTINUOUS
 62
    7
 10
1357.4991584655947
 20
858.47427825447221
 11
1358.7651000000001
 21
856.28160000000003
  0
ARC
  8
_0-1_LAYER003
  6
CONTINUOUS
 62
    7
 10
1681.9336670956307
 20
1165.1521061886338
 40
111.27822151503008
 50
340.19771436381694
 51
12.241142636182968
  0
TEXT
  8
_0-0_LAYER001
 62
    7
 10
1432.623
 20
575.64039999999977
 40
20
 41
1
 50
0
  1
　垂木
  0
TEXT
  8
_0-0_LAYER001
 62
    7
 10
1425.4498000000001
 20
605.50689999999975
 40
20
 41
1
 50
0
  1
　野地板：耐水合板ｔ＝１２
  0
TEXT
  8
_0-0_LAYER001
 62
    7
 10
1758.0900999999999
 20
1375.0917999999999
 40
20
 41
1
 50
0
  1
胴　縁
  0
TEXT
  8
_0-0_LAYER001
 62
    7
 10
1415.9128559720111
 20
666.86257123912787
 40
20
 41
1
 50
0
  1
　瓦桟：１５ｘ３０以上
  0
TEXT
  8
_0-0_LAYER001
 62
    7
 10
1330.805889660277
 20
1070.6258532761892
 40
20
 41
1
 50
0
  1
桟　瓦
  0
TEXT
  8
_0-0_LAYER001
 62
    7
 10
1952.2846669134019
 20
1007.2904364860618
 40
20
 41
1
 50
0
  1
下地：３０ｘ４０
  0
TEXT
  8
_0-0_LAYER001
 62
    7
 10
1392.162074675713
 20
1424.9083409459638
 40
20
 41
1
 50
0
  1
雨押水切カラー鋼板0.35ｍｍ以上
  0
TEXT
  8
_0-0_LAYER001
 62
    7
 10
1132.6743023790259
 20
1017.4254910894388
 40
20
 41
1
 50
19.409660999999996
  1
260
  0
TEXT
  8
_0-0_LAYER001
 62
    7
 10
1369.5540805533201
 20
1133.9652750040643
 40
20
 41
1
 50
19.40966100000001
  1
260
  0
TEXT
  8
_0-0_LAYER001
 62
    7
 10
1626.7016472345044
 20
1254.3052692637318
 40
20
 41
1
 50
19.409700000000008
  1
310
  0
TEXT
  8
_0-0_LAYER001
 62
    7
 10
1788.8439552896361
 20
1316.3753715660869
 40
20
 41
1
 50
0
  1
65
  0
TEXT
  8
_0-0_LAYER001
 62
    7
 10
1910.4506863309844
 20
1280.9067416790267
 40
20
 41
1
 50
90
  1
150
  0
TEXT
  8
_0-0_LAYER001
 62
    7
 10
1995.3220507035921
 20
1197.3021140881001
 40
20
 41
1
 50
90
  1
250
  0
TEXT
  8
_0-0_LAYER001
 62
    7
 10
1415.9067000000002
 20
635.60229999999979
 40
20
 41
1
 50
0
  1
　下葺材：ルーフィング
  0
TEXT
  8
_0-0_LAYER001
 62
    7
 10
1953.4137977311134
 20
1194.1041497810281
 40
20
 41
1
 50
90
  1
水切り鉄板立上がり寸法
  0
TEXT
  8
_0-0_LAYER001
 62
    7
 10
2046.922916529478
 20
1123.4952233414467
 40
20
 41
1
 50
90
  1
下葺き材立上がり寸法
  0
TEXT
  8
_0-0_LAYER001
 62
    7
 10
1577.4689731744229
 20
1518.5235415304564
 40
20
 41
1
 50
0
  1
外壁　防火サイディング
  0
TEXT
  8
_0-0_LAYER001
 62
    7
 10
1546.9353833627119
 20
1356.3138456557426
 40
20
 41
1
 50
0
  1
笠木：１５ｘ９０
  0
TEXT
  8
_0-0_LAYER001
 62
    7
 10
1653.8029477037001
 20
1213.1876434133476
 40
20
 41
1
 50
0
  1
葺　土
  0
ENDSEC
  0
EOF
