  0
SECTION
  2
HEADER
  9
$ACADVER
  1
AC1009
  9
$INSBASE
 10
0
 20
0
 30
0
  9
$EXTMIN
 10
0
 20
0
  9
$EXTMAX
 10
2970
 20
2100
  9
$LIMMIN
 10
0
 20
0
  9
$LIMMAX
 10
2970
 20
2100
  9
$LTSCALE
 40
10
  0
ENDSEC
  0
SECTION
  2
TABLES
  0
TABLE
  2
LTYPE
 70
     9
  0
LTYPE
  2
CONTINUOUS
 70
    64
  3
実線
 72
    65
 73
     0
 40
0.0
  0
LTYPE
  2
DASHED1
 70
    64
  3
--  --  --  --  --  --  --  --  
 72
    65
 73
     2
 40
2.5
 49
1.25
 49
-1.25
  0
LTYPE
  2
DASHED2
 70
    64
  3
----    ----    ----    ----    
 72
    65
 73
     2
 40
5.0
 49
2.5
 49
-2.5
  0
LTYPE
  2
DASHED3
 70
    64
  3
------  ------  ------  ------  
 72
    65
 73
     2
 40
5.0
 49
3.75
 49
-1.25
  0
LTYPE
  2
CENTER1
 70
    64
  3
----- - ----- - ----- - ----- - 
 72
    65
 73
     4
 40
10.0
 49
6.25
 49
-1.25
 49
1.25
 49
-1.25
  0
LTYPE
  2
CENTER2
 70
    64
  3
----------  --  ----------  --  
 72
    65
 73
     4
 40
20.0
 49
12.5
 49
-2.5
 49
2.5
 49
-2.5
  0
LTYPE
  2
PHANTOM1
 70
    64
  3
--- - - --- - - --- - - --- - - 
 72
    65
 73
     6
 40
10.0
 49
3.25
 49
-1.25
 49
1.25
 49
-1.25
 49
1.25
 49
-1.25
  0
LTYPE
  2
PHANTOM2
 70
    64
  3
--------  -  -  --------  -  -  
 72
    65
 73
     6
 40
20.0
 49
10.0
 49
-2.5
 49
1.25
 49
-2.5
 49
1.25
 49
-2.5
  0
LTYPE
  2
DOT
 70
    64
  3
-   -   -   -   -   -   -   -   
 72
    65
 73
     2
 40
2.5
 49
0.625
 49
-1.875
  0
LTYPE
  2
DUMMY
 70
    64
  3
ダミー
 72
    65
 73
     0
 40
0.0
  0
LTYPE
  2
RAND1
 70
    64
  3
ランダム線1
 72
    65
 73
     4
 40
10.0
 49
1.0
 49
-2.0
 49
3.0
 49
-4.0
  0
LTYPE
  2
RAND2
 70
    64
  3
ランダム線2
 72
    65
 73
     4
 40
14.0
 49
2.0
 49
-3.0
 49
4.0
 49
-5.0
  0
LTYPE
  2
RAND3
 70
    64
  3
ランダム線3
 72
    65
 73
     4
 40
18.0
 49
3.0
 49
-4.0
 49
5.0
 49
-6.0
  0
LTYPE
  2
RAND4
 70
    64
  3
ランダム線4
 72
    65
 73
     4
 40
22.0
 49
4.0
 49
-5.0
 49
6.0
 49
-7.0
  0
LTYPE
  2
RAND5
 70
    64
  3
ランダム線5
 72
    65
 73
     4
 40
26.0
 49
5.0
 49
-6.0
 49
7.0
 49
-8.0
  0
LTYPE
  2
LONG1
 70
    64
  3
----------  --  ----------  --  
 72
    65
 73
     4
 40
40.0
 49
32.5
 49
-2.5
 49
2.5
 49
-2.5
  0
LTYPE
  2
LONG2
 70
    64
  3
--------  -  -  --------  -  -  
 72
    65
 73
     6
 40
40.0
 49
30.0
 49
-2.5
 49
1.25
 49
-2.5
 49
1.25
 49
-2.5
  0
LTYPE
  2
LONG3
 70
    64
  3
+++++++++++++++..+++++++++++++++
 72
    65
 73
     2
 40
40.0
 49
37.5
 49
-2.5
  0
LTYPE
  2
LONG4
 70
    64
  3
+++++++++++++++..+++++++++++++++
 72
    65
 73
     2
 40
80.0
 49
75.0
 49
-5.0
  0
LTYPE
  2
LONG5
 70
    64
  3
----------  --  ----------  --  
 72
    65
 73
     4
 40
60.0
 49
37.5
 49
-7.5
 49
7.5
 49
-7.5
  0
LTYPE
  2
dashed
 70
   64
  3
-------   -------------   ------
 72
   65
 73
    2
 40
7.5
 49
6
 49
-1.5
  0
LTYPE
  2
dashed_spaced
 70
   64
  3
----        --------        ----
 72
   65
 73
    2
 40
12
 49
6
 49
-6
  0
LTYPE
  2
long_dashed_dotted
 70
   64
  3
------------- --- --------------
 72
   65
 73
    4
 40
15.25
 49
12
 49
-1.5
 49
0.25
 49
-1.5
  0
LTYPE
  2
long_dashed_double-dotted
 70
   64
  3
----------- --- --- ------------
 72
   65
 73
    6
 40
17
 49
12
 49
-1.5
 49
0.25
 49
-1.5
 49
0.25
 49
-1.5
  0
LTYPE
  2
long_dashed_triplicate-dotted
 70
   64
  3
--------- --- --- --- ----------
 72
   65
 73
    8
 40
18.75
 49
12
 49
-1.5
 49
0.25
 49
-1.5
 49
0.25
 49
-1.5
 49
0.25
 49
-1.5
  0
LTYPE
  2
dotted
 70
   64
  3
   -       -       -       -    
 72
   65
 73
    2
 40
1.75
 49
0.25
 49
-1.5
  0
LTYPE
  2
chain
 70
   64
  3
-------------- -- --------------
 72
   65
 73
    4
 40
18.5
 49
12
 49
-1.5
 49
3.5
 49
-1.5
  0
LTYPE
  2
chain_double_dash
 70
   64
  3
------------ -- -- -------------
 72
   65
 73
    6
 40
23.5
 49
12
 49
-1.5
 49
3.5
 49
-1.5
 49
3.5
 49
-1.5
  0
LTYPE
  2
dashed_dotted
 70
   64
  3
-----------     -     ----------
 72
   65
 73
    4
 40
9.25
 49
6
 49
-1.5
 49
0.25
 49
-1.5
  0
LTYPE
  2
double-dashed_dotted
 70
   64
  3
------   -----------   -   -----
 72
   65
 73
    6
 40
16.75
 49
6
 49
-1.5
 49
6
 49
-1.5
 49
0.25
 49
-1.5
  0
LTYPE
  2
dashed_double-dotted
 70
   64
  3
---------    -    -    ---------
 72
   65
 73
    6
 40
11
 49
6
 49
-1.5
 49
0.25
 49
-1.5
 49
0.25
 49
-1.5
  0
LTYPE
  2
double-dashed_double-dotted
 70
   64
  3
-----   ---------   -   -   ----
 72
   65
 73
    8
 40
18.5
 49
6
 49
-1.5
 49
6
 49
-1.5
 49
0.25
 49
-1.5
 49
0.25
 49
-1.5
  0
LTYPE
  2
dashed_triplicate-dotted
 70
   64
  3
-------    -    -    -    ------
 72
   65
 73
    8
 40
12.75
 49
6
 49
-1.5
 49
0.25
 49
-1.5
 49
0.25
 49
-1.5
 49
0.25
 49
-1.5
  0
LTYPE
  2
double-dashed_triplicate-dotted
 70
   64
  3
-----  ---------  -  -  -  -----
 72
   65
 73
   10
 40
20.25
 49
6
 49
-1.5
 49
6
 49
-1.5
 49
0.25
 49
-1.5
 49
0.25
 49
-1.5
 49
0.25
 49
-1.5
  0
LTYPE
  2
undefined
 70
   64
  3
--------------------------------
 72
   65
 73
    0
 40
0
  0
ENDTAB
  0
TABLE
  2
STYLE
  5
3
100
AcDbSymbolTable
 70
     1
  0
STYLE
  5
10
100
AcDbSymbolTableRecord
100
AcDbTextStyleTableRecord
  2
STANDARD
 70
     0
 40
0.0
 41
1.0
 50
0.0
 71
     0
 42
0.2
  3
txt
  4
bigfont.shx
  0
STYLE
  5
26
100
AcDbSymbolTableRecord
100
AcDbTextStyleTableRecord
  2
TATEGAKI
 70
    68
 40
0.0
 41
1.0
 50
0.0
 71
     0
 42
1.0
  3
txt
  4
bigfont.shx
  0
ENDTAB
  0
TABLE
  2
LAYER
 70
    4
  0
LAYER
  2
_0-0_LAYER001
 70
   64
 62
    7
  6
CONTINUOUS
  0
LAYER
  2
_0-1_LAYER003
 70
   64
 62
    7
  6
CONTINUOUS
  0
LAYER
  2
_0-2_LAYER004
 70
   64
 62
    7
  6
CONTINUOUS
  0
LAYER
  2
ADD_LINE
 70
   64
 62
    7
  6
CONTINUOUS
  0
ENDTAB
  0
ENDSEC
  0
SECTION
  2
BLOCKS
  0
ENDSEC
  0
SECTION
  2
ENTITIES
  0
LINE
  8
_0-0_LAYER001
  6
CONTINUOUS
 62
    2
 10
1036.2854
 20
843.69129999999996
 11
1060.4244000000001
 21
788.75939999999991
  0
LINE
  8
_0-0_LAYER001
  6
CONTINUOUS
 62
    2
 10
1031.7385999999999
 20
681.20450000000005
 11
1010.1944000000001
 21
729.08040000000005
  0
CIRCLE
  8
_0-0_LAYER001
  6
CONTINUOUS
 62
    2
 10
1030.7127
 20
683.48430000000008
 40
1.6999999999999997
  0
LINE
  8
_0-0_LAYER001
  6
CONTINUOUS
 62
    2
 10
1030.7127
 20
683.48430000000008
 11
1086.4214999999999
 21
708.55330000000004
  0
CIRCLE
  8
_0-0_LAYER001
  6
CONTINUOUS
 62
    2
 10
1086.4214999999999
 20
708.55330000000004
 40
1.6999999999999997
  0
LINE
  8
_0-0_LAYER001
  6
CONTINUOUS
 62
    2
 10
1087.4475
 20
706.27350000000001
 11
1065.9032999999999
 21
754.14940000000001
  0
CIRCLE
  8
_0-0_LAYER001
  6
CONTINUOUS
 62
    2
 10
1086.4214999999999
 20
708.55330000000004
 40
1.6999999999999997
  0
LINE
  8
_0-0_LAYER001
  6
CONTINUOUS
 62
    2
 10
1086.4214999999999
 20
708.55330000000004
 11
1095.2998
 21
712.5485000000001
  0
CIRCLE
  8
_0-0_LAYER001
  6
CONTINUOUS
 62
    2
 10
1095.2998
 20
712.5485000000001
 40
1.6999999999999997
  0
LINE
  8
_0-0_LAYER001
  6
CONTINUOUS
 62
    2
 10
1096.3257000000001
 20
710.26870000000008
 11
1074.7815000000001
 21
758.14460000000008
  0
CIRCLE
  8
_0-0_LAYER001
  6
CONTINUOUS
 62
    2
 10
848.68810000000008
 20
1158.1367
 40
1.6999999999999997
  0
LINE
  8
_0-0_LAYER001
  6
CONTINUOUS
 62
    2
 10
848.68810000000008
 20
1158.1367
 11
1060.0374999999999
 21
1235.3145
  0
CIRCLE
  8
_0-0_LAYER001
  6
CONTINUOUS
 62
    2
 10
1060.0374999999999
 20
1235.3145
 40
1.6999999999999997
  0
LINE
  8
_0-0_LAYER001
  6
CONTINUOUS
 62
    2
 10
847.8306
 20
1160.4851000000001
 11
865.83870000000002
 21
1111.1702
  0
LINE
  8
_0-0_LAYER001
  6
CONTINUOUS
 62
    2
 10
1059.1800000000001
 20
1237.6628000000001
 11
1077.1882000000001
 21
1188.348
  0
CIRCLE
  8
_0-0_LAYER001
  6
CONTINUOUS
 62
    2
 10
1050.7973
 20
1260.6188
 40
1.6999999999999997
  0
LINE
  8
_0-0_LAYER001
  6
CONTINUOUS
 62
    2
 10
1050.7973
 20
1260.6188
 11
1262.1467
 21
1337.7964999999999
  0
CIRCLE
  8
_0-0_LAYER001
  6
CONTINUOUS
 62
    2
 10
1262.1467
 20
1337.7964999999999
 40
1.6999999999999997
  0
LINE
  8
_0-0_LAYER001
  6
CONTINUOUS
 62
    2
 10
1049.9396999999999
 20
1262.9671000000001
 11
1067.9478999999999
 21
1213.6522
  0
LINE
  8
_0-0_LAYER001
  6
CONTINUOUS
 62
    2
 10
1261.2891999999999
 20
1340.1449
 11
1279.2973
 21
1290.8299999999999
  0
CIRCLE
  8
_0-0_LAYER001
  6
CONTINUOUS
 62
    2
 10
1253.5389
 20
1361.3688
 40
1.6999999999999997
  0
LINE
  8
_0-0_LAYER001
  6
CONTINUOUS
 62
    2
 10
1253.5389
 20
1361.3688
 11
1464.8883999999998
 21
1438.5465999999999
  0
CIRCLE
  8
_0-0_LAYER001
  6
CONTINUOUS
 62
    2
 10
1464.8883999999998
 20
1438.5465999999999
 40
1.6999999999999997
  0
LINE
  8
_0-0_LAYER001
  6
CONTINUOUS
 62
    2
 10
1252.6813999999999
 20
1363.7171000000001
 11
1270.6895
 21
1314.4022
  0
LINE
  8
_0-0_LAYER001
  6
CONTINUOUS
 62
    2
 10
1464.0308
 20
1440.8949000000002
 11
1482.0390000000002
 21
1391.5799999999999
  0
LINE
  8
_0-0_LAYER001
  6
CONTINUOUS
 62
    2
 10
1309.8786
 20
777.9221
 11
1278.0753
 21
848.596
  0
CIRCLE
  8
_0-0_LAYER001
  6
CONTINUOUS
 62
    2
 10
1308.8526999999999
 20
780.20190000000002
 40
1.6999999999999997
  0
LINE
  8
_0-0_LAYER001
  6
CONTINUOUS
 62
    2
 10
1308.8526999999999
 20
780.20190000000002
 11
1514.9468999999999
 21
872.94450000000006
  0
CIRCLE
  8
_0-0_LAYER001
  6
CONTINUOUS
 62
    2
 10
1514.9468999999999
 20
872.94450000000006
 40
1.6999999999999997
  0
LINE
  8
_0-0_LAYER001
  6
CONTINUOUS
 62
    2
 10
1515.9728
 20
870.66470000000004
 11
1484.1695
 21
941.33860000000004
  0
CIRCLE
  8
_0-0_LAYER001
  6
CONTINUOUS
 62
    2
 10
1514.9468999999999
 20
872.94450000000006
 40
1.6999999999999997
  0
LINE
  8
_0-0_LAYER001
  6
CONTINUOUS
 62
    2
 10
1514.9468999999999
 20
872.94450000000006
 11
1721.0410999999999
 21
965.6869999999999
  0
CIRCLE
  8
_0-0_LAYER001
  6
CONTINUOUS
 62
    2
 10
1721.0410999999999
 20
965.6869999999999
 40
1.6999999999999997
  0
LINE
  8
_0-0_LAYER001
  6
CONTINUOUS
 62
    2
 10
1722.067
 20
963.4072000000001
 11
1690.2637
 21
1034.0811000000001
  0
LINE
  8
_0-0_LAYER001
  6
CONTINUOUS
 62
    2
 10
1309.8786
 20
777.9221
 11
1278.0753
 21
848.596
  0
CIRCLE
  8
_0-0_LAYER001
  6
CONTINUOUS
 62
    2
 10
1308.8526999999999
 20
780.20190000000002
 40
1.6999999999999997
  0
LINE
  8
_0-0_LAYER001
  6
CONTINUOUS
 62
    2
 10
1308.8526999999999
 20
780.20190000000002
 11
1097.0663999999999
 21
684.89799999999991
  0
CIRCLE
  8
_0-0_LAYER001
  6
CONTINUOUS
 62
    2
 10
1097.0663999999999
 20
684.89799999999991
 40
1.6999999999999997
  0
LINE
  8
_0-0_LAYER001
  6
CONTINUOUS
 62
    2
 10
1098.0924
 20
682.61819999999989
 11
1066.2891
 21
753.29209999999989
  0
LINE
  8
_0-0_LAYER001
  6
CONTINUOUS
 62
    2
 10
1681.5922
 20
1240.3113000000001
 11
1683.5333000000001
 21
1233.0669
  0
LINE
  8
_0-0_LAYER001
  6
CONTINUOUS
 62
    2
 10
1683.5333000000001
 20
1233.0669
 11
1678.23
 21
1238.3702000000001
  0
LINE
  8
_0-0_LAYER001
  6
CONTINUOUS
 62
    2
 10
1683.5333000000001
 20
1233.0669
 11
1623.9411
 21
1336.2837
  0
LINE
  8
_0-0_LAYER001
  6
CONTINUOUS
 62
    2
 10
1623.9411
 20
1336.2837
 11
1583.4411
 21
1336.2837
  0
LINE
  8
_0-0_LAYER001
  6
CONTINUOUS
 62
    2
 10
1041.3226
 20
955.58649999999989
 11
1043.2637999999999
 21
948.3420000000001
  0
LINE
  8
_0-0_LAYER001
  6
CONTINUOUS
 62
    2
 10
1043.2637999999999
 20
948.3420000000001
 11
1037.9603999999999
 21
953.64529999999991
  0
LINE
  8
_0-0_LAYER001
  6
CONTINUOUS
 62
    2
 10
1043.2637999999999
 20
948.3420000000001
 11
985.46039999999994
 21
1048.4603999999999
  0
LINE
  8
_0-0_LAYER001
  6
CONTINUOUS
 62
    2
 10
985.46039999999994
 20
1048.4603999999999
 11
920.96039999999994
 21
1048.4603999999999
  0
LINE
  8
_0-0_LAYER001
  6
CONTINUOUS
 62
    2
 10
905.62580000000003
 20
719.09979999999996
 11
953.50170000000003
 21
740.64400000000001
  0
CIRCLE
  8
_0-0_LAYER001
  6
CONTINUOUS
 62
    2
 10
907.90560000000005
 20
720.12580000000003
 40
1.6999999999999997
  0
LINE
  8
_0-0_LAYER001
  6
CONTINUOUS
 62
    2
 10
907.90560000000005
 20
720.12580000000003
 11
883.2838999999999
 21
774.84050000000002
  0
CIRCLE
  8
_0-0_LAYER001
  6
CONTINUOUS
 62
    2
 10
883.2838999999999
 20
774.84050000000002
 40
1.6999999999999997
  0
LINE
  8
_0-0_LAYER001
  6
CONTINUOUS
 62
    2
 10
881.00410000000011
 20
773.81459999999993
 11
928.88000000000011
 21
795.35879999999997
  0
CIRCLE
  8
_0-0_LAYER001
  6
CONTINUOUS
 62
    2
 10
883.2838999999999
 20
774.84050000000002
 40
1.6999999999999997
  0
LINE
  8
_0-0_LAYER001
  6
CONTINUOUS
 62
    2
 10
883.2838999999999
 20
774.84050000000002
 11
870.97299999999996
 21
802.19810000000007
  0
CIRCLE
  8
_0-0_LAYER001
  6
CONTINUOUS
 62
    2
 10
870.97299999999996
 20
802.19810000000007
 40
1.6999999999999997
  0
LINE
  8
_0-0_LAYER001
  6
CONTINUOUS
 62
    2
 10
868.69319999999993
 20
801.17219999999998
 11
916.56899999999996
 21
822.71640000000002
  0
CIRCLE
  8
_0-0_LAYER001
  6
CONTINUOUS
 62
    2
 10
870.97299999999996
 20
802.19810000000007
 40
1.6999999999999997
  0
LINE
  8
_0-0_LAYER001
  6
CONTINUOUS
 62
    2
 10
870.97299999999996
 20
802.19810000000007
 11
861.0027
 21
824.35410000000002
  0
CIRCLE
  8
_0-0_LAYER001
  6
CONTINUOUS
 62
    2
 10
861.0027
 20
824.35410000000002
 40
1.6999999999999997
  0
LINE
  8
_0-0_LAYER001
  6
CONTINUOUS
 62
    2
 10
858.72289999999998
 20
823.32819999999992
 11
906.59879999999998
 21
844.87239999999997
  0
LINE
  8
_0-0_LAYER001
  6
CONTINUOUS
 62
    2
 10
2023.8168000000001
 20
1310.0118
 11
2051.1743999999999
 21
1322.3227999999999
  0
LINE
  8
_0-0_LAYER001
  6
CONTINUOUS
 62
    2
 10
2045.0189
 20
1336.0016000000001
 11
2017.6613000000002
 21
1323.6905999999999
  0
LINE
  8
_0-0_LAYER001
  6
CONTINUOUS
 62
    2
 10
2051.1743999999999
 20
1322.3227999999999
 11
2045.0189
 21
1336.0016000000001
  0
LINE
  8
_0-0_LAYER001
  6
CONTINUOUS
 62
    2
 10
2017.6613000000002
 20
1323.6905999999999
 11
2023.8168000000001
 21
1310.0118
  0
LINE
  8
_0-0_LAYER001
  6
CONTINUOUS
 62
    2
 10
2045.0189
 20
1336.0016000000001
 11
2023.8168000000001
 21
1310.0118
  0
LINE
  8
_0-0_LAYER001
  6
CONTINUOUS
 62
    2
 10
1818.1392000000001
 20
1217.4567999999999
 11
1845.4863999999998
 21
1229.7908
  0
LINE
  8
_0-0_LAYER001
  6
CONTINUOUS
 62
    2
 10
1839.3193999999999
 20
1243.4644000000001
 11
1811.9722000000002
 21
1231.1304
  0
LINE
  8
_0-0_LAYER001
  6
CONTINUOUS
 62
    2
 10
1845.4863999999998
 20
1229.7908
 11
1839.3193999999999
 21
1243.4644000000001
  0
LINE
  8
_0-0_LAYER001
  6
CONTINUOUS
 62
    2
 10
1811.9722000000002
 20
1231.1304
 11
1818.1392000000001
 21
1217.4567999999999
  0
LINE
  8
_0-0_LAYER001
  6
CONTINUOUS
 62
    2
 10
1839.3193999999999
 20
1243.4644000000001
 11
1818.1392000000001
 21
1217.4567999999999
  0
LINE
  8
_0-0_LAYER001
  6
CONTINUOUS
 62
    2
 10
1612.3717999999999
 20
1124.8614
 11
1639.7294000000002
 21
1137.1723
  0
LINE
  8
_0-0_LAYER001
  6
CONTINUOUS
 62
    2
 10
1633.5738999999999
 20
1150.8511000000001
 11
1606.2163
 21
1138.5401999999999
  0
LINE
  8
_0-0_LAYER001
  6
CONTINUOUS
 62
    2
 10
1639.7294000000002
 20
1137.1723
 11
1633.5738999999999
 21
1150.8511000000001
  0
LINE
  8
_0-0_LAYER001
  6
CONTINUOUS
 62
    2
 10
1606.2163
 20
1138.5401999999999
 11
1612.3717999999999
 21
1124.8614
  0
LINE
  8
_0-0_LAYER001
  6
CONTINUOUS
 62
    2
 10
1633.5738999999999
 20
1150.8511000000001
 11
1612.3717999999999
 21
1124.8614
  0
LINE
  8
_0-0_LAYER001
  6
CONTINUOUS
 62
    2
 10
1406.6041999999998
 20
1032.2659000000001
 11
1433.9618
 21
1044.5768
  0
LINE
  8
_0-0_LAYER001
  6
CONTINUOUS
 62
    2
 10
1427.8063
 20
1058.2556
 11
1400.4486999999999
 21
1045.9447
  0
LINE
  8
_0-0_LAYER001
  6
CONTINUOUS
 62
    2
 10
1433.9618
 20
1044.5768
 11
1427.8063
 21
1058.2556
  0
LINE
  8
_0-0_LAYER001
  6
CONTINUOUS
 62
    2
 10
1400.4486999999999
 20
1045.9447
 11
1406.6041999999998
 21
1032.2659000000001
  0
LINE
  8
_0-0_LAYER001
  6
CONTINUOUS
 62
    2
 10
1427.8063
 20
1058.2556
 11
1406.6041999999998
 21
1032.2659000000001
  0
LINE
  8
_0-0_LAYER001
  6
CONTINUOUS
 62
    2
 10
1200.8367000000001
 20
939.67039999999997
 11
1228.1937
 21
951.98270000000002
  0
LINE
  8
_0-0_LAYER001
  6
CONTINUOUS
 62
    2
 10
1222.0374999999999
 20
965.66120000000001
 11
1194.6804999999999
 21
953.34889999999996
  0
LINE
  8
_0-0_LAYER001
  6
CONTINUOUS
 62
    2
 10
1228.1937
 20
951.98270000000002
 11
1222.0374999999999
 21
965.66120000000001
  0
LINE
  8
_0-0_LAYER001
  6
CONTINUOUS
 62
    2
 10
1194.6804999999999
 20
953.34889999999996
 11
1200.8367000000001
 21
939.67039999999997
  0
LINE
  8
_0-0_LAYER001
  6
CONTINUOUS
 62
    2
 10
1222.0374999999999
 20
965.66120000000001
 11
1200.8367000000001
 21
939.67039999999997
  0
LINE
  8
_0-0_LAYER001
  6
CONTINUOUS
 62
    4
 10
2046.2238000000002
 20
1337.3587
 11
2050.3164000000002
 21
1326.0780999999999
  0
LINE
  8
_0-0_LAYER001
  6
CONTINUOUS
 62
    4
 10
1780.9735000000001
 20
1259.2094
 11
2079.1003999999998
 21
1367.3705999999997
  0
LINE
  8
_0-0_LAYER001
  6
CONTINUOUS
 62
    4
 10
1764.3198000000002
 20
1305.1124
 11
1966.4294
 21
1378.4383
  0
LINE
  8
_0-0_LAYER001
  6
CONTINUOUS
 62
    4
 10
1964.0421000000001
 20
1385.0187000000001
 11
1983.0832
 21
1332.5353
  0
ARC
  8
_0-0_LAYER001
  6
CONTINUOUS
 62
    4
 10
1973.4425000000001
 20
1388.4292
 40
10
 50
109.94091000000002
 51
199.94091
  0
LINE
  8
_0-0_LAYER001
  6
CONTINUOUS
 62
    4
 10
987.07809999999995
 20
880.76060000000007
 11
1223.3749
 21
966.48980000000006
  0
LINE
  8
_0-0_LAYER001
  6
CONTINUOUS
 62
    4
 10
1235.9278999999999
 20
958.27870000000007
 11
1227.4675
 21
955.20920000000001
  0
LINE
  8
_0-0_LAYER001
  6
CONTINUOUS
 62
    4
 10
1226.0374999999999
 20
985.53999999999996
 11
1235.9278999999999
 21
958.27870000000007
  0
LINE
  8
_0-0_LAYER001
  6
CONTINUOUS
 62
    4
 10
1223.3749
 20
966.48980000000006
 11
1227.4675
 21
955.20920000000001
  0
ARC
  8
_0-0_LAYER001
  6
CONTINUOUS
 62
    4
 10
1372.9595999999997
 20
1064.3744999999999
 40
10
 50
109.94091000000002
 51
199.94091
  0
ARC
  8
_0-0_LAYER001
  6
CONTINUOUS
 62
    4
 10
1578.6718000000001
 20
1157.0916999999999
 40
10
 50
109.94091000000002
 51
199.94091
  0
ARC
  8
_0-0_LAYER001
  6
CONTINUOUS
 62
    4
 10
1784.384
 20
1249.8089
 40
10
 50
109.94091000000002
 51
199.94091
  0
ARC
  8
_0-0_LAYER001
  6
CONTINUOUS
 62
    4
 10
1990.0963000000002
 20
1342.5261
 40
10
 50
109.94091000000002
 51
199.94091
  0
ARC
  8
_0-0_LAYER001
  6
CONTINUOUS
 62
    4
 10
1167.2474
 20
971.6572000000001
 40
10
 50
109.94091000000002
 51
199.94091
  0
ARC
  8
_0-0_LAYER001
  6
CONTINUOUS
 62
    4
 10
923.52269999999999
 20
1038.7449999999999
 40
104.21281
 50
268.69240000000002
 51
288.42793999999998
  0
LINE
  8
_0-0_LAYER001
  6
CONTINUOUS
 62
    4
 10
974.46810000000005
 20
857.22330000000011
 11
979.75080000000003
 21
835.55109999999991
  0
ARC
  8
_0-0_LAYER001
  6
CONTINUOUS
 62
    4
 10
993.89910000000009
 20
861.95970000000011
 40
20
 50
109.94091000000002
 51
193.69899000000001
  0
LINE
  8
_0-0_LAYER001
  6
CONTINUOUS
 62
    4
 10
1144.6036999999999
 20
1004.7492999999999
 11
1160.2343000000001
 21
961.66640000000007
  0
ARC
  8
_0-0_LAYER001
  6
CONTINUOUS
 62
    4
 10
1163.4046000000001
 20
1011.5703000000001
 40
20
 50
109.94091000000002
 51
199.94091
  0
LINE
  8
_0-0_LAYER001
  6
CONTINUOUS
 62
    4
 10
1986.6858000000002
 20
1351.9265999999998
 11
2072.4038999999998
 21
1383.0254
  0
LINE
  8
_0-0_LAYER001
  6
CONTINUOUS
 62
    4
 10
2050.3164000000002
 20
1326.0780999999999
 11
2058.7768000000001
 21
1329.1476
  0
LINE
  8
_0-0_LAYER001
  6
CONTINUOUS
 62
    4
 10
2048.8863000000001
 20
1356.4088999999999
 11
2058.7768000000001
 21
1329.1476
  0
LINE
  8
_0-0_LAYER001
  6
CONTINUOUS
 62
    4
 10
1964.0421000000001
 20
1385.0187000000001
 11
1977.2853
 21
1348.5160999999998
  0
LINE
  8
_0-0_LAYER001
  6
CONTINUOUS
 62
    4
 10
1581.0592000000001
 20
1150.5114000000001
 11
1840.5115999999998
 21
1244.6414
  0
LINE
  8
_0-0_LAYER001
  6
CONTINUOUS
 62
    4
 10
1840.5115999999998
 20
1244.6414
 11
1844.6042000000002
 21
1233.3608999999999
  0
LINE
  8
_0-0_LAYER001
  6
CONTINUOUS
 62
    4
 10
1844.6042000000002
 20
1233.3608999999999
 11
1853.0646000000002
 21
1236.4304
  0
LINE
  8
_0-0_LAYER001
  6
CONTINUOUS
 62
    4
 10
1647.3524000000002
 20
1143.7130999999999
 11
1638.8919999999998
 21
1140.6437000000001
  0
LINE
  8
_0-0_LAYER001
  6
CONTINUOUS
 62
    4
 10
1429.0870999999997
 20
1059.2070000000001
 11
1433.1797000000001
 21
1047.9265
  0
LINE
  8
_0-0_LAYER001
  6
CONTINUOUS
 62
    4
 10
1441.6401000000001
 20
1050.9958999999999
 11
1433.1797000000001
 21
1047.9265
  0
LINE
  8
_0-0_LAYER001
  6
CONTINUOUS
 62
    4
 10
957.34809999999993
 20
939.99399999999991
 11
1143.5836999999999
 21
1007.5608
  0
LINE
  8
_0-0_LAYER001
  6
CONTINUOUS
 62
    4
 10
1156.5835999999999
 20
1030.3712
 11
1349.2928000000002
 21
1100.2867000000001
  0
ARC
  8
_0-0_LAYER001
  6
CONTINUOUS
 62
    4
 10
1356.3059000000001
 20
1110.2774999999999
 40
10
 50
109.94091000000002
 51
199.94091
  0
LINE
  8
_0-0_LAYER001
  6
CONTINUOUS
 62
    4
 10
1346.9054000000001
 20
1106.867
 11
1365.9465
 21
1054.3835999999999
  0
LINE
  8
_0-0_LAYER001
  6
CONTINUOUS
 62
    4
 10
1356.1138000000001
 20
1081.4857999999999
 11
1365.9465
 21
1054.3835999999999
  0
LINE
  8
_0-0_LAYER001
  6
CONTINUOUS
 62
    4
 10
1431.7496999999998
 20
1078.2572
 11
1441.6401000000001
 21
1050.9958999999999
  0
LINE
  8
_0-0_LAYER001
  6
CONTINUOUS
 62
    4
 10
1163.8369
 20
981.05770000000007
 11
1634.7993999999999
 21
1151.9241999999999
  0
LINE
  8
_0-0_LAYER001
  6
CONTINUOUS
 62
    4
 10
1634.7993999999999
 20
1151.9241999999999
 11
1638.8919999999998
 21
1140.6437000000001
  0
LINE
  8
_0-0_LAYER001
  6
CONTINUOUS
 62
    4
 10
1352.8954000000001
 20
1119.6778999999999
 11
1555.0050000000001
 21
1193.0038999999999
  0
ARC
  8
_0-0_LAYER001
  6
CONTINUOUS
 62
    4
 10
1562.0180999999998
 20
1202.9947
 40
10
 50
109.94091000000002
 51
199.94091
  0
LINE
  8
_0-0_LAYER001
  6
CONTINUOUS
 62
    4
 10
1552.6176
 20
1199.5842
 11
1571.6588000000002
 21
1147.1008999999999
  0
LINE
  8
_0-0_LAYER001
  6
CONTINUOUS
 62
    4
 10
1552.6176
 20
1199.5842
 11
1571.6588000000002
 21
1147.1008999999999
  0
LINE
  8
_0-0_LAYER001
  6
CONTINUOUS
 62
    4
 10
1369.5490999999997
 20
1073.7748999999999
 11
1637.4618999999998
 21
1170.9744000000001
  0
LINE
  8
_0-0_LAYER001
  6
CONTINUOUS
 62
    4
 10
1637.4618999999998
 20
1170.9744000000001
 11
1647.3524000000002
 21
1143.7130999999999
  0
LINE
  8
_0-0_LAYER001
  6
CONTINUOUS
 62
    4
 10
1558.6075999999998
 20
1212.3951999999999
 11
1760.7172
 21
1285.7211000000002
  0
LINE
  8
_0-0_LAYER001
  6
CONTINUOUS
 62
    4
 10
1764.1277
 20
1276.3207
 11
1777.3710000000001
 21
1239.8181
  0
LINE
  8
_0-0_LAYER001
  6
CONTINUOUS
 62
    4
 10
1843.1741000000002
 20
1263.6917000000001
 11
1853.0646000000002
 21
1236.4304
  0
LINE
  8
_0-0_LAYER001
  6
CONTINUOUS
 62
    4
 10
1575.2613000000001
 20
1166.4920999999999
 11
2046.2238000000002
 21
1337.3587
  0
LINE
  8
_0-0_LAYER001
  6
CONTINUOUS
 62
    4
 10
1970.0320000000002
 20
1397.8296
 11
2053.1689000000001
 21
1427.9919
  0
LINE
  8
_0-0_LAYER001
  6
CONTINUOUS
 62
    4
 10
1758.3299000000002
 20
1292.3014000000001
 11
1777.3710000000001
 21
1239.8181
  0
ARC
  8
_0-0_LAYER001
  6
CONTINUOUS
 62
    4
 10
1767.7303000000002
 20
1295.7119
 40
10
 50
109.94091000000002
 51
199.94091
  0
LINE
  8
_0-0_LAYER001
  6
CONTINUOUS
 62
    4
 10
921.32279999999992
 20
934.38750000000005
 11
950.2367999999999
 21
841.68370000000004
  0
ARC
  8
_0-0_LAYER001
  6
CONTINUOUS
 62
    4
 10
1101.7846
 20
940.55950000000007
 40
181.02933999999999
 50
181.81043
 51
212.85045999999997
  0
LINE
  8
_0-0_LAYER001
  6
CONTINUOUS
 62
    4
 10
948.86670000000004
 20
885.04420000000005
 11
948.79150000000004
 21
884.39630000000011
  0
LINE
  8
_0-0_LAYER001
  6
CONTINUOUS
 62
    4
 10
1429.0870999999997
 20
1059.2070000000001
 11
948.66080000000011
 21
884.90689999999995
  0
LINE
  8
_0-0_LAYER001
  6
CONTINUOUS
 62
    4
 10
950.2367999999999
 20
841.68370000000004
 11
960.27009999999996
 21
845.32379999999989
  0
LINE
  8
_0-0_LAYER001
  6
CONTINUOUS
 62
    4
 10
948.66080000000011
 20
884.90689999999995
 11
964.73430000000008
 21
830.10300000000007
  0
LINE
  8
_0-0_LAYER001
  6
CONTINUOUS
 62
    4
 10
979.75080000000003
 20
835.55109999999991
 11
964.73430000000008
 21
830.10300000000007
  0
LINE
  8
_0-0_LAYER001
  6
CONTINUOUS
 62
    3
 10
1105.2974999999999
 20
922.78420000000006
 11
1006.6477
 21
886.27970000000005
  0
LINE
  8
_0-0_LAYER001
  6
DASHED3
 62
    2
 10
1046.5691999999999
 20
882.3134
 11
1134.0526
 21
921.68069999999989
  0
LINE
  8
_0-1_LAYER003
  6
CONTINUOUS
 62
    2
 10
1139.5661
 20
906.61599999999999
 11
2092.6671000000001
 21
1335.5126
  0
LINE
  8
_0-2_LAYER004
  6
DASHED3
 62
    2
 10
1140.7849000000001
 20
911.55140000000006
 11
2091.0938999999998
 21
1339.1902
  0
LINE
  8
_0-1_LAYER003
  6
CONTINUOUS
 62
    2
 10
1135.8721
 20
914.82400000000007
 11
1139.5661
 21
906.61599999999999
  0
LINE
  8
_0-1_LAYER003
  6
CONTINUOUS
 62
    3
 10
1015.0961
 20
867.05400000000009
 11
1133.4101000000001
 21
920.29500000000007
  0
LINE
  8
_0-1_LAYER003
  6
CONTINUOUS
 62
    3
 10
1006.6477
 20
886.27970000000005
 11
1015.0961
 21
867.05400000000009
  0
LINE
  8
_0-1_LAYER003
  6
CONTINUOUS
 62
    3
 10
1139.5661
 20
906.61599999999999
 11
1127.7091
 21
901.28099999999995
  0
LINE
  8
_0-1_LAYER003
  6
CONTINUOUS
 62
    3
 10
1127.7091
 20
901.28099999999995
 11
1133.8651
 21
887.60200000000009
  0
LINE
  8
_0-1_LAYER003
  6
CONTINUOUS
 62
    3
 10
1133.4101000000001
 20
920.29500000000007
 11
1139.5661
 21
906.61599999999999
  0
LINE
  8
_0-1_LAYER003
  6
CONTINUOUS
 62
    3
 10
1039.7191
 20
878.13400000000001
 11
1051.7881
 21
850.66799999999989
  0
LINE
  8
_0-1_LAYER003
  6
CONTINUOUS
 62
    3
 10
1105.2974999999999
 20
922.78420000000006
 11
1110.8521000000001
 21
910.14400000000001
  0
LINE
  8
_0-1_LAYER003
  6
CONTINUOUS
 62
    2
 10
1060.4244000000001
 20
788.75939999999991
 11
2122.1693
 21
1266.5436999999999
  0
LINE
  8
_0-1_LAYER003
  6
CONTINUOUS
 62
    2
 10
1036.2854
 20
843.69129999999996
 11
2098.5675999999999
 21
1321.7186999999999
  0
LINE
  8
_0-1_LAYER003
  6
CONTINUOUS
 62
    2
 10
1098.3400999999999
 20
904.5139999999999
 11
1108.7511
 21
914.92499999999995
  0
LINE
  8
_0-1_LAYER003
  6
CONTINUOUS
 62
    2
 10
1077.7691
 20
895.25700000000006
 11
1105.2971
 21
922.78400000000011
  0
LINE
  8
_0-1_LAYER003
  6
CONTINUOUS
 62
    2
 10
1057.1991
 20
886
 11
1087.3371999999999
 21
916.13809999999989
  0
LINE
  8
_0-1_LAYER003
  6
CONTINUOUS
 62
    2
 10
1036.6291000000001
 20
876.74399999999991
 11
1069.3773000000001
 21
909.49219999999991
  0
LINE
  8
_0-1_LAYER003
  6
CONTINUOUS
 62
    2
 10
1016.0581
 20
867.48700000000008
 11
1051.4185
 21
902.84670000000006
  0
LINE
  8
_0-1_LAYER003
  6
CONTINUOUS
 62
    2
 10
1011.8041000000001
 20
874.54600000000005
 11
1033.4591
 21
896.20100000000002
  0
LINE
  8
_0-1_LAYER003
  6
CONTINUOUS
 62
    2
 10
1008.3501000000001
 20
882.40599999999995
 11
1015.4992
 21
889.55510000000004
  0
LINE
  8
_0-1_LAYER003
  6
CONTINUOUS
 62
    2
 10
1050.7021
 20
853.14100000000008
 11
1052.7440999999999
 21
851.09799999999996
  0
LINE
  8
_0-1_LAYER003
  6
CONTINUOUS
 62
    2
 10
1041.8331000000001
 20
873.32300000000009
 11
1060.5471
 21
854.60899999999992
  0
LINE
  8
_0-1_LAYER003
  6
CONTINUOUS
 62
    2
 10
1045.6621
 20
880.80799999999999
 11
1068.3501000000001
 21
858.11999999999989
  0
LINE
  8
_0-1_LAYER003
  6
CONTINUOUS
 62
    2
 10
1053.4640999999999
 20
884.31999999999994
 11
1076.1521
 21
861.63200000000006
  0
LINE
  8
_0-1_LAYER003
  6
CONTINUOUS
 62
    2
 10
1061.2671
 20
887.8309999999999
 11
1083.9550999999999
 21
865.14300000000003
  0
LINE
  8
_0-1_LAYER003
  6
CONTINUOUS
 62
    2
 10
1069.0690999999999
 20
891.3420000000001
 11
1091.7571
 21
868.654
  0
LINE
  8
_0-1_LAYER003
  6
CONTINUOUS
 62
    2
 10
1076.8721
 20
894.85300000000007
 11
1099.5600999999999
 21
872.16499999999996
  0
LINE
  8
_0-1_LAYER003
  6
CONTINUOUS
 62
    2
 10
1084.6741
 20
898.36400000000003
 11
1107.3621000000001
 21
875.67599999999993
  0
LINE
  8
_0-1_LAYER003
  6
CONTINUOUS
 62
    2
 10
1092.4771000000001
 20
901.875
 11
1115.1650999999999
 21
879.1869999999999
  0
LINE
  8
_0-1_LAYER003
  6
CONTINUOUS
 62
    2
 10
1100.2791
 20
905.38599999999997
 11
1122.9671000000001
 21
882.69800000000009
  0
LINE
  8
_0-1_LAYER003
  6
CONTINUOUS
 62
    2
 10
1108.0821000000001
 20
908.89799999999991
 11
1130.7701
 21
886.21000000000004
  0
LINE
  8
_0-1_LAYER003
  6
CONTINUOUS
 62
    2
 10
1115.8841
 20
912.40900000000011
 11
1128.5130999999999
 21
899.77999999999997
  0
LINE
  8
_0-1_LAYER003
  6
CONTINUOUS
 62
    2
 10
1123.6871000000001
 20
915.92000000000007
 11
1135.0310999999999
 21
904.57600000000002
  0
LINE
  8
_0-1_LAYER003
  6
CONTINUOUS
 62
    2
 10
1131.4891
 20
919.43100000000004
 11
1135.6891000000001
 21
915.23199999999997
  0
LINE
  8
_0-0_LAYER001
  6
CONTINUOUS
 62
    3
 10
1133.865
 20
887.60220000000004
 11
1051.7881
 21
850.66799999999989
  0
LINE
  8
_0-0_LAYER001
  6
DASHED3
 62
    2
 10
1134.0526
 20
921.68069999999989
 11
1140.7849000000001
 21
911.55140000000006
  0
LINE
  8
_0-0_LAYER001
  6
CONTINUOUS
 62
    2
 10
1078.6346000000001
 20
865.16020000000003
 11
1076.6935000000001
 21
872.40460000000007
  0
LINE
  8
_0-0_LAYER001
  6
CONTINUOUS
 62
    2
 10
1076.6935000000001
 20
872.40460000000007
 11
1081.9967999999999
 21
867.10130000000004
  0
LINE
  8
_0-0_LAYER001
  6
CONTINUOUS
 62
    2
 10
1076.6935000000001
 20
872.40460000000007
 11
1199.8421000000001
 21
659.10500000000002
  0
LINE
  8
_0-0_LAYER001
  6
CONTINUOUS
 62
    2
 10
1199.8421000000001
 20
659.10500000000002
 11
1288.2538
 21
659.10500000000002
  0
LINE
  8
_0-0_LAYER001
  6
CONTINUOUS
 62
    2
 10
1027.5479
 20
888.16210000000001
 11
1029.489
 21
880.91769999999997
  0
LINE
  8
_0-0_LAYER001
  6
CONTINUOUS
 62
    2
 10
1029.489
 20
880.91769999999997
 11
1024.1857
 21
886.221
  0
LINE
  8
_0-0_LAYER001
  6
CONTINUOUS
 62
    2
 10
1029.489
 20
880.91769999999997
 11
964.54379999999992
 21
993.40609999999992
  0
LINE
  8
_0-0_LAYER001
  6
CONTINUOUS
 62
    2
 10
964.54379999999992
 20
993.40609999999992
 11
913.16609999999991
 21
993.40609999999992
  0
LINE
  8
_0-0_LAYER001
  6
CONTINUOUS
 62
    2
 10
1766.2746000000002
 20
876.22890000000007
 11
2007.4758999999999
 21
876.22890000000007
  0
LINE
  8
_0-0_LAYER001
  6
CONTINUOUS
 62
    2
 10
1783.6500999999998
 20
846.13349999999991
 11
1955.3215
 21
846.13349999999991
  0
LINE
  8
_0-0_LAYER001
  6
CONTINUOUS
 62
    2
 10
1621.5945000000002
 20
1122.9396999999999
 11
1619.6534000000001
 21
1130.1841999999999
  0
LINE
  8
_0-0_LAYER001
  6
CONTINUOUS
 62
    2
 10
1619.6534000000001
 20
1130.1841999999999
 11
1624.9567000000002
 21
1124.8809000000001
  0
LINE
  8
_0-0_LAYER001
  6
CONTINUOUS
 62
    2
 10
1619.6534000000001
 20
1130.1841999999999
 11
1800.8935999999999
 21
816.26700000000005
  0
LINE
  8
_0-0_LAYER001
  6
CONTINUOUS
 62
    2
 10
1748.9650999999999
 20
906.20980000000009
 11
1935.0358000000001
 21
906.20980000000009
  0
LINE
  8
_0-0_LAYER001
  6
CONTINUOUS
 62
    2
 10
1800.8935999999999
 20
816.26700000000005
 11
1898.5889000000002
 21
816.26700000000005
  0
LINE
  8
_0-1_LAYER003
  6
CONTINUOUS
 62
    7
 10
1748.9650999999999
 20
906.20980000000009
 11
1935.0358000000001
 21
906.20980000000009
  0
LINE
  8
_0-1_LAYER003
  6
CONTINUOUS
 62
    7
 10
1766.2746000000002
 20
876.22890000000007
 11
2007.4758999999999
 21
876.22890000000007
  0
LINE
  8
_0-1_LAYER003
  6
CONTINUOUS
 62
    7
 10
1783.6500999999998
 20
846.13349999999991
 11
1955.3215
 21
846.13349999999991
  0
LINE
  8
_0-1_LAYER003
  6
CONTINUOUS
 62
    7
 10
1800.8935999999999
 20
816.26700000000005
 11
1898.5889000000002
 21
816.26700000000005
  0
LINE
  8
_0-1_LAYER003
  6
CONTINUOUS
 62
    7
 10
1583.4411
 20
1336.2837
 11
1623.9411
 21
1336.2837
  0
LINE
  8
_0-1_LAYER003
  6
CONTINUOUS
 62
    7
 10
920.96039999999994
 20
1048.4603999999999
 11
985.46039999999994
 21
1048.4603999999999
  0
LINE
  8
_0-1_LAYER003
  6
CONTINUOUS
 62
    7
 10
913.16609999999991
 20
993.40609999999992
 11
964.54379999999992
 21
993.40609999999992
  0
LINE
  8
_0-1_LAYER003
  6
CONTINUOUS
 62
    7
 10
1199.8421000000001
 20
659.10500000000002
 11
1264.3421000000001
 21
659.10500000000002
  0
LINE
  8
_0-1_LAYER003
  6
CONTINUOUS
 62
    7
 10
1264.3421000000001
 20
659.10500000000002
 11
1280.7308396156157
 21
659.10500000000002
  0
LINE
  8
_0-1_LAYER003
  6
CONTINUOUS
 62
    7
 10
848.10502890458156
 20
1159.73358073997
 11
865.83870000000002
 21
1111.1702
  0
LINE
  8
_0-1_LAYER003
  6
CONTINUOUS
 62
    7
 10
848.68814822416266
 20
1158.1367176098668
 11
1060.0374999999999
 21
1235.3145
  0
LINE
  8
_0-1_LAYER003
  6
CONTINUOUS
 62
    7
 10
1050.2141097949589
 20
1262.2156372442876
 11
1077.1882000000001
 21
1188.348
  0
LINE
  8
_0-1_LAYER003
  6
CONTINUOUS
 62
    7
 10
1050.7973
 20
1260.6188
 11
1262.1467
 21
1337.7964999999999
  0
LINE
  8
_0-1_LAYER003
  6
CONTINUOUS
 62
    7
 10
1252.9557966842153
 20
1362.9656689749386
 11
1279.2973
 21
1290.8299999999999
  0
LINE
  8
_0-1_LAYER003
  6
CONTINUOUS
 62
    7
 10
1253.5389
 20
1361.3688
 11
1464.8883999999998
 21
1438.5465999999999
  0
LINE
  8
_0-1_LAYER003
  6
CONTINUOUS
 62
    7
 10
1464.305209794959
 20
1440.1434372442875
 11
1482.0390000000002
 21
1391.5799999999999
  0
LINE
  8
_0-1_LAYER003
  6
CONTINUOUS
 62
    7
 10
1623.9411
 20
1336.2837
 11
1683.5333000000001
 21
1233.0669
  0
LINE
  8
_0-1_LAYER003
  6
CONTINUOUS
 62
    7
 10
1683.5333000000001
 20
1233.0669
 11
1681.5922
 21
1240.3113000000001
  0
LINE
  8
_0-1_LAYER003
  6
CONTINUOUS
 62
    7
 10
1683.5333000000001
 20
1233.0669
 11
1678.23
 21
1238.3702000000001
  0
LINE
  8
_0-1_LAYER003
  6
CONTINUOUS
 62
    7
 10
1818.1392000000001
 20
1217.4567999999999
 11
1811.9722000000002
 21
1231.1304
  0
LINE
  8
_0-1_LAYER003
  6
CONTINUOUS
 62
    7
 10
1811.9722000000002
 20
1231.1304
 11
1839.3193999999999
 21
1243.4644000000001
  0
LINE
  8
_0-1_LAYER003
  6
CONTINUOUS
 62
    7
 10
1839.3193999999999
 20
1243.4644000000001
 11
1845.4863999999998
 21
1229.7908
  0
LINE
  8
_0-1_LAYER003
  6
CONTINUOUS
 62
    7
 10
1845.4863999999998
 20
1229.7908
 11
1818.1392000000001
 21
1217.4567999999999
  0
LINE
  8
_0-1_LAYER003
  6
CONTINUOUS
 62
    7
 10
1818.1392000000001
 20
1217.4567999999999
 11
1839.3193999999999
 21
1243.4644000000001
  0
LINE
  8
_0-1_LAYER003
  6
CONTINUOUS
 62
    7
 10
2023.8168000000001
 20
1310.0118
 11
2017.6613000000002
 21
1323.6905999999999
  0
LINE
  8
_0-1_LAYER003
  6
CONTINUOUS
 62
    7
 10
2017.6613000000002
 20
1323.6905999999999
 11
2045.0189
 21
1336.0016000000001
  0
LINE
  8
_0-1_LAYER003
  6
CONTINUOUS
 62
    7
 10
2045.0189
 20
1336.0016000000001
 11
2051.1743999999999
 21
1322.3227999999999
  0
LINE
  8
_0-1_LAYER003
  6
CONTINUOUS
 62
    7
 10
2051.1743999999999
 20
1322.3227999999999
 11
2023.8168000000001
 21
1310.0118
  0
LINE
  8
_0-1_LAYER003
  6
CONTINUOUS
 62
    7
 10
2045.0189
 20
1336.0016000000001
 11
2023.8168000000001
 21
1310.0118
  0
LINE
  8
_0-1_LAYER003
  6
CONTINUOUS
 62
    7
 10
2091.0938999999998
 20
1339.1902
 11
1140.7849000000001
 21
911.55140000000006
  0
LINE
  8
_0-1_LAYER003
  6
CONTINUOUS
 62
    7
 10
1140.7849000000001
 20
911.55140000000006
 11
1134.0526
 21
921.68069999999989
  0
LINE
  8
_0-1_LAYER003
  6
CONTINUOUS
 62
    7
 10
1134.0526
 20
921.68069999999989
 11
1046.5691999999999
 21
882.3134
  0
LINE
  8
_0-1_LAYER003
  6
CONTINUOUS
 62
    7
 10
1027.5479
 20
888.16210000000001
 11
1029.489
 21
880.91769999999997
  0
LINE
  8
_0-1_LAYER003
  6
CONTINUOUS
 62
    7
 10
1029.489
 20
880.91769999999997
 11
1024.1857
 21
886.221
  0
LINE
  8
_0-1_LAYER003
  6
CONTINUOUS
 62
    7
 10
1029.489
 20
880.91769999999997
 11
964.54379999999992
 21
993.40609999999992
  0
LINE
  8
_0-1_LAYER003
  6
CONTINUOUS
 62
    7
 10
1041.3226
 20
955.58649999999989
 11
1043.2637999999999
 21
948.3420000000001
  0
LINE
  8
_0-1_LAYER003
  6
CONTINUOUS
 62
    7
 10
1043.2637999999999
 20
948.3420000000001
 11
1037.9603999999999
 21
953.64529999999991
  0
LINE
  8
_0-1_LAYER003
  6
CONTINUOUS
 62
    7
 10
1043.2637999999999
 20
948.3420000000001
 11
985.46039999999994
 21
1048.4603999999999
  0
LINE
  8
_0-1_LAYER003
  6
CONTINUOUS
 62
    7
 10
1076.6935000000001
 20
872.40460000000007
 11
1078.6346000000001
 21
865.16020000000003
  0
LINE
  8
_0-1_LAYER003
  6
CONTINUOUS
 62
    7
 10
1076.6935000000001
 20
872.40460000000007
 11
1081.9967999999999
 21
867.10130000000004
  0
LINE
  8
_0-1_LAYER003
  6
CONTINUOUS
 62
    7
 10
1076.6935000000001
 20
872.40460000000007
 11
1199.8421000000001
 21
659.10500000000002
  0
LINE
  8
_0-1_LAYER003
  6
CONTINUOUS
 62
    7
 10
906.59879999999998
 20
844.87239999999997
 11
859.45242944241863
 21
823.65648893479499
  0
LINE
  8
_0-1_LAYER003
  6
CONTINUOUS
 62
    7
 10
861.0027
 20
824.35410000000002
 11
907.90560000000005
 21
720.12580000000003
  0
LINE
  8
_0-1_LAYER003
  6
CONTINUOUS
 62
    7
 10
906.35536686619673
 20
719.4281057755303
 11
953.50170000000003
 21
740.64400000000001
  0
LINE
  8
_0-1_LAYER003
  6
CONTINUOUS
 62
    7
 10
883.2838999999999
 20
774.84050000000002
 11
928.88000000000011
 21
795.35879999999997
  0
LINE
  8
_0-1_LAYER003
  6
CONTINUOUS
 62
    7
 10
884.83416146936293
 20
775.53813126120326
 11
881.73362944241853
 21
774.14288893479488
  0
LINE
  8
_0-1_LAYER003
  6
CONTINUOUS
 62
    7
 10
869.4227291858158
 20
801.50048950503276
 11
916.56899999999996
 21
822.71640000000002
  0
LINE
  8
_0-1_LAYER003
  6
CONTINUOUS
 62
    7
 10
1052.7440999999999
 20
851.09799999999996
 11
1036.2854
 21
843.69129999999996
  0
LINE
  8
_0-1_LAYER003
  6
CONTINUOUS
 62
    7
 10
1036.2854
 20
843.69129999999996
 11
1060.4244000000001
 21
788.75939999999991
  0
LINE
  8
_0-1_LAYER003
  6
CONTINUOUS
 62
    7
 10
1060.4244000000001
 20
788.75939999999991
 11
2122.1693
 21
1266.5436999999999
  0
LINE
  8
_0-1_LAYER003
  6
CONTINUOUS
 62
    7
 10
2098.5675999999999
 20
1321.7186999999999
 11
1133.8651
 21
887.60200000000009
  0
LINE
  8
_0-1_LAYER003
  6
CONTINUOUS
 62
    7
 10
1139.5661
 20
906.61599999999999
 11
2092.6671000000001
 21
1335.5126
  0
LINE
  8
_0-1_LAYER003
  6
CONTINUOUS
 62
    7
 10
1612.3717999999999
 20
1124.8614
 11
1606.2163
 21
1138.5401999999999
  0
LINE
  8
_0-1_LAYER003
  6
CONTINUOUS
 62
    7
 10
1606.2163
 20
1138.5401999999999
 11
1633.5738999999999
 21
1150.8511000000001
  0
LINE
  8
_0-1_LAYER003
  6
CONTINUOUS
 62
    7
 10
1633.5738999999999
 20
1150.8511000000001
 11
1639.7294000000002
 21
1137.1723
  0
LINE
  8
_0-1_LAYER003
  6
CONTINUOUS
 62
    7
 10
1639.7294000000002
 20
1137.1723
 11
1612.3717999999999
 21
1124.8614
  0
LINE
  8
_0-1_LAYER003
  6
CONTINUOUS
 62
    7
 10
1612.3717999999999
 20
1124.8614
 11
1633.5738999999999
 21
1150.8511000000001
  0
LINE
  8
_0-1_LAYER003
  6
CONTINUOUS
 62
    7
 10
1619.6534000000001
 20
1130.1841999999999
 11
1621.4535056017396
 21
1123.4659139602279
  0
LINE
  8
_0-1_LAYER003
  6
CONTINUOUS
 62
    7
 10
1619.6534000000001
 20
1130.1841999999999
 11
1624.8453513572383
 21
1124.9922486427618
  0
LINE
  8
_0-1_LAYER003
  6
CONTINUOUS
 62
    7
 10
1619.6534000000001
 20
1130.1841999999999
 11
1800.8935999999999
 21
816.26700000000005
  0
LINE
  8
_0-1_LAYER003
  6
CONTINUOUS
 62
    7
 10
1690.2637
 20
1034.0811000000001
 11
1722.067
 21
963.4072000000001
  0
LINE
  8
_0-1_LAYER003
  6
CONTINUOUS
 62
    7
 10
1721.0410904768353
 20
965.68699571457057
 11
1098.6166663807446
 21
685.59562034713213
  0
LINE
  8
_0-1_LAYER003
  6
CONTINUOUS
 62
    7
 10
1098.6166666150157
 20
685.59562045255416
 11
1097.0664736368881
 21
684.89803313662208
  0
LINE
  8
_0-1_LAYER003
  6
CONTINUOUS
 62
    7
 10
1097.7640944084212
 20
683.34776694898551
 11
1066.2891
 21
753.29209999999989
  0
LINE
  8
_0-1_LAYER003
  6
CONTINUOUS
 62
    7
 10
1074.7815000000001
 20
758.14460000000008
 11
1095.9974110652049
 21
710.99822944241873
  0
LINE
  8
_0-1_LAYER003
  6
CONTINUOUS
 62
    7
 10
1095.2997899019824
 20
712.54849545593197
 11
1030.7127
 21
683.48430000000008
  0
LINE
  8
_0-1_LAYER003
  6
CONTINUOUS
 62
    7
 10
1030.7127
 20
683.48430000000008
 11
1010.1944000000001
 21
729.08040000000005
  0
LINE
  8
_0-1_LAYER003
  6
CONTINUOUS
 62
    7
 10
1030.7127
 20
683.48430000000008
 11
1031.410311065205
 21
681.93402944241871
  0
LINE
  8
_0-1_LAYER003
  6
CONTINUOUS
 62
    7
 10
1515.9728
 20
870.66470000000004
 11
1484.1695
 21
941.33860000000004
  0
LINE
  8
_0-1_LAYER003
  6
CONTINUOUS
 62
    7
 10
1309.8786
 20
777.9221
 11
1278.0753
 21
848.596
  0
LINE
  8
_0-1_LAYER003
  6
CONTINUOUS
 62
    7
 10
1406.6041999999998
 20
1032.2659000000001
 11
1400.4486999999999
 21
1045.9447
  0
LINE
  8
_0-1_LAYER003
  6
CONTINUOUS
 62
    7
 10
1400.4486999999999
 20
1045.9447
 11
1427.8063
 21
1058.2556
  0
LINE
  8
_0-1_LAYER003
  6
CONTINUOUS
 62
    7
 10
1427.8063
 20
1058.2556
 11
1433.9618
 21
1044.5768
  0
LINE
  8
_0-1_LAYER003
  6
CONTINUOUS
 62
    7
 10
1433.9618
 20
1044.5768
 11
1406.6041999999998
 21
1032.2659000000001
  0
LINE
  8
_0-1_LAYER003
  6
CONTINUOUS
 62
    7
 10
1406.6041999999998
 20
1032.2659000000001
 11
1427.8063
 21
1058.2556
  0
LINE
  8
_0-1_LAYER003
  6
CONTINUOUS
 62
    7
 10
1200.8367000000001
 20
939.67039999999997
 11
1194.6804999999999
 21
953.34889999999996
  0
LINE
  8
_0-1_LAYER003
  6
CONTINUOUS
 62
    7
 10
1194.6804999999999
 20
953.34889999999996
 11
1222.0374999999999
 21
965.66120000000001
  0
LINE
  8
_0-1_LAYER003
  6
CONTINUOUS
 62
    7
 10
1222.0374999999999
 20
965.66120000000001
 11
1228.1937
 21
951.98270000000002
  0
LINE
  8
_0-1_LAYER003
  6
CONTINUOUS
 62
    7
 10
1228.1937
 20
951.98270000000002
 11
1200.8367000000001
 21
939.67039999999997
  0
LINE
  8
_0-1_LAYER003
  6
CONTINUOUS
 62
    7
 10
1200.8367000000001
 20
939.67039999999997
 11
1222.0374999999999
 21
965.66120000000001
  0
TEXT
  8
_0-0_LAYER001
 62
    7
 10
930.78820000000007
 20
995.9060999999997
 40
20
 41
1
 50
0
  1
淀
  0
TEXT
  8
_0-0_LAYER001
 62
    7
 10
1783.6501000000001
 20
848.63349999999969
 40
20
 41
1
 50
0
  1
　野地板：杉ｔ＝１２
  0
TEXT
  8
_0-0_LAYER001
 62
    7
 10
1748.9651000000001
 20
908.70980000000009
 40
20
 41
1
 50
0
  1
　瓦桟：１５ｘ３０以上
  0
TEXT
  8
_0-0_LAYER001
 62
    7
 10
1800.8935999999999
 20
818.76699999999971
 40
20
 41
1
 50
0
  1
　化粧垂木
  0
TEXT
  8
_0-0_LAYER001
 62
    7
 10
923.53285118910799
 20
1049.6903891779275
 40
20
 41
1
 50
0
  1
万十軒瓦
  0
TEXT
  8
_0-0_LAYER001
 62
    7
 10
939.97234203548999
 20
1208.2556615532217
 40
20
 41
1
 50
20.060506999999944
  1
225
  0
TEXT
  8
_0-0_LAYER001
 62
    7
 10
1138.2628470040881
 20
1311.9075164231708
 40
20
 41
1
 50
20.060506999999973
  1
225
  0
TEXT
  8
_0-0_LAYER001
 62
    7
 10
1344.0643559487705
 20
1409.5505681122538
 40
20
 41
1
 50
20.060507000000037
  1
225
  0
TEXT
  8
_0-0_LAYER001
 62
    7
 10
834.81828637032413
 20
805.66584843515773
 40
20
 41
1
 50
-65.772200000000112
  1
21
  0
TEXT
  8
_0-0_LAYER001
 62
    7
 10
843.72890499996083
 20
778.29398432599419
 40
20
 41
1
 50
-65.772212999999965
  1
30
  0
TEXT
  8
_0-0_LAYER001
 62
    7
 10
861.74124249312626
 20
740.76828121523295
 40
20
 41
1
 50
-65.772212999999923
  1
60
  0
TEXT
  8
_0-0_LAYER001
 62
    7
 10
1066.1572088336891
 20
674.97437925130771
 40
20
 41
1
 50
24.227800000000073
  1
60
  0
TEXT
  8
_0-0_LAYER001
 62
    7
 10
1099.2056263284551
 20
688.49418640825775
 40
20
 41
1
 50
24.227800000000073
  1
10
  0
TEXT
  8
_0-0_LAYER001
 62
    7
 10
1184.8310716558051
 20
739.56901344562471
 40
20
 41
1
 50
24.227800000000013
  1
232
  0
TEXT
  8
_0-0_LAYER001
 62
    7
 10
1395.139182986137
 20
835.70986433949065
 40
20
 41
1
 50
24.227773000000017
  1
226
  0
TEXT
  8
_0-0_LAYER001
 62
    7
 10
1602.4428927260362
 20
927.34411284770658
 40
20
 41
1
 50
24.227772999999988
  1
226
  0
TEXT
  8
_0-0_LAYER001
 62
    7
 10
1766.2746000000002
 20
878.72889999999973
 40
20
 41
1
 50
0
  1
　下葺材：ルーフィング
  0
TEXT
  8
_0-0_LAYER001
 62
    7
 10
1564.222404726577
 20
1347.1836434851348
 40
20
 41
1
 50
0
  1
桟　瓦
  0
TEXT
  8
_0-0_LAYER001
 62
    7
 10
1208.014692780923
 20
665.0593278420547
 40
20
 41
1
 50
0
  1
広小舞
  0
ENDSEC
  0
EOF
