  0
SECTION
  2
HEADER
  9
$ACADVER
  1
AC1009
  9
$INSBASE
 10
0
 20
0
 30
0
  9
$EXTMIN
 10
0
 20
0
  9
$EXTMAX
 10
2970
 20
2100
  9
$LIMMIN
 10
0
 20
0
  9
$LIMMAX
 10
2970
 20
2100
  9
$LTSCALE
 40
10
  0
ENDSEC
  0
SECTION
  2
TABLES
  0
TABLE
  2
LTYPE
 70
     9
  0
LTYPE
  2
CONTINUOUS
 70
    64
  3
実線
 72
    65
 73
     0
 40
0.0
  0
LTYPE
  2
DASHED1
 70
    64
  3
--  --  --  --  --  --  --  --  
 72
    65
 73
     2
 40
2.5
 49
1.25
 49
-1.25
  0
LTYPE
  2
DASHED2
 70
    64
  3
----    ----    ----    ----    
 72
    65
 73
     2
 40
5.0
 49
2.5
 49
-2.5
  0
LTYPE
  2
DASHED3
 70
    64
  3
------  ------  ------  ------  
 72
    65
 73
     2
 40
5.0
 49
3.75
 49
-1.25
  0
LTYPE
  2
CENTER1
 70
    64
  3
----- - ----- - ----- - ----- - 
 72
    65
 73
     4
 40
10.0
 49
6.25
 49
-1.25
 49
1.25
 49
-1.25
  0
LTYPE
  2
CENTER2
 70
    64
  3
----------  --  ----------  --  
 72
    65
 73
     4
 40
20.0
 49
12.5
 49
-2.5
 49
2.5
 49
-2.5
  0
LTYPE
  2
PHANTOM1
 70
    64
  3
--- - - --- - - --- - - --- - - 
 72
    65
 73
     6
 40
10.0
 49
3.25
 49
-1.25
 49
1.25
 49
-1.25
 49
1.25
 49
-1.25
  0
LTYPE
  2
PHANTOM2
 70
    64
  3
--------  -  -  --------  -  -  
 72
    65
 73
     6
 40
20.0
 49
10.0
 49
-2.5
 49
1.25
 49
-2.5
 49
1.25
 49
-2.5
  0
LTYPE
  2
DOT
 70
    64
  3
-   -   -   -   -   -   -   -   
 72
    65
 73
     2
 40
2.5
 49
0.625
 49
-1.875
  0
LTYPE
  2
DUMMY
 70
    64
  3
ダミー
 72
    65
 73
     0
 40
0.0
  0
LTYPE
  2
RAND1
 70
    64
  3
ランダム線1
 72
    65
 73
     4
 40
10.0
 49
1.0
 49
-2.0
 49
3.0
 49
-4.0
  0
LTYPE
  2
RAND2
 70
    64
  3
ランダム線2
 72
    65
 73
     4
 40
14.0
 49
2.0
 49
-3.0
 49
4.0
 49
-5.0
  0
LTYPE
  2
RAND3
 70
    64
  3
ランダム線3
 72
    65
 73
     4
 40
18.0
 49
3.0
 49
-4.0
 49
5.0
 49
-6.0
  0
LTYPE
  2
RAND4
 70
    64
  3
ランダム線4
 72
    65
 73
     4
 40
22.0
 49
4.0
 49
-5.0
 49
6.0
 49
-7.0
  0
LTYPE
  2
RAND5
 70
    64
  3
ランダム線5
 72
    65
 73
     4
 40
26.0
 49
5.0
 49
-6.0
 49
7.0
 49
-8.0
  0
LTYPE
  2
LONG1
 70
    64
  3
----------  --  ----------  --  
 72
    65
 73
     4
 40
40.0
 49
32.5
 49
-2.5
 49
2.5
 49
-2.5
  0
LTYPE
  2
LONG2
 70
    64
  3
--------  -  -  --------  -  -  
 72
    65
 73
     6
 40
40.0
 49
30.0
 49
-2.5
 49
1.25
 49
-2.5
 49
1.25
 49
-2.5
  0
LTYPE
  2
LONG3
 70
    64
  3
+++++++++++++++..+++++++++++++++
 72
    65
 73
     2
 40
40.0
 49
37.5
 49
-2.5
  0
LTYPE
  2
LONG4
 70
    64
  3
+++++++++++++++..+++++++++++++++
 72
    65
 73
     2
 40
80.0
 49
75.0
 49
-5.0
  0
LTYPE
  2
LONG5
 70
    64
  3
----------  --  ----------  --  
 72
    65
 73
     4
 40
60.0
 49
37.5
 49
-7.5
 49
7.5
 49
-7.5
  0
LTYPE
  2
dashed
 70
   64
  3
-------   -------------   ------
 72
   65
 73
    2
 40
7.5
 49
6
 49
-1.5
  0
LTYPE
  2
dashed_spaced
 70
   64
  3
----        --------        ----
 72
   65
 73
    2
 40
12
 49
6
 49
-6
  0
LTYPE
  2
long_dashed_dotted
 70
   64
  3
------------- --- --------------
 72
   65
 73
    4
 40
15.25
 49
12
 49
-1.5
 49
0.25
 49
-1.5
  0
LTYPE
  2
long_dashed_double-dotted
 70
   64
  3
----------- --- --- ------------
 72
   65
 73
    6
 40
17
 49
12
 49
-1.5
 49
0.25
 49
-1.5
 49
0.25
 49
-1.5
  0
LTYPE
  2
long_dashed_triplicate-dotted
 70
   64
  3
--------- --- --- --- ----------
 72
   65
 73
    8
 40
18.75
 49
12
 49
-1.5
 49
0.25
 49
-1.5
 49
0.25
 49
-1.5
 49
0.25
 49
-1.5
  0
LTYPE
  2
dotted
 70
   64
  3
   -       -       -       -    
 72
   65
 73
    2
 40
1.75
 49
0.25
 49
-1.5
  0
LTYPE
  2
chain
 70
   64
  3
-------------- -- --------------
 72
   65
 73
    4
 40
18.5
 49
12
 49
-1.5
 49
3.5
 49
-1.5
  0
LTYPE
  2
chain_double_dash
 70
   64
  3
------------ -- -- -------------
 72
   65
 73
    6
 40
23.5
 49
12
 49
-1.5
 49
3.5
 49
-1.5
 49
3.5
 49
-1.5
  0
LTYPE
  2
dashed_dotted
 70
   64
  3
-----------     -     ----------
 72
   65
 73
    4
 40
9.25
 49
6
 49
-1.5
 49
0.25
 49
-1.5
  0
LTYPE
  2
double-dashed_dotted
 70
   64
  3
------   -----------   -   -----
 72
   65
 73
    6
 40
16.75
 49
6
 49
-1.5
 49
6
 49
-1.5
 49
0.25
 49
-1.5
  0
LTYPE
  2
dashed_double-dotted
 70
   64
  3
---------    -    -    ---------
 72
   65
 73
    6
 40
11
 49
6
 49
-1.5
 49
0.25
 49
-1.5
 49
0.25
 49
-1.5
  0
LTYPE
  2
double-dashed_double-dotted
 70
   64
  3
-----   ---------   -   -   ----
 72
   65
 73
    8
 40
18.5
 49
6
 49
-1.5
 49
6
 49
-1.5
 49
0.25
 49
-1.5
 49
0.25
 49
-1.5
  0
LTYPE
  2
dashed_triplicate-dotted
 70
   64
  3
-------    -    -    -    ------
 72
   65
 73
    8
 40
12.75
 49
6
 49
-1.5
 49
0.25
 49
-1.5
 49
0.25
 49
-1.5
 49
0.25
 49
-1.5
  0
LTYPE
  2
double-dashed_triplicate-dotted
 70
   64
  3
-----  ---------  -  -  -  -----
 72
   65
 73
   10
 40
20.25
 49
6
 49
-1.5
 49
6
 49
-1.5
 49
0.25
 49
-1.5
 49
0.25
 49
-1.5
 49
0.25
 49
-1.5
  0
LTYPE
  2
undefined
 70
   64
  3
--------------------------------
 72
   65
 73
    0
 40
0
  0
ENDTAB
  0
TABLE
  2
STYLE
  5
3
100
AcDbSymbolTable
 70
     1
  0
STYLE
  5
10
100
AcDbSymbolTableRecord
100
AcDbTextStyleTableRecord
  2
STANDARD
 70
     0
 40
0.0
 41
1.0
 50
0.0
 71
     0
 42
0.2
  3
txt
  4
bigfont.shx
  0
STYLE
  5
26
100
AcDbSymbolTableRecord
100
AcDbTextStyleTableRecord
  2
TATEGAKI
 70
    68
 40
0.0
 41
1.0
 50
0.0
 71
     0
 42
1.0
  3
txt
  4
bigfont.shx
  0
ENDTAB
  0
TABLE
  2
LAYER
 70
    3
  0
LAYER
  2
_0-0_LAYER001
 70
   64
 62
    7
  6
CONTINUOUS
  0
LAYER
  2
_0-1_LAYER003
 70
   64
 62
    7
  6
CONTINUOUS
  0
LAYER
  2
ADD_LINE
 70
   64
 62
    7
  6
CONTINUOUS
  0
ENDTAB
  0
ENDSEC
  0
SECTION
  2
BLOCKS
  0
ENDSEC
  0
SECTION
  2
ENTITIES
  0
LINE
  8
_0-0_LAYER001
  6
CONTINUOUS
 62
    2
 10
1100.9801
 20
1099.0392999999999
 11
1102.9212
 21
1091.7947999999999
  0
LINE
  8
_0-0_LAYER001
  6
CONTINUOUS
 62
    2
 10
1102.9212
 20
1091.7947999999999
 11
1097.6179
 21
1097.0980999999999
  0
LINE
  8
_0-0_LAYER001
  6
CONTINUOUS
 62
    2
 10
1102.9212
 20
1091.7947999999999
 11
1035.2046
 21
1209.0834
  0
LINE
  8
_0-0_LAYER001
  6
CONTINUOUS
 62
    2
 10
1035.2046
 20
1209.0834
 11
970.70460000000003
 21
1209.0834
  0
LINE
  8
_0-0_LAYER001
  6
CONTINUOUS
 62
    2
 10
1733.2058000000002
 20
1369.7480999999998
 11
1735.1469999999999
 21
1362.5037
  0
LINE
  8
_0-0_LAYER001
  6
CONTINUOUS
 62
    2
 10
1735.1469999999999
 20
1362.5037
 11
1729.8436999999999
 21
1367.807
  0
LINE
  8
_0-0_LAYER001
  6
CONTINUOUS
 62
    2
 10
1735.1469999999999
 20
1362.5037
 11
1673.5137
 21
1469.2554999999998
  0
LINE
  8
_0-0_LAYER001
  6
CONTINUOUS
 62
    2
 10
1673.5137
 20
1469.2554999999998
 11
1633.0137
 21
1469.2554999999998
  0
LINE
  8
_0-1_LAYER003
  6
CONTINUOUS
 62
    3
 10
1128.3873000000001
 20
999.81490000000008
 11
1046.3143
 21
962.88190000000009
  0
CIRCLE
  8
_0-0_LAYER001
  6
CONTINUOUS
 62
    2
 10
853.29369999999994
 20
1274.8885
 40
1.6999999999999997
  0
LINE
  8
_0-0_LAYER001
  6
CONTINUOUS
 62
    2
 10
853.29369999999994
 20
1274.8885
 11
1064.6431
 21
1352.0663
  0
CIRCLE
  8
_0-0_LAYER001
  6
CONTINUOUS
 62
    2
 10
1064.6431
 20
1352.0663
 40
1.6999999999999997
  0
LINE
  8
_0-0_LAYER001
  6
CONTINUOUS
 62
    2
 10
852.4360999999999
 20
1277.2367999999999
 11
870.44430000000011
 21
1227.922
  0
LINE
  8
_0-0_LAYER001
  6
CONTINUOUS
 62
    2
 10
1063.7855999999999
 20
1354.4146000000001
 11
1081.7936999999999
 21
1305.0997000000002
  0
CIRCLE
  8
_0-0_LAYER001
  6
CONTINUOUS
 62
    2
 10
1055.4028000000001
 20
1377.3705999999997
 40
1.6999999999999997
  0
LINE
  8
_0-0_LAYER001
  6
CONTINUOUS
 62
    2
 10
1055.4028000000001
 20
1377.3705999999997
 11
1266.7523000000001
 21
1454.5482999999999
  0
CIRCLE
  8
_0-0_LAYER001
  6
CONTINUOUS
 62
    2
 10
1266.7523000000001
 20
1454.5482999999999
 40
1.6999999999999997
  0
LINE
  8
_0-0_LAYER001
  6
CONTINUOUS
 62
    2
 10
1054.5453
 20
1379.7189000000001
 11
1072.5535
 21
1330.404
  0
LINE
  8
_0-0_LAYER001
  6
CONTINUOUS
 62
    2
 10
1265.8948
 20
1456.8967
 11
1283.9029
 21
1407.5817999999999
  0
CIRCLE
  8
_0-0_LAYER001
  6
CONTINUOUS
 62
    2
 10
1258.1445000000001
 20
1478.1206
 40
1.6999999999999997
  0
LINE
  8
_0-0_LAYER001
  6
CONTINUOUS
 62
    2
 10
1258.1445000000001
 20
1478.1206
 11
1469.4940000000001
 21
1555.2983999999997
  0
CIRCLE
  8
_0-0_LAYER001
  6
CONTINUOUS
 62
    2
 10
1469.4940000000001
 20
1555.2983999999997
 40
1.6999999999999997
  0
LINE
  8
_0-0_LAYER001
  6
CONTINUOUS
 62
    2
 10
1257.287
 20
1480.4689000000003
 11
1275.2951
 21
1431.154
  0
LINE
  8
_0-0_LAYER001
  6
CONTINUOUS
 62
    2
 10
1468.6363999999999
 20
1557.6467
 11
1486.6446000000001
 21
1508.3317999999999
  0
LINE
  8
_0-0_LAYER001
  6
CONTINUOUS
 62
    2
 10
1116.5975000000001
 20
805.62429999999995
 11
1084.7942
 21
876.29819999999995
  0
CIRCLE
  8
_0-0_LAYER001
  6
CONTINUOUS
 62
    2
 10
1115.5715
 20
807.90409999999997
 40
1.6999999999999997
  0
LINE
  8
_0-0_LAYER001
  6
CONTINUOUS
 62
    2
 10
1115.5715
 20
807.90409999999997
 11
1313.4584999999997
 21
896.9532999999999
  0
CIRCLE
  8
_0-0_LAYER001
  6
CONTINUOUS
 62
    2
 10
1313.4584999999997
 20
896.9532999999999
 40
1.6999999999999997
  0
LINE
  8
_0-0_LAYER001
  6
CONTINUOUS
 62
    2
 10
1314.4844000000001
 20
894.6735000000001
 11
1282.6811
 21
965.34740000000011
  0
CIRCLE
  8
_0-0_LAYER001
  6
CONTINUOUS
 62
    2
 10
1313.4584999999997
 20
896.9532999999999
 40
1.6999999999999997
  0
LINE
  8
_0-0_LAYER001
  6
CONTINUOUS
 62
    2
 10
1313.4584999999997
 20
896.9532999999999
 11
1519.5527000000002
 21
989.69579999999996
  0
CIRCLE
  8
_0-0_LAYER001
  6
CONTINUOUS
 62
    2
 10
1519.5527000000002
 20
989.69579999999996
 40
1.6999999999999997
  0
LINE
  8
_0-0_LAYER001
  6
CONTINUOUS
 62
    2
 10
1520.5785999999998
 20
987.41599999999994
 11
1488.7752999999998
 21
1058.0898999999999
  0
CIRCLE
  8
_0-0_LAYER001
  6
CONTINUOUS
 62
    2
 10
1519.5527000000002
 20
989.69579999999996
 40
1.6999999999999997
  0
LINE
  8
_0-0_LAYER001
  6
CONTINUOUS
 62
    2
 10
1519.5527000000002
 20
989.69579999999996
 11
1725.6469000000002
 21
1082.4383
  0
CIRCLE
  8
_0-0_LAYER001
  6
CONTINUOUS
 62
    2
 10
1725.6469000000002
 20
1082.4383
 40
1.6999999999999997
  0
LINE
  8
_0-0_LAYER001
  6
CONTINUOUS
 62
    2
 10
1726.6727999999998
 20
1080.1585
 11
1694.8694999999998
 21
1150.8324
  0
LINE
  8
_0-0_LAYER001
  6
CONTINUOUS
 62
    2
 10
1019.5172
 20
835.34940000000006
 11
997.97299999999996
 21
883.22520000000009
  0
CIRCLE
  8
_0-0_LAYER001
  6
CONTINUOUS
 62
    2
 10
1018.4912999999999
 20
837.62920000000008
 40
1.6999999999999997
  0
LINE
  8
_0-0_LAYER001
  6
CONTINUOUS
 62
    2
 10
1018.4912999999999
 20
837.62920000000008
 11
1088.0995
 21
868.9529
  0
CIRCLE
  8
_0-0_LAYER001
  6
CONTINUOUS
 62
    2
 10
1088.0995
 20
868.9529
 40
1.6999999999999997
  0
LINE
  8
_0-0_LAYER001
  6
CONTINUOUS
 62
    2
 10
1089.1253999999999
 20
866.67309999999998
 11
1067.5812000000001
 21
914.54899999999998
  0
LINE
  8
_0-0_LAYER001
  6
CONTINUOUS
 62
    2
 10
2028.4225000000001
 20
1426.7631000000001
 11
2055.7802000000001
 21
1439.0740000000001
  0
LINE
  8
_0-0_LAYER001
  6
CONTINUOUS
 62
    2
 10
2049.6246999999998
 20
1452.7528000000002
 11
2022.2669999999998
 21
1440.4419000000003
  0
LINE
  8
_0-0_LAYER001
  6
CONTINUOUS
 62
    2
 10
2055.7802000000001
 20
1439.0740000000001
 11
2049.6246999999998
 21
1452.7528000000002
  0
LINE
  8
_0-0_LAYER001
  6
CONTINUOUS
 62
    2
 10
2022.2669999999998
 20
1440.4419000000003
 11
2028.4225000000001
 21
1426.7631000000001
  0
LINE
  8
_0-0_LAYER001
  6
CONTINUOUS
 62
    2
 10
2049.6246999999998
 20
1452.7528000000002
 11
2028.4225000000001
 21
1426.7631000000001
  0
LINE
  8
_0-0_LAYER001
  6
CONTINUOUS
 62
    2
 10
1822.7449000000001
 20
1334.2081000000003
 11
1850.0922
 21
1346.5420999999997
  0
LINE
  8
_0-0_LAYER001
  6
CONTINUOUS
 62
    2
 10
1843.9252000000001
 20
1360.2157
 11
1816.5779000000002
 21
1347.8816999999999
  0
LINE
  8
_0-0_LAYER001
  6
CONTINUOUS
 62
    2
 10
1850.0922
 20
1346.5420999999997
 11
1843.9252000000001
 21
1360.2157
  0
LINE
  8
_0-0_LAYER001
  6
CONTINUOUS
 62
    2
 10
1816.5779000000002
 20
1347.8816999999999
 11
1822.7449000000001
 21
1334.2081000000003
  0
LINE
  8
_0-0_LAYER001
  6
CONTINUOUS
 62
    2
 10
1843.9252000000001
 20
1360.2157
 11
1822.7449000000001
 21
1334.2081000000003
  0
LINE
  8
_0-0_LAYER001
  6
CONTINUOUS
 62
    2
 10
1616.9775
 20
1241.6125999999999
 11
1644.3350999999998
 21
1253.9235000000001
  0
LINE
  8
_0-0_LAYER001
  6
CONTINUOUS
 62
    2
 10
1638.1795999999999
 20
1267.6024
 11
1610.8220000000001
 21
1255.2914000000001
  0
LINE
  8
_0-0_LAYER001
  6
CONTINUOUS
 62
    2
 10
1644.3350999999998
 20
1253.9235000000001
 11
1638.1795999999999
 21
1267.6024
  0
LINE
  8
_0-0_LAYER001
  6
CONTINUOUS
 62
    2
 10
1610.8220000000001
 20
1255.2914000000001
 11
1616.9775
 21
1241.6125999999999
  0
LINE
  8
_0-0_LAYER001
  6
CONTINUOUS
 62
    2
 10
1638.1795999999999
 20
1267.6024
 11
1616.9775
 21
1241.6125999999999
  0
LINE
  8
_0-0_LAYER001
  6
CONTINUOUS
 62
    2
 10
1411.2099000000001
 20
1149.0171
 11
1438.5675999999999
 21
1161.328
  0
LINE
  8
_0-0_LAYER001
  6
CONTINUOUS
 62
    2
 10
1432.4121
 20
1175.0069000000001
 11
1405.0545
 21
1162.6958999999999
  0
LINE
  8
_0-0_LAYER001
  6
CONTINUOUS
 62
    2
 10
1438.5675999999999
 20
1161.328
 11
1432.4121
 21
1175.0069000000001
  0
LINE
  8
_0-0_LAYER001
  6
CONTINUOUS
 62
    2
 10
1405.0545
 20
1162.6958999999999
 11
1411.2099000000001
 21
1149.0171
  0
LINE
  8
_0-0_LAYER001
  6
CONTINUOUS
 62
    2
 10
1432.4121
 20
1175.0069000000001
 11
1411.2099000000001
 21
1149.0171
  0
LINE
  8
_0-0_LAYER001
  6
CONTINUOUS
 62
    2
 10
1205.4423999999999
 20
1056.4215999999999
 11
1232.7994000000001
 21
1068.7339999999999
  0
LINE
  8
_0-0_LAYER001
  6
CONTINUOUS
 62
    2
 10
1226.6432
 20
1082.4124999999999
 11
1199.2862
 21
1070.1001000000001
  0
LINE
  8
_0-0_LAYER001
  6
CONTINUOUS
 62
    2
 10
1232.7994000000001
 20
1068.7339999999999
 11
1226.6432
 21
1082.4124999999999
  0
LINE
  8
_0-0_LAYER001
  6
CONTINUOUS
 62
    2
 10
1199.2862
 20
1070.1001000000001
 11
1205.4423999999999
 21
1056.4215999999999
  0
LINE
  8
_0-0_LAYER001
  6
CONTINUOUS
 62
    2
 10
1226.6432
 20
1082.4124999999999
 11
1205.4423999999999
 21
1056.4215999999999
  0
LINE
  8
_0-0_LAYER001
  6
CONTINUOUS
 62
    4
 10
2050.8294999999998
 20
1454.1098999999999
 11
2054.9220999999998
 21
1442.8294000000001
  0
LINE
  8
_0-0_LAYER001
  6
CONTINUOUS
 62
    4
 10
1785.5792999999999
 20
1375.9606000000003
 11
2084.6235999999999
 21
1484.4547
  0
LINE
  8
_0-0_LAYER001
  6
CONTINUOUS
 62
    4
 10
1768.9254999999998
 20
1421.8635999999997
 11
1971.0351999999998
 21
1495.1895999999999
  0
LINE
  8
_0-0_LAYER001
  6
CONTINUOUS
 62
    4
 10
1968.6478000000002
 20
1501.7698999999998
 11
1987.6889000000001
 21
1449.2865999999999
  0
ARC
  8
_0-0_LAYER001
  6
CONTINUOUS
 62
    4
 10
1978.0482000000002
 20
1505.1803999999997
 40
10
 50
109.94091000000002
 51
199.94091
  0
LINE
  8
_0-0_LAYER001
  6
CONTINUOUS
 62
    4
 10
991.68380000000002
 20
997.51179999999999
 11
1227.9806000000001
 21
1083.241
  0
LINE
  8
_0-0_LAYER001
  6
CONTINUOUS
 62
    4
 10
1240.5337
 20
1075.0299
 11
1232.0733
 21
1071.9604999999999
  0
LINE
  8
_0-0_LAYER001
  6
CONTINUOUS
 62
    4
 10
1230.6432
 20
1102.2911999999999
 11
1240.5337
 21
1075.0299
  0
LINE
  8
_0-0_LAYER001
  6
CONTINUOUS
 62
    4
 10
1227.9806000000001
 20
1083.241
 11
1232.0733
 21
1071.9604999999999
  0
ARC
  8
_0-0_LAYER001
  6
CONTINUOUS
 62
    4
 10
1377.5654
 20
1181.1257000000001
 40
10
 50
109.94091000000002
 51
199.94091
  0
ARC
  8
_0-0_LAYER001
  6
CONTINUOUS
 62
    4
 10
1583.2775999999999
 20
1273.8429000000001
 40
10
 50
109.94091000000002
 51
199.94091
  0
ARC
  8
_0-0_LAYER001
  6
CONTINUOUS
 62
    4
 10
1788.9897999999998
 20
1366.5601999999999
 40
10
 50
109.94091000000002
 51
199.94091
  0
ARC
  8
_0-0_LAYER001
  6
CONTINUOUS
 62
    4
 10
1994.7020000000002
 20
1459.2773999999999
 40
10
 50
109.94091000000002
 51
199.94091
  0
ARC
  8
_0-0_LAYER001
  6
CONTINUOUS
 62
    4
 10
1171.8531
 20
1088.4085
 40
10
 50
109.94091000000002
 51
199.94091
  0
ARC
  8
_0-0_LAYER001
  6
CONTINUOUS
 62
    4
 10
928.12840000000006
 20
1155.4962
 40
104.21281
 50
268.69240000000002
 51
288.42793999999998
  0
LINE
  8
_0-0_LAYER001
  6
CONTINUOUS
 62
    4
 10
979.07379999999989
 20
973.97450000000003
 11
984.3565000000001
 21
952.30230000000006
  0
ARC
  8
_0-0_LAYER001
  6
CONTINUOUS
 62
    4
 10
998.50489999999991
 20
978.71100000000001
 40
20
 50
109.94091000000002
 51
193.69899000000001
  0
LINE
  8
_0-0_LAYER001
  6
CONTINUOUS
 62
    4
 10
1149.2094999999999
 20
1121.5005000000001
 11
1164.8399999999999
 21
1078.4177
  0
ARC
  8
_0-0_LAYER001
  6
CONTINUOUS
 62
    4
 10
1168.0102999999999
 20
1128.3216
 40
20
 50
109.94091000000002
 51
199.94091
  0
LINE
  8
_0-0_LAYER001
  6
CONTINUOUS
 62
    4
 10
1991.2914999999998
 20
1468.6777999999999
 11
2077.1300000000001
 21
1499.8203000000001
  0
LINE
  8
_0-0_LAYER001
  6
CONTINUOUS
 62
    4
 10
2054.9220999999998
 20
1442.8294000000001
 11
2063.3825000000002
 21
1445.8987999999999
  0
LINE
  8
_0-0_LAYER001
  6
CONTINUOUS
 62
    4
 10
2053.4920000000002
 20
1473.1601000000001
 11
2063.3825000000002
 21
1445.8987999999999
  0
LINE
  8
_0-0_LAYER001
  6
CONTINUOUS
 62
    4
 10
1968.6478000000002
 20
1501.7698999999998
 11
1981.8910000000001
 21
1465.2673
  0
LINE
  8
_0-0_LAYER001
  6
CONTINUOUS
 62
    4
 10
1585.6649000000002
 20
1267.2626
 11
1845.1172999999999
 21
1361.3927000000001
  0
LINE
  8
_0-0_LAYER001
  6
CONTINUOUS
 62
    4
 10
1845.1172999999999
 20
1361.3927000000001
 11
1849.2098999999998
 21
1350.1121000000001
  0
LINE
  8
_0-0_LAYER001
  6
CONTINUOUS
 62
    4
 10
1849.2098999999998
 20
1350.1121000000001
 11
1857.6703000000002
 21
1353.1815999999999
  0
LINE
  8
_0-0_LAYER001
  6
CONTINUOUS
 62
    4
 10
1651.9580999999998
 20
1260.4644000000001
 11
1643.4976999999999
 21
1257.3949
  0
LINE
  8
_0-0_LAYER001
  6
CONTINUOUS
 62
    4
 10
1433.6929
 20
1175.9582
 11
1437.7855
 21
1164.6777
  0
LINE
  8
_0-0_LAYER001
  6
CONTINUOUS
 62
    4
 10
1446.2458999999999
 20
1167.7472
 11
1437.7855
 21
1164.6777
  0
LINE
  8
_0-0_LAYER001
  6
CONTINUOUS
 62
    4
 10
961.9538
 20
1056.7452000000001
 11
1148.1894
 21
1124.3121000000001
  0
LINE
  8
_0-0_LAYER001
  6
CONTINUOUS
 62
    4
 10
1161.1893
 20
1147.1224999999999
 11
1353.8985
 21
1217.0379
  0
ARC
  8
_0-0_LAYER001
  6
CONTINUOUS
 62
    4
 10
1360.9115999999999
 20
1227.0287000000001
 40
10
 50
109.94091000000002
 51
199.94091
  0
LINE
  8
_0-0_LAYER001
  6
CONTINUOUS
 62
    4
 10
1351.5111999999999
 20
1223.6181999999999
 11
1370.5522999999998
 21
1171.1349
  0
LINE
  8
_0-0_LAYER001
  6
CONTINUOUS
 62
    4
 10
1360.7194999999999
 20
1198.2370000000001
 11
1370.5522999999998
 21
1171.1349
  0
LINE
  8
_0-0_LAYER001
  6
CONTINUOUS
 62
    4
 10
1436.3553999999999
 20
1195.0083999999999
 11
1446.2458999999999
 21
1167.7472
  0
LINE
  8
_0-0_LAYER001
  6
CONTINUOUS
 62
    4
 10
1168.4426000000001
 20
1097.8089
 11
1639.4050999999999
 21
1268.6755000000001
  0
LINE
  8
_0-0_LAYER001
  6
CONTINUOUS
 62
    4
 10
1639.4050999999999
 20
1268.6755000000001
 11
1643.4976999999999
 21
1257.3949
  0
LINE
  8
_0-0_LAYER001
  6
CONTINUOUS
 62
    4
 10
1357.5011
 20
1236.4292
 11
1559.6107000000002
 21
1309.7551000000001
  0
ARC
  8
_0-0_LAYER001
  6
CONTINUOUS
 62
    4
 10
1566.6237999999998
 20
1319.7460000000001
 40
10
 50
109.94091000000002
 51
199.94091
  0
LINE
  8
_0-0_LAYER001
  6
CONTINUOUS
 62
    4
 10
1557.2233999999999
 20
1316.3353999999999
 11
1576.2645000000002
 21
1263.8521000000001
  0
LINE
  8
_0-0_LAYER001
  6
CONTINUOUS
 62
    4
 10
1557.2233999999999
 20
1316.3353999999999
 11
1576.2645000000002
 21
1263.8521000000001
  0
LINE
  8
_0-0_LAYER001
  6
CONTINUOUS
 62
    4
 10
1374.1548
 20
1190.5262
 11
1642.0675999999999
 21
1287.7257
  0
LINE
  8
_0-0_LAYER001
  6
CONTINUOUS
 62
    4
 10
1642.0675999999999
 20
1287.7257
 11
1651.9580999999998
 21
1260.4644000000001
  0
LINE
  8
_0-0_LAYER001
  6
CONTINUOUS
 62
    4
 10
1563.2132999999999
 20
1329.1464000000001
 11
1765.3229000000001
 21
1402.4722999999999
  0
LINE
  8
_0-0_LAYER001
  6
CONTINUOUS
 62
    4
 10
1768.7334000000001
 20
1393.0718999999999
 11
1781.9767000000002
 21
1356.5693000000001
  0
LINE
  8
_0-0_LAYER001
  6
CONTINUOUS
 62
    4
 10
1847.7797999999998
 20
1380.4429
 11
1857.6703000000002
 21
1353.1815999999999
  0
LINE
  8
_0-0_LAYER001
  6
CONTINUOUS
 62
    4
 10
1579.8670999999999
 20
1283.2434000000001
 11
2050.8294999999998
 21
1454.1098999999999
  0
LINE
  8
_0-0_LAYER001
  6
CONTINUOUS
 62
    4
 10
1974.6377000000002
 20
1514.5808
 11
2055.6055999999999
 21
1543.9562000000001
  0
LINE
  8
_0-0_LAYER001
  6
CONTINUOUS
 62
    4
 10
1762.9355999999998
 20
1409.0527
 11
1781.9767000000002
 21
1356.5693000000001
  0
ARC
  8
_0-0_LAYER001
  6
CONTINUOUS
 62
    4
 10
1772.3359999999998
 20
1412.4631999999999
 40
10
 50
109.94091000000002
 51
199.94091
  0
LINE
  8
_0-0_LAYER001
  6
CONTINUOUS
 62
    4
 10
925.92849999999999
 20
1051.1387999999999
 11
954.84249999999997
 21
958.43489999999997
  0
ARC
  8
_0-0_LAYER001
  6
CONTINUOUS
 62
    4
 10
1106.3904
 20
1057.3107
 40
181.02933999999999
 50
181.81043
 51
212.85045999999997
  0
LINE
  8
_0-0_LAYER001
  6
CONTINUOUS
 62
    4
 10
953.47240000000011
 20
1001.7954
 11
953.39720000000011
 21
1001.1476
  0
LINE
  8
_0-0_LAYER001
  6
CONTINUOUS
 62
    4
 10
1433.6929
 20
1175.9582
 11
953.26649999999995
 21
1001.6582000000001
  0
LINE
  8
_0-0_LAYER001
  6
CONTINUOUS
 62
    4
 10
954.84249999999997
 20
958.43489999999997
 11
964.8759
 21
962.07500000000005
  0
LINE
  8
_0-0_LAYER001
  6
CONTINUOUS
 62
    4
 10
953.26649999999995
 20
1001.6582000000001
 11
969.33999999999992
 21
946.85429999999997
  0
LINE
  8
_0-0_LAYER001
  6
CONTINUOUS
 62
    4
 10
984.3565000000001
 20
952.30230000000006
 11
969.33999999999992
 21
946.85429999999997
  0
LINE
  8
_0-0_LAYER001
  6
CONTINUOUS
 62
    2
 10
1552.1315
 20
585.55899999999997
 11
1577.9630999999999
 21
594.99189999999999
  0
CIRCLE
  8
_0-0_LAYER001
  6
CONTINUOUS
 62
    2
 10
1554.4798999999998
 20
586.41660000000002
 40
1.6999999999999997
  0
LINE
  8
_0-0_LAYER001
  6
CONTINUOUS
 62
    2
 10
1554.4798999999998
 20
586.41660000000002
 11
1547.6196
 21
605.20319999999992
  0
CIRCLE
  8
_0-0_LAYER001
  6
CONTINUOUS
 62
    2
 10
1547.6196
 20
605.20319999999992
 40
1.6999999999999997
  0
LINE
  8
_0-0_LAYER001
  6
CONTINUOUS
 62
    2
 10
1545.2712999999999
 20
604.3456000000001
 11
1571.1028999999999
 21
613.77849999999989
  0
CIRCLE
  8
_0-0_LAYER001
  6
CONTINUOUS
 62
    2
 10
1547.6196
 20
605.20319999999992
 40
1.6999999999999997
  0
LINE
  8
_0-0_LAYER001
  6
CONTINUOUS
 62
    2
 10
1547.6196
 20
605.20319999999992
 11
1536.9861999999998
 21
634.32240000000002
  0
CIRCLE
  8
_0-0_LAYER001
  6
CONTINUOUS
 62
    2
 10
1536.9861999999998
 20
634.32240000000002
 40
1.6999999999999997
  0
LINE
  8
_0-0_LAYER001
  6
CONTINUOUS
 62
    2
 10
1534.6379000000002
 20
633.46489999999994
 11
1560.4695000000002
 21
642.89769999999999
  0
LINE
  8
_0-0_LAYER001
  6
CONTINUOUS
 62
    2
 10
1515.2017000000001
 20
572.07349999999997
 11
1541.0333000000001
 21
581.50630000000001
  0
CIRCLE
  8
_0-0_LAYER001
  6
CONTINUOUS
 62
    2
 10
1517.5500000000002
 20
572.93100000000004
 40
1.6999999999999997
  0
LINE
  8
_0-0_LAYER001
  6
CONTINUOUS
 62
    2
 10
1517.5500000000002
 20
572.93100000000004
 11
1512.4049
 21
587.02099999999996
  0
CIRCLE
  8
_0-0_LAYER001
  6
CONTINUOUS
 62
    2
 10
1512.4049
 20
587.02099999999996
 40
1.6999999999999997
  0
LINE
  8
_0-0_LAYER001
  6
CONTINUOUS
 62
    2
 10
1510.0565000000001
 20
586.1635
 11
1535.8881000000001
 21
595.59629999999993
  0
CIRCLE
  8
_0-0_LAYER001
  6
CONTINUOUS
 62
    2
 10
1512.4049
 20
587.02099999999996
 40
1.6999999999999997
  0
LINE
  8
_0-0_LAYER001
  6
CONTINUOUS
 62
    2
 10
1512.4049
 20
587.02099999999996
 11
1500.0563999999999
 21
620.83690000000001
  0
CIRCLE
  8
_0-0_LAYER001
  6
CONTINUOUS
 62
    2
 10
1500.0563999999999
 20
620.83690000000001
 40
1.6999999999999997
  0
LINE
  8
_0-0_LAYER001
  6
CONTINUOUS
 62
    2
 10
1497.7080999999998
 20
619.97939999999994
 11
1523.5396999999998
 21
629.41219999999998
  0
LINE
  8
_0-0_LAYER001
  6
CONTINUOUS
 62
    2
 10
1588.1381999999999
 20
598.67560000000003
 11
1608.2689999999998
 21
543.54803000000004
  0
LINE
  8
_0-0_LAYER001
  6
CONTINUOUS
 62
    2
 10
1608.7053000000001
 20
542.35325999999998
 11
1923.3361
 21
657.24589999999989
  0
LINE
  8
_0-0_LAYER001
  6
CONTINUOUS
 62
    2
 10
1588.1244999999999
 20
598.71309999999994
 11
1902.7554
 21
713.60580000000004
  0
LINE
  8
_0-0_LAYER001
  6
CONTINUOUS
 62
    2
 10
1681.6091000000001
 20
648.81930000000011
 11
1897.6102000000001
 21
727.69569999999999
  0
LINE
  8
_0-0_LAYER001
  6
CONTINUOUS
 62
    2
 10
1679.8939999999998
 20
653.51600000000008
 11
1686.7543000000001
 21
634.72939999999994
  0
LINE
  8
_0-0_LAYER001
  6
CONTINUOUS
 62
    2
 10
1593.1747999999998
 20
654.85120000000006
 11
1602.1298000000002
 21
658.12130000000002
  0
LINE
  8
_0-0_LAYER001
  6
CONTINUOUS
 62
    2
 10
1602.1298000000002
 20
658.12130000000002
 11
1660.3483000000001
 21
646.37850000000003
  0
LINE
  8
_0-0_LAYER001
  6
CONTINUOUS
 62
    2
 10
1595.3542000000002
 20
622.64490000000001
 11
1602.2145
 21
603.8583000000001
  0
LINE
  8
_0-0_LAYER001
  6
CONTINUOUS
 62
    2
 10
1595.3542000000002
 20
622.64490000000001
 11
1679.8939999999998
 21
653.51600000000008
  0
LINE
  8
_0-0_LAYER001
  6
CONTINUOUS
 62
    2
 10
1593.1783
 20
654.8418999999999
 11
1603.8081999999999
 21
625.73199999999997
  0
LINE
  8
_0-0_LAYER001
  6
CONTINUOUS
 62
    2
 10
1832.5529999999999
 20
704.12049999999999
 11
1860.7330000000002
 21
714.41080000000011
  0
LINE
  8
_0-0_LAYER001
  6
CONTINUOUS
 62
    2
 10
1860.7330000000002
 20
714.41080000000011
 11
1855.5877999999998
 21
728.50080000000003
  0
LINE
  8
_0-0_LAYER001
  6
CONTINUOUS
 62
    2
 10
1855.5877999999998
 20
728.50080000000003
 11
1827.4079000000002
 21
718.21039999999994
  0
LINE
  8
_0-0_LAYER001
  6
CONTINUOUS
 62
    2
 10
1827.4079000000002
 20
718.21039999999994
 11
1832.5529999999999
 21
704.12049999999999
  0
LINE
  8
_0-1_LAYER003
  6
CONTINUOUS
 62
    3
 10
1095.5582999999999
 20
985.04189999999994
 11
1120.1793
 21
930.32690000000002
  0
LINE
  8
_0-1_LAYER003
  6
CONTINUOUS
 62
    3
 10
1110.6043
 20
893.11989999999992
 11
1132.4902999999999
 21
902.96890000000008
  0
LINE
  8
_0-1_LAYER003
  6
CONTINUOUS
 62
    3
 10
1120.1793
 20
930.32690000000002
 11
1132.4902999999999
 21
902.96890000000008
  0
LINE
  8
_0-1_LAYER003
  6
CONTINUOUS
 62
    3
 10
1073.6713
 20
975.19290000000001
 11
1110.6043
 21
893.11989999999992
  0
LINE
  8
_0-1_LAYER003
  6
CONTINUOUS
 62
    2
 10
1120.1793
 20
930.32690000000002
 11
2132.7498999999998
 21
1385.9827999999998
  0
LINE
  8
_0-1_LAYER003
  6
CONTINUOUS
 62
    2
 10
1128.3873000000001
 20
999.8148000000001
 11
2106.4369999999999
 21
1439.9376999999999
  0
LINE
  8
_0-1_LAYER003
  6
CONTINUOUS
 62
    2
 10
1122.2312999999999
 20
1013.4938999999999
 11
2099.8586
 21
1453.4266
  0
LINE
  8
_0-1_LAYER003
  6
CONTINUOUS
 62
    3
 10
1125.9163000000001
 20
998.7029
 11
1127.9653000000001
 21
1000.7519
  0
LINE
  8
_0-1_LAYER003
  6
CONTINUOUS
 62
    3
 10
1109.9822999999999
 20
894.50389999999993
 11
1111.1293000000001
 21
893.3569
  0
LINE
  8
_0-1_LAYER003
  6
CONTINUOUS
 62
    2
 10
1100.7253000000001
 20
915.07390000000009
 11
1118.9322999999999
 21
896.86789999999996
  0
LINE
  8
_0-1_LAYER003
  6
CONTINUOUS
 62
    2
 10
1091.4693
 20
935.64390000000003
 11
1126.7343000000001
 21
900.37889999999993
  0
LINE
  8
_0-1_LAYER003
  6
CONTINUOUS
 62
    2
 10
1082.2122999999999
 20
956.21489999999994
 11
1130.0633
 21
908.36390000000006
  0
LINE
  8
_0-1_LAYER003
  6
CONTINUOUS
 62
    2
 10
1074.2753
 20
975.46489999999994
 11
1120.8063
 21
928.93389999999999
  0
LINE
  8
_0-1_LAYER003
  6
CONTINUOUS
 62
    2
 10
1082.0782999999999
 20
978.97589999999991
 11
1111.5503000000001
 21
949.50389999999993
  0
LINE
  8
_0-1_LAYER003
  6
CONTINUOUS
 62
    2
 10
1089.8803
 20
982.48690000000011
 11
1102.2933
 21
970.07490000000007
  0
LINE
  8
_0-0_LAYER001
  6
CONTINUOUS
 62
    3
 10
1043.9172000000001
 20
1015.8726999999999
 11
1034.798
 21
1011.7691
  0
LINE
  8
_0-0_LAYER001
  6
CONTINUOUS
 62
    2
 10
1045.8416
 20
985.8264999999999
 11
1047.7828
 21
978.58210000000008
  0
LINE
  8
_0-0_LAYER001
  6
CONTINUOUS
 62
    2
 10
1047.7828
 20
978.58210000000008
 11
1042.4794999999999
 21
983.88539999999989
  0
LINE
  8
_0-0_LAYER001
  6
CONTINUOUS
 62
    2
 10
1047.7828
 20
978.58210000000008
 11
984.25
 21
1088.6242
  0
LINE
  8
_0-0_LAYER001
  6
CONTINUOUS
 62
    2
 10
984.25
 20
1088.6242
 11
837.25
 21
1088.6242
  0
LINE
  8
_0-0_LAYER001
  6
CONTINUOUS
 62
    2
 10
1049.7148999999999
 20
1017.9175
 11
1051.6560999999999
 21
1010.6731
  0
LINE
  8
_0-0_LAYER001
  6
CONTINUOUS
 62
    2
 10
1051.6560999999999
 20
1010.6731
 11
1046.3527999999999
 21
1015.9764
  0
LINE
  8
_0-0_LAYER001
  6
CONTINUOUS
 62
    2
 10
1051.6560999999999
 20
1010.6731
 11
983.11770000000001
 21
1129.385
  0
LINE
  8
_0-0_LAYER001
  6
CONTINUOUS
 62
    2
 10
983.11770000000001
 20
1129.385
 11
843.61770000000001
 21
1129.385
  0
LINE
  8
_0-0_LAYER001
  6
CONTINUOUS
 62
    3
 10
1101.5399
 20
1009.6651999999999
 11
1043.9172000000001
 21
1015.8726999999999
  0
LINE
  8
_0-0_LAYER001
  6
CONTINUOUS
 62
    3
 10
1037.7055
 20
980.93959999999993
 11
1045.9128000000001
 21
962.70119999999997
  0
LINE
  8
_0-0_LAYER001
  6
CONTINUOUS
 62
    3
 10
1119.7782999999999
 20
1017.8725999999999
 11
1127.9857
 21
999.63400000000001
  0
LINE
  8
_0-0_LAYER001
  6
CONTINUOUS
 62
    3
 10
1119.7782999999999
 20
1017.8725999999999
 11
1037.7055
 21
980.93959999999993
  0
LINE
  8
_0-0_LAYER001
  6
CONTINUOUS
 62
    2
 10
1126.232
 20
998.84490000000005
 11
1128.0075999999999
 21
1000.6205
  0
LINE
  8
_0-0_LAYER001
  6
CONTINUOUS
 62
    2
 10
1100.519
 20
987.27399999999989
 11
1123.4771000000001
 21
1010.2320999999999
  0
LINE
  8
_0-0_LAYER001
  6
CONTINUOUS
 62
    2
 10
1074.806
 20
975.70309999999995
 11
1114.682
 21
1015.5791999999999
  0
LINE
  8
_0-0_LAYER001
  6
CONTINUOUS
 62
    2
 10
1049.0930000000001
 20
964.13229999999999
 11
1088.9690000000001
 21
1004.0083
  0
LINE
  8
_0-0_LAYER001
  6
CONTINUOUS
 62
    2
 10
1042.2734
 20
971.45489999999995
 11
1063.2559000000001
 21
992.43740000000003
  0
LINE
  8
_0-0_LAYER001
  6
CONTINUOUS
 62
    3
 10
1046.8246999999999
 20
985.04330000000004
 11
1034.798
 21
1011.7691
  0
LINE
  8
_0-0_LAYER001
  6
CONTINUOUS
 62
    2
 10
1040.3515
 20
999.42800000000011
 11
1052.2809
 21
987.4985999999999
  0
LINE
  8
_0-0_LAYER001
  6
CONTINUOUS
 62
    2
 10
1039.8701000000001
 20
1014.0515
 11
1062.0341000000001
 21
991.88750000000005
  0
LINE
  8
_0-0_LAYER001
  6
CONTINUOUS
 62
    2
 10
1053.1900000000001
 20
1014.8738000000001
 11
1071.7873
 21
996.27649999999994
  0
LINE
  8
_0-0_LAYER001
  6
CONTINUOUS
 62
    2
 10
1069.0395000000001
 20
1013.1664000000001
 11
1081.5405000000001
 21
1000.6654000000001
  0
LINE
  8
_0-0_LAYER001
  6
CONTINUOUS
 62
    2
 10
1084.8891000000001
 20
1011.4590000000001
 11
1091.2936999999999
 21
1005.0544
  0
LINE
  8
_0-0_LAYER001
  6
CONTINUOUS
 62
    2
 10
874.77929999999992
 20
885.69129999999996
 11
922.65519999999992
 21
907.23540000000003
  0
CIRCLE
  8
_0-0_LAYER001
  6
CONTINUOUS
 62
    2
 10
877.05909999999994
 20
886.71720000000005
 40
1.6999999999999997
  0
LINE
  8
_0-0_LAYER001
  6
CONTINUOUS
 62
    2
 10
877.05909999999994
 20
886.71720000000005
 11
868.85179999999991
 21
904.9556
  0
CIRCLE
  8
_0-0_LAYER001
  6
CONTINUOUS
 62
    2
 10
868.85179999999991
 20
904.9556
 40
1.6999999999999997
  0
LINE
  8
_0-0_LAYER001
  6
CONTINUOUS
 62
    2
 10
866.57199999999989
 20
903.92969999999991
 11
914.44789999999989
 21
925.47379999999998
  0
CIRCLE
  8
_0-0_LAYER001
  6
CONTINUOUS
 62
    2
 10
868.85179999999991
 20
904.9556
 40
1.6999999999999997
  0
LINE
  8
_0-0_LAYER001
  6
CONTINUOUS
 62
    2
 10
868.85179999999991
 20
904.9556
 11
856.13030000000003
 21
933.22569999999996
  0
CIRCLE
  8
_0-0_LAYER001
  6
CONTINUOUS
 62
    2
 10
856.13030000000003
 20
933.22569999999996
 40
1.6999999999999997
  0
LINE
  8
_0-0_LAYER001
  6
CONTINUOUS
 62
    2
 10
853.85050000000001
 20
932.1998000000001
 11
901.72640000000001
 21
953.74389999999994
  0
LINE
  8
_0-0_LAYER001
  6
DASHED3
 62
    2
 10
1119.8848
 20
1019.0170000000001
 11
1044.2138
 21
984.96489999999994
  0
LINE
  8
_0-0_LAYER001
  6
DASHED3
 62
    2
 10
1123.0940000000001
 20
1016.0753
 11
2098.9814999999999
 21
1455.2251000000001
  0
LINE
  8
_0-0_LAYER001
  6
DASHED3
 62
    2
 10
1119.8848
 20
1019.0170000000001
 11
1123.0940000000001
 21
1016.0753
  0
LINE
  8
_0-0_LAYER001
  6
CONTINUOUS
 62
    2
 10
1115.758
 20
894.69710000000009
 11
1113.8169
 21
901.94149999999991
  0
LINE
  8
_0-0_LAYER001
  6
CONTINUOUS
 62
    2
 10
1113.8169
 20
901.94149999999991
 11
1119.1202000000001
 21
896.6382000000001
  0
LINE
  8
_0-0_LAYER001
  6
CONTINUOUS
 62
    2
 10
1113.8169
 20
901.94149999999991
 11
1186.7638999999999
 21
775.59349999999995
  0
LINE
  8
_0-0_LAYER001
  6
CONTINUOUS
 62
    2
 10
1186.7638999999999
 20
775.59349999999995
 11
1262.6304
 21
775.59349999999995
  0
LINE
  8
_0-0_LAYER001
  6
CONTINUOUS
 62
    2
 10
1768.3436999999999
 20
993.08220000000006
 11
2009.9524999999999
 21
993.08220000000006
  0
LINE
  8
_0-0_LAYER001
  6
CONTINUOUS
 62
    2
 10
1785.7192
 20
962.98690000000011
 11
1957.3906000000002
 21
962.98690000000011
  0
LINE
  8
_0-0_LAYER001
  6
CONTINUOUS
 62
    2
 10
1623.6635999999999
 20
1239.7931000000001
 11
1621.7224999999999
 21
1247.0374999999999
  0
LINE
  8
_0-0_LAYER001
  6
CONTINUOUS
 62
    2
 10
1621.7224999999999
 20
1247.0374999999999
 11
1627.0257999999999
 21
1241.7342000000001
  0
LINE
  8
_0-0_LAYER001
  6
CONTINUOUS
 62
    2
 10
1621.7224999999999
 20
1247.0374999999999
 11
1802.9627
 21
933.12030000000004
  0
LINE
  8
_0-0_LAYER001
  6
CONTINUOUS
 62
    2
 10
1751.0342000000001
 20
1023.0631000000001
 11
1938.5124000000001
 21
1023.0631000000001
  0
LINE
  8
_0-0_LAYER001
  6
CONTINUOUS
 62
    2
 10
1802.9627
 20
933.12030000000004
 11
1867.0675999999999
 21
933.12030000000004
  0
LINE
  8
_0-1_LAYER003
  6
CONTINUOUS
 62
    7
 10
970.70460000000003
 20
1209.0834
 11
1035.2046
 21
1209.0834
  0
LINE
  8
_0-1_LAYER003
  6
CONTINUOUS
 62
    7
 10
843.61770000000001
 20
1129.385
 11
983.11770000000001
 21
1129.385
  0
LINE
  8
_0-1_LAYER003
  6
CONTINUOUS
 62
    7
 10
837.25
 20
1088.6242
 11
984.25
 21
1088.6242
  0
LINE
  8
_0-1_LAYER003
  6
CONTINUOUS
 62
    7
 10
1186.7638999999999
 20
775.59349999999995
 11
1252.7638999999999
 21
775.59349999999995
  0
LINE
  8
_0-1_LAYER003
  6
CONTINUOUS
 62
    7
 10
1751.0342000000001
 20
1023.0631000000001
 11
1938.5124000000001
 21
1023.0631000000001
  0
LINE
  8
_0-1_LAYER003
  6
CONTINUOUS
 62
    7
 10
1768.3436999999999
 20
993.08220000000006
 11
2009.9524999999999
 21
993.08220000000006
  0
LINE
  8
_0-1_LAYER003
  6
CONTINUOUS
 62
    7
 10
1785.7192
 20
962.98690000000011
 11
1957.3906000000002
 21
962.98690000000011
  0
LINE
  8
_0-1_LAYER003
  6
CONTINUOUS
 62
    7
 10
1802.9627
 20
933.12030000000004
 11
1867.0675999999999
 21
933.12030000000004
  0
LINE
  8
_0-1_LAYER003
  6
CONTINUOUS
 62
    7
 10
1633.0137
 20
1469.2554999999998
 11
1673.5137
 21
1469.2554999999998
  0
LINE
  8
_0-1_LAYER003
  6
CONTINUOUS
 62
    7
 10
852.4360999999999
 20
1277.2367999999999
 11
870.44430000000011
 21
1227.922
  0
LINE
  8
_0-1_LAYER003
  6
CONTINUOUS
 62
    7
 10
853.29369999999994
 20
1274.8885
 11
1064.6431
 21
1352.0663
  0
LINE
  8
_0-1_LAYER003
  6
CONTINUOUS
 62
    7
 10
1081.7936999999999
 20
1305.0997000000002
 11
1054.8196980286816
 21
1378.9674694658752
  0
LINE
  8
_0-1_LAYER003
  6
CONTINUOUS
 62
    7
 10
1055.4028202056197
 20
1377.3706073784097
 11
1266.7523000000001
 21
1454.5482999999999
  0
LINE
  8
_0-1_LAYER003
  6
CONTINUOUS
 62
    7
 10
1283.9029
 20
1407.5817999999999
 11
1257.5613966842154
 21
1479.7174689749384
  0
LINE
  8
_0-1_LAYER003
  6
CONTINUOUS
 62
    7
 10
1258.1445000000001
 20
1478.1206
 11
1469.4940000000001
 21
1555.2983999999997
  0
LINE
  8
_0-1_LAYER003
  6
CONTINUOUS
 62
    7
 10
1468.6363999999999
 20
1557.6467
 11
1486.6446000000001
 21
1508.3317999999999
  0
LINE
  8
_0-1_LAYER003
  6
CONTINUOUS
 62
    7
 10
1673.5137
 20
1469.2554999999998
 11
1735.1469999999999
 21
1362.5037
  0
LINE
  8
_0-1_LAYER003
  6
CONTINUOUS
 62
    7
 10
1735.1469999999999
 20
1362.5037
 11
1733.2058000000002
 21
1369.7480999999998
  0
LINE
  8
_0-1_LAYER003
  6
CONTINUOUS
 62
    7
 10
1735.1469999999999
 20
1362.5037
 11
1729.8436999999999
 21
1367.807
  0
LINE
  8
_0-1_LAYER003
  6
CONTINUOUS
 62
    7
 10
2098.9814999999999
 20
1455.2251000000001
 11
1123.0940000000001
 21
1016.0753
  0
LINE
  8
_0-1_LAYER003
  6
CONTINUOUS
 62
    7
 10
1123.0940000000001
 20
1016.0753
 11
1119.8848
 21
1019.0170000000001
  0
LINE
  8
_0-1_LAYER003
  6
CONTINUOUS
 62
    7
 10
1119.8848
 20
1019.0170000000001
 11
1044.2138
 21
984.96489999999994
  0
LINE
  8
_0-1_LAYER003
  6
CONTINUOUS
 62
    7
 10
1045.8416
 20
985.8264999999999
 11
1047.7828
 21
978.58210000000008
  0
LINE
  8
_0-1_LAYER003
  6
CONTINUOUS
 62
    7
 10
1047.7828
 20
978.58210000000008
 11
1043.0294892630443
 21
983.33541073695551
  0
LINE
  8
_0-1_LAYER003
  6
CONTINUOUS
 62
    7
 10
1047.7828
 20
978.58210000000008
 11
984.25
 21
1088.6242
  0
LINE
  8
_0-1_LAYER003
  6
CONTINUOUS
 62
    7
 10
1046.7630767467597
 20
1015.5661232532402
 11
1051.6560999999999
 21
1010.6731
  0
LINE
  8
_0-1_LAYER003
  6
CONTINUOUS
 62
    7
 10
1051.6560999999999
 20
1010.6731
 11
1049.7148999999999
 21
1017.9175
  0
LINE
  8
_0-1_LAYER003
  6
CONTINUOUS
 62
    7
 10
1051.6560999999999
 20
1010.6731
 11
983.11770000000001
 21
1129.385
  0
LINE
  8
_0-1_LAYER003
  6
CONTINUOUS
 62
    7
 10
1122.2312999999999
 20
1013.4938999999999
 11
2099.8586
 21
1453.4266
  0
LINE
  8
_0-1_LAYER003
  6
CONTINUOUS
 62
    7
 10
2106.4369999999999
 20
1439.9376999999999
 11
1125.9163000000001
 21
998.7029
  0
LINE
  8
_0-1_LAYER003
  6
CONTINUOUS
 62
    7
 10
2028.4225000000001
 20
1426.7631000000001
 11
2022.2669999999998
 21
1440.4419000000003
  0
LINE
  8
_0-1_LAYER003
  6
CONTINUOUS
 62
    7
 10
2022.2669999999998
 20
1440.4419000000003
 11
2049.6246999999998
 21
1452.7528000000002
  0
LINE
  8
_0-1_LAYER003
  6
CONTINUOUS
 62
    7
 10
2049.6246999999998
 20
1452.7528000000002
 11
2055.7802000000001
 21
1439.0740000000001
  0
LINE
  8
_0-1_LAYER003
  6
CONTINUOUS
 62
    7
 10
2055.7802000000001
 20
1439.0740000000001
 11
2028.4225000000001
 21
1426.7631000000001
  0
LINE
  8
_0-1_LAYER003
  6
CONTINUOUS
 62
    7
 10
2028.4225000000001
 20
1426.7631000000001
 11
2049.6246999999998
 21
1452.7528000000002
  0
LINE
  8
_0-1_LAYER003
  6
CONTINUOUS
 62
    7
 10
1822.7449000000001
 20
1334.2081000000003
 11
1816.5779000000002
 21
1347.8816999999999
  0
LINE
  8
_0-1_LAYER003
  6
CONTINUOUS
 62
    7
 10
1816.5779000000002
 20
1347.8816999999999
 11
1843.9252000000001
 21
1360.2157
  0
LINE
  8
_0-1_LAYER003
  6
CONTINUOUS
 62
    7
 10
1843.9252000000001
 20
1360.2157
 11
1850.0922
 21
1346.5420999999997
  0
LINE
  8
_0-1_LAYER003
  6
CONTINUOUS
 62
    7
 10
1850.0922
 20
1346.5420999999997
 11
1822.7449000000001
 21
1334.2081000000003
  0
LINE
  8
_0-1_LAYER003
  6
CONTINUOUS
 62
    7
 10
1822.7449000000001
 20
1334.2081000000003
 11
1843.9252000000001
 21
1360.2157
  0
LINE
  8
_0-1_LAYER003
  6
CONTINUOUS
 62
    7
 10
1616.9775
 20
1241.6125999999999
 11
1610.8220000000001
 21
1255.2914000000001
  0
LINE
  8
_0-1_LAYER003
  6
CONTINUOUS
 62
    7
 10
1610.8220000000001
 20
1255.2914000000001
 11
1638.1795999999999
 21
1267.6024
  0
LINE
  8
_0-1_LAYER003
  6
CONTINUOUS
 62
    7
 10
1638.1795999999999
 20
1267.6024
 11
1644.3350999999998
 21
1253.9235000000001
  0
LINE
  8
_0-1_LAYER003
  6
CONTINUOUS
 62
    7
 10
1644.3350999999998
 20
1253.9235000000001
 11
1616.9775
 21
1241.6125999999999
  0
LINE
  8
_0-1_LAYER003
  6
CONTINUOUS
 62
    7
 10
1616.9775
 20
1241.6125999999999
 11
1638.1795999999999
 21
1267.6024
  0
LINE
  8
_0-1_LAYER003
  6
CONTINUOUS
 62
    7
 10
1621.7224999999999
 20
1247.0374999999999
 11
1623.6635999999999
 21
1239.7931000000001
  0
LINE
  8
_0-1_LAYER003
  6
CONTINUOUS
 62
    7
 10
1621.7224999999999
 20
1247.0374999999999
 11
1627.0257999999999
 21
1241.7342000000001
  0
LINE
  8
_0-1_LAYER003
  6
CONTINUOUS
 62
    7
 10
1621.7224999999999
 20
1247.0374999999999
 11
1802.9627
 21
933.12030000000004
  0
LINE
  8
_0-1_LAYER003
  6
CONTINUOUS
 62
    7
 10
1694.8694999999998
 20
1150.8324
 11
1726.3445112491515
 21
1080.8880295251934
  0
LINE
  8
_0-1_LAYER003
  6
CONTINUOUS
 62
    7
 10
1725.6468904768349
 20
1082.4382957145706
 11
1115.5715736368895
 21
807.90413313661884
  0
LINE
  8
_0-1_LAYER003
  6
CONTINUOUS
 62
    7
 10
1116.2691944084213
 20
806.35386694898557
 11
1067.5812000000001
 21
914.54899999999998
  0
LINE
  8
_0-1_LAYER003
  6
CONTINUOUS
 62
    7
 10
1088.0994899019975
 20
868.95289545589753
 11
1020.0415664754537
 21
838.32682013666749
  0
LINE
  8
_0-1_LAYER003
  6
CONTINUOUS
 62
    7
 10
1018.4912999999999
 20
837.62920000000008
 11
1020.0415664754537
 21
838.32682013666749
  0
LINE
  8
_0-1_LAYER003
  6
CONTINUOUS
 62
    7
 10
1019.1889104949672
 20
836.07892918581581
 11
997.97299999999996
 21
883.22520000000009
  0
LINE
  8
_0-1_LAYER003
  6
CONTINUOUS
 62
    7
 10
922.65519999999992
 20
907.23540000000003
 11
875.5088300126464
 21
886.01958766760413
  0
LINE
  8
_0-1_LAYER003
  6
CONTINUOUS
 62
    7
 10
877.05909999999994
 20
886.71720000000005
 11
856.13030000000003
 21
933.22569999999996
  0
LINE
  8
_0-1_LAYER003
  6
CONTINUOUS
 62
    7
 10
854.58003001264638
 20
932.52808766760438
 11
901.72640000000001
 21
953.74389999999994
  0
LINE
  8
_0-1_LAYER003
  6
CONTINUOUS
 62
    7
 10
866.57199999999989
 20
903.92969999999991
 11
914.44789999999989
 21
925.47379999999998
  0
LINE
  8
_0-1_LAYER003
  6
CONTINUOUS
 62
    7
 10
1113.8169
 20
901.94149999999991
 11
1115.758
 21
894.69710000000009
  0
LINE
  8
_0-1_LAYER003
  6
CONTINUOUS
 62
    7
 10
1113.8169
 20
901.94149999999991
 11
1119.1202000000001
 21
896.6382000000001
  0
LINE
  8
_0-1_LAYER003
  6
CONTINUOUS
 62
    7
 10
1113.8169
 20
901.94149999999991
 11
1186.7638999999999
 21
775.59349999999995
  0
LINE
  8
_0-1_LAYER003
  6
CONTINUOUS
 62
    7
 10
1120.1793
 20
930.32690000000002
 11
2132.7498999999998
 21
1385.9827999999998
  0
LINE
  8
_0-1_LAYER003
  6
CONTINUOUS
 62
    7
 10
1520.5785999999998
 20
987.41599999999994
 11
1488.7752999999998
 21
1058.0898999999999
  0
LINE
  8
_0-1_LAYER003
  6
CONTINUOUS
 62
    7
 10
1314.1561112491518
 20
895.40302952519346
 11
1282.6811
 21
965.34740000000011
  0
LINE
  8
_0-1_LAYER003
  6
CONTINUOUS
 62
    7
 10
1102.9212
 20
1091.7947999999999
 11
1035.2046
 21
1209.0834
  0
LINE
  8
_0-1_LAYER003
  6
CONTINUOUS
 62
    7
 10
1102.9212
 20
1091.7947999999999
 11
1100.9801
 21
1099.0392999999999
  0
LINE
  8
_0-1_LAYER003
  6
CONTINUOUS
 62
    7
 10
1102.9212
 20
1091.7947999999999
 11
1097.6179
 21
1097.0980999999999
  0
LINE
  8
_0-1_LAYER003
  6
CONTINUOUS
 62
    7
 10
1205.4423999999999
 20
1056.4215999999999
 11
1199.2862
 21
1070.1001000000001
  0
LINE
  8
_0-1_LAYER003
  6
CONTINUOUS
 62
    7
 10
1199.2862
 20
1070.1001000000001
 11
1226.6432
 21
1082.4124999999999
  0
LINE
  8
_0-1_LAYER003
  6
CONTINUOUS
 62
    7
 10
1226.6432
 20
1082.4124999999999
 11
1232.7994000000001
 21
1068.7339999999999
  0
LINE
  8
_0-1_LAYER003
  6
CONTINUOUS
 62
    7
 10
1232.7994000000001
 20
1068.7339999999999
 11
1205.4423999999999
 21
1056.4215999999999
  0
LINE
  8
_0-1_LAYER003
  6
CONTINUOUS
 62
    7
 10
1205.4423999999999
 20
1056.4215999999999
 11
1226.6432
 21
1082.4124999999999
  0
LINE
  8
_0-1_LAYER003
  6
CONTINUOUS
 62
    7
 10
1411.2099000000001
 20
1149.0171
 11
1405.0545
 21
1162.6958999999999
  0
LINE
  8
_0-1_LAYER003
  6
CONTINUOUS
 62
    7
 10
1405.0545
 20
1162.6958999999999
 11
1432.4121
 21
1175.0069000000001
  0
LINE
  8
_0-1_LAYER003
  6
CONTINUOUS
 62
    7
 10
1432.4121
 20
1175.0069000000001
 11
1438.5675999999999
 21
1161.328
  0
LINE
  8
_0-1_LAYER003
  6
CONTINUOUS
 62
    7
 10
1438.5675999999999
 20
1161.328
 11
1411.2099000000001
 21
1149.0171
  0
LINE
  8
_0-1_LAYER003
  6
CONTINUOUS
 62
    7
 10
1411.2099000000001
 20
1149.0171
 11
1432.4121
 21
1175.0069000000001
  0
LINE
  8
_0-1_LAYER003
  6
CONTINUOUS
 62
    7
 10
1498.4595311100609
 20
620.25379645143869
 11
1523.5396999999998
 21
629.41219999999998
  0
LINE
  8
_0-1_LAYER003
  6
CONTINUOUS
 62
    7
 10
1500.0563999999999
 20
620.83690000000001
 11
1517.5499944215883
 21
572.93101527663634
  0
LINE
  8
_0-1_LAYER003
  6
CONTINUOUS
 62
    7
 10
1515.9531311100611
 20
572.34789645143871
 11
1541.0333000000001
 21
581.50630000000001
  0
LINE
  8
_0-1_LAYER003
  6
CONTINUOUS
 62
    7
 10
1510.8080193450346
 20
586.43792867177569
 11
1535.8881000000001
 21
595.59629999999993
  0
LINE
  8
_0-1_LAYER003
  6
CONTINUOUS
 62
    7
 10
1552.8830506274708
 20
585.83344300445458
 11
1577.9630999999999
 21
594.99189999999999
  0
LINE
  8
_0-1_LAYER003
  6
CONTINUOUS
 62
    7
 10
1546.022762394336
 20
604.62001078444746
 11
1571.1028999999999
 21
613.77849999999989
  0
LINE
  8
_0-1_LAYER003
  6
CONTINUOUS
 62
    7
 10
1554.4798999999998
 20
586.41660000000002
 11
1536.9861999999998
 21
634.32240000000002
  0
LINE
  8
_0-1_LAYER003
  6
CONTINUOUS
 62
    7
 10
1535.389331110061
 20
633.73929645143858
 11
1560.4695000000002
 21
642.89769999999999
  0
LINE
  8
_0-1_LAYER003
  6
CONTINUOUS
 62
    7
 10
1593.1747999999998
 20
654.85120000000006
 11
1602.1298000000002
 21
658.12130000000002
  0
LINE
  8
_0-1_LAYER003
  6
CONTINUOUS
 62
    7
 10
1602.1298000000002
 20
658.12130000000002
 11
1660.3481839130657
 21
646.37852341499092
  0
LINE
  8
_0-1_LAYER003
  6
CONTINUOUS
 62
    7
 10
1593.1783
 20
654.8418999999999
 11
1603.8081944248609
 21
625.7320152674755
  0
LINE
  8
_0-1_LAYER003
  6
CONTINUOUS
 62
    7
 10
1595.3542000000002
 20
622.64490000000001
 11
1679.8939999999998
 21
653.51600000000008
  0
LINE
  8
_0-1_LAYER003
  6
CONTINUOUS
 62
    7
 10
1679.8939999999998
 20
653.51600000000008
 11
1686.7543000000001
 21
634.72939999999994
  0
LINE
  8
_0-1_LAYER003
  6
CONTINUOUS
 62
    7
 10
1686.7543000000001
 20
634.72939999999994
 11
1602.2145
 21
603.8583000000001
  0
LINE
  8
_0-1_LAYER003
  6
CONTINUOUS
 62
    7
 10
1602.2145
 20
603.8583000000001
 11
1595.3542000000002
 21
622.64490000000001
  0
LINE
  8
_0-1_LAYER003
  6
CONTINUOUS
 62
    7
 10
1602.2145
 20
603.8583000000001
 11
1588.1381999999999
 21
598.67560000000003
  0
LINE
  8
_0-1_LAYER003
  6
CONTINUOUS
 62
    7
 10
1588.1381999999999
 20
598.67560000000003
 11
1608.7053000000001
 21
542.35325999999998
  0
LINE
  8
_0-1_LAYER003
  6
CONTINUOUS
 62
    7
 10
1608.7053000000001
 20
542.35325999999998
 11
1923.3361
 21
657.24589999999989
  0
LINE
  8
_0-1_LAYER003
  6
CONTINUOUS
 62
    7
 10
1686.7542967856543
 20
634.72940880233045
 11
1902.7554
 21
713.60580000000004
  0
LINE
  8
_0-1_LAYER003
  6
CONTINUOUS
 62
    7
 10
1679.8939999999998
 20
653.51600000000008
 11
1660.3481839130657
 21
646.37852341499092
  0
LINE
  8
_0-1_LAYER003
  6
CONTINUOUS
 62
    7
 10
1681.6091000000001
 20
648.81930000000011
 11
1897.6102000000001
 21
727.69569999999999
  0
LINE
  8
_0-1_LAYER003
  6
CONTINUOUS
 62
    7
 10
1855.5877999999998
 20
728.50080000000003
 11
1860.7330000000002
 21
714.41080000000011
  0
LINE
  8
_0-1_LAYER003
  6
CONTINUOUS
 62
    7
 10
1860.7330000000002
 20
714.41080000000011
 11
1832.5529999999999
 21
704.12049999999999
  0
LINE
  8
_0-1_LAYER003
  6
CONTINUOUS
 62
    7
 10
1832.5529999999999
 20
704.12049999999999
 11
1827.4079000000002
 21
718.21039999999994
  0
LINE
  8
_0-1_LAYER003
  6
CONTINUOUS
 62
    7
 10
1827.4079000000002
 20
718.21039999999994
 11
1855.5877999999998
 21
728.50080000000003
  0
LINE
  8
_0-1_LAYER003
  6
CONTINUOUS
 62
    7
 10
1855.5877999999998
 20
728.50080000000003
 11
1832.5529999999999
 21
704.12049999999999
  0
LINE
  8
_0-1_LAYER003
  6
CONTINUOUS
 62
    7
 10
1827.4079000000002
 20
718.21039999999994
 11
1860.7330000000002
 21
714.41080000000011
  0
TEXT
  8
_0-0_LAYER001
 62
    7
 10
1504.6507000000001
 20
673.05919999999992
 40
20
 41
1
 50
20.060507000000026
  1
瓦座の寸法
  0
TEXT
  8
_0-0_LAYER001
 62
    7
 10
1616.1617000000001
 20
609.59780000000001
 40
20
 41
1
 50
20.060507000000094
  1
広小舞
  0
TEXT
  8
_0-0_LAYER001
 62
    7
 10
1693.2372
 20
593.78639999999996
 40
20
 41
1
 50
20.060507000000037
  1
たる木
  0
TEXT
  8
_0-0_LAYER001
 62
    7
 10
1751.7826
 20
657.59819999999991
 40
20
 41
1
 50
20.060507000000023
  1
野地板
  0
TEXT
  8
_0-0_LAYER001
 62
    7
 10
1615.8062
 20
659.7956999999999
 40
20
 41
1
 50
20.060506999999998
  1
瓦座
  0
TEXT
  8
_0-0_LAYER001
 62
    7
 10
1744.4868999999999
 20
712.22409999999991
 40
20
 41
1
 50
20.060507000000019
  1
桟木の寸法
  0
TEXT
  8
_0-0_LAYER001
 62
    7
 10
970.70460000000003
 20
1211.5834
 40
20
 41
1
 50
0
  1
万十軒瓦
  0
TEXT
  8
_0-0_LAYER001
 62
    7
 10
837.25000000000011
 20
1091.1242
 40
20
 41
1
 50
0
  1
広小舞：２０ｘ９０
  0
TEXT
  8
_0-0_LAYER001
 62
    7
 10
843.61770000000001
 20
1131.885
 40
20
 41
1
 50
0
  1
瓦　座：３１ｘ６０
  0
TEXT
  8
_0-0_LAYER001
 62
    7
 10
1785.7192
 20
965.48690000000011
 40
20
 41
1
 50
0
  1
　野地板：杉ｔ＝１２
  0
TEXT
  8
_0-0_LAYER001
 62
    7
 10
1751.0342000000001
 20
1025.5631000000001
 40
20
 41
1
 50
0
  1
　瓦桟：１５ｘ３０以上
  0
TEXT
  8
_0-0_LAYER001
 62
    7
 10
1802.9627
 20
935.62030000000027
 40
20
 41
1
 50
0
  1
　垂木
  0
TEXT
  8
_0-0_LAYER001
 62
    7
 10
1629.10866252137
 20
1475.5248689826208
 40
20
 41
1
 50
0
  1
桟　瓦
  0
TEXT
  8
_0-0_LAYER001
 62
    7
 10
1186.7638999999999
 20
778.09349999999995
 40
20
 41
1
 50
0
  1
　鼻隠　　
  0
TEXT
  8
_0-0_LAYER001
 62
    7
 10
940.39856170556095
 20
1321.224738022074
 40
20
 41
1
 50
20.060506999999973
  1
225
  0
TEXT
  8
_0-0_LAYER001
 62
    7
 10
1146.6650375630481
 20
1422.945191869602
 40
20
 41
1
 50
20.060507000000037
  1
225
  0
TEXT
  8
_0-0_LAYER001
 62
    7
 10
1350.1059452581044
 20
1523.2528616359139
 40
20
 41
1
 50
20.060507000000023
  1
225
  0
TEXT
  8
_0-0_LAYER001
 62
    7
 10
846.56491831470339
 20
914.65176268271705
 40
20
 41
1
 50
114.22770000000004
  1
31
  0
TEXT
  8
_0-0_LAYER001
 62
    7
 10
861.88736027515029
 20
873.79191745485809
 40
20
 41
1
 50
114.22770000000004
  1
20
  0
TEXT
  8
_0-0_LAYER001
 62
    7
 10
1042.119015553089
 20
859.24434346455143
 40
20
 41
1
 50
24.227799999999984
  1
75
  0
TEXT
  8
_0-0_LAYER001
 62
    7
 10
1200.350832649244
 20
863.48269570819843
 40
20
 41
1
 50
24.227773000000031
  1
217
  0
TEXT
  8
_0-0_LAYER001
 62
    7
 10
1402.3789562630839
 20
951.07530874356962
 40
20
 41
1
 50
24.227772999999988
  1
226
  0
TEXT
  8
_0-0_LAYER001
 62
    7
 10
1608.6454321205711
 20
1044.3190581038036
 40
20
 41
1
 50
24.227772999999992
  1
226
  0
TEXT
  8
_0-0_LAYER001
 62
    7
 10
1768.3437000000001
 20
995.58220000000006
 40
20
 41
1
 50
0
  1
　下葺材：ルーフィング
  0
TEXT
  8
_0-0_LAYER001
 62
    7
 10
1508.6398301653012
 20
569.290979614854
 40
20
 41
1
 50
110.06049999999999
  1
15
  0
TEXT
  8
_0-0_LAYER001
 62
    7
 10
1499.2921830788546
 20
594.50130054496594
 40
20
 41
1
 50
110.06049999999999
  1
36
  0
TEXT
  8
_0-0_LAYER001
 62
    7
 10
1568.408119111971
 20
620.2781455409239
 40
20
 41
1
 50
110.06049999999999
  1
31
  0
TEXT
  8
_0-0_LAYER001
 62
    7
 10
1580.6672969216647
 20
595.40433411192748
 40
20
 41
1
 50
110.0605
  1
20
  0
TEXT
  8
_0-0_LAYER001
 62
    7
 10
1833.6389000000004
 20
702.86729999999989
 40
20
 41
1
 50
110.06049999999991
  1
15
  0
TEXT
  8
_0-0_LAYER001
 62
    7
 10
1833.1738
 20
719.76800000000003
 40
20
 41
1
 50
20.060499999999909
  1
30
  0
ENDSEC
  0
EOF
