  0
SECTION
  2
HEADER
  9
$ACADVER
  1
AC1009
  9
$INSBASE
 10
0
 20
0
 30
0
  9
$EXTMIN
 10
0
 20
0
  9
$EXTMAX
 10
2970
 20
2100
  9
$LIMMIN
 10
0
 20
0
  9
$LIMMAX
 10
2970
 20
2100
  9
$LTSCALE
 40
10
  0
ENDSEC
  0
SECTION
  2
TABLES
  0
TABLE
  2
LTYPE
 70
     9
  0
LTYPE
  2
CONTINUOUS
 70
    64
  3
実線
 72
    65
 73
     0
 40
0.0
  0
LTYPE
  2
DASHED1
 70
    64
  3
--  --  --  --  --  --  --  --  
 72
    65
 73
     2
 40
2.5
 49
1.25
 49
-1.25
  0
LTYPE
  2
DASHED2
 70
    64
  3
----    ----    ----    ----    
 72
    65
 73
     2
 40
5.0
 49
2.5
 49
-2.5
  0
LTYPE
  2
DASHED3
 70
    64
  3
------  ------  ------  ------  
 72
    65
 73
     2
 40
5.0
 49
3.75
 49
-1.25
  0
LTYPE
  2
CENTER1
 70
    64
  3
----- - ----- - ----- - ----- - 
 72
    65
 73
     4
 40
10.0
 49
6.25
 49
-1.25
 49
1.25
 49
-1.25
  0
LTYPE
  2
CENTER2
 70
    64
  3
----------  --  ----------  --  
 72
    65
 73
     4
 40
20.0
 49
12.5
 49
-2.5
 49
2.5
 49
-2.5
  0
LTYPE
  2
PHANTOM1
 70
    64
  3
--- - - --- - - --- - - --- - - 
 72
    65
 73
     6
 40
10.0
 49
3.25
 49
-1.25
 49
1.25
 49
-1.25
 49
1.25
 49
-1.25
  0
LTYPE
  2
PHANTOM2
 70
    64
  3
--------  -  -  --------  -  -  
 72
    65
 73
     6
 40
20.0
 49
10.0
 49
-2.5
 49
1.25
 49
-2.5
 49
1.25
 49
-2.5
  0
LTYPE
  2
DOT
 70
    64
  3
-   -   -   -   -   -   -   -   
 72
    65
 73
     2
 40
2.5
 49
0.625
 49
-1.875
  0
LTYPE
  2
DUMMY
 70
    64
  3
ダミー
 72
    65
 73
     0
 40
0.0
  0
LTYPE
  2
RAND1
 70
    64
  3
ランダム線1
 72
    65
 73
     4
 40
10.0
 49
1.0
 49
-2.0
 49
3.0
 49
-4.0
  0
LTYPE
  2
RAND2
 70
    64
  3
ランダム線2
 72
    65
 73
     4
 40
14.0
 49
2.0
 49
-3.0
 49
4.0
 49
-5.0
  0
LTYPE
  2
RAND3
 70
    64
  3
ランダム線3
 72
    65
 73
     4
 40
18.0
 49
3.0
 49
-4.0
 49
5.0
 49
-6.0
  0
LTYPE
  2
RAND4
 70
    64
  3
ランダム線4
 72
    65
 73
     4
 40
22.0
 49
4.0
 49
-5.0
 49
6.0
 49
-7.0
  0
LTYPE
  2
RAND5
 70
    64
  3
ランダム線5
 72
    65
 73
     4
 40
26.0
 49
5.0
 49
-6.0
 49
7.0
 49
-8.0
  0
LTYPE
  2
LONG1
 70
    64
  3
----------  --  ----------  --  
 72
    65
 73
     4
 40
40.0
 49
32.5
 49
-2.5
 49
2.5
 49
-2.5
  0
LTYPE
  2
LONG2
 70
    64
  3
--------  -  -  --------  -  -  
 72
    65
 73
     6
 40
40.0
 49
30.0
 49
-2.5
 49
1.25
 49
-2.5
 49
1.25
 49
-2.5
  0
LTYPE
  2
LONG3
 70
    64
  3
+++++++++++++++..+++++++++++++++
 72
    65
 73
     2
 40
40.0
 49
37.5
 49
-2.5
  0
LTYPE
  2
LONG4
 70
    64
  3
+++++++++++++++..+++++++++++++++
 72
    65
 73
     2
 40
80.0
 49
75.0
 49
-5.0
  0
LTYPE
  2
LONG5
 70
    64
  3
----------  --  ----------  --  
 72
    65
 73
     4
 40
60.0
 49
37.5
 49
-7.5
 49
7.5
 49
-7.5
  0
LTYPE
  2
dashed
 70
   64
  3
-------   -------------   ------
 72
   65
 73
    2
 40
7.5
 49
6
 49
-1.5
  0
LTYPE
  2
dashed_spaced
 70
   64
  3
----        --------        ----
 72
   65
 73
    2
 40
12
 49
6
 49
-6
  0
LTYPE
  2
long_dashed_dotted
 70
   64
  3
------------- --- --------------
 72
   65
 73
    4
 40
15.25
 49
12
 49
-1.5
 49
0.25
 49
-1.5
  0
LTYPE
  2
long_dashed_double-dotted
 70
   64
  3
----------- --- --- ------------
 72
   65
 73
    6
 40
17
 49
12
 49
-1.5
 49
0.25
 49
-1.5
 49
0.25
 49
-1.5
  0
LTYPE
  2
long_dashed_triplicate-dotted
 70
   64
  3
--------- --- --- --- ----------
 72
   65
 73
    8
 40
18.75
 49
12
 49
-1.5
 49
0.25
 49
-1.5
 49
0.25
 49
-1.5
 49
0.25
 49
-1.5
  0
LTYPE
  2
dotted
 70
   64
  3
   -       -       -       -    
 72
   65
 73
    2
 40
1.75
 49
0.25
 49
-1.5
  0
LTYPE
  2
chain
 70
   64
  3
-------------- -- --------------
 72
   65
 73
    4
 40
18.5
 49
12
 49
-1.5
 49
3.5
 49
-1.5
  0
LTYPE
  2
chain_double_dash
 70
   64
  3
------------ -- -- -------------
 72
   65
 73
    6
 40
23.5
 49
12
 49
-1.5
 49
3.5
 49
-1.5
 49
3.5
 49
-1.5
  0
LTYPE
  2
dashed_dotted
 70
   64
  3
-----------     -     ----------
 72
   65
 73
    4
 40
9.25
 49
6
 49
-1.5
 49
0.25
 49
-1.5
  0
LTYPE
  2
double-dashed_dotted
 70
   64
  3
------   -----------   -   -----
 72
   65
 73
    6
 40
16.75
 49
6
 49
-1.5
 49
6
 49
-1.5
 49
0.25
 49
-1.5
  0
LTYPE
  2
dashed_double-dotted
 70
   64
  3
---------    -    -    ---------
 72
   65
 73
    6
 40
11
 49
6
 49
-1.5
 49
0.25
 49
-1.5
 49
0.25
 49
-1.5
  0
LTYPE
  2
double-dashed_double-dotted
 70
   64
  3
-----   ---------   -   -   ----
 72
   65
 73
    8
 40
18.5
 49
6
 49
-1.5
 49
6
 49
-1.5
 49
0.25
 49
-1.5
 49
0.25
 49
-1.5
  0
LTYPE
  2
dashed_triplicate-dotted
 70
   64
  3
-------    -    -    -    ------
 72
   65
 73
    8
 40
12.75
 49
6
 49
-1.5
 49
0.25
 49
-1.5
 49
0.25
 49
-1.5
 49
0.25
 49
-1.5
  0
LTYPE
  2
double-dashed_triplicate-dotted
 70
   64
  3
-----  ---------  -  -  -  -----
 72
   65
 73
   10
 40
20.25
 49
6
 49
-1.5
 49
6
 49
-1.5
 49
0.25
 49
-1.5
 49
0.25
 49
-1.5
 49
0.25
 49
-1.5
  0
LTYPE
  2
undefined
 70
   64
  3
--------------------------------
 72
   65
 73
    0
 40
0
  0
ENDTAB
  0
TABLE
  2
STYLE
  5
3
100
AcDbSymbolTable
 70
     1
  0
STYLE
  5
10
100
AcDbSymbolTableRecord
100
AcDbTextStyleTableRecord
  2
STANDARD
 70
     0
 40
0.0
 41
1.0
 50
0.0
 71
     0
 42
0.2
  3
txt
  4
bigfont.shx
  0
STYLE
  5
26
100
AcDbSymbolTableRecord
100
AcDbTextStyleTableRecord
  2
TATEGAKI
 70
    68
 40
0.0
 41
1.0
 50
0.0
 71
     0
 42
1.0
  3
txt
  4
bigfont.shx
  0
ENDTAB
  0
TABLE
  2
LAYER
 70
    8
  0
LAYER
  2
_0-0_LAYER001
 70
   64
 62
    7
  6
CONTINUOUS
  0
LAYER
  2
_0-1_LAYER002
 70
   64
 62
    7
  6
CONTINUOUS
  0
LAYER
  2
_0-2_LAYER003
 70
   64
 62
    7
  6
CONTINUOUS
  0
LAYER
  2
_0-3_LAYER004
 70
   64
 62
    7
  6
CONTINUOUS
  0
LAYER
  2
_0-4_LAYER005
 70
   64
 62
    7
  6
CONTINUOUS
  0
LAYER
  2
_0-5_LAYER006
 70
   64
 62
    7
  6
CONTINUOUS
  0
LAYER
  2
_0-6_LAYER007
 70
   64
 62
    7
  6
CONTINUOUS
  0
LAYER
  2
ADD_LINE
 70
   64
 62
    7
  6
CONTINUOUS
  0
ENDTAB
  0
ENDSEC
  0
SECTION
  2
BLOCKS
  0
ENDSEC
  0
SECTION
  2
ENTITIES
  0
LINE
  8
_0-3_LAYER004
  6
DASHED3
 62
    2
 10
730.70579999999995
 20
764.68429999999989
 11
1474.4548
 21
1099.3713
  0
LINE
  8
_0-0_LAYER001
  6
CONTINUOUS
 62
    2
 10
1474.4548
 20
1078.5363
 11
1474.4548
 21
1012.7412999999999
  0
LINE
  8
_0-0_LAYER001
  6
CONTINUOUS
 62
    4
 10
1494.9272000000001
 20
1230.5165
 11
1494.9090999999999
 21
1230.0510999999999
  0
LINE
  8
_0-0_LAYER001
  6
CONTINUOUS
 62
    4
 10
1494.9090999999999
 20
1230.0510999999999
 11
1494.8600999999999
 21
1228.7878000000001
  0
LINE
  8
_0-0_LAYER001
  6
CONTINUOUS
 62
    4
 10
1494.8600999999999
 20
1228.7878000000001
 11
1494.788
 21
1226.9260999999999
  0
LINE
  8
_0-0_LAYER001
  6
CONTINUOUS
 62
    4
 10
1494.788
 20
1226.9260999999999
 11
1494.7004000000002
 21
1224.6654000000001
  0
LINE
  8
_0-0_LAYER001
  6
CONTINUOUS
 62
    4
 10
1494.7004000000002
 20
1224.6654000000001
 11
1494.605
 21
1222.2053000000001
  0
LINE
  8
_0-0_LAYER001
  6
CONTINUOUS
 62
    4
 10
1494.605
 20
1222.2053000000001
 11
1494.5095999999999
 21
1219.7452000000001
  0
LINE
  8
_0-0_LAYER001
  6
CONTINUOUS
 62
    4
 10
1494.5095999999999
 20
1219.7452000000001
 11
1494.422
 21
1217.4845
  0
LINE
  8
_0-0_LAYER001
  6
CONTINUOUS
 62
    4
 10
1494.422
 20
1217.4845
 11
1494.3498
 21
1215.6228000000001
  0
LINE
  8
_0-0_LAYER001
  6
CONTINUOUS
 62
    4
 10
1494.3498
 20
1215.6228000000001
 11
1494.3009000000002
 21
1214.3595
  0
LINE
  8
_0-0_LAYER001
  6
CONTINUOUS
 62
    4
 10
1494.3009000000002
 20
1214.3595
 11
1494.2828
 21
1213.894
  0
LINE
  8
_0-0_LAYER001
  6
CONTINUOUS
 62
    4
 10
1494.2828
 20
1213.894
 11
1495.4301999999998
 21
1213.8695
  0
LINE
  8
_0-0_LAYER001
  6
CONTINUOUS
 62
    4
 10
1495.4301999999998
 20
1213.8695
 11
1498.7986000000001
 21
1213.6433
  0
LINE
  8
_0-0_LAYER001
  6
CONTINUOUS
 62
    4
 10
1498.7986000000001
 20
1213.6433
 11
1504.2772
 21
1212.9866999999999
  0
LINE
  8
_0-0_LAYER001
  6
CONTINUOUS
 62
    4
 10
1504.2772
 20
1212.9866999999999
 11
1511.7554
 21
1211.6709000000001
  0
LINE
  8
_0-0_LAYER001
  6
CONTINUOUS
 62
    4
 10
1511.7554
 20
1211.6709000000001
 11
1521.1224999999999
 21
1209.4671000000001
  0
LINE
  8
_0-0_LAYER001
  6
CONTINUOUS
 62
    4
 10
1521.1224999999999
 20
1209.4671000000001
 11
1532.2676000000001
 21
1206.1466
  0
LINE
  8
_0-0_LAYER001
  6
CONTINUOUS
 62
    4
 10
1532.2676000000001
 20
1206.1466
 11
1545.0801999999999
 21
1201.4806000000001
  0
LINE
  8
_0-0_LAYER001
  6
CONTINUOUS
 62
    4
 10
1545.0801999999999
 20
1201.4806000000001
 11
1559.4495999999999
 21
1195.2402999999999
  0
LINE
  8
_0-0_LAYER001
  6
CONTINUOUS
 62
    4
 10
1559.4495999999999
 20
1195.2402999999999
 11
1575.2649000000001
 21
1187.1969999999999
  0
LINE
  8
_0-0_LAYER001
  6
CONTINUOUS
 62
    4
 10
1575.2649000000001
 20
1187.1969999999999
 11
1592.4155000000001
 21
1177.1217999999999
  0
LINE
  8
_0-0_LAYER001
  6
CONTINUOUS
 62
    4
 10
1592.4155000000001
 20
1177.1217999999999
 11
1592.4449
 21
1177.8792000000001
  0
LINE
  8
_0-0_LAYER001
  6
CONTINUOUS
 62
    4
 10
1592.4449
 20
1177.8792000000001
 11
1592.5246000000002
 21
1179.9351999999999
  0
LINE
  8
_0-0_LAYER001
  6
CONTINUOUS
 62
    4
 10
1592.5246000000002
 20
1179.9351999999999
 11
1592.6419999999998
 21
1182.9650999999999
  0
LINE
  8
_0-0_LAYER001
  6
CONTINUOUS
 62
    4
 10
1592.6419999999998
 20
1182.9650999999999
 11
1592.7846
 21
1186.6442999999999
  0
LINE
  8
_0-0_LAYER001
  6
CONTINUOUS
 62
    4
 10
1592.7846
 20
1186.6442999999999
 11
1592.9398000000001
 21
1190.6481000000001
  0
LINE
  8
_0-0_LAYER001
  6
CONTINUOUS
 62
    4
 10
1592.9398000000001
 20
1190.6481000000001
 11
1593.0949999999998
 21
1194.6519000000001
  0
LINE
  8
_0-0_LAYER001
  6
CONTINUOUS
 62
    4
 10
1593.0949999999998
 20
1194.6519000000001
 11
1593.2375999999999
 21
1198.3309999999999
  0
LINE
  8
_0-0_LAYER001
  6
CONTINUOUS
 62
    4
 10
1593.2375999999999
 20
1198.3309999999999
 11
1593.3551000000002
 21
1201.3608999999999
  0
LINE
  8
_0-0_LAYER001
  6
CONTINUOUS
 62
    4
 10
1593.3551000000002
 20
1201.3608999999999
 11
1593.4348
 21
1203.4168999999999
  0
LINE
  8
_0-0_LAYER001
  6
CONTINUOUS
 62
    4
 10
1593.4348
 20
1203.4168999999999
 11
1593.4641000000001
 21
1204.1744000000001
  0
LINE
  8
_0-0_LAYER001
  6
CONTINUOUS
 62
    4
 10
1593.4641000000001
 20
1204.1744000000001
 11
1591.8209999999999
 21
1204.8246999999999
  0
LINE
  8
_0-0_LAYER001
  6
CONTINUOUS
 62
    4
 10
1591.8209999999999
 20
1204.8246999999999
 11
1587.1840000000002
 21
1206.6034999999999
  0
LINE
  8
_0-0_LAYER001
  6
CONTINUOUS
 62
    4
 10
1587.1840000000002
 20
1206.6034999999999
 11
1579.9915000000001
 21
1209.2530999999999
  0
LINE
  8
_0-0_LAYER001
  6
CONTINUOUS
 62
    4
 10
1579.9915000000001
 20
1209.2530999999999
 11
1570.6821
 21
1212.5155
  0
LINE
  8
_0-0_LAYER001
  6
CONTINUOUS
 62
    4
 10
1570.6821
 20
1212.5155
 11
1559.6943999999999
 21
1216.1328000000001
  0
LINE
  8
_0-0_LAYER001
  6
CONTINUOUS
 62
    4
 10
1559.6943999999999
 20
1216.1328000000001
 11
1547.4666999999999
 21
1219.8471
  0
LINE
  8
_0-0_LAYER001
  6
CONTINUOUS
 62
    4
 10
1547.4666999999999
 20
1219.8471
 11
1534.4376000000002
 21
1223.4005
  0
LINE
  8
_0-0_LAYER001
  6
CONTINUOUS
 62
    4
 10
1534.4376000000002
 20
1223.4005
 11
1521.0457000000001
 21
1226.5351000000001
  0
LINE
  8
_0-0_LAYER001
  6
CONTINUOUS
 62
    4
 10
1521.0457000000001
 20
1226.5351000000001
 11
1507.7294000000002
 21
1228.9930999999999
  0
LINE
  8
_0-0_LAYER001
  6
CONTINUOUS
 62
    4
 10
1494.9272000000001
 20
1230.5165
 11
1507.8409999999999
 21
1228.9725000000001
  0
LINE
  8
_0-0_LAYER001
  6
CONTINUOUS
 62
    4
 10
1489.5902000000001
 20
1261.3965000000001
 11
1489.5720999999999
 21
1260.9311
  0
LINE
  8
_0-0_LAYER001
  6
CONTINUOUS
 62
    4
 10
1489.5720999999999
 20
1260.9311
 11
1489.5230999999999
 21
1259.6677999999999
  0
LINE
  8
_0-0_LAYER001
  6
CONTINUOUS
 62
    4
 10
1489.5230999999999
 20
1259.6677999999999
 11
1489.451
 21
1257.8061
  0
LINE
  8
_0-0_LAYER001
  6
CONTINUOUS
 62
    4
 10
1489.451
 20
1257.8061
 11
1489.3634000000002
 21
1255.5454
  0
LINE
  8
_0-0_LAYER001
  6
CONTINUOUS
 62
    4
 10
1489.3634000000002
 20
1255.5454
 11
1489.268
 21
1253.0853
  0
LINE
  8
_0-0_LAYER001
  6
CONTINUOUS
 62
    4
 10
1489.268
 20
1253.0853
 11
1489.1725999999999
 21
1250.6251999999999
  0
LINE
  8
_0-0_LAYER001
  6
CONTINUOUS
 62
    4
 10
1489.1725999999999
 20
1250.6251999999999
 11
1489.085
 21
1248.3644999999999
  0
LINE
  8
_0-0_LAYER001
  6
CONTINUOUS
 62
    4
 10
1489.085
 20
1248.3644999999999
 11
1489.0128
 21
1246.5028
  0
LINE
  8
_0-0_LAYER001
  6
CONTINUOUS
 62
    4
 10
1489.0128
 20
1246.5028
 11
1488.9639000000002
 21
1245.2394999999999
  0
LINE
  8
_0-0_LAYER001
  6
CONTINUOUS
 62
    4
 10
1488.9639000000002
 20
1245.2394999999999
 11
1488.9458
 21
1244.7739999999999
  0
LINE
  8
_0-0_LAYER001
  6
CONTINUOUS
 62
    4
 10
1488.9458
 20
1244.7739999999999
 11
1490.0931999999998
 21
1244.7494999999999
  0
LINE
  8
_0-0_LAYER001
  6
CONTINUOUS
 62
    4
 10
1490.0931999999998
 20
1244.7494999999999
 11
1493.4616000000001
 21
1244.5233000000001
  0
LINE
  8
_0-0_LAYER001
  6
CONTINUOUS
 62
    4
 10
1493.4616000000001
 20
1244.5233000000001
 11
1498.9402
 21
1243.8667
  0
LINE
  8
_0-0_LAYER001
  6
CONTINUOUS
 62
    4
 10
1498.9402
 20
1243.8667
 11
1506.4184
 21
1242.5509
  0
LINE
  8
_0-0_LAYER001
  6
CONTINUOUS
 62
    4
 10
1506.4184
 20
1242.5509
 11
1515.7855
 21
1240.3471
  0
LINE
  8
_0-0_LAYER001
  6
CONTINUOUS
 62
    4
 10
1515.7855
 20
1240.3471
 11
1526.9306000000001
 21
1237.0265999999999
  0
LINE
  8
_0-0_LAYER001
  6
CONTINUOUS
 62
    4
 10
1526.9306000000001
 20
1237.0265999999999
 11
1539.7431999999999
 21
1232.3606
  0
LINE
  8
_0-0_LAYER001
  6
CONTINUOUS
 62
    4
 10
1539.7431999999999
 20
1232.3606
 11
1554.1125999999999
 21
1226.1203
  0
LINE
  8
_0-0_LAYER001
  6
CONTINUOUS
 62
    4
 10
1554.1125999999999
 20
1226.1203
 11
1569.9279000000001
 21
1218.077
  0
LINE
  8
_0-0_LAYER001
  6
CONTINUOUS
 62
    4
 10
1569.9279000000001
 20
1218.077
 11
1587.0785000000001
 21
1208.0018
  0
LINE
  8
_0-0_LAYER001
  6
CONTINUOUS
 62
    4
 10
1587.0785000000001
 20
1208.0018
 11
1587.1079
 21
1208.7592
  0
LINE
  8
_0-0_LAYER001
  6
CONTINUOUS
 62
    4
 10
1587.1079
 20
1208.7592
 11
1587.1876000000002
 21
1210.8152
  0
LINE
  8
_0-0_LAYER001
  6
CONTINUOUS
 62
    4
 10
1587.1876000000002
 20
1210.8152
 11
1587.3049999999998
 21
1213.8451
  0
LINE
  8
_0-0_LAYER001
  6
CONTINUOUS
 62
    4
 10
1587.3049999999998
 20
1213.8451
 11
1587.4476
 21
1217.5243
  0
LINE
  8
_0-0_LAYER001
  6
CONTINUOUS
 62
    4
 10
1587.4476
 20
1217.5243
 11
1587.6028000000001
 21
1221.5281
  0
LINE
  8
_0-0_LAYER001
  6
CONTINUOUS
 62
    4
 10
1587.6028000000001
 20
1221.5281
 11
1587.7579999999998
 21
1225.5319
  0
LINE
  8
_0-0_LAYER001
  6
CONTINUOUS
 62
    4
 10
1587.7579999999998
 20
1225.5319
 11
1587.9005999999999
 21
1229.211
  0
LINE
  8
_0-0_LAYER001
  6
CONTINUOUS
 62
    4
 10
1587.9005999999999
 20
1229.211
 11
1588.0180999999998
 21
1232.2409
  0
LINE
  8
_0-0_LAYER001
  6
CONTINUOUS
 62
    4
 10
1588.0180999999998
 20
1232.2409
 11
1588.0978
 21
1234.2969000000001
  0
LINE
  8
_0-0_LAYER001
  6
CONTINUOUS
 62
    4
 10
1588.0978
 20
1234.2969000000001
 11
1588.1271000000002
 21
1235.0544
  0
LINE
  8
_0-0_LAYER001
  6
CONTINUOUS
 62
    4
 10
1588.1271000000002
 20
1235.0544
 11
1586.4839999999999
 21
1235.7047
  0
LINE
  8
_0-0_LAYER001
  6
CONTINUOUS
 62
    4
 10
1586.4839999999999
 20
1235.7047
 11
1581.8470000000002
 21
1237.4835
  0
LINE
  8
_0-0_LAYER001
  6
CONTINUOUS
 62
    4
 10
1581.8470000000002
 20
1237.4835
 11
1574.6545000000001
 21
1240.1331
  0
LINE
  8
_0-0_LAYER001
  6
CONTINUOUS
 62
    4
 10
1574.6545000000001
 20
1240.1331
 11
1565.3451
 21
1243.3955000000001
  0
LINE
  8
_0-0_LAYER001
  6
CONTINUOUS
 62
    4
 10
1565.3451
 20
1243.3955000000001
 11
1554.3573999999999
 21
1247.0128
  0
LINE
  8
_0-0_LAYER001
  6
CONTINUOUS
 62
    4
 10
1554.3573999999999
 20
1247.0128
 11
1542.1297
 21
1250.7271000000001
  0
LINE
  8
_0-0_LAYER001
  6
CONTINUOUS
 62
    4
 10
1542.1297
 20
1250.7271000000001
 11
1529.1006000000002
 21
1254.2805000000001
  0
LINE
  8
_0-0_LAYER001
  6
CONTINUOUS
 62
    4
 10
1529.1006000000002
 20
1254.2805000000001
 11
1515.7087000000001
 21
1257.4150999999999
  0
LINE
  8
_0-0_LAYER001
  6
CONTINUOUS
 62
    4
 10
1515.7087000000001
 20
1257.4150999999999
 11
1502.3924000000002
 21
1259.8731
  0
LINE
  8
_0-0_LAYER001
  6
CONTINUOUS
 62
    4
 10
1489.5902000000001
 20
1261.3965000000001
 11
1502.5039999999999
 21
1259.8525
  0
LINE
  8
_0-0_LAYER001
  6
CONTINUOUS
 62
    4
 10
1459.3195000000001
 20
1261.3965000000001
 11
1459.3375999999998
 21
1260.9311
  0
LINE
  8
_0-0_LAYER001
  6
CONTINUOUS
 62
    4
 10
1459.3375999999998
 20
1260.9311
 11
1459.3865000000001
 21
1259.6677999999999
  0
LINE
  8
_0-0_LAYER001
  6
CONTINUOUS
 62
    4
 10
1459.3865000000001
 20
1259.6677999999999
 11
1459.4587000000001
 21
1257.8061
  0
LINE
  8
_0-0_LAYER001
  6
CONTINUOUS
 62
    4
 10
1459.4587000000001
 20
1257.8061
 11
1459.5463
 21
1255.5454
  0
LINE
  8
_0-0_LAYER001
  6
CONTINUOUS
 62
    4
 10
1459.5463
 20
1255.5454
 11
1459.6417000000001
 21
1253.0853
  0
LINE
  8
_0-0_LAYER001
  6
CONTINUOUS
 62
    4
 10
1459.6417000000001
 20
1253.0853
 11
1459.7370000000001
 21
1250.6251999999999
  0
LINE
  8
_0-0_LAYER001
  6
CONTINUOUS
 62
    4
 10
1459.7370000000001
 20
1250.6251999999999
 11
1459.8247000000001
 21
1248.3644999999999
  0
LINE
  8
_0-0_LAYER001
  6
CONTINUOUS
 62
    4
 10
1459.8247000000001
 20
1248.3644999999999
 11
1459.8968
 21
1246.5028
  0
LINE
  8
_0-0_LAYER001
  6
CONTINUOUS
 62
    4
 10
1459.8968
 20
1246.5028
 11
1459.9458
 21
1245.2394999999999
  0
LINE
  8
_0-0_LAYER001
  6
CONTINUOUS
 62
    4
 10
1459.9458
 20
1245.2394999999999
 11
1459.9638
 21
1244.7739999999999
  0
LINE
  8
_0-0_LAYER001
  6
CONTINUOUS
 62
    4
 10
1459.9638
 20
1244.7739999999999
 11
1458.8164000000002
 21
1244.7494999999999
  0
LINE
  8
_0-0_LAYER001
  6
CONTINUOUS
 62
    4
 10
1458.8164000000002
 20
1244.7494999999999
 11
1455.4481000000001
 21
1244.5233000000001
  0
LINE
  8
_0-0_LAYER001
  6
CONTINUOUS
 62
    4
 10
1455.4481000000001
 20
1244.5233000000001
 11
1449.9694
 21
1243.8667
  0
LINE
  8
_0-0_LAYER001
  6
CONTINUOUS
 62
    4
 10
1449.9694
 20
1243.8667
 11
1442.4911999999999
 21
1242.5509
  0
LINE
  8
_0-0_LAYER001
  6
CONTINUOUS
 62
    4
 10
1442.4911999999999
 20
1242.5509
 11
1433.1242000000002
 21
1240.3471
  0
LINE
  8
_0-0_LAYER001
  6
CONTINUOUS
 62
    4
 10
1433.1242000000002
 20
1240.3471
 11
1421.979
 21
1237.0265999999999
  0
LINE
  8
_0-0_LAYER001
  6
CONTINUOUS
 62
    4
 10
1421.979
 20
1237.0265999999999
 11
1409.1664000000001
 21
1232.3606
  0
LINE
  8
_0-0_LAYER001
  6
CONTINUOUS
 62
    4
 10
1409.1664000000001
 20
1232.3606
 11
1394.7971000000002
 21
1226.1203
  0
LINE
  8
_0-0_LAYER001
  6
CONTINUOUS
 62
    4
 10
1394.7971000000002
 20
1226.1203
 11
1378.9818
 21
1218.077
  0
LINE
  8
_0-0_LAYER001
  6
CONTINUOUS
 62
    4
 10
1378.9818
 20
1218.077
 11
1361.8310999999999
 21
1208.0018
  0
LINE
  8
_0-0_LAYER001
  6
CONTINUOUS
 62
    4
 10
1361.8310999999999
 20
1208.0018
 11
1361.8018000000002
 21
1208.7592
  0
LINE
  8
_0-0_LAYER001
  6
CONTINUOUS
 62
    4
 10
1361.8018000000002
 20
1208.7592
 11
1361.7221
 21
1210.8152
  0
LINE
  8
_0-0_LAYER001
  6
CONTINUOUS
 62
    4
 10
1361.7221
 20
1210.8152
 11
1361.6047000000001
 21
1213.8451
  0
LINE
  8
_0-0_LAYER001
  6
CONTINUOUS
 62
    4
 10
1361.6047000000001
 20
1213.8451
 11
1361.462
 21
1217.5243
  0
LINE
  8
_0-0_LAYER001
  6
CONTINUOUS
 62
    4
 10
1361.462
 20
1217.5243
 11
1361.3068000000001
 21
1221.5281
  0
LINE
  8
_0-0_LAYER001
  6
CONTINUOUS
 62
    4
 10
1361.3068000000001
 20
1221.5281
 11
1361.1516999999999
 21
1225.5319
  0
LINE
  8
_0-0_LAYER001
  6
CONTINUOUS
 62
    4
 10
1361.1516999999999
 20
1225.5319
 11
1361.009
 21
1229.211
  0
LINE
  8
_0-0_LAYER001
  6
CONTINUOUS
 62
    4
 10
1361.009
 20
1229.211
 11
1360.8915999999999
 21
1232.2409
  0
LINE
  8
_0-0_LAYER001
  6
CONTINUOUS
 62
    4
 10
1360.8915999999999
 20
1232.2409
 11
1360.8118999999999
 21
1234.2969000000001
  0
LINE
  8
_0-0_LAYER001
  6
CONTINUOUS
 62
    4
 10
1360.8118999999999
 20
1234.2969000000001
 11
1360.7825
 21
1235.0544
  0
LINE
  8
_0-0_LAYER001
  6
CONTINUOUS
 62
    4
 10
1360.7825
 20
1235.0544
 11
1362.4257
 21
1235.7047
  0
LINE
  8
_0-0_LAYER001
  6
CONTINUOUS
 62
    4
 10
1362.4257
 20
1235.7047
 11
1367.0626999999999
 21
1237.4835
  0
LINE
  8
_0-0_LAYER001
  6
CONTINUOUS
 62
    4
 10
1367.0626999999999
 20
1237.4835
 11
1374.2552000000001
 21
1240.1331
  0
LINE
  8
_0-0_LAYER001
  6
CONTINUOUS
 62
    4
 10
1374.2552000000001
 20
1240.1331
 11
1383.5645
 21
1243.3955000000001
  0
LINE
  8
_0-0_LAYER001
  6
CONTINUOUS
 62
    4
 10
1383.5645
 20
1243.3955000000001
 11
1394.5523000000001
 21
1247.0128
  0
LINE
  8
_0-0_LAYER001
  6
CONTINUOUS
 62
    4
 10
1394.5523000000001
 20
1247.0128
 11
1406.78
 21
1250.7271000000001
  0
LINE
  8
_0-0_LAYER001
  6
CONTINUOUS
 62
    4
 10
1406.78
 20
1250.7271000000001
 11
1419.809
 21
1254.2805000000001
  0
LINE
  8
_0-0_LAYER001
  6
CONTINUOUS
 62
    4
 10
1419.809
 20
1254.2805000000001
 11
1433.201
 21
1257.4150999999999
  0
LINE
  8
_0-0_LAYER001
  6
CONTINUOUS
 62
    4
 10
1433.201
 20
1257.4150999999999
 11
1446.5173
 21
1259.8731
  0
LINE
  8
_0-0_LAYER001
  6
CONTINUOUS
 62
    4
 10
1459.3195000000001
 20
1261.3965000000001
 11
1446.4056999999998
 21
1259.8525
  0
LINE
  8
_0-0_LAYER001
  6
CONTINUOUS
 62
    4
 10
1453.9825000000001
 20
1230.5165
 11
1454.0005999999998
 21
1230.0510999999999
  0
LINE
  8
_0-0_LAYER001
  6
CONTINUOUS
 62
    4
 10
1454.0005999999998
 20
1230.0510999999999
 11
1454.0495000000001
 21
1228.7878000000001
  0
LINE
  8
_0-0_LAYER001
  6
CONTINUOUS
 62
    4
 10
1454.0495000000001
 20
1228.7878000000001
 11
1454.1217000000001
 21
1226.9260999999999
  0
LINE
  8
_0-0_LAYER001
  6
CONTINUOUS
 62
    4
 10
1454.1217000000001
 20
1226.9260999999999
 11
1454.2093
 21
1224.6654000000001
  0
LINE
  8
_0-0_LAYER001
  6
CONTINUOUS
 62
    4
 10
1454.2093
 20
1224.6654000000001
 11
1454.3047000000001
 21
1222.2053000000001
  0
LINE
  8
_0-0_LAYER001
  6
CONTINUOUS
 62
    4
 10
1454.3047000000001
 20
1222.2053000000001
 11
1454.4000000000001
 21
1219.7452000000001
  0
LINE
  8
_0-0_LAYER001
  6
CONTINUOUS
 62
    4
 10
1454.4000000000001
 20
1219.7452000000001
 11
1454.4877000000001
 21
1217.4845
  0
LINE
  8
_0-0_LAYER001
  6
CONTINUOUS
 62
    4
 10
1454.4877000000001
 20
1217.4845
 11
1454.5598
 21
1215.6228000000001
  0
LINE
  8
_0-0_LAYER001
  6
CONTINUOUS
 62
    4
 10
1454.5598
 20
1215.6228000000001
 11
1454.6088
 21
1214.3595
  0
LINE
  8
_0-0_LAYER001
  6
CONTINUOUS
 62
    4
 10
1454.6088
 20
1214.3595
 11
1454.6268
 21
1213.894
  0
LINE
  8
_0-0_LAYER001
  6
CONTINUOUS
 62
    4
 10
1454.6268
 20
1213.894
 11
1453.4794000000002
 21
1213.8695
  0
LINE
  8
_0-0_LAYER001
  6
CONTINUOUS
 62
    4
 10
1453.4794000000002
 20
1213.8695
 11
1450.1111000000001
 21
1213.6433
  0
LINE
  8
_0-0_LAYER001
  6
CONTINUOUS
 62
    4
 10
1450.1111000000001
 20
1213.6433
 11
1444.6324
 21
1212.9866999999999
  0
LINE
  8
_0-0_LAYER001
  6
CONTINUOUS
 62
    4
 10
1444.6324
 20
1212.9866999999999
 11
1437.1541999999999
 21
1211.6709000000001
  0
LINE
  8
_0-0_LAYER001
  6
CONTINUOUS
 62
    4
 10
1437.1541999999999
 20
1211.6709000000001
 11
1427.7872
 21
1209.4671000000001
  0
LINE
  8
_0-0_LAYER001
  6
CONTINUOUS
 62
    4
 10
1427.7872
 20
1209.4671000000001
 11
1416.6419999999998
 21
1206.1466
  0
LINE
  8
_0-0_LAYER001
  6
CONTINUOUS
 62
    4
 10
1416.6419999999998
 20
1206.1466
 11
1403.8294000000001
 21
1201.4806000000001
  0
LINE
  8
_0-0_LAYER001
  6
CONTINUOUS
 62
    4
 10
1403.8294000000001
 20
1201.4806000000001
 11
1389.4601
 21
1195.2402999999999
  0
LINE
  8
_0-0_LAYER001
  6
CONTINUOUS
 62
    4
 10
1389.4601
 20
1195.2402999999999
 11
1373.6448
 21
1187.1969999999999
  0
LINE
  8
_0-0_LAYER001
  6
CONTINUOUS
 62
    4
 10
1373.6448
 20
1187.1969999999999
 11
1356.4940999999999
 21
1177.1217999999999
  0
LINE
  8
_0-0_LAYER001
  6
CONTINUOUS
 62
    4
 10
1356.4940999999999
 20
1177.1217999999999
 11
1356.4648
 21
1177.8792000000001
  0
LINE
  8
_0-0_LAYER001
  6
CONTINUOUS
 62
    4
 10
1356.4648
 20
1177.8792000000001
 11
1356.3851
 21
1179.9351999999999
  0
LINE
  8
_0-0_LAYER001
  6
CONTINUOUS
 62
    4
 10
1356.3851
 20
1179.9351999999999
 11
1356.2677000000003
 21
1182.9650999999999
  0
LINE
  8
_0-0_LAYER001
  6
CONTINUOUS
 62
    4
 10
1356.2677000000003
 20
1182.9650999999999
 11
1356.125
 21
1186.6442999999999
  0
LINE
  8
_0-0_LAYER001
  6
CONTINUOUS
 62
    4
 10
1356.125
 20
1186.6442999999999
 11
1355.9698000000001
 21
1190.6481000000001
  0
LINE
  8
_0-0_LAYER001
  6
CONTINUOUS
 62
    4
 10
1355.9698000000001
 20
1190.6481000000001
 11
1355.8146999999999
 21
1194.6519000000001
  0
LINE
  8
_0-0_LAYER001
  6
CONTINUOUS
 62
    4
 10
1355.8146999999999
 20
1194.6519000000001
 11
1355.672
 21
1198.3309999999999
  0
LINE
  8
_0-0_LAYER001
  6
CONTINUOUS
 62
    4
 10
1355.672
 20
1198.3309999999999
 11
1355.5545999999999
 21
1201.3608999999999
  0
LINE
  8
_0-0_LAYER001
  6
CONTINUOUS
 62
    4
 10
1355.5545999999999
 20
1201.3608999999999
 11
1355.4748999999997
 21
1203.4168999999999
  0
LINE
  8
_0-0_LAYER001
  6
CONTINUOUS
 62
    4
 10
1355.4748999999997
 20
1203.4168999999999
 11
1355.4455000000003
 21
1204.1744000000001
  0
LINE
  8
_0-0_LAYER001
  6
CONTINUOUS
 62
    4
 10
1355.4455000000003
 20
1204.1744000000001
 11
1357.0886999999998
 21
1204.8246999999999
  0
LINE
  8
_0-0_LAYER001
  6
CONTINUOUS
 62
    4
 10
1357.0886999999998
 20
1204.8246999999999
 11
1361.7257
 21
1206.6034999999999
  0
LINE
  8
_0-0_LAYER001
  6
CONTINUOUS
 62
    4
 10
1361.7257
 20
1206.6034999999999
 11
1368.9182000000001
 21
1209.2530999999999
  0
LINE
  8
_0-0_LAYER001
  6
CONTINUOUS
 62
    4
 10
1368.9182000000001
 20
1209.2530999999999
 11
1378.2275
 21
1212.5155
  0
LINE
  8
_0-0_LAYER001
  6
CONTINUOUS
 62
    4
 10
1378.2275
 20
1212.5155
 11
1389.2153000000003
 21
1216.1328000000001
  0
LINE
  8
_0-0_LAYER001
  6
CONTINUOUS
 62
    4
 10
1389.2153000000003
 20
1216.1328000000001
 11
1401.4429999999998
 21
1219.8471
  0
LINE
  8
_0-0_LAYER001
  6
CONTINUOUS
 62
    4
 10
1401.4429999999998
 20
1219.8471
 11
1414.4720000000002
 21
1223.4005
  0
LINE
  8
_0-0_LAYER001
  6
CONTINUOUS
 62
    4
 10
1414.4720000000002
 20
1223.4005
 11
1427.864
 21
1226.5351000000001
  0
LINE
  8
_0-0_LAYER001
  6
CONTINUOUS
 62
    4
 10
1427.864
 20
1226.5351000000001
 11
1441.1803
 21
1228.9930999999999
  0
LINE
  8
_0-0_LAYER001
  6
CONTINUOUS
 62
    4
 10
1453.9825000000001
 20
1230.5165
 11
1441.0686999999998
 21
1228.9725000000001
  0
LINE
  8
_0-0_LAYER001
  6
CONTINUOUS
 62
    4
 10
1449.9459000000002
 20
1199.9404
 11
1449.9639000000002
 21
1199.4749999999999
  0
LINE
  8
_0-0_LAYER001
  6
CONTINUOUS
 62
    4
 10
1449.9639000000002
 20
1199.4749999999999
 11
1450.0129000000002
 21
1198.2117000000001
  0
LINE
  8
_0-0_LAYER001
  6
CONTINUOUS
 62
    4
 10
1450.0129000000002
 20
1198.2117000000001
 11
1450.085
 21
1196.3498999999999
  0
LINE
  8
_0-0_LAYER001
  6
CONTINUOUS
 62
    4
 10
1450.085
 20
1196.3498999999999
 11
1450.1727000000001
 21
1194.0893000000001
  0
LINE
  8
_0-0_LAYER001
  6
CONTINUOUS
 62
    4
 10
1450.1727000000001
 20
1194.0893000000001
 11
1450.268
 21
1191.6291000000001
  0
LINE
  8
_0-0_LAYER001
  6
CONTINUOUS
 62
    4
 10
1450.268
 20
1191.6291000000001
 11
1450.3634000000002
 21
1189.1690000000001
  0
LINE
  8
_0-0_LAYER001
  6
CONTINUOUS
 62
    4
 10
1450.3634000000002
 20
1189.1690000000001
 11
1450.451
 21
1186.9084
  0
LINE
  8
_0-0_LAYER001
  6
CONTINUOUS
 62
    4
 10
1450.451
 20
1186.9084
 11
1450.5232000000001
 21
1185.0465999999999
  0
LINE
  8
_0-0_LAYER001
  6
CONTINUOUS
 62
    4
 10
1450.5232000000001
 20
1185.0465999999999
 11
1450.5720999999999
 21
1183.7833000000001
  0
LINE
  8
_0-0_LAYER001
  6
CONTINUOUS
 62
    4
 10
1450.5720999999999
 20
1183.7833000000001
 11
1450.5902000000001
 21
1183.3179
  0
LINE
  8
_0-0_LAYER001
  6
CONTINUOUS
 62
    4
 10
1450.5902000000001
 20
1183.3179
 11
1449.4427999999998
 21
1183.2933
  0
LINE
  8
_0-0_LAYER001
  6
CONTINUOUS
 62
    4
 10
1449.4427999999998
 20
1183.2933
 11
1446.0744
 21
1183.0671
  0
LINE
  8
_0-0_LAYER001
  6
CONTINUOUS
 62
    4
 10
1446.0744
 20
1183.0671
 11
1440.5958000000001
 21
1182.4105
  0
LINE
  8
_0-0_LAYER001
  6
CONTINUOUS
 62
    4
 10
1440.5958000000001
 20
1182.4105
 11
1433.1176
 21
1181.0947000000001
  0
LINE
  8
_0-0_LAYER001
  6
CONTINUOUS
 62
    4
 10
1433.1176
 20
1181.0947000000001
 11
1423.7505000000001
 21
1178.8910000000001
  0
LINE
  8
_0-0_LAYER001
  6
CONTINUOUS
 62
    4
 10
1423.7505000000001
 20
1178.8910000000001
 11
1412.6053999999999
 21
1175.5705
  0
LINE
  8
_0-0_LAYER001
  6
CONTINUOUS
 62
    4
 10
1412.6053999999999
 20
1175.5705
 11
1399.7927999999999
 21
1170.9045000000001
  0
LINE
  8
_0-0_LAYER001
  6
CONTINUOUS
 62
    4
 10
1399.7927999999999
 20
1170.9045000000001
 11
1385.4233999999999
 21
1164.6641999999999
  0
LINE
  8
_0-0_LAYER001
  6
CONTINUOUS
 62
    4
 10
1385.4233999999999
 20
1164.6641999999999
 11
1369.6080999999999
 21
1156.6207999999999
  0
LINE
  8
_0-0_LAYER001
  6
CONTINUOUS
 62
    4
 10
1369.6080999999999
 20
1156.6207999999999
 11
1352.4575
 21
1146.5455999999999
  0
LINE
  8
_0-0_LAYER001
  6
CONTINUOUS
 62
    4
 10
1352.4575
 20
1146.5455999999999
 11
1352.4281000000001
 21
1147.3031000000001
  0
LINE
  8
_0-0_LAYER001
  6
CONTINUOUS
 62
    4
 10
1352.4281000000001
 20
1147.3031000000001
 11
1352.3484000000003
 21
1149.3590999999999
  0
LINE
  8
_0-0_LAYER001
  6
CONTINUOUS
 62
    4
 10
1352.3484000000003
 20
1149.3590999999999
 11
1352.2309999999998
 21
1152.3889999999999
  0
LINE
  8
_0-0_LAYER001
  6
CONTINUOUS
 62
    4
 10
1352.2309999999998
 20
1152.3889999999999
 11
1352.0884000000001
 21
1156.0681999999999
  0
LINE
  8
_0-0_LAYER001
  6
CONTINUOUS
 62
    4
 10
1352.0884000000001
 20
1156.0681999999999
 11
1351.9331999999999
 21
1160.0718999999999
  0
LINE
  8
_0-0_LAYER001
  6
CONTINUOUS
 62
    4
 10
1351.9331999999999
 20
1160.0718999999999
 11
1351.7779999999998
 21
1164.0757000000001
  0
LINE
  8
_0-0_LAYER001
  6
CONTINUOUS
 62
    4
 10
1351.7779999999998
 20
1164.0757000000001
 11
1351.6353999999999
 21
1167.7548999999999
  0
LINE
  8
_0-0_LAYER001
  6
CONTINUOUS
 62
    4
 10
1351.6353999999999
 20
1167.7548999999999
 11
1351.5179000000001
 21
1170.7847999999999
  0
LINE
  8
_0-0_LAYER001
  6
CONTINUOUS
 62
    4
 10
1351.5179000000001
 20
1170.7847999999999
 11
1351.4382000000001
 21
1172.8407999999999
  0
LINE
  8
_0-0_LAYER001
  6
CONTINUOUS
 62
    4
 10
1351.4382000000001
 20
1172.8407999999999
 11
1351.4088999999999
 21
1173.5983000000001
  0
LINE
  8
_0-0_LAYER001
  6
CONTINUOUS
 62
    4
 10
1351.4088999999999
 20
1173.5983000000001
 11
1353.0519999999999
 21
1174.2484999999999
  0
LINE
  8
_0-0_LAYER001
  6
CONTINUOUS
 62
    4
 10
1353.0519999999999
 20
1174.2484999999999
 11
1357.6891000000001
 21
1176.0273999999999
  0
LINE
  8
_0-0_LAYER001
  6
CONTINUOUS
 62
    4
 10
1357.6891000000001
 20
1176.0273999999999
 11
1364.8815
 21
1178.6769999999999
  0
LINE
  8
_0-0_LAYER001
  6
CONTINUOUS
 62
    4
 10
1364.8815
 20
1178.6769999999999
 11
1374.1909000000001
 21
1181.9393
  0
LINE
  8
_0-0_LAYER001
  6
CONTINUOUS
 62
    4
 10
1374.1909000000001
 20
1181.9393
 11
1385.1785999999997
 21
1185.5565999999999
  0
LINE
  8
_0-0_LAYER001
  6
CONTINUOUS
 62
    4
 10
1385.1785999999997
 20
1185.5565999999999
 11
1397.4063000000001
 21
1189.2709
  0
LINE
  8
_0-0_LAYER001
  6
CONTINUOUS
 62
    4
 10
1397.4063000000001
 20
1189.2709
 11
1410.4354000000001
 21
1192.8244
  0
LINE
  8
_0-0_LAYER001
  6
CONTINUOUS
 62
    4
 10
1410.4354000000001
 20
1192.8244
 11
1423.8272999999999
 21
1195.9590000000001
  0
LINE
  8
_0-0_LAYER001
  6
CONTINUOUS
 62
    4
 10
1423.8272999999999
 20
1195.9590000000001
 11
1437.1437000000001
 21
1198.4169999999999
  0
LINE
  8
_0-0_LAYER001
  6
CONTINUOUS
 62
    4
 10
1449.9459000000002
 20
1199.9404
 11
1437.0320000000002
 21
1198.3964000000001
  0
LINE
  8
_0-0_LAYER001
  6
CONTINUOUS
 62
    4
 10
1498.9638
 20
1199.9404
 11
1498.9458
 21
1199.4749999999999
  0
LINE
  8
_0-0_LAYER001
  6
CONTINUOUS
 62
    4
 10
1498.9458
 20
1199.4749999999999
 11
1498.8968
 21
1198.2117000000001
  0
LINE
  8
_0-0_LAYER001
  6
CONTINUOUS
 62
    4
 10
1498.8968
 20
1198.2117000000001
 11
1498.8245999999999
 21
1196.3498999999999
  0
LINE
  8
_0-0_LAYER001
  6
CONTINUOUS
 62
    4
 10
1498.8245999999999
 20
1196.3498999999999
 11
1498.7370000000001
 21
1194.0893000000001
  0
LINE
  8
_0-0_LAYER001
  6
CONTINUOUS
 62
    4
 10
1498.7370000000001
 20
1194.0893000000001
 11
1498.6415999999999
 21
1191.6291000000001
  0
LINE
  8
_0-0_LAYER001
  6
CONTINUOUS
 62
    4
 10
1498.6415999999999
 20
1191.6291000000001
 11
1498.5463
 21
1189.1690000000001
  0
LINE
  8
_0-0_LAYER001
  6
CONTINUOUS
 62
    4
 10
1498.5463
 20
1189.1690000000001
 11
1498.4587000000001
 21
1186.9084
  0
LINE
  8
_0-0_LAYER001
  6
CONTINUOUS
 62
    4
 10
1498.4587000000001
 20
1186.9084
 11
1498.3865000000001
 21
1185.0465999999999
  0
LINE
  8
_0-0_LAYER001
  6
CONTINUOUS
 62
    4
 10
1498.3865000000001
 20
1185.0465999999999
 11
1498.3375000000001
 21
1183.7833000000001
  0
LINE
  8
_0-0_LAYER001
  6
CONTINUOUS
 62
    4
 10
1498.3375000000001
 20
1183.7833000000001
 11
1498.3195000000001
 21
1183.3179
  0
LINE
  8
_0-0_LAYER001
  6
CONTINUOUS
 62
    4
 10
1498.3195000000001
 20
1183.3179
 11
1499.4668999999999
 21
1183.2933
  0
LINE
  8
_0-0_LAYER001
  6
CONTINUOUS
 62
    4
 10
1499.4668999999999
 20
1183.2933
 11
1502.8353000000002
 21
1183.0671
  0
LINE
  8
_0-0_LAYER001
  6
CONTINUOUS
 62
    4
 10
1502.8353000000002
 20
1183.0671
 11
1508.3139000000001
 21
1182.4105
  0
LINE
  8
_0-0_LAYER001
  6
CONTINUOUS
 62
    4
 10
1508.3139000000001
 20
1182.4105
 11
1515.7921000000001
 21
1181.0947000000001
  0
LINE
  8
_0-0_LAYER001
  6
CONTINUOUS
 62
    4
 10
1515.7921000000001
 20
1181.0947000000001
 11
1525.1590999999999
 21
1178.8910000000001
  0
LINE
  8
_0-0_LAYER001
  6
CONTINUOUS
 62
    4
 10
1525.1590999999999
 20
1178.8910000000001
 11
1536.3042999999998
 21
1175.5705
  0
LINE
  8
_0-0_LAYER001
  6
CONTINUOUS
 62
    4
 10
1536.3042999999998
 20
1175.5705
 11
1549.1169
 21
1170.9045000000001
  0
LINE
  8
_0-0_LAYER001
  6
CONTINUOUS
 62
    4
 10
1549.1169
 20
1170.9045000000001
 11
1563.4861999999998
 21
1164.6641999999999
  0
LINE
  8
_0-0_LAYER001
  6
CONTINUOUS
 62
    4
 10
1563.4861999999998
 20
1164.6641999999999
 11
1579.3015
 21
1156.6207999999999
  0
LINE
  8
_0-0_LAYER001
  6
CONTINUOUS
 62
    4
 10
1579.3015
 20
1156.6207999999999
 11
1596.4522000000002
 21
1146.5455999999999
  0
LINE
  8
_0-0_LAYER001
  6
CONTINUOUS
 62
    4
 10
1596.4522000000002
 20
1146.5455999999999
 11
1596.4814999999999
 21
1147.3031000000001
  0
LINE
  8
_0-0_LAYER001
  6
CONTINUOUS
 62
    4
 10
1596.4814999999999
 20
1147.3031000000001
 11
1596.5612000000001
 21
1149.3590999999999
  0
LINE
  8
_0-0_LAYER001
  6
CONTINUOUS
 62
    4
 10
1596.5612000000001
 20
1149.3590999999999
 11
1596.6786999999999
 21
1152.3889999999999
  0
LINE
  8
_0-0_LAYER001
  6
CONTINUOUS
 62
    4
 10
1596.6786999999999
 20
1152.3889999999999
 11
1596.8213000000001
 21
1156.0681999999999
  0
LINE
  8
_0-0_LAYER001
  6
CONTINUOUS
 62
    4
 10
1596.8213000000001
 20
1156.0681999999999
 11
1596.9765000000002
 21
1160.0718999999999
  0
LINE
  8
_0-0_LAYER001
  6
CONTINUOUS
 62
    4
 10
1596.9765000000002
 20
1160.0718999999999
 11
1597.1316999999999
 21
1164.0757000000001
  0
LINE
  8
_0-0_LAYER001
  6
CONTINUOUS
 62
    4
 10
1597.1316999999999
 20
1164.0757000000001
 11
1597.2743
 21
1167.7548999999999
  0
LINE
  8
_0-0_LAYER001
  6
CONTINUOUS
 62
    4
 10
1597.2743
 20
1167.7548999999999
 11
1597.3917000000001
 21
1170.7847999999999
  0
LINE
  8
_0-0_LAYER001
  6
CONTINUOUS
 62
    4
 10
1597.3917000000001
 20
1170.7847999999999
 11
1597.4713999999999
 21
1172.8407999999999
  0
LINE
  8
_0-0_LAYER001
  6
CONTINUOUS
 62
    4
 10
1597.4713999999999
 20
1172.8407999999999
 11
1597.5007999999998
 21
1173.5983000000001
  0
LINE
  8
_0-0_LAYER001
  6
CONTINUOUS
 62
    4
 10
1597.5007999999998
 20
1173.5983000000001
 11
1595.8577
 21
1174.2484999999999
  0
LINE
  8
_0-0_LAYER001
  6
CONTINUOUS
 62
    4
 10
1595.8577
 20
1174.2484999999999
 11
1591.2206000000001
 21
1176.0273999999999
  0
LINE
  8
_0-0_LAYER001
  6
CONTINUOUS
 62
    4
 10
1591.2206000000001
 20
1176.0273999999999
 11
1584.0282000000002
 21
1178.6769999999999
  0
LINE
  8
_0-0_LAYER001
  6
CONTINUOUS
 62
    4
 10
1584.0282000000002
 20
1178.6769999999999
 11
1574.7188000000001
 21
1181.9393
  0
LINE
  8
_0-0_LAYER001
  6
CONTINUOUS
 62
    4
 10
1574.7188000000001
 20
1181.9393
 11
1563.7310000000002
 21
1185.5565999999999
  0
LINE
  8
_0-0_LAYER001
  6
CONTINUOUS
 62
    4
 10
1563.7310000000002
 20
1185.5565999999999
 11
1551.5034000000001
 21
1189.2709
  0
LINE
  8
_0-0_LAYER001
  6
CONTINUOUS
 62
    4
 10
1551.5034000000001
 20
1189.2709
 11
1538.4742999999999
 21
1192.8244
  0
LINE
  8
_0-0_LAYER001
  6
CONTINUOUS
 62
    4
 10
1538.4742999999999
 20
1192.8244
 11
1525.0823
 21
1195.9590000000001
  0
LINE
  8
_0-0_LAYER001
  6
CONTINUOUS
 62
    4
 10
1525.0823
 20
1195.9590000000001
 11
1511.7660000000001
 21
1198.4169999999999
  0
LINE
  8
_0-0_LAYER001
  6
CONTINUOUS
 62
    4
 10
1498.9638
 20
1199.9404
 11
1511.8775999999998
 21
1198.3964000000001
  0
LINE
  8
_0-1_LAYER002
  6
CONTINUOUS
 62
    2
 10
1479.7593999999999
 20
1154.4039
 11
1469.2024999999999
 21
1154.4039
  0
LINE
  8
_0-1_LAYER002
  6
CONTINUOUS
 62
    2
 10
1467.9389999999999
 20
1155.7675999999999
 11
1481.0230000000001
 21
1155.7675999999999
  0
LINE
  8
_0-1_LAYER002
  6
CONTINUOUS
 62
    2
 10
1476.0761000000002
 20
1312.7873999999999
 11
1478.3143
 21
1314.1608999999999
  0
LINE
  8
_0-1_LAYER002
  6
CONTINUOUS
 62
    2
 10
1470.6475
 20
1314.1615999999999
 11
1478.3143
 21
1314.1608999999999
  0
LINE
  8
_0-1_LAYER002
  6
CONTINUOUS
 62
    2
 10
1472.8851
 20
1312.7885000000001
 11
1470.6475
 21
1314.1615999999999
  0
LINE
  8
_0-1_LAYER002
  6
CONTINUOUS
 62
    2
 10
1472.8834999999999
 20
1277.2231999999999
 11
1474.6655999999998
 21
1269.2967000000001
  0
LINE
  8
_0-1_LAYER002
  6
CONTINUOUS
 62
    2
 10
1472.8858
 20
1312.7521999999999
 11
1472.8834999999999
 21
1273.0784000000001
  0
LINE
  8
_0-1_LAYER002
  6
CONTINUOUS
 62
    2
 10
1476.0761000000002
 20
1312.7873999999999
 11
1476.0749000000001
 21
1272.1765
  0
LINE
  8
_0-1_LAYER002
  6
CONTINUOUS
 62
    2
 10
1474.6655999999998
 20
1269.2967000000001
 11
1476.0749000000001
 21
1276.3214
  0
LINE
  8
_0-1_LAYER002
  6
CONTINUOUS
 62
    2
 10
1460.1619000000001
 20
1266.4838999999999
 11
1460.1619000000001
 21
1295.1220000000001
  0
LINE
  8
_0-1_LAYER002
  6
CONTINUOUS
 62
    2
 10
1488.8000000000002
 20
1295.1220000000001
 11
1488.8000000000002
 21
1266.4838999999999
  0
LINE
  8
_0-1_LAYER002
  6
CONTINUOUS
 62
    2
 10
1488.8000000000002
 20
1266.4838999999999
 11
1460.1619000000001
 21
1266.4838999999999
  0
LINE
  8
_0-1_LAYER002
  6
CONTINUOUS
 62
    2
 10
1491.1862999999998
 20
1262.598
 11
1457.7754
 21
1262.598
  0
LINE
  8
_0-1_LAYER002
  6
CONTINUOUS
 62
    2
 10
1460.1619000000001
 20
1266.4838999999999
 11
1488.8000000000002
 21
1295.1220000000001
  0
LINE
  8
_0-1_LAYER002
  6
CONTINUOUS
 62
    2
 10
1460.1619000000001
 20
1295.1220000000001
 11
1488.8000000000002
 21
1295.1220000000001
  0
LINE
  8
_0-1_LAYER002
  6
CONTINUOUS
 62
    2
 10
1460.1619000000001
 20
1295.1220000000001
 11
1488.8000000000002
 21
1266.4838999999999
  0
LINE
  8
_0-1_LAYER002
  6
CONTINUOUS
 62
    2
 10
1489.8226
 20
1263.9614999999999
 11
1459.1390999999999
 21
1263.9614999999999
  0
LINE
  8
_0-1_LAYER002
  6
CONTINUOUS
 62
    2
 10
1457.7754
 20
1262.598
 11
1457.7754
 21
1281.0083
  0
LINE
  8
_0-1_LAYER002
  6
CONTINUOUS
 62
    2
 10
1459.1390999999999
 20
1263.9614999999999
 11
1459.1390999999999
 21
1281.0083
  0
LINE
  8
_0-1_LAYER002
  6
CONTINUOUS
 62
    2
 10
1457.7754
 20
1281.0083
 11
1459.1390999999999
 21
1281.0083
  0
LINE
  8
_0-1_LAYER002
  6
CONTINUOUS
 62
    2
 10
1491.1862999999998
 20
1262.598
 11
1491.1862999999998
 21
1281.0083
  0
LINE
  8
_0-1_LAYER002
  6
CONTINUOUS
 62
    2
 10
1489.8226
 20
1263.9614999999999
 11
1489.8226
 21
1281.0083
  0
LINE
  8
_0-1_LAYER002
  6
CONTINUOUS
 62
    2
 10
1489.8226
 20
1281.0083
 11
1491.1862999999998
 21
1281.0083
  0
LINE
  8
_0-1_LAYER002
  6
CONTINUOUS
 62
    2
 10
1469.2024999999999
 20
1154.4039
 11
1464.7413999999999
 21
1095.9369999999999
  0
LINE
  8
_0-1_LAYER002
  6
CONTINUOUS
 62
    2
 10
1471.4126999999999
 20
1122.931
 11
1477.5491999999999
 21
1122.931
  0
LINE
  8
_0-1_LAYER002
  6
CONTINUOUS
 62
    2
 10
1479.7593999999999
 20
1154.4039
 11
1484.2096999999999
 21
1096.0786000000001
  0
LINE
  8
_0-1_LAYER002
  6
CONTINUOUS
 62
    2
 10
1467.9389999999999
 20
1155.7675999999999
 11
1463.511
 21
1097.7365
  0
LINE
  8
_0-1_LAYER002
  6
CONTINUOUS
 62
    2
 10
1481.0230000000001
 20
1155.7675999999999
 11
1485.4295000000002
 21
1098.0171
  0
LINE
  8
_0-1_LAYER002
  6
CONTINUOUS
 62
    2
 10
1471.4126999999999
 20
1262.598
 11
1471.4126999999999
 21
1122.931
  0
LINE
  8
_0-1_LAYER002
  6
CONTINUOUS
 62
    2
 10
1477.5491999999999
 20
1262.598
 11
1477.5491999999999
 21
1122.931
  0
LINE
  8
_0-1_LAYER002
  6
CONTINUOUS
 62
    2
 10
1472.2175000000002
 20
1277.0447999999999
 11
1476.7408999999998
 21
1278.2569000000001
  0
LINE
  8
_0-1_LAYER002
  6
CONTINUOUS
 62
    2
 10
1472.2175000000002
 20
1279.0427999999999
 11
1476.7408999999998
 21
1280.2548999999999
  0
LINE
  8
_0-1_LAYER002
  6
CONTINUOUS
 62
    2
 10
1472.2175000000002
 20
1281.0408000000002
 11
1476.7408999999998
 21
1282.2529
  0
LINE
  8
_0-1_LAYER002
  6
CONTINUOUS
 62
    2
 10
1472.2175000000002
 20
1283.0387999999998
 11
1476.7408999999998
 21
1284.2509
  0
LINE
  8
_0-1_LAYER002
  6
CONTINUOUS
 62
    2
 10
1472.2175000000002
 20
1285.0368000000001
 11
1476.7408999999998
 21
1286.2489
  0
LINE
  8
_0-1_LAYER002
  6
CONTINUOUS
 62
    2
 10
1472.2175000000002
 20
1287.0347999999999
 11
1476.7408999999998
 21
1288.2469000000001
  0
LINE
  8
_0-1_LAYER002
  6
CONTINUOUS
 62
    2
 10
1472.2175000000002
 20
1289.0328
 11
1476.7408999999998
 21
1290.2448999999999
  0
LINE
  8
_0-1_LAYER002
  6
CONTINUOUS
 62
    2
 10
1472.2175000000002
 20
1291.0308
 11
1476.7408999999998
 21
1292.2428
  0
LINE
  8
_0-1_LAYER002
  6
CONTINUOUS
 62
    2
 10
1472.2175000000002
 20
1293.0288
 11
1476.7408999999998
 21
1294.2408
  0
LINE
  8
_0-1_LAYER002
  6
CONTINUOUS
 62
    2
 10
1472.2175000000002
 20
1295.0268000000001
 11
1476.7408999999998
 21
1296.2388000000001
  0
LINE
  8
_0-1_LAYER002
  6
CONTINUOUS
 62
    2
 10
1472.2175000000002
 20
1297.0247999999997
 11
1476.7408999999998
 21
1298.2367999999999
  0
LINE
  8
_0-1_LAYER002
  6
CONTINUOUS
 62
    2
 10
1472.2175000000002
 20
1299.0228
 11
1476.7408999999998
 21
1300.2348000000002
  0
LINE
  8
_0-1_LAYER002
  6
CONTINUOUS
 62
    2
 10
1472.2175000000002
 20
1301.0208
 11
1476.7408999999998
 21
1302.2327999999998
  0
LINE
  8
_0-1_LAYER002
  6
CONTINUOUS
 62
    2
 10
1472.2175000000002
 20
1303.0188000000001
 11
1476.7408999999998
 21
1304.2309
  0
LINE
  8
_0-0_LAYER001
  6
CONTINUOUS
 62
    2
 10
1575.5437999999999
 20
1205.6479999999999
 11
1570.2404999999999
 21
1200.3447000000001
  0
LINE
  8
_0-0_LAYER001
  6
CONTINUOUS
 62
    2
 10
1570.2404999999999
 20
1200.3447000000001
 11
1572.1815999999999
 21
1207.5890999999999
  0
LINE
  8
_0-0_LAYER001
  6
CONTINUOUS
 62
    2
 10
1570.2404999999999
 20
1200.3447000000001
 11
1613.1556999999998
 21
1274.6759999999999
  0
LINE
  8
_0-0_LAYER001
  6
CONTINUOUS
 62
    2
 10
1613.1556999999998
 20
1274.6759999999999
 11
1727.1556999999998
 21
1274.6759999999999
  0
LINE
  8
_0-0_LAYER001
  6
CONTINUOUS
 62
    2
 10
1533.2730999999999
 20
1283.8696
 11
1527.9697999999999
 21
1278.5663
  0
LINE
  8
_0-0_LAYER001
  6
CONTINUOUS
 62
    2
 10
1527.9697999999999
 20
1278.5663
 11
1529.9108999999999
 21
1285.8107999999997
  0
LINE
  8
_0-0_LAYER001
  6
CONTINUOUS
 62
    2
 10
1527.9697999999999
 20
1278.5663
 11
1567.8110000000001
 21
1347.5734
  0
LINE
  8
_0-0_LAYER001
  6
CONTINUOUS
 62
    2
 10
1567.8110000000001
 20
1347.5734
 11
1608.3110000000001
 21
1347.5734
  0
LINE
  8
_0-0_LAYER001
  6
CONTINUOUS
 62
    2
 10
1488.2390999999998
 20
1244.9987000000001
 11
1484.4890999999998
 21
1238.5035
  0
LINE
  8
_0-0_LAYER001
  6
CONTINUOUS
 62
    2
 10
1484.4890999999998
 20
1238.5035
 11
1484.4890999999998
 21
1246.0035
  0
LINE
  8
_0-0_LAYER001
  6
CONTINUOUS
 62
    2
 10
1484.4890999999998
 20
1238.5035
 11
1530.4616999999998
 21
1410.0752
  0
LINE
  8
_0-0_LAYER001
  6
CONTINUOUS
 62
    2
 10
1530.4616999999998
 20
1410.0752
 11
1606.9616999999998
 21
1410.0752
  0
LINE
  8
_0-6_LAYER007
  6
CONTINUOUS
 62
    2
 10
1737.9524000000001
 20
1075.3100999999999
 11
1732.6491000000001
 21
1070.0068000000001
  0
LINE
  8
_0-6_LAYER007
  6
CONTINUOUS
 62
    2
 10
1732.6491000000001
 20
1070.0068000000001
 11
1734.5902000000001
 21
1077.2512999999999
  0
LINE
  8
_0-6_LAYER007
  6
CONTINUOUS
 62
    2
 10
1732.6491000000001
 20
1070.0068000000001
 11
1789.9675000000002
 21
1169.2853
  0
LINE
  8
_0-6_LAYER007
  6
CONTINUOUS
 62
    2
 10
1789.9675000000002
 20
1169.2853
 11
1830.4675000000002
 21
1169.2853
  0
ARC
  8
_0-0_LAYER001
  6
CONTINUOUS
 62
    2
 10
1251.8873000000001
 20
1143.6990000000001
 40
139.00153
 50
342.49919
 51
9.1390800000000016
  0
LINE
  8
_0-0_LAYER001
  6
CONTINUOUS
 62
    2
 10
1401.5969999999998
 20
1229.0734
 11
1399.8973000000001
 21
1219.3775000000001
  0
LINE
  8
_0-0_LAYER001
  6
CONTINUOUS
 62
    2
 10
1395.1003000000001
 20
1197.6896999999999
 11
1392.4549
 21
1187.7669000000001
  0
LINE
  8
_0-0_LAYER001
  6
CONTINUOUS
 62
    2
 10
1553.8092999999999
 20
1197.6896999999999
 11
1556.4546999999998
 21
1187.7669000000001
  0
LINE
  8
_0-0_LAYER001
  6
CONTINUOUS
 62
    2
 10
1547.3126000000002
 20
1229.0734
 11
1549.0124000000001
 21
1219.3775000000001
  0
LINE
  8
_0-2_LAYER003
  6
CONTINUOUS
 62
    2
 10
730.70579999999995
 20
678.05430000000001
 11
1474.4548
 21
1012.7412999999999
  0
LINE
  8
_0-2_LAYER003
  6
CONTINUOUS
 62
    2
 10
2218.2028
 20
678.05430000000001
 11
1474.4548
 21
1012.7412999999999
  0
LINE
  8
_0-3_LAYER004
  6
DASHED3
 62
    2
 10
2218.2028
 20
764.68429999999989
 11
1474.4548
 21
1099.3713
  0
LINE
  8
_0-4_LAYER005
  6
CONTINUOUS
 62
    4
 10
1399.4548
 20
1251.0905
 11
1415.2088000000001
 21
1254.0905
  0
LINE
  8
_0-4_LAYER005
  6
CONTINUOUS
 62
    4
 10
1533.6997999999999
 20
1254.0905
 11
1549.4548
 21
1251.0905
  0
LINE
  8
_0-2_LAYER003
  6
CONTINUOUS
 62
    2
 10
730.70579999999995
 20
743.84930000000008
 11
1474.4548
 21
1078.5363
  0
LINE
  8
_0-2_LAYER003
  6
CONTINUOUS
 62
    2
 10
2218.2028
 20
743.84930000000008
 11
1474.4548
 21
1078.5363
  0
LINE
  8
_0-2_LAYER003
  6
CONTINUOUS
 62
    2
 10
2218.2028
 20
760.29829999999993
 11
1474.4548
 21
1094.9853000000001
  0
LINE
  8
_0-2_LAYER003
  6
CONTINUOUS
 62
    2
 10
730.70579999999995
 20
760.29829999999993
 11
1474.4548
 21
1094.9853000000001
  0
LINE
  8
_0-6_LAYER007
  6
CONTINUOUS
 62
    2
 10
1384.4548
 20
1062.1613
 11
1384.4548
 21
1059.9683
  0
LINE
  8
_0-6_LAYER007
  6
CONTINUOUS
 62
    2
 10
1564.4548
 20
1062.1613
 11
1564.4548
 21
1059.9683
  0
LINE
  8
_0-6_LAYER007
  6
CONTINUOUS
 62
    2
 10
1384.4548
 20
1062.1613
 11
1474.4548
 21
1102.6613
  0
LINE
  8
_0-6_LAYER007
  6
CONTINUOUS
 62
    2
 10
1564.4537999999998
 20
1062.1613
 11
1474.4548
 21
1102.6613
  0
ARC
  8
_0-4_LAYER005
  6
CONTINUOUS
 62
    4
 10
1474.4548
 20
1237.9475
 40
76.143000000000001
 50
9.9394530000000003
 51
170.06053999999997
  0
ARC
  8
_0-4_LAYER005
  6
CONTINUOUS
 62
    4
 10
1474.4548
 20
1237.5905
 40
61.5
 50
15.562729000000001
 51
164.43727000000001
  0
CIRCLE
  8
_0-5_LAYER006
  6
CONTINUOUS
 62
    2
 10
1434.4058
 20
1269.1295
 40
1.5179999999999998
  0
CIRCLE
  8
_0-5_LAYER006
  6
CONTINUOUS
 62
    2
 10
1443.5147999999999
 20
1275.9625000000001
 40
1.5179999999999998
  0
CIRCLE
  8
_0-5_LAYER006
  6
CONTINUOUS
 62
    2
 10
1442.9358000000002
 20
1274.7695000000001
 40
1.5179999999999998
  0
CIRCLE
  8
_0-5_LAYER006
  6
CONTINUOUS
 62
    2
 10
1501.2107999999998
 20
1272.9255000000001
 40
1.5179999999999998
  0
CIRCLE
  8
_0-5_LAYER006
  6
CONTINUOUS
 62
    2
 10
1510.3208
 20
1272.1665
 40
1.5179999999999998
  0
CIRCLE
  8
_0-5_LAYER006
  6
CONTINUOUS
 62
    2
 10
1508.0437999999999
 20
1275.2035000000001
 40
1.5179999999999998
  0
CIRCLE
  8
_0-5_LAYER006
  6
CONTINUOUS
 62
    2
 10
1450.3478
 20
1287.3495
 40
1.5179999999999998
  0
CIRCLE
  8
_0-5_LAYER006
  6
CONTINUOUS
 62
    2
 10
1444.2748000000001
 20
1285.0725
 40
1.5179999999999998
  0
CIRCLE
  8
_0-5_LAYER006
  6
CONTINUOUS
 62
    2
 10
1438.2008000000001
 20
1275.2035000000001
 40
1.5179999999999998
  0
CIRCLE
  8
_0-5_LAYER006
  6
CONTINUOUS
 62
    2
 10
1501.2107999999998
 20
1268.3705
 40
1.5179999999999998
  0
CIRCLE
  8
_0-5_LAYER006
  6
CONTINUOUS
 62
    2
 10
1512.5988000000002
 20
1266.0934999999999
 40
1.5179999999999998
  0
CIRCLE
  8
_0-5_LAYER006
  6
CONTINUOUS
 62
    2
 10
1517.9128000000001
 20
1265.3335
 40
1.5179999999999998
  0
CIRCLE
  8
_0-5_LAYER006
  6
CONTINUOUS
 62
    2
 10
1503.4888000000001
 20
1280.5174999999999
 40
1.5179999999999998
  0
CIRCLE
  8
_0-5_LAYER006
  6
CONTINUOUS
 62
    2
 10
1467.9207999999999
 20
1208.5965000000001
 40
1.5179999999999998
  0
CIRCLE
  8
_0-5_LAYER006
  6
CONTINUOUS
 62
    2
 10
1495.8968
 20
1211.2045000000001
 40
1.5179999999999998
  0
CIRCLE
  8
_0-5_LAYER006
  6
CONTINUOUS
 62
    2
 10
1451.2197999999999
 20
1207.8375000000001
 40
1.5179999999999998
  0
CIRCLE
  8
_0-5_LAYER006
  6
CONTINUOUS
 62
    2
 10
1445.1457999999998
 20
1205.5595000000001
 40
1.5179999999999998
  0
CIRCLE
  8
_0-5_LAYER006
  6
CONTINUOUS
 62
    2
 10
1432.9998000000001
 20
1204.0415
 40
1.5179999999999998
  0
CIRCLE
  8
_0-5_LAYER006
  6
CONTINUOUS
 62
    2
 10
1422.3717999999999
 20
1203.2825
 40
1.5179999999999998
  0
CIRCLE
  8
_0-5_LAYER006
  6
CONTINUOUS
 62
    2
 10
1413.2618
 20
1201.0045
 40
1.5179999999999998
  0
CIRCLE
  8
_0-5_LAYER006
  6
CONTINUOUS
 62
    2
 10
1407.9477999999999
 20
1198.7275
 40
1.5179999999999998
  0
CIRCLE
  8
_0-5_LAYER006
  6
CONTINUOUS
 62
    2
 10
1400.3558
 20
1197.2094999999999
 40
1.5179999999999998
  0
CIRCLE
  8
_0-5_LAYER006
  6
CONTINUOUS
 62
    2
 10
1436.7957999999999
 20
1163.0474999999999
 40
1.5179999999999998
  0
CIRCLE
  8
_0-5_LAYER006
  6
CONTINUOUS
 62
    2
 10
1439.8317999999999
 20
1150.1415
 40
1.5179999999999998
  0
CIRCLE
  8
_0-5_LAYER006
  6
CONTINUOUS
 62
    2
 10
1444.3868000000002
 20
1157.7325000000001
 40
1.5179999999999998
  0
CIRCLE
  8
_0-5_LAYER006
  6
CONTINUOUS
 62
    2
 10
1447.4238
 20
1163.0474999999999
 40
1.5179999999999998
  0
CIRCLE
  8
_0-5_LAYER006
  6
CONTINUOUS
 62
    2
 10
1426.9268
 20
1163.0474999999999
 40
1.5179999999999998
  0
CIRCLE
  8
_0-5_LAYER006
  6
CONTINUOUS
 62
    2
 10
1423.8897999999999
 20
1165.3244999999999
 40
1.5179999999999998
  0
CIRCLE
  8
_0-5_LAYER006
  6
CONTINUOUS
 62
    2
 10
1396.4477999999999
 20
1151.2304999999999
 40
1.5179999999999998
  0
CIRCLE
  8
_0-5_LAYER006
  6
CONTINUOUS
 62
    2
 10
1394.2828
 20
1147.1044999999999
 40
1.5179999999999998
  0
CIRCLE
  8
_0-5_LAYER006
  6
CONTINUOUS
 62
    2
 10
1410.1117999999999
 20
1149.7125000000001
 40
1.5179999999999998
  0
CIRCLE
  8
_0-5_LAYER006
  6
CONTINUOUS
 62
    2
 10
1399.4186
 20
1123.4768999999999
 40
1.5179999999999998
  0
CIRCLE
  8
_0-5_LAYER006
  6
CONTINUOUS
 62
    2
 10
1400.1776
 20
1121.1999000000001
 40
1.5179999999999998
  0
CIRCLE
  8
_0-5_LAYER006
  6
CONTINUOUS
 62
    2
 10
1397.9005999999999
 20
1117.4039
 40
1.5179999999999998
  0
CIRCLE
  8
_0-5_LAYER006
  6
CONTINUOUS
 62
    2
 10
1405.4916000000001
 20
1118.9219000000001
 40
1.5179999999999998
  0
CIRCLE
  8
_0-5_LAYER006
  6
CONTINUOUS
 62
    2
 10
1414.6016
 20
1123.4768999999999
 40
1.5179999999999998
  0
CIRCLE
  8
_0-5_LAYER006
  6
CONTINUOUS
 62
    2
 10
1426.1668
 20
1158.4925000000001
 40
1.5179999999999998
  0
CIRCLE
  8
_0-5_LAYER006
  6
CONTINUOUS
 62
    2
 10
1502.7298000000001
 20
1104.9693
 40
1.5179999999999998
  0
CIRCLE
  8
_0-5_LAYER006
  6
CONTINUOUS
 62
    2
 10
1505.0068000000001
 20
1111.8023000000001
 40
1.5179999999999998
  0
CIRCLE
  8
_0-5_LAYER006
  6
CONTINUOUS
 62
    2
 10
1497.4148
 20
1151.2782999999999
 40
1.5179999999999998
  0
CIRCLE
  8
_0-5_LAYER006
  6
CONTINUOUS
 62
    2
 10
1505.7658000000001
 20
1170.9684999999999
 40
1.5179999999999998
  0
CIRCLE
  8
_0-5_LAYER006
  6
CONTINUOUS
 62
    2
 10
1540.6867999999999
 20
1172.4875
 40
1.5179999999999998
  0
CIRCLE
  8
_0-5_LAYER006
  6
CONTINUOUS
 62
    2
 10
1544.4828000000002
 20
1161.8595
 40
1.5179999999999998
  0
CIRCLE
  8
_0-5_LAYER006
  6
CONTINUOUS
 62
    2
 10
1539.9277999999999
 20
1155.0264999999999
 40
1.5179999999999998
  0
CIRCLE
  8
_0-5_LAYER006
  6
CONTINUOUS
 62
    2
 10
1552.0747999999999
 20
1148.9535000000001
 40
1.5179999999999998
  0
CIRCLE
  8
_0-5_LAYER006
  6
CONTINUOUS
 62
    2
 10
1549.0378000000001
 20
1157.3045
 40
1.5179999999999998
  0
CIRCLE
  8
_0-5_LAYER006
  6
CONTINUOUS
 62
    2
 10
1554.8687
 20
1125.2371000000001
 40
1.5179999999999998
  0
CIRCLE
  8
_0-5_LAYER006
  6
CONTINUOUS
 62
    2
 10
1536.1318000000001
 20
1146.6755000000001
 40
1.5179999999999998
  0
CIRCLE
  8
_0-5_LAYER006
  6
CONTINUOUS
 62
    2
 10
1536.6496999999999
 20
1125.9961000000001
 40
1.5179999999999998
  0
CIRCLE
  8
_0-5_LAYER006
  6
CONTINUOUS
 62
    2
 10
1540.4447
 20
1124.4781
 40
1.5179999999999998
  0
CIRCLE
  8
_0-5_LAYER006
  6
CONTINUOUS
 62
    2
 10
1552.5916999999999
 20
1118.4050999999999
 40
1.5179999999999998
  0
CIRCLE
  8
_0-5_LAYER006
  6
CONTINUOUS
 62
    2
 10
1554.8687
 20
1118.4050999999999
 40
1.5179999999999998
  0
CIRCLE
  8
_0-5_LAYER006
  6
CONTINUOUS
 62
    2
 10
1540.4447
 20
1122.2011
 40
1.5179999999999998
  0
CIRCLE
  8
_0-5_LAYER006
  6
CONTINUOUS
 62
    2
 10
1517.1538
 20
1158.0635
 40
1.5179999999999998
  0
CIRCLE
  8
_0-5_LAYER006
  6
CONTINUOUS
 62
    2
 10
1495.1378
 20
1129.2623000000001
 40
1.5179999999999998
  0
CIRCLE
  8
_0-5_LAYER006
  6
CONTINUOUS
 62
    2
 10
1493.6197999999999
 20
1117.1162999999999
 40
1.5179999999999998
  0
CIRCLE
  8
_0-5_LAYER006
  6
CONTINUOUS
 62
    2
 10
1488.3058000000001
 20
1112.5613000000001
 40
1.5179999999999998
  0
CIRCLE
  8
_0-5_LAYER006
  6
CONTINUOUS
 62
    2
 10
1445.7928000000002
 20
1104.9693
 40
1.5179999999999998
  0
CIRCLE
  8
_0-5_LAYER006
  6
CONTINUOUS
 62
    2
 10
1444.2748000000001
 20
1123.9483
 40
1.5179999999999998
  0
CIRCLE
  8
_0-5_LAYER006
  6
CONTINUOUS
 62
    2
 10
1401.6956
 20
1116.6449
 40
1.5179999999999998
  0
CIRCLE
  8
_0-5_LAYER006
  6
CONTINUOUS
 62
    2
 10
1397.3198
 20
1146.3454999999999
 40
1.5179999999999998
  0
CIRCLE
  8
_0-5_LAYER006
  6
CONTINUOUS
 62
    2
 10
1395.8008
 20
1160.7695000000001
 40
1.5179999999999998
  0
CIRCLE
  8
_0-5_LAYER006
  6
CONTINUOUS
 62
    2
 10
1405.6698000000001
 20
1166.8425
 40
1.5179999999999998
  0
CIRCLE
  8
_0-5_LAYER006
  6
CONTINUOUS
 62
    2
 10
1442.8688000000002
 20
1172.1565000000001
 40
1.5179999999999998
  0
CIRCLE
  8
_0-5_LAYER006
  6
CONTINUOUS
 62
    2
 10
1457.2928000000002
 20
1154.7433000000001
 40
1.5179999999999998
  0
CIRCLE
  8
_0-5_LAYER006
  6
CONTINUOUS
 62
    2
 10
1457.2928000000002
 20
1192.6545000000001
 40
1.5179999999999998
  0
CIRCLE
  8
_0-5_LAYER006
  6
CONTINUOUS
 62
    2
 10
1505.0068000000001
 20
1148.9535000000001
 40
1.5179999999999998
  0
CIRCLE
  8
_0-5_LAYER006
  6
CONTINUOUS
 62
    2
 10
1489.8238000000001
 20
1109.5243
 40
1.5179999999999998
  0
CIRCLE
  8
_0-5_LAYER006
  6
CONTINUOUS
 62
    2
 10
1426.9268
 20
1148.6234999999999
 40
1.5179999999999998
  0
CIRCLE
  8
_0-5_LAYER006
  6
CONTINUOUS
 62
    2
 10
1442.8688000000002
 20
1156.9735000000001
 40
1.5179999999999998
  0
CIRCLE
  8
_0-5_LAYER006
  6
CONTINUOUS
 62
    2
 10
1424.6487999999999
 20
1172.9165
 40
1.5179999999999998
  0
CIRCLE
  8
_0-5_LAYER006
  6
CONTINUOUS
 62
    2
 10
1461.0888
 20
1144.1152999999999
 40
1.5179999999999998
  0
CIRCLE
  8
_0-5_LAYER006
  6
CONTINUOUS
 62
    2
 10
1501.9697999999999
 20
1123.1893
 40
1.5179999999999998
  0
CIRCLE
  8
_0-5_LAYER006
  6
CONTINUOUS
 62
    2
 10
1508.8027999999999
 20
1146.6755000000001
 40
1.5179999999999998
  0
CIRCLE
  8
_0-5_LAYER006
  6
CONTINUOUS
 62
    2
 10
1448.1828
 20
1167.6015
 40
1.5179999999999998
  0
CIRCLE
  8
_0-5_LAYER006
  6
CONTINUOUS
 62
    2
 10
1436.7957999999999
 20
1167.6015
 40
1.5179999999999998
  0
CIRCLE
  8
_0-5_LAYER006
  6
CONTINUOUS
 62
    2
 10
1456.4207999999999
 20
1108.0063
 40
1.5179999999999998
  0
CIRCLE
  8
_0-5_LAYER006
  6
CONTINUOUS
 62
    2
 10
1454.1437999999998
 20
1102.6922999999999
 40
1.5179999999999998
  0
CIRCLE
  8
_0-5_LAYER006
  6
CONTINUOUS
 62
    2
 10
1414.0208000000002
 20
1151.6595
 40
1.5179999999999998
  0
CIRCLE
  8
_0-5_LAYER006
  6
CONTINUOUS
 62
    2
 10
1415.5387999999998
 20
1156.9735000000001
 40
1.5179999999999998
  0
CIRCLE
  8
_0-5_LAYER006
  6
CONTINUOUS
 62
    2
 10
1498.1747999999998
 20
1158.1103000000001
 40
1.5179999999999998
  0
CIRCLE
  8
_0-5_LAYER006
  6
CONTINUOUS
 62
    2
 10
1427.5727999999999
 20
1262.2974999999999
 40
1.5179999999999998
  0
CIRCLE
  8
_0-5_LAYER006
  6
CONTINUOUS
 62
    2
 10
1442.7557999999999
 20
1266.8525
 40
1.5179999999999998
  0
CIRCLE
  8
_0-5_LAYER006
  6
CONTINUOUS
 62
    2
 10
1429.8507999999997
 20
1274.4435000000001
 40
1.5179999999999998
  0
CIRCLE
  8
_0-5_LAYER006
  6
CONTINUOUS
 62
    2
 10
1517.1538
 20
1275.2035000000001
 40
1.5179999999999998
  0
CIRCLE
  8
_0-5_LAYER006
  6
CONTINUOUS
 62
    2
 10
1497.4148
 20
1285.8314999999998
 40
1.5179999999999998
  0
CIRCLE
  8
_0-5_LAYER006
  6
CONTINUOUS
 62
    2
 10
1456.5578
 20
1238.7175
 40
1.5179999999999998
  0
CIRCLE
  8
_0-5_LAYER006
  6
CONTINUOUS
 62
    2
 10
1450.4838
 20
1236.4404999999999
 40
1.5179999999999998
  0
CIRCLE
  8
_0-5_LAYER006
  6
CONTINUOUS
 62
    2
 10
1438.3377999999998
 20
1234.9214999999999
 40
1.5179999999999998
  0
CIRCLE
  8
_0-5_LAYER006
  6
CONTINUOUS
 62
    2
 10
1427.7098000000001
 20
1234.1624999999999
 40
1.5179999999999998
  0
CIRCLE
  8
_0-5_LAYER006
  6
CONTINUOUS
 62
    2
 10
1418.5998
 20
1231.8855000000001
 40
1.5179999999999998
  0
CIRCLE
  8
_0-5_LAYER006
  6
CONTINUOUS
 62
    2
 10
1413.2858000000001
 20
1229.6075000000001
 40
1.5179999999999998
  0
CIRCLE
  8
_0-5_LAYER006
  6
CONTINUOUS
 62
    2
 10
1405.6938
 20
1228.0895
 40
1.5179999999999998
  0
CIRCLE
  8
_0-5_LAYER006
  6
CONTINUOUS
 62
    2
 10
1462.6307999999999
 20
1206.8335
 40
1.5179999999999998
  0
CIRCLE
  8
_0-5_LAYER006
  6
CONTINUOUS
 62
    2
 10
1462.6307999999999
 20
1223.5345
 40
1.5179999999999998
  0
CIRCLE
  8
_0-5_LAYER006
  6
CONTINUOUS
 62
    2
 10
1515.9088000000002
 20
1204.0415
 40
1.5179999999999998
  0
CIRCLE
  8
_0-5_LAYER006
  6
CONTINUOUS
 62
    2
 10
1526.5367999999999
 20
1203.2825
 40
1.5179999999999998
  0
CIRCLE
  8
_0-5_LAYER006
  6
CONTINUOUS
 62
    2
 10
1535.6468
 20
1201.0045
 40
1.5179999999999998
  0
CIRCLE
  8
_0-5_LAYER006
  6
CONTINUOUS
 62
    2
 10
1540.9607999999998
 20
1198.7275
 40
1.5179999999999998
  0
CIRCLE
  8
_0-5_LAYER006
  6
CONTINUOUS
 62
    2
 10
1548.5527999999999
 20
1197.2094999999999
 40
1.5179999999999998
  0
CIRCLE
  8
_0-5_LAYER006
  6
CONTINUOUS
 62
    2
 10
1512.1127999999999
 20
1163.0474999999999
 40
1.5179999999999998
  0
CIRCLE
  8
_0-5_LAYER006
  6
CONTINUOUS
 62
    2
 10
1509.0767999999998
 20
1150.1415
 40
1.5179999999999998
  0
CIRCLE
  8
_0-5_LAYER006
  6
CONTINUOUS
 62
    2
 10
1521.9818
 20
1163.0474999999999
 40
1.5179999999999998
  0
CIRCLE
  8
_0-5_LAYER006
  6
CONTINUOUS
 62
    2
 10
1525.0187999999998
 20
1165.3244999999999
 40
1.5179999999999998
  0
CIRCLE
  8
_0-5_LAYER006
  6
CONTINUOUS
 62
    2
 10
1552.4607999999998
 20
1151.2304999999999
 40
1.5179999999999998
  0
CIRCLE
  8
_0-5_LAYER006
  6
CONTINUOUS
 62
    2
 10
1554.6257999999998
 20
1147.1044999999999
 40
1.5179999999999998
  0
CIRCLE
  8
_0-5_LAYER006
  6
CONTINUOUS
 62
    2
 10
1538.7968000000001
 20
1149.7125000000001
 40
1.5179999999999998
  0
CIRCLE
  8
_0-5_LAYER006
  6
CONTINUOUS
 62
    2
 10
1522.7417999999998
 20
1158.4925000000001
 40
1.5179999999999998
  0
CIRCLE
  8
_0-5_LAYER006
  6
CONTINUOUS
 62
    2
 10
1504.6347999999998
 20
1123.9483
 40
1.5179999999999998
  0
CIRCLE
  8
_0-5_LAYER006
  6
CONTINUOUS
 62
    2
 10
1551.5898000000002
 20
1146.3454999999999
 40
1.5179999999999998
  0
CIRCLE
  8
_0-5_LAYER006
  6
CONTINUOUS
 62
    2
 10
1553.1078000000002
 20
1160.7695000000001
 40
1.5179999999999998
  0
CIRCLE
  8
_0-5_LAYER006
  6
CONTINUOUS
 62
    2
 10
1543.2388000000001
 20
1166.8425
 40
1.5179999999999998
  0
CIRCLE
  8
_0-5_LAYER006
  6
CONTINUOUS
 62
    2
 10
1506.0398
 20
1172.1565000000001
 40
1.5179999999999998
  0
CIRCLE
  8
_0-5_LAYER006
  6
CONTINUOUS
 62
    2
 10
1491.6158
 20
1154.7433000000001
 40
1.5179999999999998
  0
CIRCLE
  8
_0-5_LAYER006
  6
CONTINUOUS
 62
    2
 10
1491.6158
 20
1192.6545000000001
 40
1.5179999999999998
  0
CIRCLE
  8
_0-5_LAYER006
  6
CONTINUOUS
 62
    2
 10
1490.2107999999998
 20
1123.9483
 40
1.5179999999999998
  0
CIRCLE
  8
_0-5_LAYER006
  6
CONTINUOUS
 62
    2
 10
1521.9818
 20
1148.6234999999999
 40
1.5179999999999998
  0
CIRCLE
  8
_0-5_LAYER006
  6
CONTINUOUS
 62
    2
 10
1524.2597999999998
 20
1172.9165
 40
1.5179999999999998
  0
CIRCLE
  8
_0-5_LAYER006
  6
CONTINUOUS
 62
    2
 10
1487.8198000000002
 20
1144.1152999999999
 40
1.5179999999999998
  0
CIRCLE
  8
_0-5_LAYER006
  6
CONTINUOUS
 62
    2
 10
1512.1127999999999
 20
1167.6015
 40
1.5179999999999998
  0
CIRCLE
  8
_0-5_LAYER006
  6
CONTINUOUS
 62
    2
 10
1534.8878
 20
1151.6595
 40
1.5179999999999998
  0
CIRCLE
  8
_0-5_LAYER006
  6
CONTINUOUS
 62
    2
 10
1533.3697999999999
 20
1156.9735000000001
 40
1.5179999999999998
  0
CIRCLE
  8
_0-5_LAYER006
  6
CONTINUOUS
 62
    2
 10
1492.3517999999999
 20
1238.7175
 40
1.5179999999999998
  0
CIRCLE
  8
_0-5_LAYER006
  6
CONTINUOUS
 62
    2
 10
1498.4247999999998
 20
1236.4404999999999
 40
1.5179999999999998
  0
CIRCLE
  8
_0-5_LAYER006
  6
CONTINUOUS
 62
    2
 10
1510.5708
 20
1234.9214999999999
 40
1.5179999999999998
  0
CIRCLE
  8
_0-5_LAYER006
  6
CONTINUOUS
 62
    2
 10
1521.1997999999999
 20
1234.1624999999999
 40
1.5179999999999998
  0
CIRCLE
  8
_0-5_LAYER006
  6
CONTINUOUS
 62
    2
 10
1530.3087999999998
 20
1231.8855000000001
 40
1.5179999999999998
  0
CIRCLE
  8
_0-5_LAYER006
  6
CONTINUOUS
 62
    2
 10
1535.6237999999998
 20
1229.6075000000001
 40
1.5179999999999998
  0
CIRCLE
  8
_0-5_LAYER006
  6
CONTINUOUS
 62
    2
 10
1543.2148000000002
 20
1228.0895
 40
1.5179999999999998
  0
CIRCLE
  8
_0-5_LAYER006
  6
CONTINUOUS
 62
    2
 10
1486.4928
 20
1147.3472999999999
 40
1.5179999999999998
  0
CIRCLE
  8
_0-5_LAYER006
  6
CONTINUOUS
 62
    2
 10
1487.2518
 20
1151.9023
 40
1.5179999999999998
  0
CIRCLE
  8
_0-5_LAYER006
  6
CONTINUOUS
 62
    2
 10
1504.0237999999999
 20
1160.5425
 40
1.5179999999999998
  0
CIRCLE
  8
_0-5_LAYER006
  6
CONTINUOUS
 62
    2
 10
1504.7828
 20
1165.0975000000001
 40
1.5179999999999998
  0
CIRCLE
  8
_0-5_LAYER006
  6
CONTINUOUS
 62
    2
 10
1483.9888000000001
 20
1130.3172999999999
 40
1.5179999999999998
  0
CIRCLE
  8
_0-5_LAYER006
  6
CONTINUOUS
 62
    2
 10
1484.7478000000001
 20
1134.8723
 40
1.5179999999999998
  0
CIRCLE
  8
_0-5_LAYER006
  6
CONTINUOUS
 62
    2
 10
1482.4857999999999
 20
1163.8773000000001
 40
1.5179999999999998
  0
CIRCLE
  8
_0-5_LAYER006
  6
CONTINUOUS
 62
    2
 10
1483.2447999999999
 20
1189.6405
 40
1.5179999999999998
  0
CIRCLE
  8
_0-5_LAYER006
  6
CONTINUOUS
 62
    2
 10
1481.7428
 20
1203.1645000000001
 40
1.5179999999999998
  0
CIRCLE
  8
_0-5_LAYER006
  6
CONTINUOUS
 62
    2
 10
1479.7388000000001
 20
1227.7085
 40
1.5179999999999998
  0
CIRCLE
  8
_0-5_LAYER006
  6
CONTINUOUS
 62
    2
 10
1482.9868000000001
 20
1229.6645000000001
 40
1.5179999999999998
  0
CIRCLE
  8
_0-5_LAYER006
  6
CONTINUOUS
 62
    2
 10
1483.7458000000001
 20
1234.2194999999999
 40
1.5179999999999998
  0
CIRCLE
  8
_0-5_LAYER006
  6
CONTINUOUS
 62
    2
 10
1495.0077999999999
 20
1205.1215
 40
1.5179999999999998
  0
CIRCLE
  8
_0-5_LAYER006
  6
CONTINUOUS
 62
    2
 10
1495.7667999999999
 20
1209.6765
 40
1.5179999999999998
  0
CIRCLE
  8
_0-5_LAYER006
  6
CONTINUOUS
 62
    2
 10
1536.8407000000002
 20
1117.8711000000001
 40
1.5179999999999998
  0
CIRCLE
  8
_0-5_LAYER006
  6
CONTINUOUS
 62
    2
 10
1537.5997000000002
 20
1122.4260999999999
 40
1.5179999999999998
  0
CIRCLE
  8
_0-5_LAYER006
  6
CONTINUOUS
 62
    2
 10
1483.6248000000001
 20
1254.1455000000001
 40
1.5179999999999998
  0
CIRCLE
  8
_0-5_LAYER006
  6
CONTINUOUS
 62
    2
 10
1483.0648000000001
 20
1245.9335000000001
 40
1.5179999999999998
  0
CIRCLE
  8
_0-5_LAYER006
  6
CONTINUOUS
 62
    2
 10
1483.0648000000001
 20
1239.0284999999999
 40
1.5179999999999998
  0
CIRCLE
  8
_0-5_LAYER006
  6
CONTINUOUS
 62
    2
 10
1466.0808000000002
 20
1239.5885000000001
 40
1.5179999999999998
  0
CIRCLE
  8
_0-5_LAYER006
  6
CONTINUOUS
 62
    2
 10
1448.7238000000002
 20
1270.7565
 40
1.5179999999999998
  0
CIRCLE
  8
_0-5_LAYER006
  6
CONTINUOUS
 62
    2
 10
1402.6207999999999
 20
1157.6755000000001
 40
1.5179999999999998
  0
CIRCLE
  8
_0-5_LAYER006
  6
CONTINUOUS
 62
    2
 10
1420.2726000000002
 20
1122.5959
 40
1.5179999999999998
  0
ARC
  8
_0-6_LAYER007
  6
CONTINUOUS
 62
    2
 10
1474.8517999999999
 20
1074.9175
 40
187.19999999999999
 50
79.328232
 51
99.345168999999999
  0
ARC
  8
_0-6_LAYER007
  6
CONTINUOUS
 62
    2
 10
1476.0798
 20
1114.2035000000001
 40
119.67700000000001
 50
73.946152000000012
 51
105.32263
  0
ARC
  8
_0-6_LAYER007
  6
CONTINUOUS
 62
    2
 10
1475.9688000000001
 20
1066.7225000000001
 40
136.42599999999999
 50
75.912734999999998
 51
103.35594999999999
  0
LINE
  8
_0-1_LAYER002
  6
CONTINUOUS
 62
    2
 10
1444.4540000000002
 20
1259.633
 11
1444.4540000000002
 21
1242.8961999999999
  0
LINE
  8
_0-1_LAYER002
  6
CONTINUOUS
 62
    2
 10
1509.518
 20
1258.8797999999999
 11
1509.518
 21
1241.8216
  0
LINE
  8
_0-0_LAYER001
  6
CONTINUOUS
 62
    2
 10
1509.518
 20
1241.8216
 11
1444.4540000000002
 21
1242.8961999999999
  0
LINE
  8
_0-1_LAYER002
  6
CONTINUOUS
 62
    2
 10
1509.1754000000001
 20
1229.2134000000001
 11
1509.1754000000001
 21
1212.1248000000001
  0
LINE
  8
_0-1_LAYER002
  6
CONTINUOUS
 62
    2
 10
1444.4546999999998
 20
1229.6264000000001
 11
1444.4546999999998
 21
1212.9554000000001
  0
LINE
  8
_0-0_LAYER001
  6
CONTINUOUS
 62
    2
 10
1444.4546999999998
 20
1212.9554000000001
 11
1509.1754000000001
 21
1212.1248000000001
  0
LINE
  8
_0-1_LAYER002
  6
CONTINUOUS
 62
    2
 10
1444.4544000000001
 20
1199.4586999999999
 11
1444.4544000000001
 21
1183.0842
  0
LINE
  8
_0-1_LAYER002
  6
CONTINUOUS
 62
    2
 10
1509.1747999999998
 20
1199.0456999999999
 11
1509.1747999999998
 21
1182.4014
  0
LINE
  8
_0-0_LAYER001
  6
CONTINUOUS
 62
    2
 10
1509.1747999999998
 20
1182.4014
 11
1444.4544000000001
 21
1183.0842
  0
ARC
  8
_0-0_LAYER001
  6
DASHED1
 62
    2
 10
1697.0223999999998
 20
1143.6990000000001
 40
139.00153
 50
170.86091999999999
 51
197.50080000000003
  0
LINE
  8
_0-0_LAYER001
  6
CONTINUOUS
 62
    2
 10
1437.1777999999999
 20
1086.0201
 11
1464.5355
 21
1098.3309999999999
  0
LINE
  8
_0-0_LAYER001
  6
CONTINUOUS
 62
    2
 10
1458.3800000000001
 20
1112.0098
 11
1431.0223999999998
 21
1099.6989000000001
  0
LINE
  8
_0-0_LAYER001
  6
CONTINUOUS
 62
    2
 10
1464.5355
 20
1098.3309999999999
 11
1458.3800000000001
 21
1112.0098
  0
LINE
  8
_0-0_LAYER001
  6
CONTINUOUS
 62
    2
 10
1431.0223999999998
 20
1099.6989000000001
 11
1437.1777999999999
 21
1086.0201
  0
LINE
  8
_0-0_LAYER001
  6
CONTINUOUS
 62
    2
 10
1458.3800000000001
 20
1112.0098
 11
1437.1777999999999
 21
1086.0201
  0
LINE
  8
_0-0_LAYER001
  6
CONTINUOUS
 62
    2
 10
1231.5002999999999
 20
993.46499999999992
 11
1258.8475000000001
 21
1005.799
  0
LINE
  8
_0-0_LAYER001
  6
CONTINUOUS
 62
    2
 10
1252.6804999999999
 20
1019.4727
 11
1225.3332
 21
1007.1387
  0
LINE
  8
_0-0_LAYER001
  6
CONTINUOUS
 62
    2
 10
1258.8475000000001
 20
1005.799
 11
1252.6804999999999
 21
1019.4727
  0
LINE
  8
_0-0_LAYER001
  6
CONTINUOUS
 62
    2
 10
1225.3332
 20
1007.1387
 11
1231.5002999999999
 21
993.46499999999992
  0
LINE
  8
_0-0_LAYER001
  6
CONTINUOUS
 62
    2
 10
1252.6804999999999
 20
1019.4727
 11
1231.5002999999999
 21
993.46499999999992
  0
LINE
  8
_0-0_LAYER001
  6
CONTINUOUS
 62
    2
 10
1025.7328
 20
900.86959999999999
 11
1053.0904
 21
913.18049999999994
  0
LINE
  8
_0-0_LAYER001
  6
CONTINUOUS
 62
    2
 10
1046.9349
 20
926.85930000000008
 11
1019.5772999999999
 21
914.5483999999999
  0
LINE
  8
_0-0_LAYER001
  6
CONTINUOUS
 62
    2
 10
1053.0904
 20
913.18049999999994
 11
1046.9349
 21
926.85930000000008
  0
LINE
  8
_0-0_LAYER001
  6
CONTINUOUS
 62
    2
 10
1019.5772999999999
 20
914.5483999999999
 11
1025.7328
 21
900.86959999999999
  0
LINE
  8
_0-0_LAYER001
  6
CONTINUOUS
 62
    2
 10
1046.9349
 20
926.85930000000008
 11
1025.7328
 21
900.86959999999999
  0
LINE
  8
_0-0_LAYER001
  6
CONTINUOUS
 62
    2
 10
819.96530000000007
 20
808.27410000000009
 11
847.32289999999989
 21
820.58500000000004
  0
LINE
  8
_0-0_LAYER001
  6
CONTINUOUS
 62
    2
 10
841.16740000000004
 20
834.26379999999995
 11
813.8098
 21
821.9529
  0
LINE
  8
_0-0_LAYER001
  6
CONTINUOUS
 62
    2
 10
847.32289999999989
 20
820.58500000000004
 11
841.16740000000004
 21
834.26379999999995
  0
LINE
  8
_0-0_LAYER001
  6
CONTINUOUS
 62
    2
 10
813.8098
 20
821.9529
 11
819.96530000000007
 21
808.27410000000009
  0
LINE
  8
_0-0_LAYER001
  6
CONTINUOUS
 62
    2
 10
841.16740000000004
 20
834.26379999999995
 11
819.96530000000007
 21
808.27410000000009
  0
LINE
  8
_0-0_LAYER001
  6
CONTINUOUS
 62
    4
 10
1459.5848000000001
 20
1113.3669
 11
1463.6774
 21
1102.0862999999999
  0
LINE
  8
_0-0_LAYER001
  6
CONTINUOUS
 62
    4
 10
1194.3345999999999
 20
1035.2175999999999
 11
1462.2474000000002
 21
1132.4170999999999
  0
LINE
  8
_0-0_LAYER001
  6
CONTINUOUS
 62
    4
 10
1177.6808000000001
 20
1081.1206
 11
1445.5936000000002
 21
1178.3200999999999
  0
ARC
  8
_0-0_LAYER001
  6
CONTINUOUS
 62
    4
 10
786.32069999999999
 20
840.38270000000011
 40
10
 50
109.94091000000002
 51
199.94091
  0
ARC
  8
_0-0_LAYER001
  6
CONTINUOUS
 62
    4
 10
992.03289999999993
 20
933.09989999999993
 40
10
 50
109.94091000000002
 51
199.94091
  0
ARC
  8
_0-0_LAYER001
  6
CONTINUOUS
 62
    4
 10
1197.7451000000001
 20
1025.8171
 40
10
 50
109.94091000000002
 51
199.94091
  0
LINE
  8
_0-0_LAYER001
  6
CONTINUOUS
 62
    4
 10
1463.6774
 20
1102.0862999999999
 11
1472.1378
 21
1105.1558
  0
LINE
  8
_0-0_LAYER001
  6
CONTINUOUS
 62
    4
 10
1445.5936000000002
 20
1178.3200999999999
 11
1472.1378
 21
1105.1558
  0
LINE
  8
_0-0_LAYER001
  6
CONTINUOUS
 62
    4
 10
994.42020000000002
 20
926.51960000000008
 11
1253.8725999999999
 21
1020.6496999999999
  0
LINE
  8
_0-0_LAYER001
  6
CONTINUOUS
 62
    4
 10
1253.8725999999999
 20
1020.6496999999999
 11
1257.9652000000001
 21
1009.3690999999999
  0
LINE
  8
_0-0_LAYER001
  6
CONTINUOUS
 62
    4
 10
1257.9652000000001
 20
1009.3690999999999
 11
1266.4256
 21
1012.4386
  0
LINE
  8
_0-0_LAYER001
  6
CONTINUOUS
 62
    4
 10
1060.7134000000001
 20
919.7213999999999
 11
1052.2529999999999
 21
916.65190000000007
  0
LINE
  8
_0-0_LAYER001
  6
CONTINUOUS
 62
    4
 10
842.44820000000004
 20
835.2152000000001
 11
846.54079999999999
 21
823.93470000000002
  0
LINE
  8
_0-0_LAYER001
  6
CONTINUOUS
 62
    4
 10
855.00119999999993
 20
827.00410000000011
 11
846.54079999999999
 21
823.93470000000002
  0
LINE
  8
_0-0_LAYER001
  6
CONTINUOUS
 62
    4
 10
725.71250000000009
 20
862.89249999999993
 11
762.65380000000005
 21
876.2949000000001
  0
ARC
  8
_0-0_LAYER001
  6
CONTINUOUS
 62
    4
 10
769.66689999999994
 20
886.28569999999991
 40
10
 50
109.94091000000002
 51
199.94091
  0
LINE
  8
_0-0_LAYER001
  6
CONTINUOUS
 62
    4
 10
760.26649999999995
 20
882.87519999999995
 11
779.30760000000009
 21
830.39190000000008
  0
LINE
  8
_0-0_LAYER001
  6
CONTINUOUS
 62
    4
 10
769.47479999999996
 20
857.49399999999991
 11
779.30760000000009
 21
830.39190000000008
  0
LINE
  8
_0-0_LAYER001
  6
CONTINUOUS
 62
    4
 10
845.11069999999995
 20
854.2654
 11
855.00119999999993
 21
827.00410000000011
  0
LINE
  8
_0-0_LAYER001
  6
CONTINUOUS
 62
    4
 10
734.63139999999999
 20
814.18319999999994
 11
1048.1604
 21
927.93239999999992
  0
LINE
  8
_0-0_LAYER001
  6
CONTINUOUS
 62
    4
 10
1048.1604
 20
927.93239999999992
 11
1052.2529999999999
 21
916.65190000000007
  0
LINE
  8
_0-0_LAYER001
  6
CONTINUOUS
 62
    4
 10
766.25639999999999
 20
895.6862000000001
 11
968.36599999999999
 21
969.01209999999992
  0
ARC
  8
_0-0_LAYER001
  6
CONTINUOUS
 62
    4
 10
975.37910000000011
 20
979.00289999999995
 40
10
 50
109.94091000000002
 51
199.94091
  0
LINE
  8
_0-0_LAYER001
  6
CONTINUOUS
 62
    4
 10
965.97869999999989
 20
975.5924
 11
985.01980000000003
 21
923.1090999999999
  0
LINE
  8
_0-0_LAYER001
  6
CONTINUOUS
 62
    4
 10
965.97869999999989
 20
975.5924
 11
985.01980000000003
 21
923.1090999999999
  0
LINE
  8
_0-0_LAYER001
  6
CONTINUOUS
 62
    4
 10
782.91020000000003
 20
849.7831000000001
 11
1050.8228999999999
 21
946.98270000000002
  0
LINE
  8
_0-0_LAYER001
  6
CONTINUOUS
 62
    4
 10
1050.8228999999999
 20
946.98270000000002
 11
1060.7134000000001
 21
919.7213999999999
  0
LINE
  8
_0-0_LAYER001
  6
CONTINUOUS
 62
    4
 10
971.96859999999992
 20
988.40339999999992
 11
1174.0782999999999
 21
1061.7293
  0
LINE
  8
_0-0_LAYER001
  6
CONTINUOUS
 62
    4
 10
1177.4888000000001
 20
1052.3289
 11
1190.732
 21
1015.8262999999999
  0
LINE
  8
_0-0_LAYER001
  6
CONTINUOUS
 62
    4
 10
1256.5351000000001
 20
1039.6999000000001
 11
1266.4256
 21
1012.4386
  0
LINE
  8
_0-0_LAYER001
  6
CONTINUOUS
 62
    4
 10
988.62239999999997
 20
942.5003999999999
 11
1459.5848000000001
 21
1113.3669
  0
LINE
  8
_0-0_LAYER001
  6
CONTINUOUS
 62
    4
 10
1171.6909000000001
 20
1068.3096
 11
1190.732
 21
1015.8262999999999
  0
ARC
  8
_0-0_LAYER001
  6
CONTINUOUS
 62
    4
 10
1181.0913
 20
1071.7202
 40
10
 50
109.94091000000002
 51
199.94091
  0
LINE
  8
_0-0_LAYER001
  6
CONTINUOUS
 62
    4
 10
842.44820000000004
 20
835.2152000000001
 11
737.7364
 21
797.22550000000001
  0
LINE
  8
_0-0_LAYER001
  6
CONTINUOUS
 62
    2
 10
2153.2770999999998
 20
869.90650000000005
 11
2147.4793
 21
853.92570000000001
  0
LINE
  8
_0-0_LAYER001
  6
CONTINUOUS
 62
    2
 10
1947.5648999999999
 20
962.6237000000001
 11
1941.7671
 21
946.64290000000005
  0
LINE
  8
_0-0_LAYER001
  6
CONTINUOUS
 62
    2
 10
1741.8526999999999
 20
1055.3408999999999
 11
1736.0547999999999
 21
1039.3601000000001
  0
LINE
  8
_0-0_LAYER001
  6
CONTINUOUS
 62
    2
 10
1536.1405
 20
1148.0581
 11
1530.3425999999999
 21
1132.0773999999999
  0
LINE
  8
_0-0_LAYER001
  6
CONTINUOUS
 62
    2
 10
2115.6752999999999
 20
883.5485000000001
 11
1941.7671
 21
946.64290000000005
  0
ARC
  8
_0-0_LAYER001
  6
CONTINUOUS
 62
    4
 10
2164.8872000000001
 20
865.61830000000009
 40
17.623681999999999
 50
340.29127000000005
 51
57.209820000000029
  0
LINE
  8
_0-0_LAYER001
  6
CONTINUOUS
 62
    2
 10
2129.9648999999999
 20
807.63490000000002
 11
2102.6073000000001
 21
819.94579999999996
  0
LINE
  8
_0-0_LAYER001
  6
CONTINUOUS
 62
    2
 10
2108.7628
 20
833.6246000000001
 11
2136.1203999999998
 21
821.31369999999993
  0
LINE
  8
_0-0_LAYER001
  6
CONTINUOUS
 62
    2
 10
2102.6073000000001
 20
819.94579999999996
 11
2108.7628
 21
833.6246000000001
  0
LINE
  8
_0-0_LAYER001
  6
CONTINUOUS
 62
    2
 10
2136.1203999999998
 20
821.31369999999993
 11
2129.9648999999999
 21
807.63490000000002
  0
LINE
  8
_0-0_LAYER001
  6
CONTINUOUS
 62
    2
 10
2108.7628
 20
833.6246000000001
 11
2129.9648999999999
 21
807.63490000000002
  0
LINE
  8
_0-0_LAYER001
  6
CONTINUOUS
 62
    4
 10
2107.482
 20
834.57600000000002
 11
2103.3894
 21
823.29549999999995
  0
LINE
  8
_0-0_LAYER001
  6
CONTINUOUS
 62
    4
 10
2094.9290000000001
 20
826.36490000000003
 11
2103.3894
 21
823.29549999999995
  0
ARC
  8
_0-0_LAYER001
  6
CONTINUOUS
 62
    4
 10
2180.2633000000001
 20
885.64650000000006
 40
10
 50
340.05907999999999
 51
70.059082999999987
  0
LINE
  8
_0-0_LAYER001
  6
CONTINUOUS
 62
    4
 10
2181.4785000000002
 20
859.67489999999998
 11
2189.6637000000001
 21
882.2360000000001
  0
LINE
  8
_0-0_LAYER001
  6
CONTINUOUS
 62
    4
 10
2115.6752999999999
 20
883.5485000000001
 11
2094.9290000000001
 21
826.36490000000003
  0
LINE
  8
_0-0_LAYER001
  6
CONTINUOUS
 62
    4
 10
2104.8195000000001
 20
853.62619999999993
 11
1901.7698
 21
927.29320000000007
  0
LINE
  8
_0-0_LAYER001
  6
CONTINUOUS
 62
    4
 10
2174.8243000000002
 20
880.17329999999993
 11
1909.9630999999999
 21
976.26569999999992
  0
LINE
  8
_0-0_LAYER001
  6
CONTINUOUS
 62
    4
 10
2183.6738
 20
895.04700000000003
 11
1981.5641000000001
 21
968.37290000000007
  0
LINE
  8
_0-0_LAYER001
  6
CONTINUOUS
 62
    2
 10
1909.9630999999999
 20
976.26569999999992
 11
1736.0547999999999
 21
1039.3601000000001
  0
LINE
  8
_0-0_LAYER001
  6
CONTINUOUS
 62
    2
 10
1491.5374999999999
 20
1111.5507
 11
1518.8847000000001
 21
1099.2166999999999
  0
LINE
  8
_0-0_LAYER001
  6
CONTINUOUS
 62
    2
 10
1485.3705
 20
1097.8770999999999
 11
1491.5374999999999
 21
1111.5507
  0
LINE
  8
_0-0_LAYER001
  6
CONTINUOUS
 62
    2
 10
1491.5374999999999
 20
1111.5507
 11
1512.7177000000001
 21
1085.5431000000001
  0
LINE
  8
_0-0_LAYER001
  6
CONTINUOUS
 62
    4
 10
1490.3454000000002
 20
1112.7276999999999
 11
1486.2527
 21
1101.4471000000001
  0
LINE
  8
_0-0_LAYER001
  6
CONTINUOUS
 62
    4
 10
1504.3366000000001
 20
1177.6809000000001
 11
1477.7923000000001
 21
1104.5165999999999
  0
ARC
  8
_0-0_LAYER001
  6
CONTINUOUS
 62
    4
 10
1959.1750000000002
 20
958.33549999999991
 40
17.623681999999999
 50
340.29127000000005
 51
57.209820000000029
  0
LINE
  8
_0-0_LAYER001
  6
CONTINUOUS
 62
    2
 10
1512.7177000000001
 20
1085.5431000000001
 11
1485.3705
 21
1097.8770999999999
  0
LINE
  8
_0-0_LAYER001
  6
CONTINUOUS
 62
    2
 10
1518.8847000000001
 20
1099.2166999999999
 11
1512.7177000000001
 21
1085.5431000000001
  0
LINE
  8
_0-0_LAYER001
  6
CONTINUOUS
 62
    2
 10
1718.4852000000001
 20
992.94759999999997
 11
1691.1275000000001
 21
1005.2584999999999
  0
LINE
  8
_0-0_LAYER001
  6
CONTINUOUS
 62
    2
 10
1724.6406999999999
 20
1006.6264000000001
 11
1718.4852000000001
 21
992.94759999999997
  0
LINE
  8
_0-0_LAYER001
  6
CONTINUOUS
 62
    2
 10
1924.2527
 20
900.35210000000006
 11
1896.8951000000002
 21
912.66309999999999
  0
LINE
  8
_0-0_LAYER001
  6
CONTINUOUS
 62
    2
 10
1903.0506
 20
926.3418999999999
 11
1930.4081999999999
 21
914.03089999999997
  0
LINE
  8
_0-0_LAYER001
  6
CONTINUOUS
 62
    2
 10
1896.8951000000002
 20
912.66309999999999
 11
1903.0506
 21
926.3418999999999
  0
LINE
  8
_0-0_LAYER001
  6
CONTINUOUS
 62
    2
 10
1930.4081999999999
 20
914.03089999999997
 11
1924.2527
 21
900.35210000000006
  0
LINE
  8
_0-0_LAYER001
  6
CONTINUOUS
 62
    2
 10
1903.0506
 20
926.3418999999999
 11
1924.2527
 21
900.35210000000006
  0
LINE
  8
_0-0_LAYER001
  6
CONTINUOUS
 62
    4
 10
1486.2527
 20
1101.4471000000001
 11
1477.7923000000001
 21
1104.5165999999999
  0
LINE
  8
_0-0_LAYER001
  6
CONTINUOUS
 62
    4
 10
1683.5046000000002
 20
1011.7994000000001
 11
1691.9650000000001
 21
1008.7299
  0
LINE
  8
_0-0_LAYER001
  6
CONTINUOUS
 62
    4
 10
1901.7698
 20
927.29320000000007
 11
1897.6772000000001
 21
916.0127
  0
LINE
  8
_0-0_LAYER001
  6
CONTINUOUS
 62
    4
 10
1889.2168000000001
 20
919.08220000000006
 11
1897.6772000000001
 21
916.0127
  0
ARC
  8
_0-0_LAYER001
  6
CONTINUOUS
 62
    4
 10
1974.5509999999999
 20
978.36370000000011
 40
10
 50
340.05907999999999
 51
70.059082999999987
  0
LINE
  8
_0-0_LAYER001
  6
CONTINUOUS
 62
    4
 10
1975.7662999999998
 20
952.39210000000003
 11
1983.9515000000001
 21
974.95319999999992
  0
LINE
  8
_0-0_LAYER001
  6
CONTINUOUS
 62
    4
 10
1909.9630999999999
 20
976.26569999999992
 11
1889.2168000000001
 21
919.08220000000006
  0
ARC
  8
_0-0_LAYER001
  6
CONTINUOUS
 62
    4
 10
1753.4627999999998
 20
1051.0527999999999
 40
17.623681999999999
 50
340.29127000000005
 51
57.209820000000029
  0
LINE
  8
_0-0_LAYER001
  6
CONTINUOUS
 62
    4
 10
1899.1071999999999
 20
946.34349999999995
 11
1696.0576000000001
 21
1020.0105000000001
  0
LINE
  8
_0-0_LAYER001
  6
CONTINUOUS
 62
    2
 10
1697.2829999999999
 20
1018.9374
 11
1724.6406999999999
 21
1006.6264000000001
  0
LINE
  8
_0-0_LAYER001
  6
CONTINUOUS
 62
    2
 10
1691.1275000000001
 20
1005.2584999999999
 11
1697.2829999999999
 21
1018.9374
  0
LINE
  8
_0-0_LAYER001
  6
CONTINUOUS
 62
    2
 10
1697.2829999999999
 20
1018.9374
 11
1718.4852000000001
 21
992.94759999999997
  0
LINE
  8
_0-0_LAYER001
  6
CONTINUOUS
 62
    4
 10
1969.1120999999998
 20
972.89049999999997
 11
1704.2509
 21
1068.9829
  0
LINE
  8
_0-0_LAYER001
  6
CONTINUOUS
 62
    4
 10
1696.0576000000001
 20
1020.0105000000001
 11
1691.9650000000001
 21
1008.7299
  0
LINE
  8
_0-0_LAYER001
  6
CONTINUOUS
 62
    4
 10
1977.9614999999999
 20
987.76420000000007
 11
1775.8519000000001
 21
1061.0900999999999
  0
ARC
  8
_0-0_LAYER001
  6
CONTINUOUS
 62
    4
 10
1768.8388
 20
1071.0809999999999
 40
10
 50
340.05907999999999
 51
70.059082999999987
  0
LINE
  8
_0-0_LAYER001
  6
CONTINUOUS
 62
    4
 10
1770.0540000000001
 20
1045.1094000000001
 11
1778.2393000000002
 21
1067.6704
  0
LINE
  8
_0-0_LAYER001
  6
CONTINUOUS
 62
    4
 10
1704.2509
 20
1068.9829
 11
1683.5046000000002
 21
1011.7994000000001
  0
LINE
  8
_0-0_LAYER001
  6
CONTINUOUS
 62
    4
 10
1693.395
 20
1039.0607
 11
1490.3454000000002
 21
1112.7276999999999
  0
LINE
  8
_0-0_LAYER001
  6
CONTINUOUS
 62
    4
 10
1763.3998999999999
 20
1065.6078
 11
1498.5387000000001
 21
1161.7002
  0
LINE
  8
_0-0_LAYER001
  6
CONTINUOUS
 62
    4
 10
1772.2492999999999
 20
1080.4813999999999
 11
1504.3366000000001
 21
1177.6809000000001
  0
LINE
  8
_0-0_LAYER001
  6
CONTINUOUS
 62
    2
 10
1704.2509
 20
1068.9829
 11
1530.3425999999999
 21
1132.0773999999999
  0
LINE
  8
_0-0_LAYER001
  6
CONTINUOUS
 62
    2
 10
2245.4825000000001
 20
818.36989999999992
 11
2147.4793
 21
853.92570000000001
  0
LINE
  8
_0-0_LAYER001
  6
CONTINUOUS
 62
    4
 10
2233.4564
 20
788.87220000000002
 11
2107.482
 21
834.57600000000002
  0
LINE
  8
_0-0_LAYER001
  6
CONTINUOUS
 62
    4
 10
2251.9052999999999
 20
834.12390000000005
 11
2115.6752999999999
 21
883.5485000000001
  0
LINE
  8
_0-0_LAYER001
  6
CONTINUOUS
 62
    4
 10
2258.3281000000002
 20
849.87789999999995
 11
2187.2763
 21
875.65570000000002
  0
LINE
  8
_0-0_LAYER001
  6
CONTINUOUS
 62
    2
 10
1114.2289000000001
 20
1226.6932999999999
 11
1132.134
 21
1177.3408999999999
  0
CIRCLE
  8
_0-0_LAYER001
  6
CONTINUOUS
 62
    2
 10
1115.0815
 20
1224.3432
 40
1.6999999999999997
  0
LINE
  8
_0-0_LAYER001
  6
CONTINUOUS
 62
    2
 10
1115.0815
 20
1224.3432
 11
1392.3947000000001
 21
1324.9531999999999
  0
CIRCLE
  8
_0-0_LAYER001
  6
CONTINUOUS
 62
    2
 10
1392.3947000000001
 20
1324.9531999999999
 40
1.6999999999999997
  0
LINE
  8
_0-0_LAYER001
  6
CONTINUOUS
 62
    2
 10
1391.5420999999997
 20
1327.3033
 11
1409.4472999999998
 21
1277.9509
  0
CIRCLE
  8
_0-0_LAYER001
  6
CONTINUOUS
 62
    2
 10
1125.3130000000001
 20
1196.1418000000001
 40
1.6999999999999997
  0
LINE
  8
_0-0_LAYER001
  6
CONTINUOUS
 62
    2
 10
1125.3130000000001
 20
1196.1418000000001
 11
913.80289999999991
 21
1119.4054000000001
  0
CIRCLE
  8
_0-0_LAYER001
  6
CONTINUOUS
 62
    2
 10
913.80289999999991
 20
1119.4054000000001
 40
1.6999999999999997
  0
LINE
  8
_0-0_LAYER001
  6
CONTINUOUS
 62
    2
 10
1124.4603999999999
 20
1198.4919
 11
1142.3656000000001
 21
1149.1396
  0
LINE
  8
_0-0_LAYER001
  6
CONTINUOUS
 62
    2
 10
912.95029999999997
 20
1121.7555
 11
930.85549999999989
 21
1072.4031
  0
CIRCLE
  8
_0-0_LAYER001
  6
CONTINUOUS
 62
    2
 10
924.03449999999998
 20
1091.204
 40
1.6999999999999997
  0
LINE
  8
_0-0_LAYER001
  6
CONTINUOUS
 62
    2
 10
924.03449999999998
 20
1091.204
 11
712.52440000000001
 21
1014.4675
  0
CIRCLE
  8
_0-0_LAYER001
  6
CONTINUOUS
 62
    2
 10
712.52440000000001
 20
1014.4675
 40
1.6999999999999997
  0
LINE
  8
_0-0_LAYER001
  6
CONTINUOUS
 62
    2
 10
923.18180000000007
 20
1093.5541000000001
 11
941.08699999999999
 21
1044.2018
  0
LINE
  8
_0-0_LAYER001
  6
CONTINUOUS
 62
    2
 10
711.67180000000008
 20
1016.8177000000001
 11
729.57690000000002
 21
967.46530000000007
  0
LINE
  8
_0-0_LAYER001
  6
CONTINUOUS
 62
    2
 10
1415.2991999999999
 20
1151.9472000000001
 11
1417.2402999999999
 21
1144.7028
  0
LINE
  8
_0-0_LAYER001
  6
CONTINUOUS
 62
    2
 10
1417.2402999999999
 20
1144.7028
 11
1411.9369999999999
 21
1150.0061000000001
  0
LINE
  8
_0-0_LAYER001
  6
CONTINUOUS
 62
    2
 10
1417.2402999999999
 20
1144.7028
 11
1312.5062
 21
1326.1077
  0
LINE
  8
_0-0_LAYER001
  6
CONTINUOUS
 62
    2
 10
1312.5062
 20
1326.1077
 11
1234.7965999999999
 21
1326.1077
  0
LINE
  8
_0-0_LAYER001
  6
CONTINUOUS
 62
    2
 10
1472.5124999999998
 20
1224.8867
 11
1474.4535999999998
 21
1217.6423
  0
LINE
  8
_0-0_LAYER001
  6
CONTINUOUS
 62
    2
 10
1474.4535999999998
 20
1217.6423
 11
1469.1502999999998
 21
1222.9456
  0
LINE
  8
_0-0_LAYER001
  6
CONTINUOUS
 62
    2
 10
1474.4535999999998
 20
1217.6423
 11
1395.1383000000001
 21
1355.0206000000001
  0
LINE
  8
_0-0_LAYER001
  6
CONTINUOUS
 62
    2
 10
1395.1383000000001
 20
1355.0206000000001
 11
1307.8386
 21
1355.0206000000001
  0
LINE
  8
_0-0_LAYER001
  6
CONTINUOUS
 62
    2
 10
1470.2763
 20
1292.2811999999999
 11
1472.2175000000002
 21
1285.0368000000001
  0
LINE
  8
_0-0_LAYER001
  6
CONTINUOUS
 62
    2
 10
1472.2175000000002
 20
1285.0368000000001
 11
1466.9142000000002
 21
1290.3400999999999
  0
LINE
  8
_0-0_LAYER001
  6
CONTINUOUS
 62
    2
 10
1472.2175000000002
 20
1285.0368000000001
 11
1413.3063999999999
 21
1387.0739000000001
  0
LINE
  8
_0-0_LAYER001
  6
CONTINUOUS
 62
    2
 10
1413.3063999999999
 20
1387.0739000000001
 11
1252.0903000000001
 21
1387.0739000000001
  0
LINE
  8
_0-0_LAYER001
  6
CONTINUOUS
 62
    2
 10
1476.0758999999998
 20
1311.5526
 11
1476.0758999999998
 21
1304.0526
  0
LINE
  8
_0-0_LAYER001
  6
CONTINUOUS
 62
    2
 10
1476.0758999999998
 20
1304.0526
 11
1472.3258999999998
 21
1310.5477999999998
  0
LINE
  8
_0-0_LAYER001
  6
CONTINUOUS
 62
    2
 10
1476.0758999999998
 20
1304.0526
 11
1441.0725000000002
 21
1434.6871000000001
  0
LINE
  8
_0-0_LAYER001
  6
CONTINUOUS
 62
    2
 10
1441.0725000000002
 20
1434.6871000000001
 11
1236.9432999999999
 21
1434.6871000000001
  0
LINE
  8
_0-0_LAYER001
  6
CONTINUOUS
 62
    2
 10
1152.5597
 20
707.77469999999994
 11
1390.0350000000001
 21
707.77469999999994
  0
LINE
  8
_0-0_LAYER001
  6
CONTINUOUS
 62
    2
 10
1169.9353000000001
 20
677.67939999999999
 11
1341.6067
 21
677.67939999999999
  0
LINE
  8
_0-0_LAYER001
  6
CONTINUOUS
 62
    2
 10
1039.4317000000001
 20
899.83600000000001
 11
1037.4905000000001
 21
907.08040000000005
  0
LINE
  8
_0-0_LAYER001
  6
CONTINUOUS
 62
    2
 10
1037.4905000000001
 20
907.08040000000005
 11
1042.7937999999999
 21
901.77710000000002
  0
LINE
  8
_0-0_LAYER001
  6
CONTINUOUS
 62
    2
 10
1037.4905000000001
 20
907.08040000000005
 11
1187.1787999999999
 21
647.81279999999992
  0
LINE
  8
_0-0_LAYER001
  6
CONTINUOUS
 62
    2
 10
1135.2501999999999
 20
737.75559999999996
 11
1325.0469000000001
 21
737.75559999999996
  0
LINE
  8
_0-0_LAYER001
  6
CONTINUOUS
 62
    2
 10
1187.1787999999999
 20
647.81279999999992
 11
1245.9864
 21
647.81279999999992
  0
LINE
  8
_0-1_LAYER002
  6
CONTINUOUS
 62
    7
 10
1236.9432999999999
 20
1434.6871000000001
 11
1441.0725000000002
 21
1434.6871000000001
  0
LINE
  8
_0-1_LAYER002
  6
CONTINUOUS
 62
    7
 10
1252.0903000000001
 20
1387.0739000000001
 11
1413.3063999999999
 21
1387.0739000000001
  0
LINE
  8
_0-1_LAYER002
  6
CONTINUOUS
 62
    7
 10
1307.8386
 20
1355.0206000000001
 11
1395.1383000000001
 21
1355.0206000000001
  0
LINE
  8
_0-1_LAYER002
  6
CONTINUOUS
 62
    7
 10
1234.7965999999999
 20
1326.1077
 11
1312.5062
 21
1326.1077
  0
LINE
  8
_0-1_LAYER002
  6
CONTINUOUS
 62
    7
 10
1530.4616999999998
 20
1410.0752
 11
1606.9616999999998
 21
1410.0752
  0
LINE
  8
_0-1_LAYER002
  6
CONTINUOUS
 62
    7
 10
1567.8110000000001
 20
1347.5734
 11
1608.3110000000001
 21
1347.5734
  0
LINE
  8
_0-1_LAYER002
  6
CONTINUOUS
 62
    7
 10
1613.1556999999998
 20
1274.6759999999999
 11
1727.1556999999998
 21
1274.6759999999999
  0
LINE
  8
_0-1_LAYER002
  6
CONTINUOUS
 62
    7
 10
1789.9675000000002
 20
1169.2853
 11
1830.4675000000002
 21
1169.2853
  0
LINE
  8
_0-1_LAYER002
  6
CONTINUOUS
 62
    7
 10
1135.2502719878612
 20
737.75559999999996
 11
1325.0469000000001
 21
737.75559999999996
  0
LINE
  8
_0-1_LAYER002
  6
CONTINUOUS
 62
    7
 10
1152.5597620802214
 20
707.77469999999994
 11
1390.0350000000001
 21
707.77469999999994
  0
LINE
  8
_0-1_LAYER002
  6
CONTINUOUS
 62
    7
 10
1169.9353010792709
 20
677.67939999999999
 11
1341.6067
 21
677.67939999999999
  0
LINE
  8
_0-1_LAYER002
  6
CONTINUOUS
 62
    7
 10
1187.1787999999999
 20
647.81279999999992
 11
1245.9864
 21
647.81279999999992
  0
LINE
  8
_0-1_LAYER002
  6
CONTINUOUS
 62
    7
 10
1460.1619000000001
 20
1295.1220000000001
 11
1488.8000000000002
 21
1295.1220000000001
  0
LINE
  8
_0-1_LAYER002
  6
CONTINUOUS
 62
    7
 10
1488.8000000000002
 20
1295.1220000000001
 11
1488.8000000000002
 21
1266.4838999999999
  0
LINE
  8
_0-1_LAYER002
  6
CONTINUOUS
 62
    7
 10
1488.8000000000002
 20
1266.4838999999999
 11
1460.1619000000001
 21
1266.4838999999999
  0
LINE
  8
_0-1_LAYER002
  6
CONTINUOUS
 62
    7
 10
1460.1619000000001
 20
1295.1220000000001
 11
1460.1619000000001
 21
1266.4838999999999
  0
LINE
  8
_0-1_LAYER002
  6
CONTINUOUS
 62
    7
 10
1457.7754
 20
1281.0083
 11
1459.1390999999999
 21
1281.0083
  0
LINE
  8
_0-1_LAYER002
  6
CONTINUOUS
 62
    7
 10
1459.1390999999999
 20
1281.0083
 11
1459.1390999999999
 21
1263.9614999999999
  0
LINE
  8
_0-1_LAYER002
  6
CONTINUOUS
 62
    7
 10
1459.1390999999999
 20
1263.9614999999999
 11
1489.8226
 21
1263.9614999999999
  0
LINE
  8
_0-1_LAYER002
  6
CONTINUOUS
 62
    7
 10
1489.8226
 20
1263.9614999999999
 11
1489.8226
 21
1281.0083
  0
LINE
  8
_0-1_LAYER002
  6
CONTINUOUS
 62
    7
 10
1491.1862999999998
 20
1262.598
 11
1491.1862999999998
 21
1281.0083
  0
LINE
  8
_0-1_LAYER002
  6
CONTINUOUS
 62
    7
 10
1491.1862999999998
 20
1281.0083
 11
1489.8226
 21
1281.0083
  0
LINE
  8
_0-1_LAYER002
  6
CONTINUOUS
 62
    7
 10
1491.1862999999998
 20
1262.598
 11
1457.7754
 21
1262.598
  0
LINE
  8
_0-1_LAYER002
  6
CONTINUOUS
 62
    7
 10
1457.7754
 20
1262.598
 11
1457.7754
 21
1281.0083
  0
LINE
  8
_0-1_LAYER002
  6
CONTINUOUS
 62
    7
 10
1477.5491999999999
 20
1262.598
 11
1477.5491999999999
 21
1122.931
  0
LINE
  8
_0-1_LAYER002
  6
CONTINUOUS
 62
    7
 10
1477.5491999999999
 20
1122.931
 11
1471.4126999999999
 21
1122.931
  0
LINE
  8
_0-1_LAYER002
  6
CONTINUOUS
 62
    7
 10
1471.4126999999999
 20
1122.931
 11
1471.4126999999999
 21
1262.0859070327842
  0
LINE
  8
_0-1_LAYER002
  6
CONTINUOUS
 62
    7
 10
1471.4126999999999
 20
1262.0859070327842
 11
1471.4126999999999
 21
1262.598
  0
LINE
  8
_0-1_LAYER002
  6
CONTINUOUS
 62
    7
 10
1472.8858
 20
1312.7521999999999
 11
1472.8858
 21
1273.0784000000001
  0
LINE
  8
_0-1_LAYER002
  6
CONTINUOUS
 62
    7
 10
1476.0761000000002
 20
1312.7873999999999
 11
1476.0761000000002
 21
1278.0784839380683
  0
LINE
  8
_0-1_LAYER002
  6
CONTINUOUS
 62
    7
 10
1476.0761000000002
 20
1278.0787587611089
 11
1476.0761000000002
 21
1276.3214
  0
LINE
  8
_0-1_LAYER002
  6
CONTINUOUS
 62
    7
 10
1509.518
 20
1258.8797999999999
 11
1509.518
 21
1241.8216
  0
LINE
  8
_0-1_LAYER002
  6
CONTINUOUS
 62
    7
 10
1509.1754000000001
 20
1229.2134000000001
 11
1509.1754000000001
 21
1212.1248546949801
  0
LINE
  8
_0-1_LAYER002
  6
CONTINUOUS
 62
    7
 10
1509.1747999999998
 20
1199.0456999999999
 11
1509.1747999999998
 21
1182.4104813753447
  0
LINE
  8
_0-1_LAYER002
  6
CONTINUOUS
 62
    7
 10
1444.4544000000001
 20
1183.0842
 11
1444.4544000000001
 21
1199.4586999999999
  0
LINE
  8
_0-1_LAYER002
  6
CONTINUOUS
 62
    7
 10
1444.6324
 20
1212.9866999999999
 11
1444.6324
 21
1229.6263562590705
  0
LINE
  8
_0-1_LAYER002
  6
CONTINUOUS
 62
    7
 10
1444.4540000000002
 20
1242.8961999999999
 11
1444.4540000000002
 21
1259.6329834245425
  0
LINE
  8
_0-1_LAYER002
  6
CONTINUOUS
 62
    7
 10
1411.9369999999999
 20
1150.0061000000001
 11
1417.2402999999999
 21
1144.7028
  0
LINE
  8
_0-1_LAYER002
  6
CONTINUOUS
 62
    7
 10
1417.2402999999999
 20
1144.7028
 11
1415.2991999999999
 21
1151.9472000000001
  0
LINE
  8
_0-1_LAYER002
  6
CONTINUOUS
 62
    7
 10
1417.2402999999999
 20
1144.7028
 11
1312.5062
 21
1326.1077
  0
LINE
  8
_0-1_LAYER002
  6
CONTINUOUS
 62
    7
 10
1395.1383000000001
 20
1355.0206000000001
 11
1474.4535999999998
 21
1217.6423
  0
LINE
  8
_0-1_LAYER002
  6
CONTINUOUS
 62
    7
 10
1474.4535999999998
 20
1217.6423
 11
1472.5124999999998
 21
1224.8867
  0
LINE
  8
_0-1_LAYER002
  6
CONTINUOUS
 62
    7
 10
1474.4535999999998
 20
1217.6423
 11
1469.1502999999998
 21
1222.9456
  0
LINE
  8
_0-1_LAYER002
  6
CONTINUOUS
 62
    7
 10
1484.4890999999998
 20
1246.0035
 11
1484.4890999999998
 21
1238.5035
  0
LINE
  8
_0-1_LAYER002
  6
CONTINUOUS
 62
    7
 10
1484.4890999999998
 20
1238.5035
 11
1488.2390999999998
 21
1244.9987000000001
  0
LINE
  8
_0-1_LAYER002
  6
CONTINUOUS
 62
    7
 10
1484.4890999999998
 20
1238.5035
 11
1530.4616999999998
 21
1410.0752
  0
LINE
  8
_0-1_LAYER002
  6
CONTINUOUS
 62
    7
 10
1567.8110000000001
 20
1347.5734
 11
1527.9697999999999
 21
1278.5663
  0
LINE
  8
_0-1_LAYER002
  6
CONTINUOUS
 62
    7
 10
1527.9697999999999
 20
1278.5663
 11
1533.2730999999999
 21
1283.8696
  0
LINE
  8
_0-1_LAYER002
  6
CONTINUOUS
 62
    7
 10
1527.9697999999999
 20
1278.5663
 11
1529.9108999999999
 21
1285.8107999999997
  0
LINE
  8
_0-1_LAYER002
  6
CONTINUOUS
 62
    7
 10
1572.1815999999999
 20
1207.5890999999999
 11
1570.2404999999999
 21
1200.3447000000001
  0
LINE
  8
_0-1_LAYER002
  6
CONTINUOUS
 62
    7
 10
1570.2404999999999
 20
1200.3447000000001
 11
1575.5437999999999
 21
1205.6479999999999
  0
LINE
  8
_0-1_LAYER002
  6
CONTINUOUS
 62
    7
 10
1570.2404999999999
 20
1200.3447000000001
 11
1613.1556999999998
 21
1274.6759999999999
  0
LINE
  8
_0-1_LAYER002
  6
CONTINUOUS
 62
    7
 10
1476.0761000000002
 20
1312.7873999999999
 11
1478.3143
 21
1314.1608999999999
  0
LINE
  8
_0-1_LAYER002
  6
CONTINUOUS
 62
    7
 10
1478.3143
 20
1314.1608999999999
 11
1470.6475
 21
1314.1615999999999
  0
LINE
  8
_0-1_LAYER002
  6
CONTINUOUS
 62
    7
 10
1470.6475
 20
1314.1615999999999
 11
1472.8858
 21
1312.7521999999999
  0
LINE
  8
_0-1_LAYER002
  6
CONTINUOUS
 62
    7
 10
1470.2763
 20
1292.2811999999999
 11
1472.2175000000002
 21
1285.0368000000001
  0
LINE
  8
_0-1_LAYER002
  6
CONTINUOUS
 62
    7
 10
1472.2175000000002
 20
1285.0368000000001
 11
1466.9142000000002
 21
1290.3400999999999
  0
LINE
  8
_0-1_LAYER002
  6
CONTINUOUS
 62
    7
 10
1472.2175000000002
 20
1285.0368000000001
 11
1413.3063999999999
 21
1387.0739000000001
  0
LINE
  8
_0-1_LAYER002
  6
CONTINUOUS
 62
    7
 10
1472.3258999999998
 20
1310.5477999999998
 11
1476.0758419008384
 21
1304.0527006308459
  0
LINE
  8
_0-1_LAYER002
  6
CONTINUOUS
 62
    7
 10
1476.0758419008384
 20
1304.0527006308459
 11
1441.0725000000002
 21
1434.6871000000001
  0
LINE
  8
_0-1_LAYER002
  6
CONTINUOUS
 62
    7
 10
1391.5420999999997
 20
1327.3033
 11
1409.4472999999998
 21
1277.9509
  0
LINE
  8
_0-1_LAYER002
  6
CONTINUOUS
 62
    7
 10
1392.3947000000001
 20
1324.9531999999999
 11
1115.0815164600897
 21
1224.3432059717663
  0
LINE
  8
_0-1_LAYER002
  6
CONTINUOUS
 62
    7
 10
1114.5017324791406
 20
1225.941283108526
 11
1142.3656000000001
 21
1149.1396
  0
LINE
  8
_0-1_LAYER002
  6
CONTINUOUS
 62
    7
 10
1125.3130000000001
 20
1196.1418000000001
 11
913.80292066807499
 21
1119.4054074984301
  0
LINE
  8
_0-1_LAYER002
  6
CONTINUOUS
 62
    7
 10
913.22313382567756
 20
1121.0034835970348
 11
941.08699999999999
 21
1044.2018
  0
LINE
  8
_0-1_LAYER002
  6
CONTINUOUS
 62
    7
 10
924.03449999999998
 20
1091.204
 11
712.52440000000001
 21
1014.4675
  0
LINE
  8
_0-1_LAYER002
  6
CONTINUOUS
 62
    7
 10
711.67180000000008
 20
1016.8177000000001
 11
729.57690000000002
 21
967.46530000000007
  0
LINE
  8
_0-1_LAYER002
  6
CONTINUOUS
 62
    7
 10
1474.4548
 20
1078.5363
 11
730.70579999999995
 21
743.84930000000008
  0
LINE
  8
_0-1_LAYER002
  6
CONTINUOUS
 62
    7
 10
730.70579999999995
 20
678.05430000000001
 11
1474.4548
 21
1012.7412999999999
  0
LINE
  8
_0-1_LAYER002
  6
CONTINUOUS
 62
    7
 10
1474.4548
 20
1012.7412999999999
 11
2218.2028
 21
678.05430000000001
  0
LINE
  8
_0-1_LAYER002
  6
CONTINUOUS
 62
    7
 10
2218.2028
 20
743.84930000000008
 11
1474.4548
 21
1078.5363
  0
LINE
  8
_0-1_LAYER002
  6
CONTINUOUS
 62
    7
 10
1474.4548
 20
1078.5363
 11
1474.4548
 21
1012.7412999999999
  0
LINE
  8
_0-1_LAYER002
  6
CONTINUOUS
 62
    7
 10
1474.4548
 20
1094.9853000000001
 11
2218.2028
 21
760.29829999999993
  0
LINE
  8
_0-1_LAYER002
  6
CONTINUOUS
 62
    7
 10
1474.4548
 20
1094.9853000000001
 11
730.70579999999995
 21
760.29829999999993
  0
LINE
  8
_0-1_LAYER002
  6
CONTINUOUS
 62
    7
 10
730.70579999999995
 20
764.68429999999989
 11
1474.4548
 21
1099.3713
  0
LINE
  8
_0-1_LAYER002
  6
CONTINUOUS
 62
    7
 10
1474.4548
 20
1099.3713
 11
2218.2028
 21
764.68429999999989
  0
LINE
  8
_0-1_LAYER002
  6
CONTINUOUS
 62
    7
 10
2108.7628
 20
833.6246000000001
 11
2102.6073000000001
 21
819.94579999999996
  0
LINE
  8
_0-1_LAYER002
  6
CONTINUOUS
 62
    7
 10
2102.6073000000001
 20
819.94579999999996
 11
2129.9648999999999
 21
807.63490000000002
  0
LINE
  8
_0-1_LAYER002
  6
CONTINUOUS
 62
    7
 10
2129.9648999999999
 20
807.63490000000002
 11
2108.7628
 21
833.6246000000001
  0
LINE
  8
_0-1_LAYER002
  6
CONTINUOUS
 62
    7
 10
2108.7628
 20
833.6246000000001
 11
2136.1203999999998
 21
821.31369999999993
  0
LINE
  8
_0-1_LAYER002
  6
CONTINUOUS
 62
    7
 10
2136.1203999999998
 20
821.31369999999993
 11
2129.9648999999999
 21
807.63490000000002
  0
LINE
  8
_0-1_LAYER002
  6
CONTINUOUS
 62
    7
 10
1903.0506
 20
926.3418999999999
 11
1896.8951000000002
 21
912.66309999999999
  0
LINE
  8
_0-1_LAYER002
  6
CONTINUOUS
 62
    7
 10
1896.8951000000002
 20
912.66309999999999
 11
1924.2527
 21
900.35210000000006
  0
LINE
  8
_0-1_LAYER002
  6
CONTINUOUS
 62
    7
 10
1924.2527
 20
900.35210000000006
 11
1930.4081999999999
 21
914.03089999999997
  0
LINE
  8
_0-1_LAYER002
  6
CONTINUOUS
 62
    7
 10
1930.4081999999999
 20
914.03089999999997
 11
1903.0506
 21
926.3418999999999
  0
LINE
  8
_0-1_LAYER002
  6
CONTINUOUS
 62
    7
 10
1903.0506
 20
926.3418999999999
 11
1924.2527
 21
900.35210000000006
  0
LINE
  8
_0-1_LAYER002
  6
CONTINUOUS
 62
    7
 10
1697.2829999999999
 20
1018.9374
 11
1691.1275000000001
 21
1005.2584999999999
  0
LINE
  8
_0-1_LAYER002
  6
CONTINUOUS
 62
    7
 10
1691.1275000000001
 20
1005.2584999999999
 11
1718.4852000000001
 21
992.94759999999997
  0
LINE
  8
_0-1_LAYER002
  6
CONTINUOUS
 62
    7
 10
1718.4852000000001
 20
992.94759999999997
 11
1724.6406999999999
 21
1006.6264000000001
  0
LINE
  8
_0-1_LAYER002
  6
CONTINUOUS
 62
    7
 10
1724.6406999999999
 20
1006.6264000000001
 11
1697.2829999999999
 21
1018.9374
  0
LINE
  8
_0-1_LAYER002
  6
CONTINUOUS
 62
    7
 10
1697.2829999999999
 20
1018.9374
 11
1718.4852000000001
 21
992.94759999999997
  0
LINE
  8
_0-1_LAYER002
  6
CONTINUOUS
 62
    7
 10
1491.5374999999999
 20
1111.5507
 11
1485.4295000000002
 21
1098.0171
  0
LINE
  8
_0-1_LAYER002
  6
CONTINUOUS
 62
    7
 10
1485.4295000000002
 20
1098.0171
 11
1512.7177000000001
 21
1085.5431000000001
  0
LINE
  8
_0-1_LAYER002
  6
CONTINUOUS
 62
    7
 10
1512.7177000000001
 20
1085.5431000000001
 11
1518.8847000000001
 21
1099.2166999999999
  0
LINE
  8
_0-1_LAYER002
  6
CONTINUOUS
 62
    7
 10
1518.8847000000001
 20
1099.2166999999999
 11
1491.5374999999999
 21
1111.5507
  0
LINE
  8
_0-1_LAYER002
  6
CONTINUOUS
 62
    7
 10
1491.5374999999999
 20
1111.5507
 11
1512.7177000000001
 21
1085.5431000000001
  0
LINE
  8
_0-1_LAYER002
  6
CONTINUOUS
 62
    7
 10
1564.4537999999998
 20
1062.1613
 11
1564.4548
 21
1059.9683
  0
LINE
  8
_0-1_LAYER002
  6
CONTINUOUS
 62
    7
 10
1564.4537999999998
 20
1062.1613
 11
1474.4548
 21
1102.6613
  0
LINE
  8
_0-1_LAYER002
  6
CONTINUOUS
 62
    7
 10
1474.4548
 20
1102.6613
 11
1384.4548
 21
1062.1613
  0
LINE
  8
_0-1_LAYER002
  6
CONTINUOUS
 62
    7
 10
1384.4548
 20
1062.1613
 11
1384.4548
 21
1059.9683
  0
LINE
  8
_0-1_LAYER002
  6
CONTINUOUS
 62
    7
 10
1437.1777999999999
 20
1086.0201
 11
1431.0223999999998
 21
1099.6989000000001
  0
LINE
  8
_0-1_LAYER002
  6
CONTINUOUS
 62
    7
 10
1431.0223999999998
 20
1099.6989000000001
 11
1458.3800000000001
 21
1112.0098
  0
LINE
  8
_0-1_LAYER002
  6
CONTINUOUS
 62
    7
 10
1458.3800000000001
 20
1112.0098
 11
1464.5355
 21
1098.3309999999999
  0
LINE
  8
_0-1_LAYER002
  6
CONTINUOUS
 62
    7
 10
1464.5355
 20
1098.3309999999999
 11
1437.1777999999999
 21
1086.0201
  0
LINE
  8
_0-1_LAYER002
  6
CONTINUOUS
 62
    7
 10
1437.1777999999999
 20
1086.0201
 11
1458.3800000000001
 21
1112.0098
  0
LINE
  8
_0-1_LAYER002
  6
CONTINUOUS
 62
    7
 10
1464.7413999999999
 20
1095.9369999999999
 11
1469.2024999999999
 21
1154.4039
  0
LINE
  8
_0-1_LAYER002
  6
CONTINUOUS
 62
    7
 10
1469.2024999999999
 20
1154.4039
 11
1479.7593999999999
 21
1154.4039
  0
LINE
  8
_0-1_LAYER002
  6
CONTINUOUS
 62
    7
 10
1479.7593999999999
 20
1154.4039
 11
1484.2096999999999
 21
1096.0786000000001
  0
LINE
  8
_0-1_LAYER002
  6
CONTINUOUS
 62
    7
 10
1485.3705
 20
1097.8770999999999
 11
1481.0230000000001
 21
1155.7675999999999
  0
LINE
  8
_0-1_LAYER002
  6
CONTINUOUS
 62
    7
 10
1481.0230000000001
 20
1155.7675999999999
 11
1467.9389999999999
 21
1155.7675999999999
  0
LINE
  8
_0-1_LAYER002
  6
CONTINUOUS
 62
    7
 10
1467.9389999999999
 20
1155.7675999999999
 11
1463.5215469983566
 21
1097.8747235583426
  0
LINE
  8
_0-1_LAYER002
  6
CONTINUOUS
 62
    7
 10
1225.3332
 20
1007.1387
 11
1231.5002999999999
 21
993.46499999999992
  0
LINE
  8
_0-1_LAYER002
  6
CONTINUOUS
 62
    7
 10
1231.5002999999999
 20
993.46499999999992
 11
1258.8475000000001
 21
1005.799
  0
LINE
  8
_0-1_LAYER002
  6
CONTINUOUS
 62
    7
 10
1258.8475000000001
 20
1005.799
 11
1252.6804999999999
 21
1019.4727
  0
LINE
  8
_0-1_LAYER002
  6
CONTINUOUS
 62
    7
 10
1252.6804999999999
 20
1019.4727
 11
1225.3332
 21
1007.1387
  0
LINE
  8
_0-1_LAYER002
  6
CONTINUOUS
 62
    7
 10
1231.5002999999999
 20
993.46499999999992
 11
1252.6804999999999
 21
1019.4727
  0
LINE
  8
_0-1_LAYER002
  6
CONTINUOUS
 62
    7
 10
1025.7328
 20
900.86959999999999
 11
1019.5772999999999
 21
914.5483999999999
  0
LINE
  8
_0-1_LAYER002
  6
CONTINUOUS
 62
    7
 10
1019.5772999999999
 20
914.5483999999999
 11
1046.9349
 21
926.85930000000008
  0
LINE
  8
_0-1_LAYER002
  6
CONTINUOUS
 62
    7
 10
1046.9349
 20
926.85930000000008
 11
1053.0904
 21
913.18049999999994
  0
LINE
  8
_0-1_LAYER002
  6
CONTINUOUS
 62
    7
 10
1053.0904
 20
913.18049999999994
 11
1025.7328
 21
900.86959999999999
  0
LINE
  8
_0-1_LAYER002
  6
CONTINUOUS
 62
    7
 10
1025.7328
 20
900.86959999999999
 11
1046.9349
 21
926.85930000000008
  0
LINE
  8
_0-1_LAYER002
  6
CONTINUOUS
 62
    7
 10
1039.4317000000001
 20
899.83600000000001
 11
1037.4905000000001
 21
907.08040000000005
  0
LINE
  8
_0-1_LAYER002
  6
CONTINUOUS
 62
    7
 10
1037.4905000000001
 20
907.08040000000005
 11
1042.7937999999999
 21
901.77710000000002
  0
LINE
  8
_0-1_LAYER002
  6
CONTINUOUS
 62
    7
 10
1037.4905000000001
 20
907.08040000000005
 11
1187.1787999999999
 21
647.81279999999992
  0
LINE
  8
_0-1_LAYER002
  6
CONTINUOUS
 62
    7
 10
819.96530000000007
 20
808.27410000000009
 11
813.8098
 21
821.9529
  0
LINE
  8
_0-1_LAYER002
  6
CONTINUOUS
 62
    7
 10
813.8098
 20
821.9529
 11
841.16740000000004
 21
834.26379999999995
  0
LINE
  8
_0-1_LAYER002
  6
CONTINUOUS
 62
    7
 10
841.16740000000004
 20
834.26379999999995
 11
847.32289999999989
 21
820.58500000000004
  0
LINE
  8
_0-1_LAYER002
  6
CONTINUOUS
 62
    7
 10
847.32289999999989
 20
820.58500000000004
 11
819.96530000000007
 21
808.27410000000009
  0
LINE
  8
_0-1_LAYER002
  6
CONTINUOUS
 62
    7
 10
819.96530000000007
 20
808.27410000000009
 11
841.16740000000004
 21
834.26379999999995
  0
LINE
  8
_0-1_LAYER002
  6
CONTINUOUS
 62
    7
 10
1734.5902000000001
 20
1077.2512999999999
 11
1732.6491000000001
 21
1070.0068000000001
  0
LINE
  8
_0-1_LAYER002
  6
CONTINUOUS
 62
    7
 10
1732.6491000000001
 20
1070.0068000000001
 11
1737.9524000000001
 21
1075.3100999999999
  0
LINE
  8
_0-1_LAYER002
  6
CONTINUOUS
 62
    7
 10
1732.6491000000001
 20
1070.0068000000001
 11
1789.9675000000002
 21
1169.2853
  0
LINE
  8
_0-1_LAYER002
  6
CONTINUOUS
 62
    7
 10
1476.0749000000001
 20
1276.3214
 11
1474.6655999999998
 21
1269.2967000000001
  0
LINE
  8
_0-1_LAYER002
  6
CONTINUOUS
 62
    7
 10
1474.6655999999998
 20
1269.2967000000001
 11
1472.8858
 21
1277.2238791064242
  0
LINE
  8
_0-1_LAYER002
  6
CONTINUOUS
 62
    7
 10
1459.1390999999999
 20
1263.9614999999999
 11
1488.8000000000002
 21
1295.1220000000001
  0
LINE
  8
_0-1_LAYER002
  6
CONTINUOUS
 62
    7
 10
1488.8000000000002
 20
1266.4838999999999
 11
1460.1619000000001
 21
1295.1220000000001
  0
LINE
  8
_0-1_LAYER002
  6
CONTINUOUS
 62
    7
 10
1444.4540000000002
 20
1242.8962574710492
 11
1509.518
 21
1241.8216
  0
LINE
  8
_0-1_LAYER002
  6
CONTINUOUS
 62
    7
 10
1509.518
 20
1258.5578153638774
 11
1446.4056999999998
 21
1259.8525
  0
LINE
  8
_0-1_LAYER002
  6
CONTINUOUS
 62
    7
 10
1444.6324
 20
1229.6263562590705
 11
1509.1753555646255
 21
1229.2133627547603
  0
LINE
  8
_0-1_LAYER002
  6
CONTINUOUS
 62
    7
 10
1509.1754000000001
 20
1212.1248000000001
 11
1444.6324
 21
1212.9866999999999
  0
LINE
  8
_0-1_LAYER002
  6
CONTINUOUS
 62
    7
 10
1444.4544000000001
 20
1199.2838302573196
 11
1509.1747999999998
 21
1199.0456999999999
  0
LINE
  8
_0-1_LAYER002
  6
CONTINUOUS
 62
    7
 10
1509.1747999999998
 20
1182.4104813753447
 11
1446.0744
 21
1183.0671
  0
ARC
  8
_0-1_LAYER002
  6
CONTINUOUS
 62
    7
 10
1405.6932195963373
 20
1232.4521868644961
 40
22.213259817576358
 50
346.15038707563912
 51
16.287363394623533
  0
ARC
  8
_0-1_LAYER002
  6
CONTINUOUS
 62
    7
 10
1404.8703394068807
 20
1199.5316564307504
 40
10.101210861010921
 50
321.406720565189
 51
31.2888338741983
  0
ARC
  8
_0-1_LAYER002
  6
CONTINUOUS
 62
    7
 10
1311.1409189580672
 20
1140.0253035103854
 40
83.257201358598223
 50
334.02188213341174
 51
19.399632509604618
  0
ARC
  8
_0-1_LAYER002
  6
CONTINUOUS
 62
    7
 10
1637.7686810419327
 20
1140.0253035103854
 40
83.257201358598223
 50
160.60036749039537
 51
205.97811786658826
  0
ARC
  8
_0-1_LAYER002
  6
CONTINUOUS
 62
    7
 10
1544.0392605931195
 20
1199.5316564307504
 40
10.101210861010921
 50
148.7111661258017
 51
218.593279434811
  0
ARC
  8
_0-1_LAYER002
  6
CONTINUOUS
 62
    7
 10
1543.2163804036627
 20
1232.4521868644961
 40
22.213259817576358
 50
163.71263660537647
 51
193.84961292436086
  0
TEXT
  8
_0-0_LAYER001
 62
    7
 10
1613.1557000000003
 20
1277.1760000000004
 40
20
 41
1
 50
0
  1
熨斗瓦３段積み
  0
TEXT
  8
_0-0_LAYER001
 62
    7
 10
1248.0062000000003
 20
1328.6077000000002
 40
20
 41
1
 50
0
  1
葺　土　
  0
TEXT
  8
_0-0_LAYER001
 62
    7
 10
1314.1383000000001
 20
1357.5206000000003
 40
20
 41
1
 50
0
  1
棟補強金物
  0
TEXT
  8
_0-0_LAYER001
 62
    7
 10
1258.2910000000002
 20
1389.5739000000003
 40
20
 41
1
 50
0
  1
芯木４０ｘ３０以上
  0
TEXT
  8
_0-0_LAYER001
 62
    7
 10
1244.5725000000002
 20
1437.1871000000006
 40
20
 41
1
 50
0
  1
パッキンステンレスネジ　
  0
TEXT
  8
_0-0_LAYER001
 62
    7
 10
1169.9353000000006
 20
680.17940000000021
 40
20
 41
1
 50
0
  1
　野地板：杉ｔ＝１２
  0
TEXT
  8
_0-0_LAYER001
 62
    7
 10
1135.2502000000004
 20
740.2556000000003
 40
20
 41
1
 50
0
  1
　瓦桟：１５ｘ３０以上
  0
TEXT
  8
_0-0_LAYER001
 62
    7
 10
1187.1788000000004
 20
650.31280000000027
 40
20
 41
1
 50
0
  1
　垂木
  0
TEXT
  8
_0-6_LAYER007
 62
    7
 10
1783.1931845245745
 20
1176.3055391251942
 40
20
 41
1
 50
0
  1
桟　瓦
  0
TEXT
  8
_0-0_LAYER001
 62
    7
 10
807.15666762552746
 20
1062.0358953059142
 40
20
 41
1
 50
19.940916999999981
  1
225
  0
TEXT
  8
_0-0_LAYER001
 62
    7
 10
1005.6685706335254
 20
1164.2400433892406
 40
20
 41
1
 50
19.940916999999988
  1
225
  0
TEXT
  8
_0-0_LAYER001
 62
    7
 10
1239.5588325934445
 20
1280.2024421760914
 40
20
 41
1
 50
19.940916999999981
  1
295
  0
TEXT
  8
_0-0_LAYER001
 62
    7
 10
1152.5597000000005
 20
710.27470000000017
 40
20
 41
1
 50
0
  1
　下葺材：ルーフィング
  0
TEXT
  8
_0-0_LAYER001
 62
    7
 10
1570.6017742554063
 20
1358.115910267491
 40
20
 41
1
 50
0
  1
冠　瓦
  0
TEXT
  8
_0-0_LAYER001
 62
    7
 10
1530.4617000000005
 20
1412.5752000000002
 40
20
 41
1
 50
0
  1
銅線0.9mm
  0
ENDSEC
  0
EOF
