  0
SECTION
  2
HEADER
  9
$ACADVER
  1
AC1009
  9
$INSBASE
 10
0
 20
0
 30
0
  9
$EXTMIN
 10
0
 20
0
  9
$EXTMAX
 10
2970
 20
2100
  9
$LIMMIN
 10
0
 20
0
  9
$LIMMAX
 10
2970
 20
2100
  9
$LTSCALE
 40
10
  0
ENDSEC
  0
SECTION
  2
TABLES
  0
TABLE
  2
LTYPE
 70
     9
  0
LTYPE
  2
CONTINUOUS
 70
    64
  3
実線
 72
    65
 73
     0
 40
0.0
  0
LTYPE
  2
DASHED1
 70
    64
  3
--  --  --  --  --  --  --  --  
 72
    65
 73
     2
 40
2.5
 49
1.25
 49
-1.25
  0
LTYPE
  2
DASHED2
 70
    64
  3
----    ----    ----    ----    
 72
    65
 73
     2
 40
5.0
 49
2.5
 49
-2.5
  0
LTYPE
  2
DASHED3
 70
    64
  3
------  ------  ------  ------  
 72
    65
 73
     2
 40
5.0
 49
3.75
 49
-1.25
  0
LTYPE
  2
CENTER1
 70
    64
  3
----- - ----- - ----- - ----- - 
 72
    65
 73
     4
 40
10.0
 49
6.25
 49
-1.25
 49
1.25
 49
-1.25
  0
LTYPE
  2
CENTER2
 70
    64
  3
----------  --  ----------  --  
 72
    65
 73
     4
 40
20.0
 49
12.5
 49
-2.5
 49
2.5
 49
-2.5
  0
LTYPE
  2
PHANTOM1
 70
    64
  3
--- - - --- - - --- - - --- - - 
 72
    65
 73
     6
 40
10.0
 49
3.25
 49
-1.25
 49
1.25
 49
-1.25
 49
1.25
 49
-1.25
  0
LTYPE
  2
PHANTOM2
 70
    64
  3
--------  -  -  --------  -  -  
 72
    65
 73
     6
 40
20.0
 49
10.0
 49
-2.5
 49
1.25
 49
-2.5
 49
1.25
 49
-2.5
  0
LTYPE
  2
DOT
 70
    64
  3
-   -   -   -   -   -   -   -   
 72
    65
 73
     2
 40
2.5
 49
0.625
 49
-1.875
  0
LTYPE
  2
DUMMY
 70
    64
  3
ダミー
 72
    65
 73
     0
 40
0.0
  0
LTYPE
  2
RAND1
 70
    64
  3
ランダム線1
 72
    65
 73
     4
 40
10.0
 49
1.0
 49
-2.0
 49
3.0
 49
-4.0
  0
LTYPE
  2
RAND2
 70
    64
  3
ランダム線2
 72
    65
 73
     4
 40
14.0
 49
2.0
 49
-3.0
 49
4.0
 49
-5.0
  0
LTYPE
  2
RAND3
 70
    64
  3
ランダム線3
 72
    65
 73
     4
 40
18.0
 49
3.0
 49
-4.0
 49
5.0
 49
-6.0
  0
LTYPE
  2
RAND4
 70
    64
  3
ランダム線4
 72
    65
 73
     4
 40
22.0
 49
4.0
 49
-5.0
 49
6.0
 49
-7.0
  0
LTYPE
  2
RAND5
 70
    64
  3
ランダム線5
 72
    65
 73
     4
 40
26.0
 49
5.0
 49
-6.0
 49
7.0
 49
-8.0
  0
LTYPE
  2
LONG1
 70
    64
  3
----------  --  ----------  --  
 72
    65
 73
     4
 40
40.0
 49
32.5
 49
-2.5
 49
2.5
 49
-2.5
  0
LTYPE
  2
LONG2
 70
    64
  3
--------  -  -  --------  -  -  
 72
    65
 73
     6
 40
40.0
 49
30.0
 49
-2.5
 49
1.25
 49
-2.5
 49
1.25
 49
-2.5
  0
LTYPE
  2
LONG3
 70
    64
  3
+++++++++++++++..+++++++++++++++
 72
    65
 73
     2
 40
40.0
 49
37.5
 49
-2.5
  0
LTYPE
  2
LONG4
 70
    64
  3
+++++++++++++++..+++++++++++++++
 72
    65
 73
     2
 40
80.0
 49
75.0
 49
-5.0
  0
LTYPE
  2
LONG5
 70
    64
  3
----------  --  ----------  --  
 72
    65
 73
     4
 40
60.0
 49
37.5
 49
-7.5
 49
7.5
 49
-7.5
  0
LTYPE
  2
dashed
 70
   64
  3
-------   -------------   ------
 72
   65
 73
    2
 40
7.5
 49
6
 49
-1.5
  0
LTYPE
  2
dashed_spaced
 70
   64
  3
----        --------        ----
 72
   65
 73
    2
 40
12
 49
6
 49
-6
  0
LTYPE
  2
long_dashed_dotted
 70
   64
  3
------------- --- --------------
 72
   65
 73
    4
 40
15.25
 49
12
 49
-1.5
 49
0.25
 49
-1.5
  0
LTYPE
  2
long_dashed_double-dotted
 70
   64
  3
----------- --- --- ------------
 72
   65
 73
    6
 40
17
 49
12
 49
-1.5
 49
0.25
 49
-1.5
 49
0.25
 49
-1.5
  0
LTYPE
  2
long_dashed_triplicate-dotted
 70
   64
  3
--------- --- --- --- ----------
 72
   65
 73
    8
 40
18.75
 49
12
 49
-1.5
 49
0.25
 49
-1.5
 49
0.25
 49
-1.5
 49
0.25
 49
-1.5
  0
LTYPE
  2
dotted
 70
   64
  3
   -       -       -       -    
 72
   65
 73
    2
 40
1.75
 49
0.25
 49
-1.5
  0
LTYPE
  2
chain
 70
   64
  3
-------------- -- --------------
 72
   65
 73
    4
 40
18.5
 49
12
 49
-1.5
 49
3.5
 49
-1.5
  0
LTYPE
  2
chain_double_dash
 70
   64
  3
------------ -- -- -------------
 72
   65
 73
    6
 40
23.5
 49
12
 49
-1.5
 49
3.5
 49
-1.5
 49
3.5
 49
-1.5
  0
LTYPE
  2
dashed_dotted
 70
   64
  3
-----------     -     ----------
 72
   65
 73
    4
 40
9.25
 49
6
 49
-1.5
 49
0.25
 49
-1.5
  0
LTYPE
  2
double-dashed_dotted
 70
   64
  3
------   -----------   -   -----
 72
   65
 73
    6
 40
16.75
 49
6
 49
-1.5
 49
6
 49
-1.5
 49
0.25
 49
-1.5
  0
LTYPE
  2
dashed_double-dotted
 70
   64
  3
---------    -    -    ---------
 72
   65
 73
    6
 40
11
 49
6
 49
-1.5
 49
0.25
 49
-1.5
 49
0.25
 49
-1.5
  0
LTYPE
  2
double-dashed_double-dotted
 70
   64
  3
-----   ---------   -   -   ----
 72
   65
 73
    8
 40
18.5
 49
6
 49
-1.5
 49
6
 49
-1.5
 49
0.25
 49
-1.5
 49
0.25
 49
-1.5
  0
LTYPE
  2
dashed_triplicate-dotted
 70
   64
  3
-------    -    -    -    ------
 72
   65
 73
    8
 40
12.75
 49
6
 49
-1.5
 49
0.25
 49
-1.5
 49
0.25
 49
-1.5
 49
0.25
 49
-1.5
  0
LTYPE
  2
double-dashed_triplicate-dotted
 70
   64
  3
-----  ---------  -  -  -  -----
 72
   65
 73
   10
 40
20.25
 49
6
 49
-1.5
 49
6
 49
-1.5
 49
0.25
 49
-1.5
 49
0.25
 49
-1.5
 49
0.25
 49
-1.5
  0
LTYPE
  2
undefined
 70
   64
  3
--------------------------------
 72
   65
 73
    0
 40
0
  0
ENDTAB
  0
TABLE
  2
STYLE
  5
3
100
AcDbSymbolTable
 70
     1
  0
STYLE
  5
10
100
AcDbSymbolTableRecord
100
AcDbTextStyleTableRecord
  2
STANDARD
 70
     0
 40
0.0
 41
1.0
 50
0.0
 71
     0
 42
0.2
  3
txt
  4
bigfont.shx
  0
STYLE
  5
26
100
AcDbSymbolTableRecord
100
AcDbTextStyleTableRecord
  2
TATEGAKI
 70
    68
 40
0.0
 41
1.0
 50
0.0
 71
     0
 42
1.0
  3
txt
  4
bigfont.shx
  0
ENDTAB
  0
TABLE
  2
LAYER
 70
    3
  0
LAYER
  2
_0-0_LAYER001
 70
   64
 62
    7
  6
CONTINUOUS
  0
LAYER
  2
_0-1_LAYER004
 70
   64
 62
    7
  6
CONTINUOUS
  0
LAYER
  2
ADD_LINE
 70
   64
 62
    7
  6
CONTINUOUS
  0
ENDTAB
  0
ENDSEC
  0
SECTION
  2
BLOCKS
  0
ENDSEC
  0
SECTION
  2
ENTITIES
  0
LINE
  8
_0-0_LAYER001
  6
CONTINUOUS
 62
    2
 10
1118.8632
 20
1041.6781000000001
 11
1178.8632
 21
1041.6781000000001
  0
LINE
  8
_0-0_LAYER001
  6
CONTINUOUS
 62
    2
 10
1178.8632
 20
1041.6781000000001
 11
1178.8632
 21
981.67810000000009
  0
LINE
  8
_0-0_LAYER001
  6
CONTINUOUS
 62
    2
 10
1178.8632
 20
981.67810000000009
 11
1118.8632
 21
981.67810000000009
  0
LINE
  8
_0-0_LAYER001
  6
CONTINUOUS
 62
    2
 10
1118.8632
 20
981.67810000000009
 11
1118.8632
 21
1041.6781000000001
  0
LINE
  8
_0-0_LAYER001
  6
CONTINUOUS
 62
    2
 10
1118.8632
 20
1041.6781000000001
 11
1178.8632
 21
981.67810000000009
  0
LINE
  8
_0-0_LAYER001
  6
CONTINUOUS
 62
    3
 10
1093.8632
 20
1041.6781000000001
 11
1093.8632
 21
893.34909999999991
  0
LINE
  8
_0-0_LAYER001
  6
CONTINUOUS
 62
    3
 10
1118.8632
 20
1041.6781000000001
 11
1118.8632
 21
893.34909999999991
  0
LINE
  8
_0-0_LAYER001
  6
CONTINUOUS
 62
    3
 10
1165.8632
 20
1041.6781000000001
 11
1075.8632
 21
1041.6781000000001
  0
LINE
  8
_0-0_LAYER001
  6
CONTINUOUS
 62
    2
 10
1115.2399
 20
893.34909999999991
 11
1118.8632
 21
896.97240000000011
  0
LINE
  8
_0-0_LAYER001
  6
CONTINUOUS
 62
    2
 10
1101.0978
 20
893.34909999999991
 11
1118.8632
 21
911.11460000000011
  0
LINE
  8
_0-0_LAYER001
  6
CONTINUOUS
 62
    2
 10
1093.8632
 20
900.25669999999991
 11
1118.8632
 21
925.25669999999991
  0
LINE
  8
_0-0_LAYER001
  6
CONTINUOUS
 62
    2
 10
1093.8632
 20
914.39889999999991
 11
1118.8632
 21
939.39889999999991
  0
LINE
  8
_0-0_LAYER001
  6
CONTINUOUS
 62
    2
 10
1093.8632
 20
928.54099999999994
 11
1118.8632
 21
953.54099999999994
  0
LINE
  8
_0-0_LAYER001
  6
CONTINUOUS
 62
    2
 10
1093.8632
 20
942.68309999999997
 11
1118.8632
 21
967.68309999999997
  0
LINE
  8
_0-0_LAYER001
  6
CONTINUOUS
 62
    2
 10
1093.8632
 20
956.82529999999997
 11
1118.8632
 21
981.82529999999997
  0
LINE
  8
_0-0_LAYER001
  6
CONTINUOUS
 62
    2
 10
1093.8632
 20
970.9674
 11
1118.8632
 21
995.9674
  0
LINE
  8
_0-0_LAYER001
  6
CONTINUOUS
 62
    2
 10
1093.8632
 20
985.10950000000003
 11
1118.8632
 21
1010.1095
  0
LINE
  8
_0-0_LAYER001
  6
CONTINUOUS
 62
    2
 10
1093.8632
 20
999.25170000000003
 11
1118.8632
 21
1024.2517
  0
LINE
  8
_0-0_LAYER001
  6
CONTINUOUS
 62
    2
 10
1093.8632
 20
1013.3938000000001
 11
1118.8632
 21
1038.3938000000001
  0
LINE
  8
_0-0_LAYER001
  6
CONTINUOUS
 62
    2
 10
1093.8632
 20
1027.5359000000001
 11
1108.0054
 21
1041.6781000000001
  0
LINE
  8
_0-0_LAYER001
  6
CONTINUOUS
 62
    3
 10
1075.8632
 20
1083.6781000000001
 11
1075.8632
 21
1041.6781000000001
  0
LINE
  8
_0-0_LAYER001
  6
CONTINUOUS
 62
    3
 10
1165.8632
 20
1056.6781000000001
 11
1075.8632
 21
1083.6781000000001
  0
LINE
  8
_0-0_LAYER001
  6
CONTINUOUS
 62
    3
 10
1165.8632
 20
1041.6781000000001
 11
1165.8632
 21
1056.6781000000001
  0
LINE
  8
_0-0_LAYER001
  6
CONTINUOUS
 62
    2
 10
1465.5463
 20
1052.9712999999999
 11
1465.5463
 21
1060.4712999999999
  0
LINE
  8
_0-0_LAYER001
  6
CONTINUOUS
 62
    2
 10
1465.5463
 20
1060.4712999999999
 11
1469.2963
 21
1053.9761000000001
  0
LINE
  8
_0-0_LAYER001
  6
CONTINUOUS
 62
    2
 10
1465.5463
 20
1060.4712999999999
 11
1535.1514000000002
 21
800.7014999999999
  0
LINE
  8
_0-0_LAYER001
  6
CONTINUOUS
 62
    2
 10
1015.8632
 20
969.57269999999994
 11
1015.8632
 21
997.07269999999994
  0
CIRCLE
  8
_0-0_LAYER001
  6
CONTINUOUS
 62
    2
 10
1015.8632
 20
972.07269999999994
 40
1.6999999999999997
  0
LINE
  8
_0-0_LAYER001
  6
CONTINUOUS
 62
    2
 10
1015.8632
 20
972.07269999999994
 11
1075.8632
 21
972.07269999999994
  0
CIRCLE
  8
_0-0_LAYER001
  6
CONTINUOUS
 62
    2
 10
1075.8632
 20
972.07269999999994
 40
1.6999999999999997
  0
LINE
  8
_0-0_LAYER001
  6
CONTINUOUS
 62
    2
 10
1075.8632
 20
969.57269999999994
 11
1075.8632
 21
997.07269999999994
  0
LINE
  8
_0-0_LAYER001
  6
CONTINUOUS
 62
    2
 10
1075.8632
 20
1047.3900000000001
 11
1081.5752
 21
1041.6781000000001
  0
LINE
  8
_0-0_LAYER001
  6
CONTINUOUS
 62
    2
 10
1075.8632
 20
1061.5322000000001
 11
1095.7173
 21
1041.6781000000001
  0
LINE
  8
_0-0_LAYER001
  6
CONTINUOUS
 62
    2
 10
1075.8632
 20
1075.6742999999999
 11
1109.8595
 21
1041.6781000000001
  0
LINE
  8
_0-0_LAYER001
  6
CONTINUOUS
 62
    2
 10
1084.6323
 20
1081.0473
 11
1124.0016000000001
 21
1041.6781000000001
  0
LINE
  8
_0-0_LAYER001
  6
CONTINUOUS
 62
    2
 10
1104.8353999999999
 20
1074.9864
 11
1138.1437000000001
 21
1041.6781000000001
  0
LINE
  8
_0-0_LAYER001
  6
CONTINUOUS
 62
    2
 10
1125.0383999999999
 20
1068.9255000000001
 11
1152.2859000000001
 21
1041.6781000000001
  0
LINE
  8
_0-0_LAYER001
  6
CONTINUOUS
 62
    2
 10
1145.2415000000001
 20
1062.8646000000001
 11
1165.8632
 21
1042.2429
  0
LINE
  8
_0-0_LAYER001
  6
CONTINUOUS
 62
    2
 10
1165.4445000000001
 20
1056.8036999999999
 11
1165.8632
 21
1056.385
  0
LINE
  8
_0-1_LAYER004
  6
CONTINUOUS
 62
    2
 10
1187.8764000000001
 20
1100.143
 11
1187.8764000000001
 21
1092.643
  0
LINE
  8
_0-1_LAYER004
  6
CONTINUOUS
 62
    2
 10
1187.8764000000001
 20
1092.643
 11
1184.1264000000001
 21
1099.1382000000001
  0
LINE
  8
_0-1_LAYER004
  6
CONTINUOUS
 62
    2
 10
1187.8764000000001
 20
1092.643
 11
1157.3547000000001
 21
1206.5517
  0
LINE
  8
_0-1_LAYER004
  6
CONTINUOUS
 62
    2
 10
1157.3547000000001
 20
1206.5517
 11
1109.3547000000001
 21
1206.5517
  0
LINE
  8
_0-1_LAYER004
  6
CONTINUOUS
 62
    2
 10
1683.5938000000001
 20
1099.2791
 11
1683.5938000000001
 21
1091.7791
  0
LINE
  8
_0-1_LAYER004
  6
CONTINUOUS
 62
    2
 10
1683.5938000000001
 20
1091.7791
 11
1679.8438000000001
 21
1098.2743
  0
LINE
  8
_0-1_LAYER004
  6
CONTINUOUS
 62
    2
 10
1683.5938000000001
 20
1091.7791
 11
1653.6543999999999
 21
1203.5146
  0
LINE
  8
_0-1_LAYER004
  6
CONTINUOUS
 62
    2
 10
1653.6543999999999
 20
1203.5146
 11
1613.1543999999999
 21
1203.5146
  0
LINE
  8
_0-0_LAYER001
  6
CONTINUOUS
 62
    2
 10
1421.8632
 20
1041.6781000000001
 11
1481.8631999999998
 21
1041.6781000000001
  0
LINE
  8
_0-0_LAYER001
  6
CONTINUOUS
 62
    2
 10
1481.8631999999998
 20
1041.6781000000001
 11
1481.8631999999998
 21
981.67810000000009
  0
LINE
  8
_0-0_LAYER001
  6
CONTINUOUS
 62
    2
 10
1481.8631999999998
 20
981.67810000000009
 11
1421.8632
 21
981.67810000000009
  0
LINE
  8
_0-0_LAYER001
  6
CONTINUOUS
 62
    2
 10
1421.8632
 20
981.67810000000009
 11
1421.8632
 21
1041.6781000000001
  0
LINE
  8
_0-0_LAYER001
  6
CONTINUOUS
 62
    2
 10
1421.8632
 20
1041.6781000000001
 11
1481.8631999999998
 21
981.67810000000009
  0
LINE
  8
_0-0_LAYER001
  6
CONTINUOUS
 62
    2
 10
1724.8631999999998
 20
1041.6781000000001
 11
1784.8631999999998
 21
1041.6781000000001
  0
LINE
  8
_0-0_LAYER001
  6
CONTINUOUS
 62
    2
 10
1784.8631999999998
 20
1041.6781000000001
 11
1784.8631999999998
 21
981.67810000000009
  0
LINE
  8
_0-0_LAYER001
  6
CONTINUOUS
 62
    2
 10
1784.8631999999998
 20
981.67810000000009
 11
1724.8631999999998
 21
981.67810000000009
  0
LINE
  8
_0-0_LAYER001
  6
CONTINUOUS
 62
    2
 10
1724.8631999999998
 20
981.67810000000009
 11
1724.8631999999998
 21
1041.6781000000001
  0
LINE
  8
_0-0_LAYER001
  6
CONTINUOUS
 62
    2
 10
1724.8631999999998
 20
1041.6781000000001
 11
1784.8631999999998
 21
981.67810000000009
  0
LINE
  8
_0-0_LAYER001
  6
CONTINUOUS
 62
    2
 10
2011.761
 20
1056.6781000000001
 11
1165.8632
 21
1056.6781000000001
  0
LINE
  8
_0-0_LAYER001
  6
DASHED3
 62
    2
 10
2011.761
 20
1058.1781000000001
 11
1165.8632
 21
1058.1781000000001
  0
LINE
  8
_0-0_LAYER001
  6
CONTINUOUS
 62
    2
 10
2011.761
 20
1059.6781000000001
 11
1159.614
 21
1059.6781000000001
  0
LINE
  8
_0-0_LAYER001
  6
CONTINUOUS
 62
    2
 10
2011.761
 20
1041.6781000000001
 11
1165.8632
 21
1041.6781000000001
  0
LINE
  8
_0-0_LAYER001
  6
CONTINUOUS
 62
    2
 10
2011.761
 20
1074.6781000000001
 11
1105.8632
 21
1074.6781000000001
  0
LINE
  8
_0-0_LAYER001
  6
CONTINUOUS
 62
    2
 10
1225.8632
 20
1232.5379
 11
1225.8632
 21
1180.0379
  0
CIRCLE
  8
_0-0_LAYER001
  6
CONTINUOUS
 62
    2
 10
1225.8632
 20
1230.0379
 40
1.6999999999999997
  0
LINE
  8
_0-0_LAYER001
  6
CONTINUOUS
 62
    2
 10
1225.8632
 20
1230.0379
 11
1265.8632
 21
1230.0379
  0
CIRCLE
  8
_0-0_LAYER001
  6
CONTINUOUS
 62
    2
 10
1265.8632
 20
1230.0379
 40
1.6999999999999997
  0
LINE
  8
_0-0_LAYER001
  6
CONTINUOUS
 62
    2
 10
1265.8632
 20
1232.5379
 11
1265.8632
 21
1180.0379
  0
LINE
  8
_0-0_LAYER001
  6
CONTINUOUS
 62
    2
 10
1015.8632
 20
1286.2984000000001
 11
1015.8632
 21
1233.7983999999999
  0
CIRCLE
  8
_0-0_LAYER001
  6
CONTINUOUS
 62
    2
 10
1015.8632
 20
1283.7984000000001
 40
1.6999999999999997
  0
LINE
  8
_0-0_LAYER001
  6
CONTINUOUS
 62
    2
 10
1015.8632
 20
1283.7984000000001
 11
1225.8632
 21
1283.7984000000001
  0
CIRCLE
  8
_0-0_LAYER001
  6
CONTINUOUS
 62
    2
 10
1225.8632
 20
1283.7984000000001
 40
1.6999999999999997
  0
LINE
  8
_0-0_LAYER001
  6
CONTINUOUS
 62
    2
 10
1225.8632
 20
1286.2984000000001
 11
1225.8632
 21
1233.7983999999999
  0
CIRCLE
  8
_0-0_LAYER001
  6
CONTINUOUS
 62
    2
 10
1225.8632
 20
1283.7984000000001
 40
1.6999999999999997
  0
LINE
  8
_0-0_LAYER001
  6
CONTINUOUS
 62
    2
 10
1225.8632
 20
1283.7984000000001
 11
1480.8631999999998
 21
1283.7984000000001
  0
CIRCLE
  8
_0-0_LAYER001
  6
CONTINUOUS
 62
    2
 10
1480.8631999999998
 20
1283.7984000000001
 40
1.6999999999999997
  0
LINE
  8
_0-0_LAYER001
  6
CONTINUOUS
 62
    2
 10
1480.8631999999998
 20
1286.2984000000001
 11
1480.8631999999998
 21
1233.7983999999999
  0
CIRCLE
  8
_0-0_LAYER001
  6
CONTINUOUS
 62
    2
 10
1480.8631999999998
 20
1283.7984000000001
 40
1.6999999999999997
  0
LINE
  8
_0-0_LAYER001
  6
CONTINUOUS
 62
    2
 10
1480.8631999999998
 20
1283.7984000000001
 11
1735.8631999999998
 21
1283.7984000000001
  0
CIRCLE
  8
_0-0_LAYER001
  6
CONTINUOUS
 62
    2
 10
1735.8631999999998
 20
1283.7984000000001
 40
1.6999999999999997
  0
LINE
  8
_0-0_LAYER001
  6
CONTINUOUS
 62
    2
 10
1735.8631999999998
 20
1286.2984000000001
 11
1735.8631999999998
 21
1233.7983999999999
  0
CIRCLE
  8
_0-0_LAYER001
  6
CONTINUOUS
 62
    2
 10
1735.8631999999998
 20
1283.7984000000001
 40
1.6999999999999997
  0
LINE
  8
_0-0_LAYER001
  6
CONTINUOUS
 62
    2
 10
1735.8631999999998
 20
1283.7984000000001
 11
1990.8631999999998
 21
1283.7984000000001
  0
CIRCLE
  8
_0-0_LAYER001
  6
CONTINUOUS
 62
    2
 10
1990.8631999999998
 20
1283.7984000000001
 40
1.6999999999999997
  0
LINE
  8
_0-0_LAYER001
  6
CONTINUOUS
 62
    2
 10
1990.8631999999998
 20
1286.2984000000001
 11
1990.8631999999998
 21
1233.7983999999999
  0
LINE
  8
_0-0_LAYER001
  6
CONTINUOUS
 62
    2
 10
1528.8078
 20
830.56799999999998
 11
1700.4791
 21
830.56799999999998
  0
LINE
  8
_0-0_LAYER001
  6
CONTINUOUS
 62
    2
 10
1519.2647000000002
 20
860.66339999999991
 11
1762.1039000000001
 21
860.66339999999991
  0
LINE
  8
_0-0_LAYER001
  6
CONTINUOUS
 62
    2
 10
1535.1514000000002
 20
800.7014999999999
 11
1600.3649999999998
 21
800.7014999999999
  0
LINE
  8
_0-1_LAYER004
  6
CONTINUOUS
 62
    2
 10
1111.5878
 20
938.5924
 11
1111.5878
 21
946.0924
  0
LINE
  8
_0-1_LAYER004
  6
CONTINUOUS
 62
    2
 10
1111.5878
 20
946.0924
 11
1115.3378
 21
939.5972999999999
  0
LINE
  8
_0-1_LAYER004
  6
CONTINUOUS
 62
    2
 10
1111.5878
 20
946.0924
 11
1143.5742
 21
826.71730000000002
  0
LINE
  8
_0-1_LAYER004
  6
CONTINUOUS
 62
    2
 10
1143.5742
 20
826.71730000000002
 11
1224.28
 21
826.71730000000002
  0
LINE
  8
_0-1_LAYER004
  6
CONTINUOUS
 62
    2
 10
1099.9582
 20
1065.2240999999999
 11
1099.9582
 21
1057.7240999999999
  0
LINE
  8
_0-1_LAYER004
  6
CONTINUOUS
 62
    2
 10
1099.9582
 20
1057.7240999999999
 11
1096.2082
 21
1064.2193
  0
LINE
  8
_0-1_LAYER004
  6
CONTINUOUS
 62
    2
 10
1099.9582
 20
1057.7240999999999
 11
1070.5433
 21
1167.5021999999999
  0
LINE
  8
_0-1_LAYER004
  6
CONTINUOUS
 62
    2
 10
1070.5433
 20
1167.5021999999999
 11
1011.3394000000001
 21
1167.5021999999999
  0
LINE
  8
_0-0_LAYER001
  6
CONTINUOUS
 62
    2
 10
1510.6352999999999
 20
890.75870000000009
 11
1698.3063999999999
 21
890.75870000000009
  0
LINE
  8
_0-0_LAYER001
  6
CONTINUOUS
 62
    4
 10
1747.3600999999999
 20
1130.3162
 11
1749.4108999999999
 21
1131.1217999999999
  0
LINE
  8
_0-0_LAYER001
  6
CONTINUOUS
 62
    4
 10
1749.4108999999999
 20
1131.1217999999999
 11
1752.9594000000002
 21
1132.518
  0
LINE
  8
_0-0_LAYER001
  6
CONTINUOUS
 62
    4
 10
1752.9594000000002
 20
1132.518
 11
1756.5319
 21
1133.9303
  0
LINE
  8
_0-0_LAYER001
  6
CONTINUOUS
 62
    4
 10
1756.5319
 20
1133.9303
 11
1760.1325999999999
 21
1135.3644999999999
  0
LINE
  8
_0-0_LAYER001
  6
CONTINUOUS
 62
    4
 10
1760.1325999999999
 20
1135.3644999999999
 11
1763.7655
 21
1136.8266000000001
  0
LINE
  8
_0-0_LAYER001
  6
CONTINUOUS
 62
    4
 10
1763.7655
 20
1136.8266000000001
 11
1767.4241999999999
 21
1138.3181
  0
LINE
  8
_0-0_LAYER001
  6
CONTINUOUS
 62
    4
 10
1767.4241999999999
 20
1138.3181
 11
1769.5673000000002
 21
1139.2021999999999
  0
LINE
  8
_0-0_LAYER001
  6
CONTINUOUS
 62
    4
 10
1769.5673000000002
 20
1139.2021999999999
 11
1771.5794000000001
 21
1140.037
  0
LINE
  8
_0-0_LAYER001
  6
CONTINUOUS
 62
    4
 10
1771.5794000000001
 20
1140.037
 11
1774.8332
 21
1141.354
  0
LINE
  8
_0-0_LAYER001
  6
CONTINUOUS
 62
    4
 10
1774.8332
 20
1141.354
 11
1777.7138
 21
1142.4166
  0
LINE
  8
_0-0_LAYER001
  6
CONTINUOUS
 62
    4
 10
1777.7138
 20
1142.4166
 11
1780.1716000000001
 21
1143.1706999999999
  0
LINE
  8
_0-0_LAYER001
  6
CONTINUOUS
 62
    4
 10
1780.1716000000001
 20
1143.1706999999999
 11
1782.1574999999998
 21
1143.6059
  0
LINE
  8
_0-0_LAYER001
  6
CONTINUOUS
 62
    4
 10
1782.1574999999998
 20
1143.6059
 11
1783.9342999999999
 21
1143.7952
  0
LINE
  8
_0-0_LAYER001
  6
CONTINUOUS
 62
    4
 10
1783.9342999999999
 20
1143.7952
 11
1784.6138999999998
 21
1143.7959000000001
  0
LINE
  8
_0-0_LAYER001
  6
CONTINUOUS
 62
    4
 10
1784.6138999999998
 20
1143.7959000000001
 11
1784.5376999999999
 21
1143.8003000000001
  0
LINE
  8
_0-0_LAYER001
  6
CONTINUOUS
 62
    4
 10
1784.5376999999999
 20
1143.8003000000001
 11
1785.1523000000002
 21
1143.7374
  0
LINE
  8
_0-0_LAYER001
  6
CONTINUOUS
 62
    4
 10
1785.1523000000002
 20
1143.7374
 11
1785.7440999999999
 21
1143.646
  0
LINE
  8
_0-0_LAYER001
  6
CONTINUOUS
 62
    4
 10
1785.7440999999999
 20
1143.646
 11
1786.4135000000001
 21
1143.5101999999999
  0
LINE
  8
_0-0_LAYER001
  6
CONTINUOUS
 62
    4
 10
1786.4135000000001
 20
1143.5101999999999
 11
1787.1496000000002
 21
1143.3279
  0
LINE
  8
_0-0_LAYER001
  6
CONTINUOUS
 62
    4
 10
1787.1496000000002
 20
1143.3279
 11
1788.0023000000001
 21
1143.0814
  0
LINE
  8
_0-0_LAYER001
  6
CONTINUOUS
 62
    4
 10
1788.0023000000001
 20
1143.0814
 11
1788.2474999999999
 21
1143.0029
  0
LINE
  8
_0-0_LAYER001
  6
CONTINUOUS
 62
    4
 10
1788.2474999999999
 20
1143.0029
 11
1789.8155000000002
 21
1142.4327000000001
  0
LINE
  8
_0-0_LAYER001
  6
CONTINUOUS
 62
    4
 10
1789.8155000000002
 20
1142.4327000000001
 11
1792.7820999999999
 21
1141.1034999999999
  0
LINE
  8
_0-0_LAYER001
  6
CONTINUOUS
 62
    4
 10
1792.7820999999999
 20
1141.1034999999999
 11
1795.7660000000001
 21
1139.4844000000001
  0
LINE
  8
_0-0_LAYER001
  6
CONTINUOUS
 62
    4
 10
1795.7660000000001
 20
1139.4844000000001
 11
1798.9616999999998
 21
1137.5074999999999
  0
LINE
  8
_0-0_LAYER001
  6
CONTINUOUS
 62
    4
 10
1798.9616999999998
 20
1137.5074999999999
 11
1802.3788
 21
1135.2101
  0
LINE
  8
_0-0_LAYER001
  6
CONTINUOUS
 62
    4
 10
1802.3788
 20
1135.2101
 11
1806.0205000000001
 21
1132.6582000000001
  0
LINE
  8
_0-0_LAYER001
  6
CONTINUOUS
 62
    4
 10
1806.0205000000001
 20
1132.6582000000001
 11
1808.2496000000001
 21
1131.0867000000001
  0
LINE
  8
_0-0_LAYER001
  6
CONTINUOUS
 62
    4
 10
1808.2496000000001
 20
1131.0867000000001
 11
1811.7741999999998
 21
1128.6353999999999
  0
LINE
  8
_0-0_LAYER001
  6
CONTINUOUS
 62
    4
 10
1811.7741999999998
 20
1128.6353999999999
 11
1817.9247
 21
1124.4958999999999
  0
LINE
  8
_0-0_LAYER001
  6
CONTINUOUS
 62
    4
 10
1817.9247
 20
1124.4958999999999
 11
1824.2856999999999
 21
1120.4443000000001
  0
LINE
  8
_0-0_LAYER001
  6
CONTINUOUS
 62
    4
 10
1824.2856999999999
 20
1120.4443000000001
 11
1830.8613999999998
 21
1116.5469000000001
  0
LINE
  8
_0-0_LAYER001
  6
CONTINUOUS
 62
    4
 10
1830.8613999999998
 20
1116.5469000000001
 11
1837.6795999999999
 21
1112.8577
  0
LINE
  8
_0-0_LAYER001
  6
CONTINUOUS
 62
    4
 10
1837.6795999999999
 20
1112.8577
 11
1844.6704
 21
1109.4804999999999
  0
LINE
  8
_0-0_LAYER001
  6
CONTINUOUS
 62
    4
 10
1844.6704
 20
1109.4804999999999
 11
1848.9703
 21
1107.6159
  0
LINE
  8
_0-0_LAYER001
  6
CONTINUOUS
 62
    4
 10
1848.9703
 20
1107.6159
 11
1852.596
 21
1106.1685
  0
LINE
  8
_0-0_LAYER001
  6
CONTINUOUS
 62
    4
 10
1852.596
 20
1106.1685
 11
1858.683
 21
1103.9912999999999
  0
LINE
  8
_0-0_LAYER001
  6
CONTINUOUS
 62
    4
 10
1858.683
 20
1103.9912999999999
 11
1864.9603999999999
 21
1102.0678
  0
LINE
  8
_0-0_LAYER001
  6
CONTINUOUS
 62
    4
 10
1864.9603999999999
 20
1102.0678
 11
1871.3325
 21
1100.4351999999999
  0
LINE
  8
_0-0_LAYER001
  6
CONTINUOUS
 62
    4
 10
1871.3325
 20
1100.4351999999999
 11
1877.7860000000001
 21
1099.1023
  0
LINE
  8
_0-0_LAYER001
  6
CONTINUOUS
 62
    4
 10
1877.7860000000001
 20
1099.1023
 11
1884.2143999999998
 21
1098.0932
  0
LINE
  8
_0-0_LAYER001
  6
CONTINUOUS
 62
    4
 10
1884.2143999999998
 20
1098.0932
 11
1888.0799999999999
 21
1097.6384
  0
LINE
  8
_0-0_LAYER001
  6
CONTINUOUS
 62
    4
 10
1888.0799999999999
 20
1097.6384
 11
1891.0787
 21
1097.3617999999999
  0
LINE
  8
_0-0_LAYER001
  6
CONTINUOUS
 62
    4
 10
1891.0787
 20
1097.3617999999999
 11
1895.9760000000001
 21
1097.0479
  0
LINE
  8
_0-0_LAYER001
  6
CONTINUOUS
 62
    4
 10
1895.9760000000001
 20
1097.0479
 11
1900.8861999999999
 21
1096.8920000000001
  0
LINE
  8
_0-0_LAYER001
  6
CONTINUOUS
 62
    4
 10
1900.8861999999999
 20
1096.8920000000001
 11
1905.7343000000001
 21
1096.8768
  0
LINE
  8
_0-0_LAYER001
  6
CONTINUOUS
 62
    4
 10
1905.7343000000001
 20
1096.8768
 11
1910.5171999999998
 21
1096.9811999999999
  0
LINE
  8
_0-0_LAYER001
  6
CONTINUOUS
 62
    4
 10
1910.5171999999998
 20
1096.9811999999999
 11
1915.2024999999999
 21
1097.1836000000001
  0
LINE
  8
_0-0_LAYER001
  6
CONTINUOUS
 62
    4
 10
1915.2024999999999
 20
1097.1836000000001
 11
1917.9776999999999
 21
1097.3435999999999
  0
LINE
  8
_0-0_LAYER001
  6
CONTINUOUS
 62
    4
 10
1917.9776999999999
 20
1097.3435999999999
 11
1923.0055000000002
 21
1097.6993
  0
LINE
  8
_0-0_LAYER001
  6
CONTINUOUS
 62
    4
 10
1923.0055000000002
 20
1097.6993
 11
1931.5216
 21
1098.4793
  0
LINE
  8
_0-0_LAYER001
  6
CONTINUOUS
 62
    4
 10
1931.5216
 20
1098.4793
 11
1939.9938000000002
 21
1099.4481000000001
  0
LINE
  8
_0-0_LAYER001
  6
CONTINUOUS
 62
    4
 10
1939.9938000000002
 20
1099.4481000000001
 11
1948.3703999999998
 21
1100.5603000000001
  0
LINE
  8
_0-0_LAYER001
  6
CONTINUOUS
 62
    4
 10
1948.3703999999998
 20
1100.5603000000001
 11
1956.6549
 21
1101.7766999999999
  0
LINE
  8
_0-0_LAYER001
  6
CONTINUOUS
 62
    4
 10
1956.6549
 20
1101.7766999999999
 11
1964.8456000000001
 21
1103.0583999999999
  0
LINE
  8
_0-0_LAYER001
  6
CONTINUOUS
 62
    4
 10
1964.8456000000001
 20
1103.0583999999999
 11
1969.5725000000002
 21
1103.8199
  0
LINE
  8
_0-0_LAYER001
  6
CONTINUOUS
 62
    4
 10
1969.5725000000002
 20
1103.8199
 11
1972.0225999999998
 21
1104.2181
  0
LINE
  8
_0-0_LAYER001
  6
CONTINUOUS
 62
    4
 10
1972.0225999999998
 20
1104.2181
 11
1976.2275
 21
1104.9054000000001
  0
LINE
  8
_0-0_LAYER001
  6
CONTINUOUS
 62
    4
 10
1976.2275
 20
1104.9054000000001
 11
1980.4297999999999
 21
1105.5966000000001
  0
LINE
  8
_0-0_LAYER001
  6
CONTINUOUS
 62
    4
 10
1980.4297999999999
 20
1105.5966000000001
 11
1984.6273000000001
 21
1106.2904000000001
  0
LINE
  8
_0-0_LAYER001
  6
CONTINUOUS
 62
    4
 10
1984.6273000000001
 20
1106.2904000000001
 11
1988.8202000000001
 21
1106.9857999999999
  0
LINE
  8
_0-0_LAYER001
  6
CONTINUOUS
 62
    4
 10
1988.8202000000001
 20
1106.9857999999999
 11
1993.0088000000001
 21
1107.682
  0
LINE
  8
_0-0_LAYER001
  6
CONTINUOUS
 62
    4
 10
1993.0088000000001
 20
1107.682
 11
1994.6228999999998
 21
1107.9503999999999
  0
LINE
  8
_0-0_LAYER001
  6
CONTINUOUS
 62
    4
 10
1230.7537
 20
1148.1465000000001
 11
1231.8788
 21
1148.5953
  0
LINE
  8
_0-0_LAYER001
  6
CONTINUOUS
 62
    4
 10
1351.2945
 20
1068.1204
 11
1342.759
 21
1082.6538
  0
LINE
  8
_0-0_LAYER001
  6
CONTINUOUS
 62
    4
 10
1359.4623999999999
 20
1067.4701
 11
1367.7685999999999
 21
1077.5355999999999
  0
ARC
  8
_0-0_LAYER001
  6
CONTINUOUS
 62
    4
 10
1355.6059
 20
1070.6524999999999
 40
5
 50
210.42578
 51
320.47001
  0
LINE
  8
_0-0_LAYER001
  6
CONTINUOUS
 62
    4
 10
1435.4079999999999
 20
1067.0002999999999
 11
1428.0826
 21
1078.3063
  0
LINE
  8
_0-0_LAYER001
  6
CONTINUOUS
 62
    4
 10
1443.9175
 20
1067.1902
 11
1452.8560000000002
 21
1082.4358999999999
  0
ARC
  8
_0-0_LAYER001
  6
DASHED1
 62
    4
 10
1439.6042000000002
 20
1069.7191
 40
5
 50
212.93986000000001
 51
329.61716000000001
  0
LINE
  8
_0-0_LAYER001
  6
CONTINUOUS
 62
    4
 10
1231.8784000000001
 20
1148.5945999999999
 11
1232.6880000000001
 21
1148.9126000000001
  0
LINE
  8
_0-0_LAYER001
  6
CONTINUOUS
 62
    4
 10
1232.6880000000001
 20
1148.9126000000001
 11
1236.2182
 21
1150.3016
  0
LINE
  8
_0-0_LAYER001
  6
CONTINUOUS
 62
    4
 10
1236.2182
 20
1150.3016
 11
1239.7556
 21
1151.7
  0
LINE
  8
_0-0_LAYER001
  6
CONTINUOUS
 62
    4
 10
1239.7556
 20
1151.7
 11
1243.3049000000001
 21
1153.1137000000001
  0
LINE
  8
_0-0_LAYER001
  6
CONTINUOUS
 62
    4
 10
1243.3049000000001
 20
1153.1137000000001
 11
1246.8705
 21
1154.5487000000001
  0
LINE
  8
_0-0_LAYER001
  6
CONTINUOUS
 62
    4
 10
1246.8705
 20
1154.5487000000001
 11
1250.4572000000001
 21
1156.0109
  0
LINE
  8
_0-0_LAYER001
  6
CONTINUOUS
 62
    4
 10
1250.4572000000001
 20
1156.0109
 11
1252.5488
 21
1156.8738000000001
  0
LINE
  8
_0-0_LAYER001
  6
CONTINUOUS
 62
    4
 10
1252.5488
 20
1156.8738000000001
 11
1254.6164000000001
 21
1157.7316000000001
  0
LINE
  8
_0-0_LAYER001
  6
CONTINUOUS
 62
    4
 10
1254.6164000000001
 20
1157.7316000000001
 11
1258.203
 21
1159.1832999999999
  0
LINE
  8
_0-0_LAYER001
  6
CONTINUOUS
 62
    4
 10
1258.203
 20
1159.1832999999999
 11
1261.8175000000001
 21
1160.5165999999999
  0
LINE
  8
_0-0_LAYER001
  6
CONTINUOUS
 62
    4
 10
1261.8175000000001
 20
1160.5165999999999
 11
1265.4602
 21
1161.6342
  0
LINE
  8
_0-0_LAYER001
  6
CONTINUOUS
 62
    4
 10
1265.4602
 20
1161.6342
 11
1269.1314
 21
1162.4387999999999
  0
LINE
  8
_0-0_LAYER001
  6
CONTINUOUS
 62
    4
 10
1269.1314
 20
1162.4387999999999
 11
1272.8316
 21
1162.8330000000001
  0
LINE
  8
_0-0_LAYER001
  6
CONTINUOUS
 62
    4
 10
1272.8316
 20
1162.8330000000001
 11
1274.991
 21
1162.8352
  0
LINE
  8
_0-0_LAYER001
  6
CONTINUOUS
 62
    4
 10
1274.991
 20
1162.8352
 11
1275.8409999999999
 21
1162.7856999999999
  0
LINE
  8
_0-0_LAYER001
  6
CONTINUOUS
 62
    4
 10
1275.8409999999999
 20
1162.7856999999999
 11
1277.3076000000001
 21
1162.6356000000001
  0
LINE
  8
_0-0_LAYER001
  6
CONTINUOUS
 62
    4
 10
1277.3076000000001
 20
1162.6356000000001
 11
1278.7719999999999
 21
1162.4093
  0
LINE
  8
_0-0_LAYER001
  6
CONTINUOUS
 62
    4
 10
1278.7719999999999
 20
1162.4093
 11
1280.2298999999998
 21
1162.1135999999999
  0
LINE
  8
_0-0_LAYER001
  6
CONTINUOUS
 62
    4
 10
1280.2298999999998
 20
1162.1135999999999
 11
1281.6772000000001
 21
1161.7553
  0
LINE
  8
_0-0_LAYER001
  6
CONTINUOUS
 62
    4
 10
1281.6772000000001
 20
1161.7553
 11
1283.1095
 21
1161.3411000000001
  0
LINE
  8
_0-0_LAYER001
  6
CONTINUOUS
 62
    4
 10
1283.1095
 20
1161.3411000000001
 11
1283.9318000000001
 21
1161.0779
  0
LINE
  8
_0-0_LAYER001
  6
CONTINUOUS
 62
    4
 10
1283.9318000000001
 20
1161.0779
 11
1286.4429999999998
 21
1160.1647
  0
LINE
  8
_0-0_LAYER001
  6
CONTINUOUS
 62
    4
 10
1286.4429999999998
 20
1160.1647
 11
1290.6285
 21
1158.2893999999999
  0
LINE
  8
_0-0_LAYER001
  6
CONTINUOUS
 62
    4
 10
1290.6285
 20
1158.2893999999999
 11
1294.6632999999999
 21
1156.1001000000001
  0
LINE
  8
_0-0_LAYER001
  6
CONTINUOUS
 62
    4
 10
1294.6632999999999
 20
1156.1001000000001
 11
1298.5844
 21
1153.6744000000001
  0
LINE
  8
_0-0_LAYER001
  6
CONTINUOUS
 62
    4
 10
1298.5844
 20
1153.6744000000001
 11
1302.4289000000001
 21
1151.0896
  0
LINE
  8
_0-0_LAYER001
  6
CONTINUOUS
 62
    4
 10
1302.4289000000001
 20
1151.0896
 11
1306.2337
 21
1148.4233999999999
  0
LINE
  8
_0-0_LAYER001
  6
CONTINUOUS
 62
    4
 10
1306.2337
 20
1148.4233999999999
 11
1308.4369999999999
 21
1146.8702000000001
  0
LINE
  8
_0-0_LAYER001
  6
CONTINUOUS
 62
    4
 10
1308.4369999999999
 20
1146.8702000000001
 11
1311.8015
 21
1144.5300999999999
  0
LINE
  8
_0-0_LAYER001
  6
CONTINUOUS
 62
    4
 10
1311.8015
 20
1144.5300999999999
 11
1317.6493
 21
1140.5944999999999
  0
LINE
  8
_0-0_LAYER001
  6
CONTINUOUS
 62
    4
 10
1317.6493
 20
1140.5944999999999
 11
1323.5746999999997
 21
1136.8202000000001
  0
LINE
  8
_0-0_LAYER001
  6
CONTINUOUS
 62
    4
 10
1323.5746999999997
 20
1136.8202000000001
 11
1329.5993000000001
 21
1133.2494999999999
  0
LINE
  8
_0-0_LAYER001
  6
CONTINUOUS
 62
    4
 10
1329.5993000000001
 20
1133.2494999999999
 11
1335.7445000000002
 21
1129.9245000000001
  0
LINE
  8
_0-0_LAYER001
  6
CONTINUOUS
 62
    4
 10
1335.7445000000002
 20
1129.9245000000001
 11
1342.0318
 21
1126.8870999999999
  0
LINE
  8
_0-0_LAYER001
  6
CONTINUOUS
 62
    4
 10
1342.0318
 20
1126.8870999999999
 11
1345.752
 21
1125.2738999999999
  0
LINE
  8
_0-0_LAYER001
  6
CONTINUOUS
 62
    4
 10
1345.752
 20
1125.2738999999999
 11
1348.8287
 21
1124.0456999999999
  0
LINE
  8
_0-0_LAYER001
  6
CONTINUOUS
 62
    4
 10
1348.8287
 20
1124.0456999999999
 11
1354.2166999999999
 21
1122.1185
  0
LINE
  8
_0-0_LAYER001
  6
CONTINUOUS
 62
    4
 10
1354.2166999999999
 20
1122.1185
 11
1359.6964
 21
1120.4394
  0
LINE
  8
_0-0_LAYER001
  6
CONTINUOUS
 62
    4
 10
1359.6964
 20
1120.4394
 11
1365.2517
 21
1119.0161000000001
  0
LINE
  8
_0-0_LAYER001
  6
CONTINUOUS
 62
    4
 10
1365.2517
 20
1119.0161000000001
 11
1370.8668
 21
1117.8562999999999
  0
LINE
  8
_0-0_LAYER001
  6
CONTINUOUS
 62
    4
 10
1370.8668
 20
1117.8562999999999
 11
1376.5255
 21
1116.9680000000001
  0
LINE
  8
_0-0_LAYER001
  6
CONTINUOUS
 62
    4
 10
1376.5255
 20
1116.9680000000001
 11
1379.8212000000001
 21
1116.5803000000001
  0
LINE
  8
_0-0_LAYER001
  6
CONTINUOUS
 62
    4
 10
1379.8212000000001
 20
1116.5803000000001
 11
1382.3439000000003
 21
1116.3476000000001
  0
LINE
  8
_0-0_LAYER001
  6
CONTINUOUS
 62
    4
 10
1382.3439000000003
 20
1116.3476000000001
 11
1386.7003999999999
 21
1116.0684000000001
  0
LINE
  8
_0-0_LAYER001
  6
CONTINUOUS
 62
    4
 10
1386.7003999999999
 20
1116.0684000000001
 11
1391.0628999999999
 21
1115.9299000000001
  0
LINE
  8
_0-0_LAYER001
  6
CONTINUOUS
 62
    4
 10
1391.0628999999999
 20
1115.9299000000001
 11
1395.4287999999999
 21
1115.9161999999999
  0
LINE
  8
_0-0_LAYER001
  6
CONTINUOUS
 62
    4
 10
1395.4287999999999
 20
1115.9161999999999
 11
1399.7950000000001
 21
1116.0115000000001
  0
LINE
  8
_0-0_LAYER001
  6
CONTINUOUS
 62
    4
 10
1399.7950000000001
 20
1116.0115000000001
 11
1404.1587
 21
1116.2
  0
LINE
  8
_0-0_LAYER001
  6
CONTINUOUS
 62
    4
 10
1404.1587
 20
1116.2
 11
1406.6873000000001
 21
1116.3458000000001
  0
LINE
  8
_0-0_LAYER001
  6
CONTINUOUS
 62
    4
 10
1406.6873000000001
 20
1116.3458000000001
 11
1411.4122
 21
1116.6800000000001
  0
LINE
  8
_0-0_LAYER001
  6
CONTINUOUS
 62
    4
 10
1411.4122
 20
1116.6800000000001
 11
1419.5408
 21
1117.4246000000001
  0
LINE
  8
_0-0_LAYER001
  6
CONTINUOUS
 62
    4
 10
1419.5408
 20
1117.4246000000001
 11
1427.6494
 21
1118.3517999999999
  0
LINE
  8
_0-0_LAYER001
  6
CONTINUOUS
 62
    4
 10
1427.6494
 20
1118.3517999999999
 11
1435.741
 21
1119.4260999999999
  0
LINE
  8
_0-0_LAYER001
  6
CONTINUOUS
 62
    4
 10
1435.741
 20
1119.4260999999999
 11
1443.8186999999998
 21
1120.6122
  0
LINE
  8
_0-0_LAYER001
  6
CONTINUOUS
 62
    4
 10
1443.8186999999998
 20
1120.6122
 11
1451.8854000000001
 21
1121.8744999999999
  0
LINE
  8
_0-0_LAYER001
  6
CONTINUOUS
 62
    4
 10
1451.8854000000001
 20
1121.8744999999999
 11
1456.5603000000001
 21
1122.6276
  0
LINE
  8
_0-0_LAYER001
  6
CONTINUOUS
 62
    4
 10
1456.5603000000001
 20
1122.6276
 11
1458.9899
 21
1123.0225
  0
LINE
  8
_0-0_LAYER001
  6
CONTINUOUS
 62
    4
 10
1458.9899
 20
1123.0225
 11
1463.1777000000002
 21
1123.7070000000001
  0
LINE
  8
_0-0_LAYER001
  6
CONTINUOUS
 62
    4
 10
1463.1777000000002
 20
1123.7070000000001
 11
1467.3643000000002
 21
1124.3956000000001
  0
LINE
  8
_0-0_LAYER001
  6
CONTINUOUS
 62
    4
 10
1467.3643000000002
 20
1124.3956000000001
 11
1471.5497999999998
 21
1125.0873999999999
  0
LINE
  8
_0-0_LAYER001
  6
CONTINUOUS
 62
    4
 10
1471.5497999999998
 20
1125.0873999999999
 11
1475.7347
 21
1125.7815000000001
  0
LINE
  8
_0-0_LAYER001
  6
CONTINUOUS
 62
    4
 10
1475.7347
 20
1125.7815000000001
 11
1479.9191999999998
 21
1126.4770000000001
  0
LINE
  8
_0-0_LAYER001
  6
CONTINUOUS
 62
    4
 10
1479.9191999999998
 20
1126.4770000000001
 11
1482.3461000000002
 21
1126.8806999999999
  0
LINE
  8
_0-0_LAYER001
  6
CONTINUOUS
 62
    4
 10
1237.2229
 20
1131.355
 11
1239.2737
 21
1132.1605999999999
  0
LINE
  8
_0-0_LAYER001
  6
CONTINUOUS
 62
    4
 10
1239.2737
 20
1132.1605999999999
 11
1242.8221000000001
 21
1133.5568000000001
  0
LINE
  8
_0-0_LAYER001
  6
CONTINUOUS
 62
    4
 10
1242.8221000000001
 20
1133.5568000000001
 11
1246.3947000000001
 21
1134.9691
  0
LINE
  8
_0-0_LAYER001
  6
CONTINUOUS
 62
    4
 10
1246.3947000000001
 20
1134.9691
 11
1249.9954
 21
1136.4032999999999
  0
LINE
  8
_0-0_LAYER001
  6
CONTINUOUS
 62
    4
 10
1249.9954
 20
1136.4032999999999
 11
1253.6283000000001
 21
1137.8652999999999
  0
LINE
  8
_0-0_LAYER001
  6
CONTINUOUS
 62
    4
 10
1253.6283000000001
 20
1137.8652999999999
 11
1257.287
 21
1139.3569
  0
LINE
  8
_0-0_LAYER001
  6
CONTINUOUS
 62
    4
 10
1257.287
 20
1139.3569
 11
1259.4301
 21
1140.241
  0
LINE
  8
_0-0_LAYER001
  6
CONTINUOUS
 62
    4
 10
1259.4301
 20
1140.241
 11
1261.4422
 21
1141.0758000000001
  0
LINE
  8
_0-0_LAYER001
  6
CONTINUOUS
 62
    4
 10
1261.4422
 20
1141.0758000000001
 11
1264.6959999999999
 21
1142.3928000000001
  0
LINE
  8
_0-0_LAYER001
  6
CONTINUOUS
 62
    4
 10
1264.6959999999999
 20
1142.3928000000001
 11
1267.5766000000001
 21
1143.4554000000001
  0
LINE
  8
_0-0_LAYER001
  6
CONTINUOUS
 62
    4
 10
1267.5766000000001
 20
1143.4554000000001
 11
1270.0344
 21
1144.2094
  0
LINE
  8
_0-0_LAYER001
  6
CONTINUOUS
 62
    4
 10
1270.0344
 20
1144.2094
 11
1272.0201999999999
 21
1144.6447000000001
  0
LINE
  8
_0-0_LAYER001
  6
CONTINUOUS
 62
    4
 10
1272.0201999999999
 20
1144.6447000000001
 11
1273.7971
 21
1144.8340000000001
  0
LINE
  8
_0-0_LAYER001
  6
CONTINUOUS
 62
    4
 10
1273.7971
 20
1144.8340000000001
 11
1274.4766999999999
 21
1144.8347000000001
  0
LINE
  8
_0-0_LAYER001
  6
CONTINUOUS
 62
    4
 10
1274.4766999999999
 20
1144.8347000000001
 11
1274.4005
 21
1144.8390999999999
  0
LINE
  8
_0-0_LAYER001
  6
CONTINUOUS
 62
    4
 10
1274.4005
 20
1144.8390999999999
 11
1275.0151000000001
 21
1144.7762
  0
LINE
  8
_0-0_LAYER001
  6
CONTINUOUS
 62
    4
 10
1275.0151000000001
 20
1144.7762
 11
1275.6068
 21
1144.6848
  0
LINE
  8
_0-0_LAYER001
  6
CONTINUOUS
 62
    4
 10
1275.6068
 20
1144.6848
 11
1276.2762
 21
1144.549
  0
LINE
  8
_0-0_LAYER001
  6
CONTINUOUS
 62
    4
 10
1276.2762
 20
1144.549
 11
1277.0124000000001
 21
1144.3667
  0
LINE
  8
_0-0_LAYER001
  6
CONTINUOUS
 62
    4
 10
1277.0124000000001
 20
1144.3667
 11
1277.8651
 21
1144.1202000000001
  0
LINE
  8
_0-0_LAYER001
  6
CONTINUOUS
 62
    4
 10
1277.8651
 20
1144.1202000000001
 11
1278.1103000000001
 21
1144.0417
  0
LINE
  8
_0-0_LAYER001
  6
CONTINUOUS
 62
    4
 10
1278.1103000000001
 20
1144.0417
 11
1279.6783
 21
1143.4713999999999
  0
LINE
  8
_0-0_LAYER001
  6
CONTINUOUS
 62
    4
 10
1279.6783
 20
1143.4713999999999
 11
1282.6449
 21
1142.1423
  0
LINE
  8
_0-0_LAYER001
  6
CONTINUOUS
 62
    4
 10
1282.6449
 20
1142.1423
 11
1285.6288
 21
1140.5232000000001
  0
LINE
  8
_0-0_LAYER001
  6
CONTINUOUS
 62
    4
 10
1285.6288
 20
1140.5232000000001
 11
1288.8244
 21
1138.5463
  0
LINE
  8
_0-0_LAYER001
  6
CONTINUOUS
 62
    4
 10
1288.8244
 20
1138.5463
 11
1292.2416000000001
 21
1136.2488000000001
  0
LINE
  8
_0-0_LAYER001
  6
CONTINUOUS
 62
    4
 10
1292.2416000000001
 20
1136.2488000000001
 11
1295.8833
 21
1133.6969999999999
  0
LINE
  8
_0-0_LAYER001
  6
CONTINUOUS
 62
    4
 10
1295.8833
 20
1133.6969999999999
 11
1298.1124
 21
1132.1255000000001
  0
LINE
  8
_0-0_LAYER001
  6
CONTINUOUS
 62
    4
 10
1298.1124
 20
1132.1255000000001
 11
1301.6369
 21
1129.6741999999999
  0
LINE
  8
_0-0_LAYER001
  6
CONTINUOUS
 62
    4
 10
1301.6369
 20
1129.6741999999999
 11
1307.7874999999999
 21
1125.5346999999999
  0
LINE
  8
_0-0_LAYER001
  6
CONTINUOUS
 62
    4
 10
1307.7874999999999
 20
1125.5346999999999
 11
1314.1485
 21
1121.4829999999999
  0
LINE
  8
_0-0_LAYER001
  6
CONTINUOUS
 62
    4
 10
1314.1485
 20
1121.4829999999999
 11
1320.7242000000001
 21
1117.5857000000001
  0
LINE
  8
_0-0_LAYER001
  6
CONTINUOUS
 62
    4
 10
1320.7242000000001
 20
1117.5857000000001
 11
1327.5423000000001
 21
1113.8965000000001
  0
LINE
  8
_0-0_LAYER001
  6
CONTINUOUS
 62
    4
 10
1327.5423000000001
 20
1113.8965000000001
 11
1334.5332000000003
 21
1110.5192999999999
  0
LINE
  8
_0-0_LAYER001
  6
CONTINUOUS
 62
    4
 10
1334.5332000000003
 20
1110.5192999999999
 11
1338.8330999999998
 21
1108.6547
  0
LINE
  8
_0-0_LAYER001
  6
CONTINUOUS
 62
    4
 10
1338.8330999999998
 20
1108.6547
 11
1342.4586999999999
 21
1107.2073
  0
LINE
  8
_0-0_LAYER001
  6
CONTINUOUS
 62
    4
 10
1342.4586999999999
 20
1107.2073
 11
1348.5457999999999
 21
1105.0300999999999
  0
LINE
  8
_0-0_LAYER001
  6
CONTINUOUS
 62
    4
 10
1348.5457999999999
 20
1105.0300999999999
 11
1354.8231000000001
 21
1103.1066000000001
  0
LINE
  8
_0-0_LAYER001
  6
CONTINUOUS
 62
    4
 10
1354.8231000000001
 20
1103.1066000000001
 11
1361.1952999999999
 21
1101.4739999999999
  0
LINE
  8
_0-0_LAYER001
  6
CONTINUOUS
 62
    4
 10
1361.1952999999999
 20
1101.4739999999999
 11
1367.6487999999999
 21
1100.1411000000001
  0
LINE
  8
_0-0_LAYER001
  6
CONTINUOUS
 62
    4
 10
1367.6487999999999
 20
1100.1411000000001
 11
1374.0771999999997
 21
1099.1319000000001
  0
LINE
  8
_0-0_LAYER001
  6
CONTINUOUS
 62
    4
 10
1374.0771999999997
 20
1099.1319000000001
 11
1377.9427000000001
 21
1098.6771000000001
  0
LINE
  8
_0-0_LAYER001
  6
CONTINUOUS
 62
    4
 10
1377.9427000000001
 20
1098.6771000000001
 11
1380.9414999999999
 21
1098.4005999999999
  0
LINE
  8
_0-0_LAYER001
  6
CONTINUOUS
 62
    4
 10
1380.9414999999999
 20
1098.4005999999999
 11
1385.8388
 21
1098.0867000000001
  0
LINE
  8
_0-0_LAYER001
  6
CONTINUOUS
 62
    4
 10
1385.8388
 20
1098.0867000000001
 11
1390.7490000000003
 21
1097.9308000000001
  0
LINE
  8
_0-0_LAYER001
  6
CONTINUOUS
 62
    4
 10
1390.7490000000003
 20
1097.9308000000001
 11
1395.597
 21
1097.9156
  0
LINE
  8
_0-0_LAYER001
  6
CONTINUOUS
 62
    4
 10
1395.597
 20
1097.9156
 11
1400.3798999999999
 21
1098.02
  0
LINE
  8
_0-0_LAYER001
  6
CONTINUOUS
 62
    4
 10
1400.3798999999999
 20
1098.02
 11
1405.0652
 21
1098.2224000000001
  0
LINE
  8
_0-0_LAYER001
  6
CONTINUOUS
 62
    4
 10
1405.0652
 20
1098.2224000000001
 11
1407.8404
 21
1098.3824
  0
LINE
  8
_0-0_LAYER001
  6
CONTINUOUS
 62
    4
 10
1407.8404
 20
1098.3824
 11
1412.8683000000001
 21
1098.7380000000001
  0
LINE
  8
_0-0_LAYER001
  6
CONTINUOUS
 62
    4
 10
1412.8683000000001
 20
1098.7380000000001
 11
1421.3843999999999
 21
1099.5181
  0
LINE
  8
_0-0_LAYER001
  6
CONTINUOUS
 62
    4
 10
1421.3843999999999
 20
1099.5181
 11
1429.8566000000001
 21
1100.4869000000001
  0
LINE
  8
_0-0_LAYER001
  6
CONTINUOUS
 62
    4
 10
1429.8566000000001
 20
1100.4869000000001
 11
1438.2332000000001
 21
1101.5989999999999
  0
LINE
  8
_0-0_LAYER001
  6
CONTINUOUS
 62
    4
 10
1438.2332000000001
 20
1101.5989999999999
 11
1446.5176999999999
 21
1102.8154999999999
  0
LINE
  8
_0-0_LAYER001
  6
CONTINUOUS
 62
    4
 10
1446.5176999999999
 20
1102.8154999999999
 11
1454.7082999999998
 21
1104.0971999999999
  0
LINE
  8
_0-0_LAYER001
  6
CONTINUOUS
 62
    4
 10
1454.7082999999998
 20
1104.0971999999999
 11
1459.4353000000001
 21
1104.8587
  0
LINE
  8
_0-0_LAYER001
  6
CONTINUOUS
 62
    4
 10
1459.4353000000001
 20
1104.8587
 11
1461.8852999999999
 21
1105.2569000000001
  0
LINE
  8
_0-0_LAYER001
  6
CONTINUOUS
 62
    4
 10
1461.8852999999999
 20
1105.2569000000001
 11
1466.0902999999998
 21
1105.9441999999999
  0
LINE
  8
_0-0_LAYER001
  6
CONTINUOUS
 62
    4
 10
1466.0902999999998
 20
1105.9441999999999
 11
1470.2926000000002
 21
1106.6353999999999
  0
LINE
  8
_0-0_LAYER001
  6
CONTINUOUS
 62
    4
 10
1470.2926000000002
 20
1106.6353999999999
 11
1474.4899999999998
 21
1107.3291999999999
  0
LINE
  8
_0-0_LAYER001
  6
CONTINUOUS
 62
    4
 10
1474.4899999999998
 20
1107.3291999999999
 11
1478.6828999999998
 21
1108.0246
  0
LINE
  8
_0-0_LAYER001
  6
CONTINUOUS
 62
    4
 10
1478.6828999999998
 20
1108.0246
 11
1482.8715000000002
 21
1108.7207000000001
  0
LINE
  8
_0-0_LAYER001
  6
CONTINUOUS
 62
    4
 10
1482.8715000000002
 20
1108.7207000000001
 11
1484.4856
 21
1108.9892
  0
ARC
  8
_0-0_LAYER001
  6
CONTINUOUS
 62
    4
 10
1518.7212
 20
1134.7864
 40
3
 50
103.0288
 51
179.49999999999997
  0
LINE
  8
_0-0_LAYER001
  6
CONTINUOUS
 62
    4
 10
1230.7949000000001
 20
1128.8117999999999
 11
1237.1872000000001
 21
1131.3338000000001
  0
ARC
  8
_0-0_LAYER001
  6
CONTINUOUS
 62
    4
 10
1230.4278999999999
 20
1129.742
 40
1
 50
179.5
 51
291.53165999999999
  0
LINE
  8
_0-0_LAYER001
  6
CONTINUOUS
 62
    4
 10
1523.2851999999998
 20
1138.9218000000001
 11
1518.0448999999999
 21
1137.7092
  0
ARC
  8
_0-0_LAYER001
  6
CONTINUOUS
 62
    4
 10
1523.5106000000001
 20
1137.9475
 40
1
 50
359.50000000000006
 51
103.02880000000002
  0
LINE
  8
_0-0_LAYER001
  6
CONTINUOUS
 62
    4
 10
1485.6703000000002
 20
1107.2512999999999
 11
1515.9839999999999
 21
1114.3453
  0
ARC
  8
_0-0_LAYER001
  6
CONTINUOUS
 62
    4
 10
1523.3247999999999
 20
1116.6546000000001
 40
1
 50
359.50000000000006
 51
103.08296000000006
  0
LINE
  8
_0-0_LAYER001
  6
CONTINUOUS
 62
    4
 10
1516.7649999999999
 20
1116.1568
 11
1523.0985000000001
 21
1117.6287
  0
LINE
  8
_0-0_LAYER001
  6
CONTINUOUS
 62
    4
 10
1515.9913999999999
 20
1115.1914999999999
 11
1515.9839999999999
 21
1114.3453
  0
ARC
  8
_0-0_LAYER001
  6
CONTINUOUS
 62
    4
 10
1516.9913999999999
 20
1115.1828
 40
1
 50
103.08296000000001
 51
179.50000000000003
  0
ARC
  8
_0-0_LAYER001
  6
CONTINUOUS
 62
    4
 10
1523.3447999999999
 20
1118.9377999999999
 40
1
 50
283.04496999999998
 51
359.5
  0
LINE
  8
_0-0_LAYER001
  6
CONTINUOUS
 62
    4
 10
1483.1995999999999
 20
1106.7478000000001
 11
1485.6277
 21
1107.1516999999999
  0
LINE
  8
_0-0_LAYER001
  6
CONTINUOUS
 62
    4
 10
1479.0104999999999
 20
1106.0516
 11
1483.1995999999999
 21
1106.7478000000001
  0
LINE
  8
_0-0_LAYER001
  6
CONTINUOUS
 62
    4
 10
1474.8166999999999
 20
1105.356
 11
1479.0104999999999
 21
1106.0516
  0
LINE
  8
_0-0_LAYER001
  6
CONTINUOUS
 62
    4
 10
1470.6179000000002
 20
1104.662
 11
1474.8166999999999
 21
1105.356
  0
LINE
  8
_0-0_LAYER001
  6
CONTINUOUS
 62
    4
 10
1466.4139
 20
1103.9706000000001
 11
1470.6179000000002
 21
1104.662
  0
LINE
  8
_0-0_LAYER001
  6
CONTINUOUS
 62
    4
 10
1462.2069999999999
 20
1103.2828999999999
 11
1466.4139
 21
1103.9706000000001
  0
LINE
  8
_0-0_LAYER001
  6
CONTINUOUS
 62
    4
 10
1459.7548000000002
 20
1102.8843999999999
 11
1462.2069999999999
 21
1103.2828999999999
  0
LINE
  8
_0-0_LAYER001
  6
CONTINUOUS
 62
    4
 10
1455.0219999999999
 20
1102.1220000000001
 11
1459.7548000000002
 21
1102.8843999999999
  0
LINE
  8
_0-0_LAYER001
  6
CONTINUOUS
 62
    4
 10
1446.8175999999999
 20
1100.8380999999999
 11
1455.0219999999999
 21
1102.1220000000001
  0
LINE
  8
_0-0_LAYER001
  6
CONTINUOUS
 62
    4
 10
1438.5101
 20
1099.6183000000001
 11
1446.8175999999999
 21
1100.8380999999999
  0
LINE
  8
_0-0_LAYER001
  6
CONTINUOUS
 62
    4
 10
1430.1017999999999
 20
1098.5019
 11
1438.5101
 21
1099.6183000000001
  0
LINE
  8
_0-0_LAYER001
  6
CONTINUOUS
 62
    4
 10
1421.5891999999999
 20
1097.5284999999999
 11
1430.1017999999999
 21
1098.5019
  0
LINE
  8
_0-0_LAYER001
  6
CONTINUOUS
 62
    4
 10
1413.0300999999999
 20
1096.7445
 11
1421.5891999999999
 21
1097.5284999999999
  0
LINE
  8
_0-0_LAYER001
  6
CONTINUOUS
 62
    4
 10
1407.9685999999997
 20
1096.3865000000001
 11
1413.0300999999999
 21
1096.7445
  0
LINE
  8
_0-0_LAYER001
  6
CONTINUOUS
 62
    4
 10
1405.1659999999997
 20
1096.2248999999999
 11
1407.9685999999997
 21
1096.3865000000001
  0
LINE
  8
_0-0_LAYER001
  6
CONTINUOUS
 62
    4
 10
1400.4449
 20
1096.0209
 11
1405.1659999999997
 21
1096.2248999999999
  0
LINE
  8
_0-0_LAYER001
  6
CONTINUOUS
 62
    4
 10
1395.6157000000003
 20
1095.9155000000001
 11
1400.4449
 21
1096.0209
  0
LINE
  8
_0-0_LAYER001
  6
CONTINUOUS
 62
    4
 10
1390.7140999999999
 20
1095.9309000000001
 11
1395.6157000000003
 21
1095.9155000000001
  0
LINE
  8
_0-0_LAYER001
  6
CONTINUOUS
 62
    4
 10
1385.7430999999999
 20
1096.0887
 11
1390.7140999999999
 21
1095.9309000000001
  0
LINE
  8
_0-0_LAYER001
  6
CONTINUOUS
 62
    4
 10
1380.7856999999999
 20
1096.4065000000001
 11
1385.7430999999999
 21
1096.0887
  0
LINE
  8
_0-0_LAYER001
  6
CONTINUOUS
 62
    4
 10
1377.7339999999999
 20
1096.6878999999999
 11
1380.7856999999999
 21
1096.4065000000001
  0
LINE
  8
_0-0_LAYER001
  6
CONTINUOUS
 62
    4
 10
1373.8051999999998
 20
1097.1501000000001
 11
1377.7339999999999
 21
1096.6878999999999
  0
LINE
  8
_0-0_LAYER001
  6
CONTINUOUS
 62
    4
 10
1367.2911999999999
 20
1098.1727000000001
 11
1373.8051999999998
 21
1097.1501000000001
  0
LINE
  8
_0-0_LAYER001
  6
CONTINUOUS
 62
    4
 10
1360.7446
 20
1099.5247999999999
 11
1367.2911999999999
 21
1098.1727000000001
  0
LINE
  8
_0-0_LAYER001
  6
CONTINUOUS
 62
    4
 10
1354.2817
 20
1101.1806999999999
 11
1360.7446
 21
1099.5247999999999
  0
LINE
  8
_0-0_LAYER001
  6
CONTINUOUS
 62
    4
 10
1347.9157
 20
1103.1314
 11
1354.2817
 21
1101.1806999999999
  0
LINE
  8
_0-0_LAYER001
  6
CONTINUOUS
 62
    4
 10
1341.7509999999997
 20
1105.3363999999999
 11
1347.9157
 21
1103.1314
  0
LINE
  8
_0-0_LAYER001
  6
CONTINUOUS
 62
    4
 10
1338.0643
 20
1106.8081
 11
1341.7509999999997
 21
1105.3363999999999
  0
LINE
  8
_0-0_LAYER001
  6
CONTINUOUS
 62
    4
 10
1333.7
 20
1108.7007000000001
 11
1338.0643
 21
1106.8081
  0
LINE
  8
_0-0_LAYER001
  6
CONTINUOUS
 62
    4
 10
1326.6310000000001
 20
1112.1156000000001
 11
1333.7
 21
1108.7007000000001
  0
LINE
  8
_0-0_LAYER001
  6
CONTINUOUS
 62
    4
 10
1319.7381
 20
1115.8452
 11
1326.6310000000001
 21
1112.1156000000001
  0
LINE
  8
_0-0_LAYER001
  6
CONTINUOUS
 62
    4
 10
1313.1011000000001
 20
1119.7789
 11
1319.7381
 21
1115.8452
  0
LINE
  8
_0-0_LAYER001
  6
CONTINUOUS
 62
    4
 10
1306.6918000000001
 20
1123.8614
 11
1313.1011000000001
 21
1119.7789
  0
LINE
  8
_0-0_LAYER001
  6
CONTINUOUS
 62
    4
 10
1300.5074999999999
 20
1128.0235
 11
1306.6918000000001
 21
1123.8614
  0
LINE
  8
_0-0_LAYER001
  6
CONTINUOUS
 62
    4
 10
1296.9652000000001
 20
1130.4872
 11
1300.5074999999999
 21
1128.0235
  0
LINE
  8
_0-0_LAYER001
  6
CONTINUOUS
 62
    4
 10
1294.7332000000001
 20
1132.0607
 11
1296.9652000000001
 21
1130.4872
  0
LINE
  8
_0-0_LAYER001
  6
CONTINUOUS
 62
    4
 10
1291.1096
 20
1134.5998999999999
 11
1294.7332000000001
 21
1132.0607
  0
LINE
  8
_0-0_LAYER001
  6
CONTINUOUS
 62
    4
 10
1287.74
 20
1136.8653999999999
 11
1291.1096
 21
1134.5998999999999
  0
LINE
  8
_0-0_LAYER001
  6
CONTINUOUS
 62
    4
 10
1284.625
 20
1138.7924
 11
1287.74
 21
1136.8653999999999
  0
LINE
  8
_0-0_LAYER001
  6
CONTINUOUS
 62
    4
 10
1281.7578000000001
 20
1140.3481999999999
 11
1284.625
 21
1138.7924
  0
LINE
  8
_0-0_LAYER001
  6
CONTINUOUS
 62
    4
 10
1278.9267
 20
1141.6166000000001
 11
1281.7578000000001
 21
1140.3481999999999
  0
LINE
  8
_0-0_LAYER001
  6
CONTINUOUS
 62
    4
 10
1277.4635000000001
 20
1142.1487999999999
 11
1278.9267
 21
1141.6166000000001
  0
LINE
  8
_0-0_LAYER001
  6
CONTINUOUS
 62
    4
 10
1277.2824000000001
 20
1142.2067
 11
1277.4635000000001
 21
1142.1487999999999
  0
LINE
  8
_0-0_LAYER001
  6
CONTINUOUS
 62
    4
 10
1276.4940999999999
 20
1142.4347
 11
1277.2824000000001
 21
1142.2067
  0
LINE
  8
_0-0_LAYER001
  6
CONTINUOUS
 62
    4
 10
1275.8369
 20
1142.5974000000001
 11
1276.4940999999999
 21
1142.4347
  0
LINE
  8
_0-0_LAYER001
  6
CONTINUOUS
 62
    4
 10
1275.2551000000001
 20
1142.7154
 11
1275.8369
 21
1142.5974000000001
  0
LINE
  8
_0-0_LAYER001
  6
CONTINUOUS
 62
    4
 10
1275.2150999999999
 20
1142.7216000000001
 11
1275.2551000000001
 21
1142.7154
  0
LINE
  8
_0-0_LAYER001
  6
CONTINUOUS
 62
    4
 10
1479.1889000000001
 20
1087.5604000000001
 11
1480.8029999999999
 21
1087.8288
  0
LINE
  8
_0-0_LAYER001
  6
CONTINUOUS
 62
    4
 10
1475.0003000000002
 20
1086.8642
 11
1479.1889000000001
 21
1087.5604000000001
  0
LINE
  8
_0-0_LAYER001
  6
CONTINUOUS
 62
    4
 10
1470.8074000000001
 20
1086.1687999999999
 11
1475.0003000000002
 21
1086.8642
  0
LINE
  8
_0-0_LAYER001
  6
CONTINUOUS
 62
    4
 10
1466.6100000000001
 20
1085.4749999999999
 11
1470.8074000000001
 21
1086.1687999999999
  0
LINE
  8
_0-0_LAYER001
  6
CONTINUOUS
 62
    4
 10
1462.4077000000002
 20
1084.7837999999999
 11
1466.6100000000001
 21
1085.4749999999999
  0
LINE
  8
_0-0_LAYER001
  6
CONTINUOUS
 62
    4
 10
1458.2026999999998
 20
1084.0965000000001
 11
1462.4077000000002
 21
1084.7837999999999
  0
LINE
  8
_0-0_LAYER001
  6
CONTINUOUS
 62
    4
 10
1455.7527
 20
1083.6983
 11
1458.2026999999998
 21
1084.0965000000001
  0
LINE
  8
_0-0_LAYER001
  6
CONTINUOUS
 62
    4
 10
1451.0257999999999
 20
1082.9367999999999
 11
1455.7527
 21
1083.6983
  0
LINE
  8
_0-0_LAYER001
  6
CONTINUOUS
 62
    4
 10
1442.8350999999998
 20
1081.6550999999999
 11
1451.0257999999999
 21
1082.9367999999999
  0
LINE
  8
_0-0_LAYER001
  6
CONTINUOUS
 62
    4
 10
1434.5506
 20
1080.4386
 11
1442.8350999999998
 21
1081.6550999999999
  0
LINE
  8
_0-0_LAYER001
  6
CONTINUOUS
 62
    4
 10
1426.174
 20
1079.3264999999999
 11
1434.5506
 21
1080.4386
  0
LINE
  8
_0-0_LAYER001
  6
CONTINUOUS
 62
    4
 10
1417.7018
 20
1078.3577
 11
1426.174
 21
1079.3264999999999
  0
LINE
  8
_0-0_LAYER001
  6
CONTINUOUS
 62
    4
 10
1409.1857
 20
1077.5777
 11
1417.7018
 21
1078.3577
  0
LINE
  8
_0-0_LAYER001
  6
CONTINUOUS
 62
    4
 10
1404.1578999999999
 20
1077.222
 11
1409.1857
 21
1077.5777
  0
LINE
  8
_0-0_LAYER001
  6
CONTINUOUS
 62
    4
 10
1401.3827000000001
 20
1077.0619999999999
 11
1404.1578999999999
 21
1077.222
  0
LINE
  8
_0-0_LAYER001
  6
CONTINUOUS
 62
    4
 10
1396.6974
 20
1076.8596
 11
1401.3827000000001
 21
1077.0619999999999
  0
LINE
  8
_0-0_LAYER001
  6
CONTINUOUS
 62
    4
 10
1391.9144000000001
 20
1076.7552000000001
 11
1396.6974
 21
1076.8596
  0
LINE
  8
_0-0_LAYER001
  6
CONTINUOUS
 62
    4
 10
1387.0663999999999
 20
1076.7704000000001
 11
1391.9144000000001
 21
1076.7552000000001
  0
LINE
  8
_0-0_LAYER001
  6
CONTINUOUS
 62
    4
 10
1382.1561999999999
 20
1076.9263000000001
 11
1387.0663999999999
 21
1076.7704000000001
  0
LINE
  8
_0-0_LAYER001
  6
CONTINUOUS
 62
    4
 10
1377.2588999999998
 20
1077.2402
 11
1382.1561999999999
 21
1076.9263000000001
  0
LINE
  8
_0-0_LAYER001
  6
CONTINUOUS
 62
    4
 10
1374.2601999999999
 20
1077.5166999999999
 11
1377.2588999999998
 21
1077.2402
  0
LINE
  8
_0-0_LAYER001
  6
CONTINUOUS
 62
    4
 10
1370.3946000000001
 20
1077.9715000000001
 11
1374.2601999999999
 21
1077.5166999999999
  0
LINE
  8
_0-0_LAYER001
  6
CONTINUOUS
 62
    4
 10
1363.9662000000001
 20
1078.9807000000001
 11
1370.3946000000001
 21
1077.9715000000001
  0
LINE
  8
_0-0_LAYER001
  6
CONTINUOUS
 62
    4
 10
1357.5127
 20
1080.3136
 11
1363.9662000000001
 21
1078.9807000000001
  0
LINE
  8
_0-0_LAYER001
  6
CONTINUOUS
 62
    4
 10
1351.1405999999999
 20
1081.9462000000001
 11
1357.5127
 21
1080.3136
  0
LINE
  8
_0-0_LAYER001
  6
CONTINUOUS
 62
    4
 10
1344.8632
 20
1083.8697
 11
1351.1405999999999
 21
1081.9462000000001
  0
LINE
  8
_0-0_LAYER001
  6
CONTINUOUS
 62
    4
 10
1338.7761
 20
1086.0469000000001
 11
1344.8632
 21
1083.8697
  0
LINE
  8
_0-0_LAYER001
  6
CONTINUOUS
 62
    4
 10
1335.1505
 20
1087.4943000000001
 11
1338.7761
 21
1086.0469000000001
  0
LINE
  8
_0-0_LAYER001
  6
CONTINUOUS
 62
    4
 10
1330.8506
 20
1089.3588999999999
 11
1335.1505
 21
1087.4943000000001
  0
LINE
  8
_0-0_LAYER001
  6
CONTINUOUS
 62
    4
 10
1323.8598
 20
1092.7361000000001
 11
1330.8506
 21
1089.3588999999999
  0
LINE
  8
_0-0_LAYER001
  6
CONTINUOUS
 62
    4
 10
1317.0416
 20
1096.4253000000001
 11
1323.8598
 21
1092.7361000000001
  0
LINE
  8
_0-0_LAYER001
  6
CONTINUOUS
 62
    4
 10
1310.4658999999997
 20
1100.3226
 11
1317.0416
 21
1096.4253000000001
  0
LINE
  8
_0-0_LAYER001
  6
CONTINUOUS
 62
    4
 10
1304.1049
 20
1104.3742999999999
 11
1310.4658999999997
 21
1100.3226
  0
LINE
  8
_0-0_LAYER001
  6
CONTINUOUS
 62
    4
 10
1297.9544000000001
 20
1108.5137999999999
 11
1304.1049
 21
1104.3742999999999
  0
LINE
  8
_0-0_LAYER001
  6
CONTINUOUS
 62
    4
 10
1294.4297999999999
 20
1110.9650999999999
 11
1297.9544000000001
 21
1108.5137999999999
  0
LINE
  8
_0-0_LAYER001
  6
CONTINUOUS
 62
    4
 10
1292.2007000000003
 20
1112.5365999999999
 11
1294.4297999999999
 21
1110.9650999999999
  0
LINE
  8
_0-0_LAYER001
  6
CONTINUOUS
 62
    4
 10
1288.559
 20
1115.0884000000001
 11
1292.2007000000003
 21
1112.5365999999999
  0
LINE
  8
_0-0_LAYER001
  6
CONTINUOUS
 62
    4
 10
1285.1419000000001
 20
1117.3859
 11
1288.559
 21
1115.0884000000001
  0
LINE
  8
_0-0_LAYER001
  6
CONTINUOUS
 62
    4
 10
1281.9462000000001
 20
1119.3628000000001
 11
1285.1419000000001
 21
1117.3859
  0
LINE
  8
_0-0_LAYER001
  6
CONTINUOUS
 62
    4
 10
1278.9622999999999
 20
1120.9819
 11
1281.9462000000001
 21
1119.3628000000001
  0
LINE
  8
_0-0_LAYER001
  6
CONTINUOUS
 62
    4
 10
1275.9956999999999
 20
1122.3109999999999
 11
1278.9622999999999
 21
1120.9819
  0
LINE
  8
_0-0_LAYER001
  6
CONTINUOUS
 62
    4
 10
1275.2457999999999
 20
1122.5838000000001
 11
1275.9956999999999
 21
1122.3109999999999
  0
LINE
  8
_0-0_LAYER001
  6
CONTINUOUS
 62
    4
 10
1275.5788
 20
1142.6269
 11
1275.4028000000001
 21
1122.4535000000001
  0
LINE
  8
_0-0_LAYER001
  6
CONTINUOUS
 62
    4
 10
1523.3928999999998
 20
1097.6152999999999
 11
1480.5727000000002
 21
1087.6940999999999
  0
ARC
  8
_0-0_LAYER001
  6
CONTINUOUS
 62
    4
 10
1523.1671999999999
 20
1098.5895
 40
1
 50
283.04496999999998
 51
359.5
  0
LINE
  8
_0-0_LAYER001
  6
CONTINUOUS
 62
    4
 10
1476.0817999999999
 20
1077.3806
 11
1473.8364000000001
 21
1085.954
  0
ARC
  8
_0-0_LAYER001
  6
CONTINUOUS
 62
    4
 10
1478.9839000000002
 20
1078.1405999999999
 40
3
 50
194.67639000000003
 51
270.00000000000006
  0
LINE
  8
_0-0_LAYER001
  6
CONTINUOUS
 62
    4
 10
1482.4018000000001
 20
1075.1405999999999
 11
1478.9839000000002
 21
1075.1405999999999
  0
LINE
  8
_0-0_LAYER001
  6
CONTINUOUS
 62
    4
 10
1485.3609000000001
 20
1077.6474000000001
 11
1487.2950000000001
 21
1089.2516000000001
  0
ARC
  8
_0-0_LAYER001
  6
CONTINUOUS
 62
    4
 10
1482.4018000000001
 20
1078.1405999999999
 40
3
 50
270
 51
350.53766999999999
  0
LINE
  8
_0-0_LAYER001
  6
CONTINUOUS
 62
    4
 10
1229.4947999999999
 20
1146.2889
 11
1229.4947999999999
 21
1129.7564
  0
ARC
  8
_0-0_LAYER001
  6
CONTINUOUS
 62
    4
 10
1231.4947999999999
 20
1146.2889
 40
2
 50
111.74902000000002
 51
180
  0
LINE
  8
_0-0_LAYER001
  6
CONTINUOUS
 62
    4
 10
1523.5704999999998
 20
1117.9636
 11
1484.4947999999999
 21
1108.9100000000001
  0
LINE
  8
_0-0_LAYER001
  6
CONTINUOUS
 62
    4
 10
1484.4947999999999
 20
1127.3868
 11
1484.4947999999999
 21
1108.9100000000001
  0
LINE
  8
_0-0_LAYER001
  6
CONTINUOUS
 62
    4
 10
1482.4704999999999
 20
1126.9177999999999
 11
1515.7197000000001
 21
1134.6215
  0
LINE
  8
_0-0_LAYER001
  6
CONTINUOUS
 62
    4
 10
1524.4312
 20
1137.9956
 11
1524.4312
 21
1118.9155000000001
  0
LINE
  8
_0-0_LAYER001
  6
CONTINUOUS
 62
    4
 10
1524.5385999999999
 20
1116.9286
 11
1524.5385999999999
 21
1098.7574
  0
LINE
  8
_0-0_LAYER001
  6
CONTINUOUS
 62
    4
 10
1606.4573999999998
 20
1068.2071000000001
 11
1597.9218999999998
 21
1082.7405000000001
  0
LINE
  8
_0-0_LAYER001
  6
CONTINUOUS
 62
    4
 10
1614.6253000000002
 20
1067.5568000000001
 11
1622.9315000000001
 21
1077.6223
  0
ARC
  8
_0-0_LAYER001
  6
CONTINUOUS
 62
    4
 10
1610.7687999999998
 20
1070.7393
 40
5
 50
210.42578
 51
320.47001
  0
LINE
  8
_0-0_LAYER001
  6
CONTINUOUS
 62
    4
 10
1690.5709000000002
 20
1067.087
 11
1683.2455
 21
1078.393
  0
LINE
  8
_0-0_LAYER001
  6
CONTINUOUS
 62
    4
 10
1699.0803999999998
 20
1067.2769000000001
 11
1708.0189
 21
1082.5226
  0
ARC
  8
_0-0_LAYER001
  6
DASHED1
 62
    4
 10
1694.7671
 20
1069.8058000000001
 40
5
 50
212.93986000000001
 51
329.61716000000001
  0
LINE
  8
_0-0_LAYER001
  6
CONTINUOUS
 62
    4
 10
1487.0412999999999
 20
1148.6813
 11
1487.8508999999999
 21
1148.9992999999999
  0
LINE
  8
_0-0_LAYER001
  6
CONTINUOUS
 62
    4
 10
1487.8508999999999
 20
1148.9992999999999
 11
1491.3811000000001
 21
1150.3883000000001
  0
LINE
  8
_0-0_LAYER001
  6
CONTINUOUS
 62
    4
 10
1491.3811000000001
 20
1150.3883000000001
 11
1494.9185000000002
 21
1151.7867000000001
  0
LINE
  8
_0-0_LAYER001
  6
CONTINUOUS
 62
    4
 10
1494.9185000000002
 20
1151.7867000000001
 11
1498.4677999999999
 21
1153.2003999999999
  0
LINE
  8
_0-0_LAYER001
  6
CONTINUOUS
 62
    4
 10
1498.4677999999999
 20
1153.2003999999999
 11
1502.0333999999998
 21
1154.6353999999999
  0
LINE
  8
_0-0_LAYER001
  6
CONTINUOUS
 62
    4
 10
1502.0333999999998
 20
1154.6353999999999
 11
1505.6201000000001
 21
1156.0976000000001
  0
LINE
  8
_0-0_LAYER001
  6
CONTINUOUS
 62
    4
 10
1505.6201000000001
 20
1156.0976000000001
 11
1507.7118
 21
1156.9604999999999
  0
LINE
  8
_0-0_LAYER001
  6
CONTINUOUS
 62
    4
 10
1507.7118
 20
1156.9604999999999
 11
1509.7793999999999
 21
1157.8182999999999
  0
LINE
  8
_0-0_LAYER001
  6
CONTINUOUS
 62
    4
 10
1509.7793999999999
 20
1157.8182999999999
 11
1513.366
 21
1159.27
  0
LINE
  8
_0-0_LAYER001
  6
CONTINUOUS
 62
    4
 10
1513.366
 20
1159.27
 11
1516.9803999999999
 21
1160.6033
  0
LINE
  8
_0-0_LAYER001
  6
CONTINUOUS
 62
    4
 10
1516.9803999999999
 20
1160.6033
 11
1520.6230999999998
 21
1161.7209
  0
LINE
  8
_0-0_LAYER001
  6
CONTINUOUS
 62
    4
 10
1520.6230999999998
 20
1161.7209
 11
1524.2944000000002
 21
1162.5255
  0
LINE
  8
_0-0_LAYER001
  6
CONTINUOUS
 62
    4
 10
1524.2944000000002
 20
1162.5255
 11
1527.9944999999998
 21
1162.9196999999999
  0
LINE
  8
_0-0_LAYER001
  6
CONTINUOUS
 62
    4
 10
1527.9944999999998
 20
1162.9196999999999
 11
1530.154
 21
1162.9219000000001
  0
LINE
  8
_0-0_LAYER001
  6
CONTINUOUS
 62
    4
 10
1530.154
 20
1162.9219000000001
 11
1531.0039000000002
 21
1162.8724
  0
LINE
  8
_0-0_LAYER001
  6
CONTINUOUS
 62
    4
 10
1531.0039000000002
 20
1162.8724
 11
1532.4704999999999
 21
1162.7222999999999
  0
LINE
  8
_0-0_LAYER001
  6
CONTINUOUS
 62
    4
 10
1532.4704999999999
 20
1162.7222999999999
 11
1533.9349000000002
 21
1162.4960000000001
  0
LINE
  8
_0-0_LAYER001
  6
CONTINUOUS
 62
    4
 10
1533.9349000000002
 20
1162.4960000000001
 11
1535.3928000000001
 21
1162.2003
  0
LINE
  8
_0-0_LAYER001
  6
CONTINUOUS
 62
    4
 10
1535.3928000000001
 20
1162.2003
 11
1536.8400999999999
 21
1161.8420000000001
  0
LINE
  8
_0-0_LAYER001
  6
CONTINUOUS
 62
    4
 10
1536.8400999999999
 20
1161.8420000000001
 11
1538.2725
 21
1161.4277999999999
  0
LINE
  8
_0-0_LAYER001
  6
CONTINUOUS
 62
    4
 10
1538.2725
 20
1161.4277999999999
 11
1539.0947000000001
 21
1161.1646000000001
  0
LINE
  8
_0-0_LAYER001
  6
CONTINUOUS
 62
    4
 10
1539.0947000000001
 20
1161.1646000000001
 11
1541.6059
 21
1160.2514000000001
  0
LINE
  8
_0-0_LAYER001
  6
CONTINUOUS
 62
    4
 10
1541.6059
 20
1160.2514000000001
 11
1545.7914000000001
 21
1158.3761
  0
LINE
  8
_0-0_LAYER001
  6
CONTINUOUS
 62
    4
 10
1545.7914000000001
 20
1158.3761
 11
1549.8262
 21
1156.1867999999999
  0
LINE
  8
_0-0_LAYER001
  6
CONTINUOUS
 62
    4
 10
1549.8262
 20
1156.1867999999999
 11
1553.7473
 21
1153.7610999999999
  0
LINE
  8
_0-0_LAYER001
  6
CONTINUOUS
 62
    4
 10
1553.7473
 20
1153.7610999999999
 11
1557.5918000000001
 21
1151.1763000000001
  0
LINE
  8
_0-0_LAYER001
  6
CONTINUOUS
 62
    4
 10
1557.5918000000001
 20
1151.1763000000001
 11
1561.3966
 21
1148.5101
  0
LINE
  8
_0-0_LAYER001
  6
CONTINUOUS
 62
    4
 10
1561.3966
 20
1148.5101
 11
1563.5999000000002
 21
1146.9568999999999
  0
LINE
  8
_0-0_LAYER001
  6
CONTINUOUS
 62
    4
 10
1563.5999000000002
 20
1146.9568999999999
 11
1566.9643999999998
 21
1144.6169
  0
LINE
  8
_0-0_LAYER001
  6
CONTINUOUS
 62
    4
 10
1566.9643999999998
 20
1144.6169
 11
1572.8121999999998
 21
1140.6812
  0
LINE
  8
_0-0_LAYER001
  6
CONTINUOUS
 62
    4
 10
1572.8121999999998
 20
1140.6812
 11
1578.7375999999999
 21
1136.9069
  0
LINE
  8
_0-0_LAYER001
  6
CONTINUOUS
 62
    4
 10
1578.7375999999999
 20
1136.9069
 11
1584.7622000000001
 21
1133.3362
  0
LINE
  8
_0-0_LAYER001
  6
CONTINUOUS
 62
    4
 10
1584.7622000000001
 20
1133.3362
 11
1590.9074999999998
 21
1130.0111999999999
  0
LINE
  8
_0-0_LAYER001
  6
CONTINUOUS
 62
    4
 10
1590.9074999999998
 20
1130.0111999999999
 11
1597.1948000000002
 21
1126.9738
  0
LINE
  8
_0-0_LAYER001
  6
CONTINUOUS
 62
    4
 10
1597.1948000000002
 20
1126.9738
 11
1600.915
 21
1125.3606
  0
LINE
  8
_0-0_LAYER001
  6
CONTINUOUS
 62
    4
 10
1600.915
 20
1125.3606
 11
1603.9915999999998
 21
1124.1324
  0
LINE
  8
_0-0_LAYER001
  6
CONTINUOUS
 62
    4
 10
1603.9915999999998
 20
1124.1324
 11
1609.3796000000002
 21
1122.2053000000001
  0
LINE
  8
_0-0_LAYER001
  6
CONTINUOUS
 62
    4
 10
1609.3796000000002
 20
1122.2053000000001
 11
1614.8593000000001
 21
1120.5261
  0
LINE
  8
_0-0_LAYER001
  6
CONTINUOUS
 62
    4
 10
1614.8593000000001
 20
1120.5261
 11
1620.4146999999998
 21
1119.1027999999999
  0
LINE
  8
_0-0_LAYER001
  6
CONTINUOUS
 62
    4
 10
1620.4146999999998
 20
1119.1027999999999
 11
1626.0297
 21
1117.9431
  0
LINE
  8
_0-0_LAYER001
  6
CONTINUOUS
 62
    4
 10
1626.0297
 20
1117.9431
 11
1631.6884
 21
1117.0547999999999
  0
LINE
  8
_0-0_LAYER001
  6
CONTINUOUS
 62
    4
 10
1631.6884
 20
1117.0547999999999
 11
1634.9841000000001
 21
1116.6669999999999
  0
LINE
  8
_0-0_LAYER001
  6
CONTINUOUS
 62
    4
 10
1634.9841000000001
 20
1116.6669999999999
 11
1637.5068999999999
 21
1116.4344000000001
  0
LINE
  8
_0-0_LAYER001
  6
CONTINUOUS
 62
    4
 10
1637.5068999999999
 20
1116.4344000000001
 11
1641.8633
 21
1116.1550999999999
  0
LINE
  8
_0-0_LAYER001
  6
CONTINUOUS
 62
    4
 10
1641.8633
 20
1116.1550999999999
 11
1646.2258999999999
 21
1116.0165999999999
  0
LINE
  8
_0-0_LAYER001
  6
CONTINUOUS
 62
    4
 10
1646.2258999999999
 20
1116.0165999999999
 11
1650.5916999999999
 21
1116.0029
  0
LINE
  8
_0-0_LAYER001
  6
CONTINUOUS
 62
    4
 10
1650.5916999999999
 20
1116.0029
 11
1654.9578999999999
 21
1116.0981999999999
  0
LINE
  8
_0-0_LAYER001
  6
CONTINUOUS
 62
    4
 10
1654.9578999999999
 20
1116.0981999999999
 11
1659.3216000000002
 21
1116.2867000000001
  0
LINE
  8
_0-0_LAYER001
  6
CONTINUOUS
 62
    4
 10
1659.3216000000002
 20
1116.2867000000001
 11
1661.8501999999999
 21
1116.4324999999999
  0
LINE
  8
_0-0_LAYER001
  6
CONTINUOUS
 62
    4
 10
1661.8501999999999
 20
1116.4324999999999
 11
1666.5751
 21
1116.7666999999999
  0
LINE
  8
_0-0_LAYER001
  6
CONTINUOUS
 62
    4
 10
1666.5751
 20
1116.7666999999999
 11
1674.7037
 21
1117.5112999999999
  0
LINE
  8
_0-0_LAYER001
  6
CONTINUOUS
 62
    4
 10
1674.7037
 20
1117.5112999999999
 11
1682.8123000000001
 21
1118.4385
  0
LINE
  8
_0-0_LAYER001
  6
CONTINUOUS
 62
    4
 10
1682.8123000000001
 20
1118.4385
 11
1690.9038999999998
 21
1119.5128
  0
LINE
  8
_0-0_LAYER001
  6
CONTINUOUS
 62
    4
 10
1690.9038999999998
 20
1119.5128
 11
1698.9816000000001
 21
1120.6989000000001
  0
LINE
  8
_0-0_LAYER001
  6
CONTINUOUS
 62
    4
 10
1698.9816000000001
 20
1120.6989000000001
 11
1707.0482999999999
 21
1121.9612
  0
LINE
  8
_0-0_LAYER001
  6
CONTINUOUS
 62
    4
 10
1707.0482999999999
 20
1121.9612
 11
1711.7231999999999
 21
1122.7144000000001
  0
LINE
  8
_0-0_LAYER001
  6
CONTINUOUS
 62
    4
 10
1711.7231999999999
 20
1122.7144000000001
 11
1714.1527999999998
 21
1123.1092000000001
  0
LINE
  8
_0-0_LAYER001
  6
CONTINUOUS
 62
    4
 10
1714.1527999999998
 20
1123.1092000000001
 11
1718.3406
 21
1123.7936999999999
  0
LINE
  8
_0-0_LAYER001
  6
CONTINUOUS
 62
    4
 10
1718.3406
 20
1123.7936999999999
 11
1722.5270999999998
 21
1124.4822999999999
  0
LINE
  8
_0-0_LAYER001
  6
CONTINUOUS
 62
    4
 10
1722.5270999999998
 20
1124.4822999999999
 11
1726.7127
 21
1125.1741
  0
LINE
  8
_0-0_LAYER001
  6
CONTINUOUS
 62
    4
 10
1726.7127
 20
1125.1741
 11
1730.8975999999998
 21
1125.8681999999999
  0
LINE
  8
_0-0_LAYER001
  6
CONTINUOUS
 62
    4
 10
1730.8975999999998
 20
1125.8681999999999
 11
1735.0819999999999
 21
1126.5636999999999
  0
LINE
  8
_0-0_LAYER001
  6
CONTINUOUS
 62
    4
 10
1735.0819999999999
 20
1126.5636999999999
 11
1737.5088999999998
 21
1126.9674
  0
LINE
  8
_0-0_LAYER001
  6
CONTINUOUS
 62
    4
 10
1492.3858
 20
1131.4417000000001
 11
1494.4366
 21
1132.2473
  0
LINE
  8
_0-0_LAYER001
  6
CONTINUOUS
 62
    4
 10
1494.4366
 20
1132.2473
 11
1497.9850999999999
 21
1133.6434999999999
  0
LINE
  8
_0-0_LAYER001
  6
CONTINUOUS
 62
    4
 10
1497.9850999999999
 20
1133.6434999999999
 11
1501.5576000000001
 21
1135.0558000000001
  0
LINE
  8
_0-0_LAYER001
  6
CONTINUOUS
 62
    4
 10
1501.5576000000001
 20
1135.0558000000001
 11
1505.1583000000001
 21
1136.49
  0
LINE
  8
_0-0_LAYER001
  6
CONTINUOUS
 62
    4
 10
1505.1583000000001
 20
1136.49
 11
1508.7912000000001
 21
1137.9521
  0
LINE
  8
_0-0_LAYER001
  6
CONTINUOUS
 62
    4
 10
1508.7912000000001
 20
1137.9521
 11
1512.4499000000001
 21
1139.4436000000001
  0
LINE
  8
_0-0_LAYER001
  6
CONTINUOUS
 62
    4
 10
1512.4499000000001
 20
1139.4436000000001
 11
1514.5929999999998
 21
1140.3277
  0
LINE
  8
_0-0_LAYER001
  6
CONTINUOUS
 62
    4
 10
1514.5929999999998
 20
1140.3277
 11
1516.6051000000002
 21
1141.1624999999999
  0
LINE
  8
_0-0_LAYER001
  6
CONTINUOUS
 62
    4
 10
1516.6051000000002
 20
1141.1624999999999
 11
1519.8589000000002
 21
1142.4794999999999
  0
LINE
  8
_0-0_LAYER001
  6
CONTINUOUS
 62
    4
 10
1519.8589000000002
 20
1142.4794999999999
 11
1522.7395000000001
 21
1143.5420999999999
  0
LINE
  8
_0-0_LAYER001
  6
CONTINUOUS
 62
    4
 10
1522.7395000000001
 20
1143.5420999999999
 11
1525.1972999999998
 21
1144.2962
  0
LINE
  8
_0-0_LAYER001
  6
CONTINUOUS
 62
    4
 10
1525.1972999999998
 20
1144.2962
 11
1527.1831999999999
 21
1144.7313999999999
  0
LINE
  8
_0-0_LAYER001
  6
CONTINUOUS
 62
    4
 10
1527.1831999999999
 20
1144.7313999999999
 11
1528.96
 21
1144.9206999999999
  0
LINE
  8
_0-0_LAYER001
  6
CONTINUOUS
 62
    4
 10
1528.96
 20
1144.9206999999999
 11
1529.6396
 21
1144.9213999999999
  0
LINE
  8
_0-0_LAYER001
  6
CONTINUOUS
 62
    4
 10
1529.6396
 20
1144.9213999999999
 11
1529.5634
 21
1144.9258
  0
LINE
  8
_0-0_LAYER001
  6
CONTINUOUS
 62
    4
 10
1529.5634
 20
1144.9258
 11
1530.1779999999999
 21
1144.8629000000001
  0
LINE
  8
_0-0_LAYER001
  6
CONTINUOUS
 62
    4
 10
1530.1779999999999
 20
1144.8629000000001
 11
1530.7696999999998
 21
1144.7715000000001
  0
LINE
  8
_0-0_LAYER001
  6
CONTINUOUS
 62
    4
 10
1530.7696999999998
 20
1144.7715000000001
 11
1531.4391000000001
 21
1144.6357
  0
LINE
  8
_0-0_LAYER001
  6
CONTINUOUS
 62
    4
 10
1531.4391000000001
 20
1144.6357
 11
1532.1752999999999
 21
1144.4534000000001
  0
LINE
  8
_0-0_LAYER001
  6
CONTINUOUS
 62
    4
 10
1532.1752999999999
 20
1144.4534000000001
 11
1533.0279999999998
 21
1144.2068999999999
  0
LINE
  8
_0-0_LAYER001
  6
CONTINUOUS
 62
    4
 10
1533.0279999999998
 20
1144.2068999999999
 11
1533.2732000000001
 21
1144.1284000000001
  0
LINE
  8
_0-0_LAYER001
  6
CONTINUOUS
 62
    4
 10
1533.2732000000001
 20
1144.1284000000001
 11
1534.8411999999998
 21
1143.5581999999999
  0
LINE
  8
_0-0_LAYER001
  6
CONTINUOUS
 62
    4
 10
1534.8411999999998
 20
1143.5581999999999
 11
1537.8078
 21
1142.229
  0
LINE
  8
_0-0_LAYER001
  6
CONTINUOUS
 62
    4
 10
1537.8078
 20
1142.229
 11
1540.7917000000002
 21
1140.6098999999999
  0
LINE
  8
_0-0_LAYER001
  6
CONTINUOUS
 62
    4
 10
1540.7917000000002
 20
1140.6098999999999
 11
1543.9874
 21
1138.633
  0
LINE
  8
_0-0_LAYER001
  6
CONTINUOUS
 62
    4
 10
1543.9874
 20
1138.633
 11
1547.4045000000001
 21
1136.3356000000001
  0
LINE
  8
_0-0_LAYER001
  6
CONTINUOUS
 62
    4
 10
1547.4045000000001
 20
1136.3356000000001
 11
1551.0462000000002
 21
1133.7837
  0
LINE
  8
_0-0_LAYER001
  6
CONTINUOUS
 62
    4
 10
1551.0462000000002
 20
1133.7837
 11
1553.2752999999998
 21
1132.2121999999999
  0
LINE
  8
_0-0_LAYER001
  6
CONTINUOUS
 62
    4
 10
1553.2752999999998
 20
1132.2121999999999
 11
1556.7999
 21
1129.7609
  0
LINE
  8
_0-0_LAYER001
  6
CONTINUOUS
 62
    4
 10
1556.7999
 20
1129.7609
 11
1562.9504000000002
 21
1125.6214
  0
LINE
  8
_0-0_LAYER001
  6
CONTINUOUS
 62
    4
 10
1562.9504000000002
 20
1125.6214
 11
1569.3114
 21
1121.5698
  0
LINE
  8
_0-0_LAYER001
  6
CONTINUOUS
 62
    4
 10
1569.3114
 20
1121.5698
 11
1575.8870999999999
 21
1117.6723999999999
  0
LINE
  8
_0-0_LAYER001
  6
CONTINUOUS
 62
    4
 10
1575.8870999999999
 20
1117.6723999999999
 11
1582.7053000000001
 21
1113.9831999999999
  0
LINE
  8
_0-0_LAYER001
  6
CONTINUOUS
 62
    4
 10
1582.7053000000001
 20
1113.9831999999999
 11
1589.6961000000001
 21
1110.606
  0
LINE
  8
_0-0_LAYER001
  6
CONTINUOUS
 62
    4
 10
1589.6961000000001
 20
1110.606
 11
1593.9960000000001
 21
1108.7414000000001
  0
LINE
  8
_0-0_LAYER001
  6
CONTINUOUS
 62
    4
 10
1593.9960000000001
 20
1108.7414000000001
 11
1597.6217000000001
 21
1107.2940000000001
  0
LINE
  8
_0-0_LAYER001
  6
CONTINUOUS
 62
    4
 10
1597.6217000000001
 20
1107.2940000000001
 11
1603.7087000000001
 21
1105.1168
  0
LINE
  8
_0-0_LAYER001
  6
CONTINUOUS
 62
    4
 10
1603.7087000000001
 20
1105.1168
 11
1609.9861000000001
 21
1103.1932999999999
  0
LINE
  8
_0-0_LAYER001
  6
CONTINUOUS
 62
    4
 10
1609.9861000000001
 20
1103.1932999999999
 11
1616.3582000000001
 21
1101.5607
  0
LINE
  8
_0-0_LAYER001
  6
CONTINUOUS
 62
    4
 10
1616.3582000000001
 20
1101.5607
 11
1622.8117000000002
 21
1100.2277999999999
  0
LINE
  8
_0-0_LAYER001
  6
CONTINUOUS
 62
    4
 10
1622.8117000000002
 20
1100.2277999999999
 11
1629.2401
 21
1099.2186999999999
  0
LINE
  8
_0-0_LAYER001
  6
CONTINUOUS
 62
    4
 10
1629.2401
 20
1099.2186999999999
 11
1633.1057000000001
 21
1098.7638999999999
  0
LINE
  8
_0-0_LAYER001
  6
CONTINUOUS
 62
    4
 10
1633.1057000000001
 20
1098.7638999999999
 11
1636.1044000000002
 21
1098.4873
  0
LINE
  8
_0-0_LAYER001
  6
CONTINUOUS
 62
    4
 10
1636.1044000000002
 20
1098.4873
 11
1641.0016999999998
 21
1098.1733999999999
  0
LINE
  8
_0-0_LAYER001
  6
CONTINUOUS
 62
    4
 10
1641.0016999999998
 20
1098.1733999999999
 11
1645.9119000000001
 21
1098.0174999999999
  0
LINE
  8
_0-0_LAYER001
  6
CONTINUOUS
 62
    4
 10
1645.9119000000001
 20
1098.0174999999999
 11
1650.7599
 21
1098.0023000000001
  0
LINE
  8
_0-0_LAYER001
  6
CONTINUOUS
 62
    4
 10
1650.7599
 20
1098.0023000000001
 11
1655.5428999999999
 21
1098.1067
  0
LINE
  8
_0-0_LAYER001
  6
CONTINUOUS
 62
    4
 10
1655.5428999999999
 20
1098.1067
 11
1660.2282
 21
1098.3090999999999
  0
LINE
  8
_0-0_LAYER001
  6
CONTINUOUS
 62
    4
 10
1660.2282
 20
1098.3090999999999
 11
1663.0034000000001
 21
1098.4691
  0
LINE
  8
_0-0_LAYER001
  6
CONTINUOUS
 62
    4
 10
1663.0034000000001
 20
1098.4691
 11
1668.0311999999999
 21
1098.8248000000001
  0
LINE
  8
_0-0_LAYER001
  6
CONTINUOUS
 62
    4
 10
1668.0311999999999
 20
1098.8248000000001
 11
1676.5473000000002
 21
1099.6048000000001
  0
LINE
  8
_0-0_LAYER001
  6
CONTINUOUS
 62
    4
 10
1676.5473000000002
 20
1099.6048000000001
 11
1685.0194999999999
 21
1100.5735999999999
  0
LINE
  8
_0-0_LAYER001
  6
CONTINUOUS
 62
    4
 10
1685.0194999999999
 20
1100.5735999999999
 11
1693.3960999999999
 21
1101.6858
  0
LINE
  8
_0-0_LAYER001
  6
CONTINUOUS
 62
    4
 10
1693.3960999999999
 20
1101.6858
 11
1701.6806000000001
 21
1102.9022
  0
LINE
  8
_0-0_LAYER001
  6
CONTINUOUS
 62
    4
 10
1701.6806000000001
 20
1102.9022
 11
1709.8712999999998
 21
1104.1839
  0
LINE
  8
_0-0_LAYER001
  6
CONTINUOUS
 62
    4
 10
1709.8712999999998
 20
1104.1839
 11
1714.5981999999999
 21
1104.9455
  0
LINE
  8
_0-0_LAYER001
  6
CONTINUOUS
 62
    4
 10
1714.5981999999999
 20
1104.9455
 11
1717.0482000000002
 21
1105.3435999999999
  0
LINE
  8
_0-0_LAYER001
  6
CONTINUOUS
 62
    4
 10
1717.0482000000002
 20
1105.3435999999999
 11
1721.2530999999999
 21
1106.0309
  0
LINE
  8
_0-0_LAYER001
  6
CONTINUOUS
 62
    4
 10
1721.2530999999999
 20
1106.0309
 11
1725.4553999999998
 21
1106.7221
  0
LINE
  8
_0-0_LAYER001
  6
CONTINUOUS
 62
    4
 10
1725.4553999999998
 20
1106.7221
 11
1729.6529
 21
1107.4159
  0
LINE
  8
_0-0_LAYER001
  6
CONTINUOUS
 62
    4
 10
1729.6529
 20
1107.4159
 11
1733.8458000000001
 21
1108.1113
  0
LINE
  8
_0-0_LAYER001
  6
CONTINUOUS
 62
    4
 10
1733.8458000000001
 20
1108.1113
 11
1738.0344
 21
1108.8074999999999
  0
LINE
  8
_0-0_LAYER001
  6
CONTINUOUS
 62
    4
 10
1738.0344
 20
1108.8074999999999
 11
1739.6484999999998
 21
1109.0759
  0
ARC
  8
_0-0_LAYER001
  6
CONTINUOUS
 62
    4
 10
1773.8841000000002
 20
1134.8731
 40
3
 50
103.0288
 51
179.49999999999997
  0
LINE
  8
_0-0_LAYER001
  6
CONTINUOUS
 62
    4
 10
1485.9578000000001
 20
1128.8985
 11
1492.3501000000001
 21
1131.4205999999999
  0
ARC
  8
_0-0_LAYER001
  6
CONTINUOUS
 62
    4
 10
1485.5907999999999
 20
1129.8287
 40
1
 50
179.5
 51
291.53165999999999
  0
LINE
  8
_0-0_LAYER001
  6
CONTINUOUS
 62
    4
 10
1778.4481000000001
 20
1139.0084999999999
 11
1773.2078000000001
 21
1137.7959000000001
  0
ARC
  8
_0-0_LAYER001
  6
CONTINUOUS
 62
    4
 10
1778.6734999999999
 20
1138.0342000000001
 40
1
 50
359.50000000000006
 51
103.02880000000002
  0
LINE
  8
_0-0_LAYER001
  6
CONTINUOUS
 62
    4
 10
1740.8330999999998
 20
1107.3380999999999
 11
1771.1469000000002
 21
1114.4321
  0
ARC
  8
_0-0_LAYER001
  6
CONTINUOUS
 62
    4
 10
1778.4877000000001
 20
1116.7414000000001
 40
1
 50
359.50000000000006
 51
103.08296000000006
  0
LINE
  8
_0-0_LAYER001
  6
CONTINUOUS
 62
    4
 10
1771.9279000000001
 20
1116.2435
 11
1778.2613000000001
 21
1117.7154
  0
LINE
  8
_0-0_LAYER001
  6
CONTINUOUS
 62
    4
 10
1771.1543000000001
 20
1115.2782
 11
1771.1469000000002
 21
1114.4321
  0
ARC
  8
_0-0_LAYER001
  6
CONTINUOUS
 62
    4
 10
1772.1541999999999
 20
1115.2695000000001
 40
1
 50
103.08296000000001
 51
179.50000000000003
  0
ARC
  8
_0-0_LAYER001
  6
CONTINUOUS
 62
    4
 10
1778.5075999999999
 20
1119.0245
 40
1
 50
283.04496999999998
 51
359.5
  0
LINE
  8
_0-0_LAYER001
  6
CONTINUOUS
 62
    4
 10
1738.3624
 20
1106.8344999999999
 11
1740.7905000000001
 21
1107.2384
  0
LINE
  8
_0-0_LAYER001
  6
CONTINUOUS
 62
    4
 10
1734.1734000000001
 20
1106.1383000000001
 11
1738.3624
 21
1106.8344999999999
  0
LINE
  8
_0-0_LAYER001
  6
CONTINUOUS
 62
    4
 10
1729.9796000000001
 20
1105.4427000000001
 11
1734.1734000000001
 21
1106.1383000000001
  0
LINE
  8
_0-0_LAYER001
  6
CONTINUOUS
 62
    4
 10
1725.7808
 20
1104.7488000000001
 11
1729.9796000000001
 21
1105.4427000000001
  0
LINE
  8
_0-0_LAYER001
  6
CONTINUOUS
 62
    4
 10
1721.5767000000001
 20
1104.0572999999999
 11
1725.7808
 21
1104.7488000000001
  0
LINE
  8
_0-0_LAYER001
  6
CONTINUOUS
 62
    4
 10
1717.3699000000001
 20
1103.3696
 11
1721.5767000000001
 21
1104.0572999999999
  0
LINE
  8
_0-0_LAYER001
  6
CONTINUOUS
 62
    4
 10
1714.9177
 20
1102.9711
 11
1717.3699000000001
 21
1103.3696
  0
LINE
  8
_0-0_LAYER001
  6
CONTINUOUS
 62
    4
 10
1710.1849000000002
 20
1102.2086999999999
 11
1714.9177
 21
1102.9711
  0
LINE
  8
_0-0_LAYER001
  6
CONTINUOUS
 62
    4
 10
1701.9805000000001
 20
1100.9248
 11
1710.1849000000002
 21
1102.2086999999999
  0
LINE
  8
_0-0_LAYER001
  6
CONTINUOUS
 62
    4
 10
1693.6729999999998
 20
1099.7049999999999
 11
1701.9805000000001
 21
1100.9248
  0
LINE
  8
_0-0_LAYER001
  6
CONTINUOUS
 62
    4
 10
1685.2647000000002
 20
1098.5886
 11
1693.6729999999998
 21
1099.7049999999999
  0
LINE
  8
_0-0_LAYER001
  6
CONTINUOUS
 62
    4
 10
1676.7521999999999
 20
1097.6152
 11
1685.2647000000002
 21
1098.5886
  0
LINE
  8
_0-0_LAYER001
  6
CONTINUOUS
 62
    4
 10
1668.1930000000002
 20
1096.8312000000001
 11
1676.7521999999999
 21
1097.6152
  0
LINE
  8
_0-0_LAYER001
  6
CONTINUOUS
 62
    4
 10
1663.1315
 20
1096.4731999999999
 11
1668.1930000000002
 21
1096.8312000000001
  0
LINE
  8
_0-0_LAYER001
  6
CONTINUOUS
 62
    4
 10
1660.3289
 20
1096.3116
 11
1663.1315
 21
1096.4731999999999
  0
LINE
  8
_0-0_LAYER001
  6
CONTINUOUS
 62
    4
 10
1655.6079
 20
1096.1076
 11
1660.3289
 21
1096.3116
  0
LINE
  8
_0-0_LAYER001
  6
CONTINUOUS
 62
    4
 10
1650.7786000000001
 20
1096.0021999999999
 11
1655.6079
 21
1096.1076
  0
LINE
  8
_0-0_LAYER001
  6
CONTINUOUS
 62
    4
 10
1645.877
 20
1096.0175999999999
 11
1650.7786000000001
 21
1096.0021999999999
  0
LINE
  8
_0-0_LAYER001
  6
CONTINUOUS
 62
    4
 10
1640.9059999999999
 20
1096.1754000000001
 11
1645.877
 21
1096.0175999999999
  0
LINE
  8
_0-0_LAYER001
  6
CONTINUOUS
 62
    4
 10
1635.9486000000002
 20
1096.4931999999999
 11
1640.9059999999999
 21
1096.1754000000001
  0
LINE
  8
_0-0_LAYER001
  6
CONTINUOUS
 62
    4
 10
1632.8969999999999
 20
1096.7746
 11
1635.9486000000002
 21
1096.4931999999999
  0
LINE
  8
_0-0_LAYER001
  6
CONTINUOUS
 62
    4
 10
1628.9681
 20
1097.2369000000001
 11
1632.8969999999999
 21
1096.7746
  0
LINE
  8
_0-0_LAYER001
  6
CONTINUOUS
 62
    4
 10
1622.4540999999999
 20
1098.2593999999999
 11
1628.9681
 21
1097.2369000000001
  0
LINE
  8
_0-0_LAYER001
  6
CONTINUOUS
 62
    4
 10
1615.9074999999998
 20
1099.6115
 11
1622.4540999999999
 21
1098.2593999999999
  0
LINE
  8
_0-0_LAYER001
  6
CONTINUOUS
 62
    4
 10
1609.4445999999998
 20
1101.2674
 11
1615.9074999999998
 21
1099.6115
  0
LINE
  8
_0-0_LAYER001
  6
CONTINUOUS
 62
    4
 10
1603.0785999999998
 20
1103.2181
 11
1609.4445999999998
 21
1101.2674
  0
LINE
  8
_0-0_LAYER001
  6
CONTINUOUS
 62
    4
 10
1596.9139
 20
1105.4231
 11
1603.0785999999998
 21
1103.2181
  0
LINE
  8
_0-0_LAYER001
  6
CONTINUOUS
 62
    4
 10
1593.2271999999998
 20
1106.8949
 11
1596.9139
 21
1105.4231
  0
LINE
  8
_0-0_LAYER001
  6
CONTINUOUS
 62
    4
 10
1588.8629999999998
 20
1108.7873999999999
 11
1593.2271999999998
 21
1106.8949
  0
LINE
  8
_0-0_LAYER001
  6
CONTINUOUS
 62
    4
 10
1581.7939000000001
 20
1112.2022999999999
 11
1588.8629999999998
 21
1108.7873999999999
  0
LINE
  8
_0-0_LAYER001
  6
CONTINUOUS
 62
    4
 10
1574.9009999999998
 20
1115.932
 11
1581.7939000000001
 21
1112.2022999999999
  0
LINE
  8
_0-0_LAYER001
  6
CONTINUOUS
 62
    4
 10
1568.2640000000001
 20
1119.8656000000001
 11
1574.9009999999998
 21
1115.932
  0
LINE
  8
_0-0_LAYER001
  6
CONTINUOUS
 62
    4
 10
1561.8546999999999
 20
1123.9481000000001
 11
1568.2640000000001
 21
1119.8656000000001
  0
LINE
  8
_0-0_LAYER001
  6
CONTINUOUS
 62
    4
 10
1555.6705000000002
 20
1128.1102000000001
 11
1561.8546999999999
 21
1123.9481000000001
  0
LINE
  8
_0-0_LAYER001
  6
CONTINUOUS
 62
    4
 10
1552.1280999999999
 20
1130.5739000000001
 11
1555.6705000000002
 21
1128.1102000000001
  0
LINE
  8
_0-0_LAYER001
  6
CONTINUOUS
 62
    4
 10
1549.8960999999999
 20
1132.1474000000001
 11
1552.1280999999999
 21
1130.5739000000001
  0
LINE
  8
_0-0_LAYER001
  6
CONTINUOUS
 62
    4
 10
1546.2725999999998
 20
1134.6866
 11
1549.8960999999999
 21
1132.1474000000001
  0
LINE
  8
_0-0_LAYER001
  6
CONTINUOUS
 62
    4
 10
1542.9029
 20
1136.9521
 11
1546.2725999999998
 21
1134.6866
  0
LINE
  8
_0-0_LAYER001
  6
CONTINUOUS
 62
    4
 10
1539.7878999999998
 20
1138.8791000000001
 11
1542.9029
 21
1136.9521
  0
LINE
  8
_0-0_LAYER001
  6
CONTINUOUS
 62
    4
 10
1536.9207000000001
 20
1140.4349
 11
1539.7878999999998
 21
1138.8791000000001
  0
LINE
  8
_0-0_LAYER001
  6
CONTINUOUS
 62
    4
 10
1534.0895999999998
 20
1141.7032999999999
 11
1536.9207000000001
 21
1140.4349
  0
LINE
  8
_0-0_LAYER001
  6
CONTINUOUS
 62
    4
 10
1532.6264000000001
 20
1142.2355
 11
1534.0895999999998
 21
1141.7032999999999
  0
LINE
  8
_0-0_LAYER001
  6
CONTINUOUS
 62
    4
 10
1532.4452999999999
 20
1142.2934
 11
1532.6264000000001
 21
1142.2355
  0
LINE
  8
_0-0_LAYER001
  6
CONTINUOUS
 62
    4
 10
1531.6570000000002
 20
1142.5214000000001
 11
1532.4452999999999
 21
1142.2934
  0
LINE
  8
_0-0_LAYER001
  6
CONTINUOUS
 62
    4
 10
1530.9998000000001
 20
1142.6840999999999
 11
1531.6570000000002
 21
1142.5214000000001
  0
LINE
  8
_0-0_LAYER001
  6
CONTINUOUS
 62
    4
 10
1530.4180999999999
 20
1142.8021000000001
 11
1530.9998000000001
 21
1142.6840999999999
  0
LINE
  8
_0-0_LAYER001
  6
CONTINUOUS
 62
    4
 10
1530.3780000000002
 20
1142.8082999999999
 11
1530.4180999999999
 21
1142.8021000000001
  0
LINE
  8
_0-0_LAYER001
  6
CONTINUOUS
 62
    4
 10
1734.3517999999999
 20
1087.6470999999999
 11
1735.9659000000001
 21
1087.9155000000001
  0
LINE
  8
_0-0_LAYER001
  6
CONTINUOUS
 62
    4
 10
1730.1632
 20
1086.9509
 11
1734.3517999999999
 21
1087.6470999999999
  0
LINE
  8
_0-0_LAYER001
  6
CONTINUOUS
 62
    4
 10
1725.9703
 20
1086.2555
 11
1730.1632
 21
1086.9509
  0
LINE
  8
_0-0_LAYER001
  6
CONTINUOUS
 62
    4
 10
1721.7728000000002
 20
1085.5617
 11
1725.9703
 21
1086.2555
  0
LINE
  8
_0-0_LAYER001
  6
CONTINUOUS
 62
    4
 10
1717.5704999999998
 20
1084.8705
 11
1721.7728000000002
 21
1085.5617
  0
LINE
  8
_0-0_LAYER001
  6
CONTINUOUS
 62
    4
 10
1713.3656999999998
 20
1084.1831999999999
 11
1717.5704999999998
 21
1084.8705
  0
LINE
  8
_0-0_LAYER001
  6
CONTINUOUS
 62
    4
 10
1710.9155999999998
 20
1083.7851000000001
 11
1713.3656999999998
 21
1084.1831999999999
  0
LINE
  8
_0-0_LAYER001
  6
CONTINUOUS
 62
    4
 10
1706.1887000000002
 20
1083.0235
 11
1710.9155999999998
 21
1083.7851000000001
  0
LINE
  8
_0-0_LAYER001
  6
CONTINUOUS
 62
    4
 10
1697.998
 20
1081.7418
 11
1706.1887000000002
 21
1083.0235
  0
LINE
  8
_0-0_LAYER001
  6
CONTINUOUS
 62
    4
 10
1689.7134999999998
 20
1080.5254
 11
1697.998
 21
1081.7418
  0
LINE
  8
_0-0_LAYER001
  6
CONTINUOUS
 62
    4
 10
1681.3368999999998
 20
1079.4132
 11
1689.7134999999998
 21
1080.5254
  0
LINE
  8
_0-0_LAYER001
  6
CONTINUOUS
 62
    4
 10
1672.8647000000001
 20
1078.4444000000001
 11
1681.3368999999998
 21
1079.4132
  0
LINE
  8
_0-0_LAYER001
  6
CONTINUOUS
 62
    4
 10
1664.3485999999998
 20
1077.6643999999999
 11
1672.8647000000001
 21
1078.4444000000001
  0
LINE
  8
_0-0_LAYER001
  6
CONTINUOUS
 62
    4
 10
1659.3208
 20
1077.3087
 11
1664.3485999999998
 21
1077.6643999999999
  0
LINE
  8
_0-0_LAYER001
  6
CONTINUOUS
 62
    4
 10
1656.5455999999999
 20
1077.1487
 11
1659.3208
 21
1077.3087
  0
LINE
  8
_0-0_LAYER001
  6
CONTINUOUS
 62
    4
 10
1651.8602999999998
 20
1076.9463000000001
 11
1656.5455999999999
 21
1077.1487
  0
LINE
  8
_0-0_LAYER001
  6
CONTINUOUS
 62
    4
 10
1647.0774000000001
 20
1076.8418999999999
 11
1651.8602999999998
 21
1076.9463000000001
  0
LINE
  8
_0-0_LAYER001
  6
CONTINUOUS
 62
    4
 10
1642.2293
 20
1076.8570999999999
 11
1647.0774000000001
 21
1076.8418999999999
  0
LINE
  8
_0-0_LAYER001
  6
CONTINUOUS
 62
    4
 10
1637.3191000000002
 20
1077.0129999999999
 11
1642.2293
 21
1076.8570999999999
  0
LINE
  8
_0-0_LAYER001
  6
CONTINUOUS
 62
    4
 10
1632.4218000000001
 20
1077.3269
 11
1637.3191000000002
 21
1077.0129999999999
  0
LINE
  8
_0-0_LAYER001
  6
CONTINUOUS
 62
    4
 10
1629.4231
 20
1077.6034999999999
 11
1632.4218000000001
 21
1077.3269
  0
LINE
  8
_0-0_LAYER001
  6
CONTINUOUS
 62
    4
 10
1625.5574999999999
 20
1078.0582999999999
 11
1629.4231
 21
1077.6034999999999
  0
LINE
  8
_0-0_LAYER001
  6
CONTINUOUS
 62
    4
 10
1619.1291000000001
 20
1079.0673999999999
 11
1625.5574999999999
 21
1078.0582999999999
  0
LINE
  8
_0-0_LAYER001
  6
CONTINUOUS
 62
    4
 10
1612.6756999999998
 20
1080.4003
 11
1619.1291000000001
 21
1079.0673999999999
  0
LINE
  8
_0-0_LAYER001
  6
CONTINUOUS
 62
    4
 10
1606.3035
 20
1082.0328999999999
 11
1612.6756999999998
 21
1080.4003
  0
LINE
  8
_0-0_LAYER001
  6
CONTINUOUS
 62
    4
 10
1600.0261999999998
 20
1083.9564
 11
1606.3035
 21
1082.0328999999999
  0
LINE
  8
_0-0_LAYER001
  6
CONTINUOUS
 62
    4
 10
1593.9391000000001
 20
1086.1335999999999
 11
1600.0261999999998
 21
1083.9564
  0
LINE
  8
_0-0_LAYER001
  6
CONTINUOUS
 62
    4
 10
1590.3134
 20
1087.5809999999999
 11
1593.9391000000001
 21
1086.1335999999999
  0
LINE
  8
_0-0_LAYER001
  6
CONTINUOUS
 62
    4
 10
1586.0136000000002
 20
1089.4456
 11
1590.3134
 21
1087.5809999999999
  0
LINE
  8
_0-0_LAYER001
  6
CONTINUOUS
 62
    4
 10
1579.0227
 20
1092.8227999999999
 11
1586.0136000000002
 21
1089.4456
  0
LINE
  8
_0-0_LAYER001
  6
CONTINUOUS
 62
    4
 10
1572.2046
 20
1096.5119999999999
 11
1579.0227
 21
1092.8227999999999
  0
LINE
  8
_0-0_LAYER001
  6
CONTINUOUS
 62
    4
 10
1565.6288
 20
1100.4094
 11
1572.2046
 21
1096.5119999999999
  0
LINE
  8
_0-0_LAYER001
  6
CONTINUOUS
 62
    4
 10
1559.2678999999998
 20
1104.461
 11
1565.6288
 21
1100.4094
  0
LINE
  8
_0-0_LAYER001
  6
CONTINUOUS
 62
    4
 10
1553.1172999999999
 20
1108.6005
 11
1559.2678999999998
 21
1104.461
  0
LINE
  8
_0-0_LAYER001
  6
CONTINUOUS
 62
    4
 10
1549.5927000000001
 20
1111.0518
 11
1553.1172999999999
 21
1108.6005
  0
LINE
  8
_0-0_LAYER001
  6
CONTINUOUS
 62
    4
 10
1547.3636000000001
 20
1112.6233
 11
1549.5927000000001
 21
1111.0518
  0
LINE
  8
_0-0_LAYER001
  6
CONTINUOUS
 62
    4
 10
1543.7219
 20
1115.1751999999999
 11
1547.3636000000001
 21
1112.6233
  0
LINE
  8
_0-0_LAYER001
  6
CONTINUOUS
 62
    4
 10
1540.3047999999999
 20
1117.4726000000001
 11
1543.7219
 21
1115.1751999999999
  0
LINE
  8
_0-0_LAYER001
  6
CONTINUOUS
 62
    4
 10
1537.1091999999999
 20
1119.4494999999999
 11
1540.3047999999999
 21
1117.4726000000001
  0
LINE
  8
_0-0_LAYER001
  6
CONTINUOUS
 62
    4
 10
1534.1251999999999
 20
1121.0686000000001
 11
1537.1091999999999
 21
1119.4494999999999
  0
LINE
  8
_0-0_LAYER001
  6
CONTINUOUS
 62
    4
 10
1531.1586000000002
 20
1122.3978
 11
1534.1251999999999
 21
1121.0686000000001
  0
LINE
  8
_0-0_LAYER001
  6
CONTINUOUS
 62
    4
 10
1530.4087
 20
1122.6704999999999
 11
1531.1586000000002
 21
1122.3978
  0
LINE
  8
_0-0_LAYER001
  6
CONTINUOUS
 62
    4
 10
1530.7417999999998
 20
1142.7136
 11
1530.5657000000001
 21
1122.5401999999999
  0
LINE
  8
_0-0_LAYER001
  6
CONTINUOUS
 62
    4
 10
1778.5558000000001
 20
1097.702
 11
1735.7356
 21
1087.7808
  0
ARC
  8
_0-0_LAYER001
  6
CONTINUOUS
 62
    4
 10
1778.3299999999999
 20
1098.6762000000001
 40
1
 50
283.04496999999998
 51
359.5
  0
LINE
  8
_0-0_LAYER001
  6
CONTINUOUS
 62
    4
 10
1731.2447000000002
 20
1077.4673
 11
1728.9992999999999
 21
1086.0407
  0
ARC
  8
_0-0_LAYER001
  6
CONTINUOUS
 62
    4
 10
1734.1468
 20
1078.2274
 40
3
 50
194.67639000000003
 51
270.00000000000006
  0
LINE
  8
_0-0_LAYER001
  6
CONTINUOUS
 62
    4
 10
1737.5646000000002
 20
1075.2274
 11
1734.1468
 21
1075.2274
  0
LINE
  8
_0-0_LAYER001
  6
CONTINUOUS
 62
    4
 10
1740.5237999999999
 20
1077.7342000000001
 11
1742.4578000000001
 21
1089.3382999999999
  0
ARC
  8
_0-0_LAYER001
  6
CONTINUOUS
 62
    4
 10
1737.5646000000002
 20
1078.2274
 40
3
 50
270
 51
350.53766999999999
  0
LINE
  8
_0-0_LAYER001
  6
CONTINUOUS
 62
    4
 10
1484.6577000000002
 20
1146.3756000000001
 11
1484.6577000000002
 21
1129.8431
  0
LINE
  8
_0-0_LAYER001
  6
CONTINUOUS
 62
    4
 10
1485.9167000000002
 20
1148.2331999999999
 11
1487.0417000000002
 21
1148.682
  0
ARC
  8
_0-0_LAYER001
  6
CONTINUOUS
 62
    4
 10
1486.6577000000002
 20
1146.3756000000001
 40
2
 50
111.74902000000002
 51
180
  0
LINE
  8
_0-0_LAYER001
  6
CONTINUOUS
 62
    4
 10
1778.7332999999999
 20
1118.0503000000001
 11
1739.6577000000002
 21
1108.9966999999999
  0
LINE
  8
_0-0_LAYER001
  6
CONTINUOUS
 62
    4
 10
1739.6577000000002
 20
1127.4735000000001
 11
1739.6577000000002
 21
1108.9966999999999
  0
LINE
  8
_0-0_LAYER001
  6
CONTINUOUS
 62
    4
 10
1737.6333
 20
1127.0045
 11
1770.8825000000002
 21
1134.7082
  0
LINE
  8
_0-0_LAYER001
  6
CONTINUOUS
 62
    4
 10
1779.5940999999998
 20
1138.0823
 11
1779.5940999999998
 21
1119.0021999999999
  0
LINE
  8
_0-0_LAYER001
  6
CONTINUOUS
 62
    4
 10
1779.7015000000001
 20
1117.0153
 11
1779.7015000000001
 21
1098.8442
  0
LINE
  8
_0-0_LAYER001
  6
CONTINUOUS
 62
    4
 10
1861.4317000000001
 20
1067.0816
 11
1852.8962999999999
 21
1081.615
  0
LINE
  8
_0-0_LAYER001
  6
CONTINUOUS
 62
    4
 10
1869.5996
 20
1066.4313
 11
1877.9058
 21
1076.4967999999999
  0
ARC
  8
_0-0_LAYER001
  6
DASHED1
 62
    4
 10
1865.7431000000001
 20
1069.6138000000001
 40
5
 50
210.42578
 51
320.47001
  0
LINE
  8
_0-0_LAYER001
  6
CONTINUOUS
 62
    4
 10
1945.5452
 20
1065.9614999999999
 11
1938.2197999999999
 21
1077.2674999999999
  0
LINE
  8
_0-0_LAYER001
  6
CONTINUOUS
 62
    4
 10
1954.0547000000001
 20
1066.1514
 11
1962.9931999999999
 21
1081.3970999999999
  0
ARC
  8
_0-0_LAYER001
  6
CONTINUOUS
 62
    4
 10
1949.7413999999999
 20
1068.6803
 40
5
 50
212.93986000000001
 51
329.61716000000001
  0
LINE
  8
_0-0_LAYER001
  6
CONTINUOUS
 62
    4
 10
1742.0156000000002
 20
1147.5558000000001
 11
1742.8252000000002
 21
1147.8738000000001
  0
LINE
  8
_0-0_LAYER001
  6
CONTINUOUS
 62
    4
 10
1742.8252000000002
 20
1147.8738000000001
 11
1746.3553999999999
 21
1149.2628
  0
LINE
  8
_0-0_LAYER001
  6
CONTINUOUS
 62
    4
 10
1746.3553999999999
 20
1149.2628
 11
1749.8928000000001
 21
1150.6612
  0
LINE
  8
_0-0_LAYER001
  6
CONTINUOUS
 62
    4
 10
1749.8928000000001
 20
1150.6612
 11
1753.4421000000002
 21
1152.0749000000001
  0
LINE
  8
_0-0_LAYER001
  6
CONTINUOUS
 62
    4
 10
1753.4421000000002
 20
1152.0749000000001
 11
1757.0077000000001
 21
1153.5099
  0
LINE
  8
_0-0_LAYER001
  6
CONTINUOUS
 62
    4
 10
1757.0077000000001
 20
1153.5099
 11
1760.5944
 21
1154.9721
  0
LINE
  8
_0-0_LAYER001
  6
CONTINUOUS
 62
    4
 10
1760.5944
 20
1154.9721
 11
1762.6860999999999
 21
1155.835
  0
LINE
  8
_0-0_LAYER001
  6
CONTINUOUS
 62
    4
 10
1762.6860999999999
 20
1155.835
 11
1764.7537000000002
 21
1156.6928
  0
LINE
  8
_0-0_LAYER001
  6
CONTINUOUS
 62
    4
 10
1764.7537000000002
 20
1156.6928
 11
1768.3402999999998
 21
1158.1445000000001
  0
LINE
  8
_0-0_LAYER001
  6
CONTINUOUS
 62
    4
 10
1768.3402999999998
 20
1158.1445000000001
 11
1771.9546999999998
 21
1159.4777999999999
  0
LINE
  8
_0-0_LAYER001
  6
CONTINUOUS
 62
    4
 10
1771.9546999999998
 20
1159.4777999999999
 11
1775.5974000000001
 21
1160.5953999999999
  0
LINE
  8
_0-0_LAYER001
  6
CONTINUOUS
 62
    4
 10
1775.5974000000001
 20
1160.5953999999999
 11
1779.2687000000001
 21
1161.4000000000001
  0
LINE
  8
_0-0_LAYER001
  6
CONTINUOUS
 62
    4
 10
1779.2687000000001
 20
1161.4000000000001
 11
1782.9688000000001
 21
1161.7942
  0
LINE
  8
_0-0_LAYER001
  6
CONTINUOUS
 62
    4
 10
1782.9688000000001
 20
1161.7942
 11
1785.1282999999999
 21
1161.7963999999999
  0
LINE
  8
_0-0_LAYER001
  6
CONTINUOUS
 62
    4
 10
1785.1282999999999
 20
1161.7963999999999
 11
1785.9782
 21
1161.7469000000001
  0
LINE
  8
_0-0_LAYER001
  6
CONTINUOUS
 62
    4
 10
1785.9782
 20
1161.7469000000001
 11
1787.4448000000002
 21
1161.5968
  0
LINE
  8
_0-0_LAYER001
  6
CONTINUOUS
 62
    4
 10
1787.4448000000002
 20
1161.5968
 11
1788.9092000000001
 21
1161.3705
  0
LINE
  8
_0-0_LAYER001
  6
CONTINUOUS
 62
    4
 10
1788.9092000000001
 20
1161.3705
 11
1790.3670999999999
 21
1161.0748000000001
  0
LINE
  8
_0-0_LAYER001
  6
CONTINUOUS
 62
    4
 10
1790.3670999999999
 20
1161.0748000000001
 11
1791.8144000000002
 21
1160.7165
  0
LINE
  8
_0-0_LAYER001
  6
CONTINUOUS
 62
    4
 10
1791.8144000000002
 20
1160.7165
 11
1793.2467999999999
 21
1160.3023000000001
  0
LINE
  8
_0-0_LAYER001
  6
CONTINUOUS
 62
    4
 10
1793.2467999999999
 20
1160.3023000000001
 11
1794.069
 21
1160.0391
  0
LINE
  8
_0-0_LAYER001
  6
CONTINUOUS
 62
    4
 10
1794.069
 20
1160.0391
 11
1796.5801999999999
 21
1159.1259
  0
LINE
  8
_0-0_LAYER001
  6
CONTINUOUS
 62
    4
 10
1796.5801999999999
 20
1159.1259
 11
1800.7656999999999
 21
1157.2506000000001
  0
LINE
  8
_0-0_LAYER001
  6
CONTINUOUS
 62
    4
 10
1800.7656999999999
 20
1157.2506000000001
 11
1804.8004999999998
 21
1155.0613000000001
  0
LINE
  8
_0-0_LAYER001
  6
CONTINUOUS
 62
    4
 10
1804.8004999999998
 20
1155.0613000000001
 11
1808.7215999999999
 21
1152.6356000000001
  0
LINE
  8
_0-0_LAYER001
  6
CONTINUOUS
 62
    4
 10
1808.7215999999999
 20
1152.6356000000001
 11
1812.5661
 21
1150.0508
  0
LINE
  8
_0-0_LAYER001
  6
CONTINUOUS
 62
    4
 10
1812.5661
 20
1150.0508
 11
1816.3708999999999
 21
1147.3846000000001
  0
LINE
  8
_0-0_LAYER001
  6
CONTINUOUS
 62
    4
 10
1816.3708999999999
 20
1147.3846000000001
 11
1818.5742
 21
1145.8314
  0
LINE
  8
_0-0_LAYER001
  6
CONTINUOUS
 62
    4
 10
1818.5742
 20
1145.8314
 11
1821.9387999999999
 21
1143.4914000000001
  0
LINE
  8
_0-0_LAYER001
  6
CONTINUOUS
 62
    4
 10
1821.9387999999999
 20
1143.4914000000001
 11
1827.7865000000002
 21
1139.5556999999999
  0
LINE
  8
_0-0_LAYER001
  6
CONTINUOUS
 62
    4
 10
1827.7865000000002
 20
1139.5556999999999
 11
1833.7118999999998
 21
1135.7814000000001
  0
LINE
  8
_0-0_LAYER001
  6
CONTINUOUS
 62
    4
 10
1833.7118999999998
 20
1135.7814000000001
 11
1839.7366000000002
 21
1132.2107000000001
  0
LINE
  8
_0-0_LAYER001
  6
CONTINUOUS
 62
    4
 10
1839.7366000000002
 20
1132.2107000000001
 11
1845.8818000000001
 21
1128.8857
  0
LINE
  8
_0-0_LAYER001
  6
CONTINUOUS
 62
    4
 10
1845.8818000000001
 20
1128.8857
 11
1852.1691000000001
 21
1125.8483000000001
  0
LINE
  8
_0-0_LAYER001
  6
CONTINUOUS
 62
    4
 10
1852.1691000000001
 20
1125.8483000000001
 11
1855.8892999999998
 21
1124.2351000000001
  0
LINE
  8
_0-0_LAYER001
  6
CONTINUOUS
 62
    4
 10
1855.8892999999998
 20
1124.2351000000001
 11
1858.9659000000001
 21
1123.0069000000001
  0
LINE
  8
_0-0_LAYER001
  6
CONTINUOUS
 62
    4
 10
1858.9659000000001
 20
1123.0069000000001
 11
1864.3539000000001
 21
1121.0798
  0
LINE
  8
_0-0_LAYER001
  6
CONTINUOUS
 62
    4
 10
1864.3539000000001
 20
1121.0798
 11
1869.8335999999999
 21
1119.4005999999999
  0
LINE
  8
_0-0_LAYER001
  6
CONTINUOUS
 62
    4
 10
1869.8335999999999
 20
1119.4005999999999
 11
1875.3890000000001
 21
1117.9773
  0
LINE
  8
_0-0_LAYER001
  6
CONTINUOUS
 62
    4
 10
1875.3890000000001
 20
1117.9773
 11
1881.0039999999999
 21
1116.8175000000001
  0
LINE
  8
_0-0_LAYER001
  6
CONTINUOUS
 62
    4
 10
1881.0039999999999
 20
1116.8175000000001
 11
1886.6626999999999
 21
1115.9293
  0
LINE
  8
_0-0_LAYER001
  6
CONTINUOUS
 62
    4
 10
1886.6626999999999
 20
1115.9293
 11
1889.9584
 21
1115.5415
  0
LINE
  8
_0-0_LAYER001
  6
CONTINUOUS
 62
    4
 10
1889.9584
 20
1115.5415
 11
1892.4812000000002
 21
1115.3088
  0
LINE
  8
_0-0_LAYER001
  6
CONTINUOUS
 62
    4
 10
1892.4812000000002
 20
1115.3088
 11
1896.8375999999998
 21
1115.0296000000001
  0
LINE
  8
_0-0_LAYER001
  6
CONTINUOUS
 62
    4
 10
1896.8375999999998
 20
1115.0296000000001
 11
1901.2002000000002
 21
1114.8911000000001
  0
LINE
  8
_0-0_LAYER001
  6
CONTINUOUS
 62
    4
 10
1901.2002000000002
 20
1114.8911000000001
 11
1905.5659999999998
 21
1114.8774000000001
  0
LINE
  8
_0-0_LAYER001
  6
CONTINUOUS
 62
    4
 10
1905.5659999999998
 20
1114.8774000000001
 11
1909.9322000000002
 21
1114.9727
  0
LINE
  8
_0-0_LAYER001
  6
CONTINUOUS
 62
    4
 10
1909.9322000000002
 20
1114.9727
 11
1914.2959000000001
 21
1115.1612
  0
LINE
  8
_0-0_LAYER001
  6
CONTINUOUS
 62
    4
 10
1914.2959000000001
 20
1115.1612
 11
1916.8245000000002
 21
1115.307
  0
LINE
  8
_0-0_LAYER001
  6
CONTINUOUS
 62
    4
 10
1916.8245000000002
 20
1115.307
 11
1921.5493999999999
 21
1115.6412
  0
LINE
  8
_0-0_LAYER001
  6
CONTINUOUS
 62
    4
 10
1921.5493999999999
 20
1115.6412
 11
1929.6779999999999
 21
1116.3858
  0
LINE
  8
_0-0_LAYER001
  6
CONTINUOUS
 62
    4
 10
1929.6779999999999
 20
1116.3858
 11
1937.7865999999999
 21
1117.3130000000001
  0
LINE
  8
_0-0_LAYER001
  6
CONTINUOUS
 62
    4
 10
1937.7865999999999
 20
1117.3130000000001
 11
1945.8782000000001
 21
1118.3873000000001
  0
LINE
  8
_0-0_LAYER001
  6
CONTINUOUS
 62
    4
 10
1945.8782000000001
 20
1118.3873000000001
 11
1953.9558999999999
 21
1119.5734
  0
LINE
  8
_0-0_LAYER001
  6
CONTINUOUS
 62
    4
 10
1953.9558999999999
 20
1119.5734
 11
1962.0225999999998
 21
1120.8357000000001
  0
LINE
  8
_0-0_LAYER001
  6
CONTINUOUS
 62
    4
 10
1962.0225999999998
 20
1120.8357000000001
 11
1966.6975000000002
 21
1121.5889
  0
LINE
  8
_0-0_LAYER001
  6
CONTINUOUS
 62
    4
 10
1966.6975000000002
 20
1121.5889
 11
1969.1271000000002
 21
1121.9837
  0
LINE
  8
_0-0_LAYER001
  6
CONTINUOUS
 62
    4
 10
1969.1271000000002
 20
1121.9837
 11
1973.3148999999999
 21
1122.6682000000001
  0
LINE
  8
_0-0_LAYER001
  6
CONTINUOUS
 62
    4
 10
1973.3148999999999
 20
1122.6682000000001
 11
1977.5014999999999
 21
1123.3568
  0
LINE
  8
_0-0_LAYER001
  6
CONTINUOUS
 62
    4
 10
1977.5014999999999
 20
1123.3568
 11
1981.6871000000001
 21
1124.0486000000001
  0
LINE
  8
_0-0_LAYER001
  6
CONTINUOUS
 62
    4
 10
1981.6871000000001
 20
1124.0486000000001
 11
1985.8719999999998
 21
1124.7427
  0
LINE
  8
_0-0_LAYER001
  6
CONTINUOUS
 62
    4
 10
1985.8719999999998
 20
1124.7427
 11
1990.0563999999999
 21
1125.4382000000001
  0
LINE
  8
_0-0_LAYER001
  6
CONTINUOUS
 62
    4
 10
1990.0563999999999
 20
1125.4382000000001
 11
1992.4832999999999
 21
1125.8418999999999
  0
ARC
  8
_0-0_LAYER001
  6
CONTINUOUS
 62
    4
 10
2028.8584999999998
 20
1133.7475999999999
 40
3
 50
103.0288
 51
179.49999999999997
  0
LINE
  8
_0-0_LAYER001
  6
CONTINUOUS
 62
    4
 10
1740.9321
 20
1127.7729999999999
 11
1747.3244
 21
1130.2951
  0
ARC
  8
_0-0_LAYER001
  6
CONTINUOUS
 62
    4
 10
1740.5650999999998
 20
1128.7031999999999
 40
1
 50
179.5
 51
291.53165999999999
  0
LINE
  8
_0-0_LAYER001
  6
CONTINUOUS
 62
    4
 10
2033.4223999999999
 20
1137.883
 11
2028.1821
 21
1136.6704
  0
ARC
  8
_0-0_LAYER001
  6
CONTINUOUS
 62
    4
 10
2033.6478999999999
 20
1136.9087
 40
1
 50
359.50000000000006
 51
103.02880000000002
  0
LINE
  8
_0-0_LAYER001
  6
CONTINUOUS
 62
    4
 10
1995.8074999999999
 20
1106.2125000000001
 11
2026.1212
 21
1113.3065999999999
  0
ARC
  8
_0-0_LAYER001
  6
CONTINUOUS
 62
    4
 10
2033.4621000000002
 20
1115.6158
 40
1
 50
359.50000000000006
 51
103.08296000000006
  0
LINE
  8
_0-0_LAYER001
  6
CONTINUOUS
 62
    4
 10
2026.9022
 20
1115.1179999999999
 11
2033.2357000000002
 21
1116.5898999999999
  0
LINE
  8
_0-0_LAYER001
  6
CONTINUOUS
 62
    4
 10
2026.1286
 20
1114.1527000000001
 11
2026.1212
 21
1113.3065999999999
  0
ARC
  8
_0-0_LAYER001
  6
CONTINUOUS
 62
    4
 10
2027.1286
 20
1114.144
 40
1
 50
103.08296000000001
 51
179.50000000000003
  0
ARC
  8
_0-0_LAYER001
  6
CONTINUOUS
 62
    4
 10
2033.482
 20
1117.8989999999999
 40
1
 50
283.04496999999998
 51
359.5
  0
LINE
  8
_0-0_LAYER001
  6
CONTINUOUS
 62
    4
 10
1993.3368
 20
1105.7090000000001
 11
1995.7649000000001
 21
1106.1129000000001
  0
LINE
  8
_0-0_LAYER001
  6
CONTINUOUS
 62
    4
 10
1989.1477
 20
1105.0128
 11
1993.3368
 21
1105.7090000000001
  0
LINE
  8
_0-0_LAYER001
  6
CONTINUOUS
 62
    4
 10
1984.9539
 20
1104.3172
 11
1989.1477
 21
1105.0128
  0
LINE
  8
_0-0_LAYER001
  6
CONTINUOUS
 62
    4
 10
1980.7552000000001
 20
1103.6233
 11
1984.9539
 21
1104.3172
  0
LINE
  8
_0-0_LAYER001
  6
CONTINUOUS
 62
    4
 10
1976.5511000000001
 20
1102.9318000000001
 11
1980.7552000000001
 21
1103.6233
  0
LINE
  8
_0-0_LAYER001
  6
CONTINUOUS
 62
    4
 10
1972.3443000000002
 20
1102.2440999999999
 11
1976.5511000000001
 21
1102.9318000000001
  0
LINE
  8
_0-0_LAYER001
  6
CONTINUOUS
 62
    4
 10
1969.8919999999998
 20
1101.8456000000001
 11
1972.3443000000002
 21
1102.2440999999999
  0
LINE
  8
_0-0_LAYER001
  6
CONTINUOUS
 62
    4
 10
1965.1592000000001
 20
1101.0832
 11
1969.8919999999998
 21
1101.8456000000001
  0
LINE
  8
_0-0_LAYER001
  6
CONTINUOUS
 62
    4
 10
1956.9548
 20
1099.7992999999999
 11
1965.1592000000001
 21
1101.0832
  0
LINE
  8
_0-0_LAYER001
  6
CONTINUOUS
 62
    4
 10
1948.6473000000001
 20
1098.5795000000001
 11
1956.9548
 21
1099.7992999999999
  0
LINE
  8
_0-0_LAYER001
  6
CONTINUOUS
 62
    4
 10
1940.239
 20
1097.4630999999999
 11
1948.6473000000001
 21
1098.5795000000001
  0
LINE
  8
_0-0_LAYER001
  6
CONTINUOUS
 62
    4
 10
1931.7265000000002
 20
1096.4897000000001
 11
1940.239
 21
1097.4630999999999
  0
LINE
  8
_0-0_LAYER001
  6
CONTINUOUS
 62
    4
 10
1923.1673000000001
 20
1095.7057
 11
1931.7265000000002
 21
1096.4897000000001
  0
LINE
  8
_0-0_LAYER001
  6
CONTINUOUS
 62
    4
 10
1918.1057999999998
 20
1095.3477
 11
1923.1673000000001
 21
1095.7057
  0
LINE
  8
_0-0_LAYER001
  6
CONTINUOUS
 62
    4
 10
1915.3031999999998
 20
1095.1860999999999
 11
1918.1057999999998
 21
1095.3477
  0
LINE
  8
_0-0_LAYER001
  6
CONTINUOUS
 62
    4
 10
1910.5821999999998
 20
1094.9820999999999
 11
1915.3031999999998
 21
1095.1860999999999
  0
LINE
  8
_0-0_LAYER001
  6
CONTINUOUS
 62
    4
 10
1905.7530000000002
 20
1094.8767
 11
1910.5821999999998
 21
1094.9820999999999
  0
LINE
  8
_0-0_LAYER001
  6
CONTINUOUS
 62
    4
 10
1900.8512999999998
 20
1094.8921
 11
1905.7530000000002
 21
1094.8767
  0
LINE
  8
_0-0_LAYER001
  6
CONTINUOUS
 62
    4
 10
1895.8802999999998
 20
1095.0499
 11
1900.8512999999998
 21
1094.8921
  0
LINE
  8
_0-0_LAYER001
  6
CONTINUOUS
 62
    4
 10
1890.9229
 20
1095.3677
 11
1895.8802999999998
 21
1095.0499
  0
LINE
  8
_0-0_LAYER001
  6
CONTINUOUS
 62
    4
 10
1887.8712999999998
 20
1095.6491000000001
 11
1890.9229
 21
1095.3677
  0
LINE
  8
_0-0_LAYER001
  6
CONTINUOUS
 62
    4
 10
1883.9423999999999
 20
1096.1114
 11
1887.8712999999998
 21
1095.6491000000001
  0
LINE
  8
_0-0_LAYER001
  6
CONTINUOUS
 62
    4
 10
1877.4285
 20
1097.1339
 11
1883.9423999999999
 21
1096.1114
  0
LINE
  8
_0-0_LAYER001
  6
CONTINUOUS
 62
    4
 10
1870.8818000000001
 20
1098.4860000000001
 11
1877.4285
 21
1097.1339
  0
LINE
  8
_0-0_LAYER001
  6
CONTINUOUS
 62
    4
 10
1864.4189000000001
 20
1100.1419000000001
 11
1870.8818000000001
 21
1098.4860000000001
  0
LINE
  8
_0-0_LAYER001
  6
CONTINUOUS
 62
    4
 10
1858.0529999999999
 20
1102.0925999999999
 11
1864.4189000000001
 21
1100.1419000000001
  0
LINE
  8
_0-0_LAYER001
  6
CONTINUOUS
 62
    4
 10
1851.8881999999999
 20
1104.2976000000001
 11
1858.0529999999999
 21
1102.0925999999999
  0
LINE
  8
_0-0_LAYER001
  6
CONTINUOUS
 62
    4
 10
1848.2015000000001
 20
1105.7693999999999
 11
1851.8881999999999
 21
1104.2976000000001
  0
LINE
  8
_0-0_LAYER001
  6
CONTINUOUS
 62
    4
 10
1843.8373000000001
 20
1107.6619000000001
 11
1848.2015000000001
 21
1105.7693999999999
  0
LINE
  8
_0-0_LAYER001
  6
CONTINUOUS
 62
    4
 10
1836.7682
 20
1111.0768
 11
1843.8373000000001
 21
1107.6619000000001
  0
LINE
  8
_0-0_LAYER001
  6
CONTINUOUS
 62
    4
 10
1829.8753000000002
 20
1114.8064999999999
 11
1836.7682
 21
1111.0768
  0
LINE
  8
_0-0_LAYER001
  6
CONTINUOUS
 62
    4
 10
1823.2383
 20
1118.7401
 11
1829.8753000000002
 21
1114.8064999999999
  0
LINE
  8
_0-0_LAYER001
  6
CONTINUOUS
 62
    4
 10
1816.8290000000002
 20
1122.8226
 11
1823.2383
 21
1118.7401
  0
LINE
  8
_0-0_LAYER001
  6
CONTINUOUS
 62
    4
 10
1810.6448
 20
1126.9847
 11
1816.8290000000002
 21
1122.8226
  0
LINE
  8
_0-0_LAYER001
  6
CONTINUOUS
 62
    4
 10
1807.1025
 20
1129.4484
 11
1810.6448
 21
1126.9847
  0
LINE
  8
_0-0_LAYER001
  6
CONTINUOUS
 62
    4
 10
1804.8703999999998
 20
1131.0219
 11
1807.1025
 21
1129.4484
  0
LINE
  8
_0-0_LAYER001
  6
CONTINUOUS
 62
    4
 10
1801.2469000000001
 20
1133.5610999999999
 11
1804.8703999999998
 21
1131.0219
  0
LINE
  8
_0-0_LAYER001
  6
CONTINUOUS
 62
    4
 10
1797.8771999999999
 20
1135.8266000000001
 11
1801.2469000000001
 21
1133.5610999999999
  0
LINE
  8
_0-0_LAYER001
  6
CONTINUOUS
 62
    4
 10
1794.7622000000001
 20
1137.7536
 11
1797.8771999999999
 21
1135.8266000000001
  0
LINE
  8
_0-0_LAYER001
  6
CONTINUOUS
 62
    4
 10
1791.895
 20
1139.3094000000001
 11
1794.7622000000001
 21
1137.7536
  0
LINE
  8
_0-0_LAYER001
  6
CONTINUOUS
 62
    4
 10
1789.0639000000001
 20
1140.5778
 11
1791.895
 21
1139.3094000000001
  0
LINE
  8
_0-0_LAYER001
  6
CONTINUOUS
 62
    4
 10
1787.6007
 20
1141.1099999999999
 11
1789.0639000000001
 21
1140.5778
  0
LINE
  8
_0-0_LAYER001
  6
CONTINUOUS
 62
    4
 10
1787.4196000000002
 20
1141.1678999999999
 11
1787.6007
 21
1141.1099999999999
  0
LINE
  8
_0-0_LAYER001
  6
CONTINUOUS
 62
    4
 10
1786.6313
 20
1141.3959
 11
1787.4196000000002
 21
1141.1678999999999
  0
LINE
  8
_0-0_LAYER001
  6
CONTINUOUS
 62
    4
 10
1785.9742000000001
 20
1141.5586000000001
 11
1786.6313
 21
1141.3959
  0
LINE
  8
_0-0_LAYER001
  6
CONTINUOUS
 62
    4
 10
1785.3924000000002
 20
1141.6766
 11
1785.9742000000001
 21
1141.5586000000001
  0
LINE
  8
_0-0_LAYER001
  6
CONTINUOUS
 62
    4
 10
1785.3523
 20
1141.6828
 11
1785.3924000000002
 21
1141.6766
  0
LINE
  8
_0-0_LAYER001
  6
CONTINUOUS
 62
    4
 10
1989.3262
 20
1086.5216
 11
1990.9403000000002
 21
1086.79
  0
LINE
  8
_0-0_LAYER001
  6
CONTINUOUS
 62
    4
 10
1985.1376
 20
1085.8253999999999
 11
1989.3262
 21
1086.5216
  0
LINE
  8
_0-0_LAYER001
  6
CONTINUOUS
 62
    4
 10
1980.9447
 20
1085.1300000000001
 11
1985.1376
 21
1085.8253999999999
  0
LINE
  8
_0-0_LAYER001
  6
CONTINUOUS
 62
    4
 10
1976.7471999999998
 20
1084.4362000000001
 11
1980.9447
 21
1085.1300000000001
  0
LINE
  8
_0-0_LAYER001
  6
CONTINUOUS
 62
    4
 10
1972.5448999999999
 20
1083.7449999999999
 11
1976.7471999999998
 21
1084.4362000000001
  0
LINE
  8
_0-0_LAYER001
  6
CONTINUOUS
 62
    4
 10
1968.3400000000001
 20
1083.0577000000001
 11
1972.5448999999999
 21
1083.7449999999999
  0
LINE
  8
_0-0_LAYER001
  6
CONTINUOUS
 62
    4
 10
1965.8899999999999
 20
1082.6596
 11
1968.3400000000001
 21
1083.0577000000001
  0
LINE
  8
_0-0_LAYER001
  6
CONTINUOUS
 62
    4
 10
1961.163
 20
1081.8979999999999
 11
1965.8899999999999
 21
1082.6596
  0
LINE
  8
_0-0_LAYER001
  6
CONTINUOUS
 62
    4
 10
1952.9722999999999
 20
1080.6162999999999
 11
1961.163
 21
1081.8979999999999
  0
LINE
  8
_0-0_LAYER001
  6
CONTINUOUS
 62
    4
 10
1944.6878000000002
 20
1079.3998999999999
 11
1952.9722999999999
 21
1080.6162999999999
  0
LINE
  8
_0-0_LAYER001
  6
CONTINUOUS
 62
    4
 10
1936.3112000000001
 20
1078.2877000000001
 11
1944.6878000000002
 21
1079.3998999999999
  0
LINE
  8
_0-0_LAYER001
  6
CONTINUOUS
 62
    4
 10
1927.8389999999999
 20
1077.3189
 11
1936.3112000000001
 21
1078.2877000000001
  0
LINE
  8
_0-0_LAYER001
  6
CONTINUOUS
 62
    4
 10
1919.3229000000001
 20
1076.5389
 11
1927.8389999999999
 21
1077.3189
  0
LINE
  8
_0-0_LAYER001
  6
CONTINUOUS
 62
    4
 10
1914.2950999999998
 20
1076.1831999999999
 11
1919.3229000000001
 21
1076.5389
  0
LINE
  8
_0-0_LAYER001
  6
CONTINUOUS
 62
    4
 10
1911.5198999999998
 20
1076.0232000000001
 11
1914.2950999999998
 21
1076.1831999999999
  0
LINE
  8
_0-0_LAYER001
  6
CONTINUOUS
 62
    4
 10
1906.8346000000001
 20
1075.8208
 11
1911.5198999999998
 21
1076.0232000000001
  0
LINE
  8
_0-0_LAYER001
  6
CONTINUOUS
 62
    4
 10
1902.0517
 20
1075.7164
 11
1906.8346000000001
 21
1075.8208
  0
LINE
  8
_0-0_LAYER001
  6
CONTINUOUS
 62
    4
 10
1897.2035999999998
 20
1075.7316000000001
 11
1902.0517
 21
1075.7164
  0
LINE
  8
_0-0_LAYER001
  6
CONTINUOUS
 62
    4
 10
1892.2934
 20
1075.8875
 11
1897.2035999999998
 21
1075.7316000000001
  0
LINE
  8
_0-0_LAYER001
  6
CONTINUOUS
 62
    4
 10
1887.3960999999999
 20
1076.2013999999999
 11
1892.2934
 21
1075.8875
  0
LINE
  8
_0-0_LAYER001
  6
CONTINUOUS
 62
    4
 10
1884.3973999999998
 20
1076.4780000000001
 11
1887.3960999999999
 21
1076.2013999999999
  0
LINE
  8
_0-0_LAYER001
  6
CONTINUOUS
 62
    4
 10
1880.5318000000002
 20
1076.9328
 11
1884.3973999999998
 21
1076.4780000000001
  0
LINE
  8
_0-0_LAYER001
  6
CONTINUOUS
 62
    4
 10
1874.1034
 20
1077.9419
 11
1880.5318000000002
 21
1076.9328
  0
LINE
  8
_0-0_LAYER001
  6
CONTINUOUS
 62
    4
 10
1867.6500000000001
 20
1079.2747999999999
 11
1874.1034
 21
1077.9419
  0
LINE
  8
_0-0_LAYER001
  6
CONTINUOUS
 62
    4
 10
1861.2777999999998
 20
1080.9074000000001
 11
1867.6500000000001
 21
1079.2747999999999
  0
LINE
  8
_0-0_LAYER001
  6
CONTINUOUS
 62
    4
 10
1855.0005000000001
 20
1082.8308999999999
 11
1861.2777999999998
 21
1080.9074000000001
  0
LINE
  8
_0-0_LAYER001
  6
CONTINUOUS
 62
    4
 10
1848.9133999999999
 20
1085.0081
 11
1855.0005000000001
 21
1082.8308999999999
  0
LINE
  8
_0-0_LAYER001
  6
CONTINUOUS
 62
    4
 10
1845.2876999999999
 20
1086.4555
 11
1848.9133999999999
 21
1085.0081
  0
LINE
  8
_0-0_LAYER001
  6
CONTINUOUS
 62
    4
 10
1840.9879000000001
 20
1088.3200999999999
 11
1845.2876999999999
 21
1086.4555
  0
LINE
  8
_0-0_LAYER001
  6
CONTINUOUS
 62
    4
 10
1833.9969999999998
 20
1091.6973
 11
1840.9879000000001
 21
1088.3200999999999
  0
LINE
  8
_0-0_LAYER001
  6
CONTINUOUS
 62
    4
 10
1827.1788999999999
 20
1095.3865000000001
 11
1833.9969999999998
 21
1091.6973
  0
LINE
  8
_0-0_LAYER001
  6
CONTINUOUS
 62
    4
 10
1820.6030999999998
 20
1099.2838999999999
 11
1827.1788999999999
 21
1095.3865000000001
  0
LINE
  8
_0-0_LAYER001
  6
CONTINUOUS
 62
    4
 10
1814.2422000000001
 20
1103.3354999999999
 11
1820.6030999999998
 21
1099.2838999999999
  0
LINE
  8
_0-0_LAYER001
  6
CONTINUOUS
 62
    4
 10
1808.0916000000002
 20
1107.4749999999999
 11
1814.2422000000001
 21
1103.3354999999999
  0
LINE
  8
_0-0_LAYER001
  6
CONTINUOUS
 62
    4
 10
1804.567
 20
1109.9263000000001
 11
1808.0916000000002
 21
1107.4749999999999
  0
LINE
  8
_0-0_LAYER001
  6
CONTINUOUS
 62
    4
 10
1802.3379
 20
1111.4978000000001
 11
1804.567
 21
1109.9263000000001
  0
LINE
  8
_0-0_LAYER001
  6
CONTINUOUS
 62
    4
 10
1798.6961999999999
 20
1114.0497
 11
1802.3379
 21
1111.4978000000001
  0
LINE
  8
_0-0_LAYER001
  6
CONTINUOUS
 62
    4
 10
1795.2791000000002
 20
1116.3471
 11
1798.6961999999999
 21
1114.0497
  0
LINE
  8
_0-0_LAYER001
  6
CONTINUOUS
 62
    4
 10
1792.0835000000002
 20
1118.3240000000001
 11
1795.2791000000002
 21
1116.3471
  0
LINE
  8
_0-0_LAYER001
  6
CONTINUOUS
 62
    4
 10
1789.0994999999998
 20
1119.9431
 11
1792.0835000000002
 21
1118.3240000000001
  0
LINE
  8
_0-0_LAYER001
  6
CONTINUOUS
 62
    4
 10
1786.1329999999998
 20
1121.2723000000001
 11
1789.0994999999998
 21
1119.9431
  0
LINE
  8
_0-0_LAYER001
  6
CONTINUOUS
 62
    4
 10
1785.3829999999998
 20
1121.5450000000001
 11
1786.1329999999998
 21
1121.2723000000001
  0
LINE
  8
_0-0_LAYER001
  6
CONTINUOUS
 62
    4
 10
1785.7161000000001
 20
1141.5880999999999
 11
1785.54
 21
1121.4147
  0
LINE
  8
_0-0_LAYER001
  6
CONTINUOUS
 62
    4
 10
2033.5300999999999
 20
1096.5764999999999
 11
1990.7098999999998
 21
1086.6552999999999
  0
ARC
  8
_0-0_LAYER001
  6
CONTINUOUS
 62
    4
 10
2033.3044
 20
1097.5507
 40
1
 50
283.04496999999998
 51
359.5
  0
LINE
  8
_0-0_LAYER001
  6
CONTINUOUS
 62
    4
 10
1986.2190999999998
 20
1076.3417999999999
 11
1983.9735999999998
 21
1084.9151999999999
  0
ARC
  8
_0-0_LAYER001
  6
CONTINUOUS
 62
    4
 10
1989.1212
 20
1077.1018999999999
 40
3
 50
194.67639000000003
 51
270.00000000000006
  0
LINE
  8
_0-0_LAYER001
  6
CONTINUOUS
 62
    4
 10
1992.5390000000002
 20
1074.1018999999999
 11
1989.1212
 21
1074.1018999999999
  0
LINE
  8
_0-0_LAYER001
  6
CONTINUOUS
 62
    4
 10
1995.4982
 20
1076.6087
 11
1997.4322000000002
 21
1088.2128
  0
ARC
  8
_0-0_LAYER001
  6
CONTINUOUS
 62
    4
 10
1992.5390000000002
 20
1077.1018999999999
 40
3
 50
270
 51
350.53766999999999
  0
LINE
  8
_0-0_LAYER001
  6
CONTINUOUS
 62
    4
 10
1739.6320999999998
 20
1145.2501
 11
1739.6320999999998
 21
1128.7175999999999
  0
LINE
  8
_0-0_LAYER001
  6
CONTINUOUS
 62
    4
 10
1740.8910000000001
 20
1147.1077
 11
1742.0160000000001
 21
1147.5564999999999
  0
ARC
  8
_0-0_LAYER001
  6
CONTINUOUS
 62
    4
 10
1741.6320999999998
 20
1145.2501
 40
2
 50
111.74902000000002
 51
180
  0
LINE
  8
_0-0_LAYER001
  6
CONTINUOUS
 62
    4
 10
2033.7076999999999
 20
1116.9248
 11
1994.6320999999998
 21
1107.8712
  0
LINE
  8
_0-0_LAYER001
  6
CONTINUOUS
 62
    4
 10
1994.6320999999998
 20
1126.348
 11
1994.6320999999998
 21
1107.8712
  0
LINE
  8
_0-0_LAYER001
  6
CONTINUOUS
 62
    4
 10
1992.6077
 20
1125.8789999999999
 11
2025.8569000000002
 21
1133.5826999999999
  0
LINE
  8
_0-0_LAYER001
  6
CONTINUOUS
 62
    4
 10
2034.5684999999999
 20
1136.9567999999999
 11
2034.5684999999999
 21
1117.8767
  0
LINE
  8
_0-0_LAYER001
  6
CONTINUOUS
 62
    4
 10
2034.6758
 20
1115.8897999999999
 11
2034.6758
 21
1097.7186999999999
  0
LINE
  8
_0-0_LAYER001
  6
CONTINUOUS
 62
    4
 10
1023.0696
 20
1144.2514000000001
 11
1027.3788999999999
 21
1142.3757000000001
  0
LINE
  8
_0-0_LAYER001
  6
CONTINUOUS
 62
    4
 10
1027.3788999999999
 20
1142.3757000000001
 11
1034.7601999999999
 21
1139.1921
  0
LINE
  8
_0-0_LAYER001
  6
CONTINUOUS
 62
    4
 10
1034.7601999999999
 20
1139.1921
 11
1042.0657000000001
 21
1136.1215999999999
  0
LINE
  8
_0-0_LAYER001
  6
CONTINUOUS
 62
    4
 10
1042.0657000000001
 20
1136.1215999999999
 11
1049.3088
 21
1133.2063000000001
  0
LINE
  8
_0-0_LAYER001
  6
CONTINUOUS
 62
    4
 10
1049.3088
 20
1133.2063000000001
 11
1056.5017
 21
1130.4870000000001
  0
LINE
  8
_0-0_LAYER001
  6
CONTINUOUS
 62
    4
 10
1056.5017
 20
1130.4870000000001
 11
1063.7212
 21
1127.9795999999999
  0
LINE
  8
_0-0_LAYER001
  6
CONTINUOUS
 62
    4
 10
1063.7212
 20
1127.9795999999999
 11
1067.8344999999999
 21
1126.6677
  0
LINE
  8
_0-0_LAYER001
  6
CONTINUOUS
 62
    4
 10
1067.8344999999999
 20
1126.6677
 11
1070.7387000000001
 21
1125.7978000000001
  0
LINE
  8
_0-0_LAYER001
  6
CONTINUOUS
 62
    4
 10
1070.7387000000001
 20
1125.7978000000001
 11
1075.9725000000001
 21
1124.3382999999999
  0
LINE
  8
_0-0_LAYER001
  6
CONTINUOUS
 62
    4
 10
1075.9725000000001
 20
1124.3382999999999
 11
1081.2428
 21
1122.9911999999999
  0
LINE
  8
_0-0_LAYER001
  6
CONTINUOUS
 62
    4
 10
1081.2428
 20
1122.9911999999999
 11
1086.5920000000001
 21
1121.7311999999999
  0
LINE
  8
_0-0_LAYER001
  6
CONTINUOUS
 62
    4
 10
1086.5920000000001
 20
1121.7311999999999
 11
1092.0147999999999
 21
1120.546
  0
LINE
  8
_0-0_LAYER001
  6
CONTINUOUS
 62
    4
 10
1092.0147999999999
 20
1120.546
 11
1097.5228
 21
1119.4190000000001
  0
LINE
  8
_0-0_LAYER001
  6
CONTINUOUS
 62
    4
 10
1097.5228
 20
1119.4190000000001
 11
1100.7158999999999
 21
1118.7945999999999
  0
LINE
  8
_0-0_LAYER001
  6
CONTINUOUS
 62
    4
 10
1100.7158999999999
 20
1118.7945999999999
 11
1103.1785
 21
1118.3259
  0
LINE
  8
_0-0_LAYER001
  6
CONTINUOUS
 62
    4
 10
1103.1785
 20
1118.3259
 11
1107.4365
 21
1117.5504000000001
  0
LINE
  8
_0-0_LAYER001
  6
CONTINUOUS
 62
    4
 10
1107.4365
 20
1117.5504000000001
 11
1111.6130000000001
 21
1116.8487
  0
LINE
  8
_0-0_LAYER001
  6
CONTINUOUS
 62
    4
 10
1111.6130000000001
 20
1116.8487
 11
1115.721
 21
1116.2338999999999
  0
LINE
  8
_0-0_LAYER001
  6
CONTINUOUS
 62
    4
 10
1115.721
 20
1116.2338999999999
 11
1119.7601
 21
1115.7209
  0
LINE
  8
_0-0_LAYER001
  6
CONTINUOUS
 62
    4
 10
1119.7601
 20
1115.7209
 11
1123.7924
 21
1115.3169
  0
LINE
  8
_0-0_LAYER001
  6
CONTINUOUS
 62
    4
 10
1123.7924
 20
1115.3169
 11
1126.0146
 21
1115.1478
  0
LINE
  8
_0-0_LAYER001
  6
CONTINUOUS
 62
    4
 10
1126.0146
 20
1115.1478
 11
1128.2284
 21
1115.021
  0
LINE
  8
_0-0_LAYER001
  6
CONTINUOUS
 62
    4
 10
1128.2284
 20
1115.021
 11
1132.2609
 21
1114.8858
  0
LINE
  8
_0-0_LAYER001
  6
CONTINUOUS
 62
    4
 10
1132.2609
 20
1114.8858
 11
1136.3159000000001
 21
1114.8563999999999
  0
LINE
  8
_0-0_LAYER001
  6
CONTINUOUS
 62
    4
 10
1136.3159000000001
 20
1114.8563999999999
 11
1140.4532999999999
 21
1114.9170999999999
  0
LINE
  8
_0-0_LAYER001
  6
CONTINUOUS
 62
    4
 10
1140.4532999999999
 20
1114.9170999999999
 11
1144.6704999999999
 21
1115.0533
  0
LINE
  8
_0-0_LAYER001
  6
CONTINUOUS
 62
    4
 10
1144.6704999999999
 20
1115.0533
 11
1148.9776999999999
 21
1115.2497000000001
  0
LINE
  8
_0-0_LAYER001
  6
CONTINUOUS
 62
    4
 10
1148.9776999999999
 20
1115.2497000000001
 11
1151.4761000000001
 21
1115.3827000000001
  0
LINE
  8
_0-0_LAYER001
  6
CONTINUOUS
 62
    4
 10
1151.4761000000001
 20
1115.3827000000001
 11
1154.3364999999999
 21
1115.5476000000001
  0
LINE
  8
_0-0_LAYER001
  6
CONTINUOUS
 62
    4
 10
1154.3364999999999
 20
1115.5476000000001
 11
1159.287
 21
1115.8669
  0
LINE
  8
_0-0_LAYER001
  6
CONTINUOUS
 62
    4
 10
1159.287
 20
1115.8669
 11
1164.1884
 21
1116.232
  0
LINE
  8
_0-0_LAYER001
  6
CONTINUOUS
 62
    4
 10
1164.1884
 20
1116.232
 11
1169.0532000000001
 21
1116.6507999999999
  0
LINE
  8
_0-0_LAYER001
  6
CONTINUOUS
 62
    4
 10
1169.0532000000001
 20
1116.6507999999999
 11
1173.8798999999999
 21
1117.1301000000001
  0
LINE
  8
_0-0_LAYER001
  6
CONTINUOUS
 62
    4
 10
1173.8798999999999
 20
1117.1301000000001
 11
1178.6991
 21
1117.6802
  0
LINE
  8
_0-0_LAYER001
  6
CONTINUOUS
 62
    4
 10
1178.6991
 20
1117.6802
 11
1181.3520000000001
 21
1118.0172
  0
LINE
  8
_0-0_LAYER001
  6
CONTINUOUS
 62
    4
 10
1181.3520000000001
 20
1118.0172
 11
1189.1016
 21
1119.1474000000001
  0
LINE
  8
_0-0_LAYER001
  6
CONTINUOUS
 62
    4
 10
1189.1016
 20
1119.1474000000001
 11
1202.5699999999999
 21
1121.5784000000001
  0
LINE
  8
_0-0_LAYER001
  6
CONTINUOUS
 62
    4
 10
1202.5699999999999
 20
1121.5784000000001
 11
1216.0103999999999
 21
1124.5063
  0
LINE
  8
_0-0_LAYER001
  6
CONTINUOUS
 62
    4
 10
1216.0103999999999
 20
1124.5063
 11
1229.528
 21
1127.8498999999999
  0
LINE
  8
_0-0_LAYER001
  6
CONTINUOUS
 62
    4
 10
1229.528
 20
1127.8498999999999
 11
1243.1376
 21
1131.5079000000001
  0
LINE
  8
_0-0_LAYER001
  6
CONTINUOUS
 62
    4
 10
1243.1376
 20
1131.5079000000001
 11
1256.8553999999999
 21
1135.3761
  0
LINE
  8
_0-0_LAYER001
  6
CONTINUOUS
 62
    4
 10
1256.8553999999999
 20
1135.3761
 11
1262.6165000000001
 21
1137.0281
  0
LINE
  8
_0-0_LAYER001
  6
CONTINUOUS
 62
    4
 10
1262.6380999999999
 20
1139.5377000000001
 11
1262.5563
 21
1137.1938
  0
ARC
  8
_0-0_LAYER001
  6
CONTINUOUS
 62
    4
 10
1263.6375
 20
1139.5028
 40
1
 50
106.29949000000002
 51
178.00000000000003
  0
LINE
  8
_0-0_LAYER001
  6
CONTINUOUS
 62
    4
 10
1269.3116
 20
1142.2038
 11
1263.3569
 21
1140.4626000000001
  0
ARC
  8
_0-0_LAYER001
  6
CONTINUOUS
 62
    4
 10
1269.5923
 20
1141.2439999999999
 40
1
 50
358
 51
106.29949000000001
  0
LINE
  8
_0-0_LAYER001
  6
CONTINUOUS
 62
    4
 10
1023.0391
 20
1144.2834
 11
1015.6911
 21
1147.7080000000001
  0
LINE
  8
_0-0_LAYER001
  6
CONTINUOUS
 62
    4
 10
1261.8983000000001
 20
1117.2416000000001
 11
1261.8588
 21
1116.1103000000001
  0
ARC
  8
_0-0_LAYER001
  6
CONTINUOUS
 62
    4
 10
1262.8977
 20
1117.2067
 40
1
 50
106.35783000000001
 51
178.00000000000003
  0
LINE
  8
_0-0_LAYER001
  6
CONTINUOUS
 62
    4
 10
1261.8735999999999
 20
1116.0112999999999
 11
1248.4475
 21
1112.2253000000001
  0
LINE
  8
_0-0_LAYER001
  6
CONTINUOUS
 62
    4
 10
1248.4475
 20
1112.2253000000001
 11
1234.5253
 21
1108.4831999999999
  0
LINE
  8
_0-0_LAYER001
  6
CONTINUOUS
 62
    4
 10
1234.5253
 20
1108.4831999999999
 11
1220.5409999999999
 21
1105.0242000000001
  0
LINE
  8
_0-0_LAYER001
  6
CONTINUOUS
 62
    4
 10
1220.5409999999999
 20
1105.0242000000001
 11
1206.4760000000001
 21
1101.9602
  0
LINE
  8
_0-0_LAYER001
  6
CONTINUOUS
 62
    4
 10
1206.4760000000001
 20
1101.9602
 11
1192.3218999999999
 21
1099.4055000000001
  0
LINE
  8
_0-0_LAYER001
  6
CONTINUOUS
 62
    4
 10
1192.3218999999999
 20
1099.4055000000001
 11
1184.0554999999999
 21
1098.1999000000001
  0
LINE
  8
_0-0_LAYER001
  6
CONTINUOUS
 62
    4
 10
1184.0554999999999
 20
1098.1999000000001
 11
1181.0934999999999
 21
1097.8236999999999
  0
LINE
  8
_0-0_LAYER001
  6
CONTINUOUS
 62
    4
 10
1181.0934999999999
 20
1097.8236999999999
 11
1176.0023000000001
 21
1097.2425000000001
  0
LINE
  8
_0-0_LAYER001
  6
CONTINUOUS
 62
    4
 10
1176.0023000000001
 20
1097.2425000000001
 11
1170.8991000000001
 21
1096.7357
  0
LINE
  8
_0-0_LAYER001
  6
CONTINUOUS
 62
    4
 10
1170.8991000000001
 20
1096.7357
 11
1165.7889
 21
1096.2958000000001
  0
LINE
  8
_0-0_LAYER001
  6
CONTINUOUS
 62
    4
 10
1165.7889
 20
1096.2958000000001
 11
1160.6733999999999
 21
1095.9148
  0
LINE
  8
_0-0_LAYER001
  6
CONTINUOUS
 62
    4
 10
1160.6733999999999
 20
1095.9148
 11
1155.5556999999999
 21
1095.5847000000001
  0
LINE
  8
_0-0_LAYER001
  6
CONTINUOUS
 62
    4
 10
1155.5556999999999
 20
1095.5847000000001
 11
1152.5834
 21
1095.4132999999999
  0
LINE
  8
_0-0_LAYER001
  6
CONTINUOUS
 62
    4
 10
1152.5834
 20
1095.4132999999999
 11
1149.9649999999999
 21
1095.2738999999999
  0
LINE
  8
_0-0_LAYER001
  6
CONTINUOUS
 62
    4
 10
1149.9649999999999
 20
1095.2738999999999
 11
1145.4486999999999
 21
1095.068
  0
LINE
  8
_0-0_LAYER001
  6
CONTINUOUS
 62
    4
 10
1145.4486999999999
 20
1095.068
 11
1140.9226000000001
 21
1094.9219000000001
  0
LINE
  8
_0-0_LAYER001
  6
CONTINUOUS
 62
    4
 10
1140.9226000000001
 20
1094.9219000000001
 11
1136.3901000000001
 21
1094.8553999999999
  0
LINE
  8
_0-0_LAYER001
  6
CONTINUOUS
 62
    4
 10
1136.3901000000001
 20
1094.8553999999999
 11
1131.8534
 21
1094.8882000000001
  0
LINE
  8
_0-0_LAYER001
  6
CONTINUOUS
 62
    4
 10
1131.8534
 20
1094.8882000000001
 11
1127.3216
 21
1095.0400999999999
  0
LINE
  8
_0-0_LAYER001
  6
CONTINUOUS
 62
    4
 10
1127.3216
 20
1095.0400999999999
 11
1124.6836000000001
 21
1095.1912
  0
LINE
  8
_0-0_LAYER001
  6
CONTINUOUS
 62
    4
 10
1124.6836000000001
 20
1095.1912
 11
1122.0363
 21
1095.3928000000001
  0
LINE
  8
_0-0_LAYER001
  6
CONTINUOUS
 62
    4
 10
1122.0363
 20
1095.3928000000001
 11
1117.5029
 21
1095.8469
  0
LINE
  8
_0-0_LAYER001
  6
CONTINUOUS
 62
    4
 10
1117.5029
 20
1095.8469
 11
1112.9806000000001
 21
1096.4213
  0
LINE
  8
_0-0_LAYER001
  6
CONTINUOUS
 62
    4
 10
1112.9806000000001
 20
1096.4213
 11
1108.4757999999999
 21
1097.0954999999999
  0
LINE
  8
_0-0_LAYER001
  6
CONTINUOUS
 62
    4
 10
1108.4757999999999
 20
1097.0954999999999
 11
1103.9875999999999
 21
1097.8496
  0
LINE
  8
_0-0_LAYER001
  6
CONTINUOUS
 62
    4
 10
1103.9875999999999
 20
1097.8496
 11
1099.5170000000001
 21
1098.6637000000001
  0
LINE
  8
_0-0_LAYER001
  6
CONTINUOUS
 62
    4
 10
1099.5170000000001
 20
1098.6637000000001
 11
1096.9268999999999
 21
1099.1567
  0
LINE
  8
_0-0_LAYER001
  6
CONTINUOUS
 62
    4
 10
1096.9268999999999
 20
1099.1567
 11
1093.5989999999999
 21
1099.8074999999999
  0
LINE
  8
_0-0_LAYER001
  6
CONTINUOUS
 62
    4
 10
1093.5989999999999
 20
1099.8074999999999
 11
1087.8749
 21
1100.9786999999999
  0
LINE
  8
_0-0_LAYER001
  6
CONTINUOUS
 62
    4
 10
1087.8749
 20
1100.9786999999999
 11
1082.1638
 21
1102.2268999999999
  0
LINE
  8
_0-0_LAYER001
  6
CONTINUOUS
 62
    4
 10
1082.1638
 20
1102.2268999999999
 11
1076.4733000000001
 21
1103.5672999999999
  0
LINE
  8
_0-0_LAYER001
  6
CONTINUOUS
 62
    4
 10
1076.4733000000001
 20
1103.5672999999999
 11
1070.8091999999999
 21
1105.0150000000001
  0
LINE
  8
_0-0_LAYER001
  6
CONTINUOUS
 62
    4
 10
1070.8091999999999
 20
1105.0150000000001
 11
1065.1826000000001
 21
1106.5841
  0
LINE
  8
_0-0_LAYER001
  6
CONTINUOUS
 62
    4
 10
1065.1826000000001
 20
1106.5841
 11
1061.9260999999999
 21
1107.5596
  0
LINE
  8
_0-0_LAYER001
  6
CONTINUOUS
 62
    4
 10
1061.9260999999999
 20
1107.5596
 11
1057.4007999999999
 21
1109.0028
  0
LINE
  8
_0-0_LAYER001
  6
CONTINUOUS
 62
    4
 10
1057.4007999999999
 20
1109.0028
 11
1049.6831999999999
 21
1111.6831999999999
  0
LINE
  8
_0-0_LAYER001
  6
CONTINUOUS
 62
    4
 10
1049.6831999999999
 20
1111.6831999999999
 11
1042.0379
 21
1114.5735999999999
  0
LINE
  8
_0-0_LAYER001
  6
CONTINUOUS
 62
    4
 10
1042.0379
 20
1114.5735999999999
 11
1034.4567999999999
 21
1117.6249
  0
LINE
  8
_0-0_LAYER001
  6
CONTINUOUS
 62
    4
 10
1034.4567999999999
 20
1117.6249
 11
1034.0780999999999
 21
1117.7841000000001
  0
LINE
  8
_0-0_LAYER001
  6
CONTINUOUS
 62
    4
 10
1267.8608999999999
 20
1099.0005000000001
 11
1267.2492
 21
1098.8251
  0
LINE
  8
_0-0_LAYER001
  6
CONTINUOUS
 62
    4
 10
1267.2492
 20
1098.8251
 11
1253.2264
 21
1094.8708999999999
  0
LINE
  8
_0-0_LAYER001
  6
CONTINUOUS
 62
    4
 10
1253.2264
 20
1094.8708999999999
 11
1239.0228999999999
 21
1091.0533
  0
LINE
  8
_0-0_LAYER001
  6
CONTINUOUS
 62
    4
 10
1239.0228999999999
 20
1091.0533
 11
1224.6185
 21
1087.4902999999999
  0
LINE
  8
_0-0_LAYER001
  6
CONTINUOUS
 62
    4
 10
1224.6185
 20
1087.4902999999999
 11
1209.9914000000001
 21
1084.3039000000001
  0
LINE
  8
_0-0_LAYER001
  6
CONTINUOUS
 62
    4
 10
1209.9914000000001
 20
1084.3039000000001
 11
1195.2202
 21
1081.6378
  0
LINE
  8
_0-0_LAYER001
  6
CONTINUOUS
 62
    4
 10
1195.2202
 20
1081.6378
 11
1186.4885999999999
 21
1080.3643
  0
LINE
  8
_0-0_LAYER001
  6
CONTINUOUS
 62
    4
 10
1186.4885999999999
 20
1080.3643
 11
1183.2483999999999
 21
1079.9527
  0
LINE
  8
_0-0_LAYER001
  6
CONTINUOUS
 62
    4
 10
1183.2483999999999
 20
1079.9527
 11
1177.9124999999999
 21
1079.3435999999999
  0
LINE
  8
_0-0_LAYER001
  6
CONTINUOUS
 62
    4
 10
1177.9124999999999
 20
1079.3435999999999
 11
1172.5604000000001
 21
1078.8122000000001
  0
LINE
  8
_0-0_LAYER001
  6
CONTINUOUS
 62
    4
 10
1172.5604000000001
 20
1078.8122000000001
 11
1167.2294999999999
 21
1078.3532
  0
LINE
  8
_0-0_LAYER001
  6
CONTINUOUS
 62
    4
 10
1167.2294999999999
 20
1078.3532
 11
1161.9212
 21
1077.9577999999999
  0
LINE
  8
_0-0_LAYER001
  6
CONTINUOUS
 62
    4
 10
1161.9212
 20
1077.9577999999999
 11
1156.653
 21
1077.6180999999999
  0
LINE
  8
_0-0_LAYER001
  6
CONTINUOUS
 62
    4
 10
1156.653
 20
1077.6180999999999
 11
1153.5799999999999
 21
1077.4409000000001
  0
LINE
  8
_0-0_LAYER001
  6
CONTINUOUS
 62
    4
 10
1153.5799999999999
 20
1077.4409000000001
 11
1150.8534999999999
 21
1077.2956999999999
  0
LINE
  8
_0-0_LAYER001
  6
CONTINUOUS
 62
    4
 10
1150.8534999999999
 20
1077.2956999999999
 11
1146.1491000000001
 21
1077.0812000000001
  0
LINE
  8
_0-0_LAYER001
  6
CONTINUOUS
 62
    4
 10
1146.1491000000001
 20
1077.0812000000001
 11
1141.345
 21
1076.9260999999999
  0
LINE
  8
_0-0_LAYER001
  6
CONTINUOUS
 62
    4
 10
1141.345
 20
1076.9260999999999
 11
1136.4568999999999
 21
1076.8543999999999
  0
LINE
  8
_0-0_LAYER001
  6
CONTINUOUS
 62
    4
 10
1136.4568999999999
 20
1076.8543999999999
 11
1131.4866
 21
1076.8904
  0
LINE
  8
_0-0_LAYER001
  6
CONTINUOUS
 62
    4
 10
1131.4866
 20
1076.8904
 11
1126.5054
 21
1077.0573999999999
  0
LINE
  8
_0-0_LAYER001
  6
CONTINUOUS
 62
    4
 10
1126.5054
 20
1077.0573999999999
 11
1123.4857
 21
1077.2302999999999
  0
LINE
  8
_0-0_LAYER001
  6
CONTINUOUS
 62
    4
 10
1123.4857
 20
1077.2302999999999
 11
1120.4557
 21
1077.461
  0
LINE
  8
_0-0_LAYER001
  6
CONTINUOUS
 62
    4
 10
1120.4557
 20
1077.461
 11
1115.4712999999999
 21
1077.9603
  0
LINE
  8
_0-0_LAYER001
  6
CONTINUOUS
 62
    4
 10
1115.4712999999999
 20
1077.9603
 11
1110.5143
 21
1078.5899999999999
  0
LINE
  8
_0-0_LAYER001
  6
CONTINUOUS
 62
    4
 10
1110.5143
 20
1078.5899999999999
 11
1105.6522
 21
1079.3176000000001
  0
LINE
  8
_0-0_LAYER001
  6
CONTINUOUS
 62
    4
 10
1105.6522
 20
1079.3176000000001
 11
1100.8835999999999
 21
1080.1188
  0
LINE
  8
_0-0_LAYER001
  6
CONTINUOUS
 62
    4
 10
1100.8835999999999
 20
1080.1188
 11
1096.2217000000001
 21
1080.9677999999999
  0
LINE
  8
_0-0_LAYER001
  6
CONTINUOUS
 62
    4
 10
1096.2217000000001
 20
1080.9677999999999
 11
1093.5169000000001
 21
1081.4826
  0
LINE
  8
_0-0_LAYER001
  6
CONTINUOUS
 62
    4
 10
1093.5169000000001
 20
1081.4826
 11
1090.0676000000001
 21
1082.1570999999999
  0
LINE
  8
_0-0_LAYER001
  6
CONTINUOUS
 62
    4
 10
1090.0676000000001
 20
1082.1570999999999
 11
1084.1489999999999
 21
1083.3680999999999
  0
LINE
  8
_0-0_LAYER001
  6
CONTINUOUS
 62
    4
 10
1084.1489999999999
 20
1083.3680999999999
 11
1078.1784
 21
1084.6731
  0
LINE
  8
_0-0_LAYER001
  6
CONTINUOUS
 62
    4
 10
1078.1784
 20
1084.6731
 11
1072.1808000000001
 21
1086.0857000000001
  0
LINE
  8
_0-0_LAYER001
  6
CONTINUOUS
 62
    4
 10
1072.1808000000001
 20
1086.0857000000001
 11
1066.1623
 21
1087.6241
  0
LINE
  8
_0-0_LAYER001
  6
CONTINUOUS
 62
    4
 10
1066.1623
 20
1087.6241
 11
1060.1821
 21
1089.2918
  0
LINE
  8
_0-0_LAYER001
  6
CONTINUOUS
 62
    4
 10
1060.1821
 20
1089.2918
 11
1056.6085
 21
1090.3622
  0
LINE
  8
_0-0_LAYER001
  6
CONTINUOUS
 62
    4
 10
1056.6085
 20
1090.3622
 11
1051.7123999999999
 21
1091.9237000000001
  0
LINE
  8
_0-0_LAYER001
  6
CONTINUOUS
 62
    4
 10
1051.7123999999999
 20
1091.9237000000001
 11
1043.5467000000001
 21
1094.7598
  0
LINE
  8
_0-0_LAYER001
  6
CONTINUOUS
 62
    4
 10
1043.5467000000001
 20
1094.7598
 11
1035.4939999999999
 21
1097.8042
  0
LINE
  8
_0-0_LAYER001
  6
CONTINUOUS
 62
    4
 10
1035.4939999999999
 20
1097.8042
 11
1034.0734
 21
1098.3759
  0
LINE
  8
_0-0_LAYER001
  6
CONTINUOUS
 62
    4
 10
1012.1114
 20
1127.2514000000001
 11
1015.7475999999999
 21
1066.7587000000001
  0
LINE
  8
_0-0_LAYER001
  6
CONTINUOUS
 62
    4
 10
1015.8632
 20
1125.9748999999999
 11
1011.8862999999999
 21
1127.1959999999999
  0
LINE
  8
_0-0_LAYER001
  6
CONTINUOUS
 62
    4
 10
1015.8632
 20
1147.8616
 11
1015.8632
 21
1065.8711000000001
  0
LINE
  8
_0-0_LAYER001
  6
CONTINUOUS
 62
    4
 10
1015.8632
 20
1065.8711000000001
 11
1033.8632
 21
1065.8711000000001
  0
LINE
  8
_0-0_LAYER001
  6
CONTINUOUS
 62
    4
 10
1033.8632
 20
1119.9916000000001
 11
1033.8632
 21
1065.8711000000001
  0
ARC
  8
_0-0_LAYER001
  6
CONTINUOUS
 62
    4
 10
1017.9209000000001
 20
1086.6587999999999
 40
36.94905
 50
64.439241999999993
 51
92.897946000000005
  0
LINE
  8
_0-0_LAYER001
  6
CONTINUOUS
 62
    4
 10
1261.7788
 20
1118.0625
 11
1268.5350000000001
 21
1119.9998000000001
  0
LINE
  8
_0-0_LAYER001
  6
CONTINUOUS
 62
    4
 10
1247.9165
 20
1114.1536000000001
 11
1261.7788
 21
1118.0625
  0
LINE
  8
_0-0_LAYER001
  6
CONTINUOUS
 62
    4
 10
1234.0255999999999
 20
1110.4199000000001
 11
1247.9165
 21
1114.1536000000001
  0
LINE
  8
_0-0_LAYER001
  6
CONTINUOUS
 62
    4
 10
1220.0879
 20
1106.9724000000001
 11
1234.0255999999999
 21
1110.4199000000001
  0
LINE
  8
_0-0_LAYER001
  6
CONTINUOUS
 62
    4
 10
1206.0853999999999
 20
1103.922
 11
1220.0879
 21
1106.9724000000001
  0
LINE
  8
_0-0_LAYER001
  6
CONTINUOUS
 62
    4
 10
1191.9999
 20
1101.3797
 11
1206.0853999999999
 21
1103.922
  0
LINE
  8
_0-0_LAYER001
  6
CONTINUOUS
 62
    4
 10
1183.7851000000001
 20
1100.1815999999999
 11
1191.9999
 21
1101.3797
  0
LINE
  8
_0-0_LAYER001
  6
CONTINUOUS
 62
    4
 10
1180.854
 20
1099.8092999999999
 11
1183.7851000000001
 21
1100.1815999999999
  0
LINE
  8
_0-0_LAYER001
  6
CONTINUOUS
 62
    4
 10
1175.7900999999999
 20
1099.2311999999999
 11
1180.854
 21
1099.8092999999999
  0
LINE
  8
_0-0_LAYER001
  6
CONTINUOUS
 62
    4
 10
1170.7145
 20
1098.7272
 11
1175.7900999999999
 21
1099.2311999999999
  0
LINE
  8
_0-0_LAYER001
  6
CONTINUOUS
 62
    4
 10
1165.6288999999999
 20
1098.2893999999999
 11
1170.7145
 21
1098.7272
  0
LINE
  8
_0-0_LAYER001
  6
CONTINUOUS
 62
    4
 10
1160.5347999999999
 20
1097.9100000000001
 11
1165.6288999999999
 21
1098.2893999999999
  0
LINE
  8
_0-0_LAYER001
  6
CONTINUOUS
 62
    4
 10
1155.4338
 20
1097.5809999999999
 11
1160.5347999999999
 21
1097.9100000000001
  0
LINE
  8
_0-0_LAYER001
  6
CONTINUOUS
 62
    4
 10
1152.4727
 20
1097.4103
 11
1155.4338
 21
1097.5809999999999
  0
LINE
  8
_0-0_LAYER001
  6
CONTINUOUS
 62
    4
 10
1149.8661999999999
 20
1097.2715000000001
 11
1152.4727
 21
1097.4103
  0
LINE
  8
_0-0_LAYER001
  6
CONTINUOUS
 62
    4
 10
1145.3708999999999
 20
1097.0664999999999
 11
1149.8661999999999
 21
1097.2715000000001
  0
LINE
  8
_0-0_LAYER001
  6
CONTINUOUS
 62
    4
 10
1140.8757000000001
 20
1096.9213999999999
 11
1145.3708999999999
 21
1097.0664999999999
  0
LINE
  8
_0-0_LAYER001
  6
CONTINUOUS
 62
    4
 10
1136.3827000000001
 20
1096.8554999999999
 11
1140.8757000000001
 21
1096.9213999999999
  0
LINE
  8
_0-0_LAYER001
  6
CONTINUOUS
 62
    4
 10
1131.8941
 20
1096.8879999999999
 11
1136.3827000000001
 21
1096.8554999999999
  0
LINE
  8
_0-0_LAYER001
  6
CONTINUOUS
 62
    4
 10
1127.4122
 20
1097.0382
 11
1131.8941
 21
1096.8879999999999
  0
LINE
  8
_0-0_LAYER001
  6
CONTINUOUS
 62
    4
 10
1124.8167000000001
 20
1097.1868999999999
 11
1127.4122
 21
1097.0382
  0
LINE
  8
_0-0_LAYER001
  6
CONTINUOUS
 62
    4
 10
1122.2119
 20
1097.3851999999999
 11
1124.8167000000001
 21
1097.1868999999999
  0
LINE
  8
_0-0_LAYER001
  6
CONTINUOUS
 62
    4
 10
1117.7285999999999
 20
1097.8343
 11
1122.2119
 21
1097.3851999999999
  0
LINE
  8
_0-0_LAYER001
  6
CONTINUOUS
 62
    4
 10
1113.2547
 20
1098.4025999999999
 11
1117.7285999999999
 21
1097.8343
  0
LINE
  8
_0-0_LAYER001
  6
CONTINUOUS
 62
    4
 10
1108.7895000000001
 20
1099.0708
 11
1113.2547
 21
1098.4025999999999
  0
LINE
  8
_0-0_LAYER001
  6
CONTINUOUS
 62
    4
 10
1104.3325
 20
1099.8197
 11
1108.7895000000001
 21
1099.0708
  0
LINE
  8
_0-0_LAYER001
  6
CONTINUOUS
 62
    4
 10
1099.8832
 20
1100.6300000000001
 11
1104.3325
 21
1099.8197
  0
LINE
  8
_0-0_LAYER001
  6
CONTINUOUS
 62
    4
 10
1097.3058000000001
 20
1101.1205
 11
1099.8832
 21
1100.6300000000001
  0
LINE
  8
_0-0_LAYER001
  6
CONTINUOUS
 62
    4
 10
1093.9914000000001
 20
1101.7687000000001
 11
1097.3058000000001
 21
1101.1205
  0
LINE
  8
_0-0_LAYER001
  6
CONTINUOUS
 62
    4
 10
1088.2889
 20
1102.9354000000001
 11
1093.9914000000001
 21
1101.7687000000001
  0
LINE
  8
_0-0_LAYER001
  6
CONTINUOUS
 62
    4
 10
1082.6066000000001
 20
1104.1774
 11
1088.2889
 21
1102.9354000000001
  0
LINE
  8
_0-0_LAYER001
  6
CONTINUOUS
 62
    4
 10
1076.9502
 20
1105.5096000000001
 11
1082.6066000000001
 21
1104.1774
  0
LINE
  8
_0-0_LAYER001
  6
CONTINUOUS
 62
    4
 10
1071.3254999999999
 20
1106.9473
 11
1076.9502
 21
1105.5096000000001
  0
LINE
  8
_0-0_LAYER001
  6
CONTINUOUS
 62
    4
 10
1065.7382
 20
1108.5055
 11
1071.3254999999999
 21
1106.9473
  0
LINE
  8
_0-0_LAYER001
  6
CONTINUOUS
 62
    4
 10
1062.5169000000001
 20
1109.4703999999999
 11
1065.7382
 21
1108.5055
  0
LINE
  8
_0-0_LAYER001
  6
CONTINUOUS
 62
    4
 10
1058.0328
 20
1110.9005
 11
1062.5169000000001
 21
1109.4703999999999
  0
LINE
  8
_0-0_LAYER001
  6
CONTINUOUS
 62
    4
 10
1050.3651
 20
1113.5636
 11
1058.0328
 21
1110.9005
  0
LINE
  8
_0-0_LAYER001
  6
CONTINUOUS
 62
    4
 10
1042.7648999999999
 20
1116.4368999999999
 11
1050.3651
 21
1113.5636
  0
LINE
  8
_0-0_LAYER001
  6
CONTINUOUS
 62
    4
 10
1035.2176999999999
 20
1119.4746
 11
1042.7648999999999
 21
1116.4368999999999
  0
LINE
  8
_0-0_LAYER001
  6
CONTINUOUS
 62
    4
 10
1033.982
 20
1119.9938999999999
 11
1035.2176999999999
 21
1119.4746
  0
LINE
  8
_0-0_LAYER001
  6
CONTINUOUS
 62
    4
 10
1229.5628999999999
 20
1127.5332000000001
 11
1229.5628999999999
 21
1109.7757999999999
  0
LINE
  8
_0-0_LAYER001
  6
CONTINUOUS
 62
    4
 10
1269.1475
 20
1120.0833
 11
1262.6161
 21
1118.1663000000001
  0
ARC
  8
_0-0_LAYER001
  6
CONTINUOUS
 62
    4
 10
1269.4292
 20
1119.1238000000001
 40
1
 50
0
 51
106.35783000000001
  0
LINE
  8
_0-0_LAYER001
  6
CONTINUOUS
 62
    4
 10
1269.7593999999999
 20
1120.4485
 11
1268.5391
 21
1120.0216
  0
LINE
  8
_0-0_LAYER001
  6
CONTINUOUS
 62
    4
 10
1270.4292
 20
1121.3924
 11
1270.4292
 21
1141.1552999999999
  0
ARC
  8
_0-0_LAYER001
  6
CONTINUOUS
 62
    4
 10
1269.4292
 20
1121.3924
 40
1
 50
289.27960000000002
 51
0.0000000000000127
  0
LINE
  8
_0-0_LAYER001
  6
CONTINUOUS
 62
    4
 10
1269.7324000000001
 20
1099.6103000000001
 11
1267.9183
 21
1099.0328999999999
  0
LINE
  8
_0-0_LAYER001
  6
CONTINUOUS
 62
    4
 10
1270.4292
 20
1100.5632000000001
 11
1270.4292
 21
1119.1238000000001
  0
ARC
  8
_0-0_LAYER001
  6
CONTINUOUS
 62
    4
 10
1269.4292
 20
1100.5632000000001
 40
1
 50
287.65382
 51
0.0000000000000254
  0
LINE
  8
_0-0_LAYER001
  6
DASHED1
 62
    2
 10
1333.3384000000001
 20
1113.5777
 11
1349.3384000000001
 21
1113.5777
  0
LINE
  8
_0-0_LAYER001
  6
DASHED1
 62
    2
 10
1349.3384000000001
 20
1113.5777
 11
1349.3384000000001
 21
1110.5777
  0
LINE
  8
_0-0_LAYER001
  6
DASHED1
 62
    2
 10
1333.3384000000001
 20
1113.5777
 11
1333.3384000000001
 21
1110.5777
  0
LINE
  8
_0-0_LAYER001
  6
DASHED1
 62
    2
 10
1333.3384000000001
 20
1110.5777
 11
1349.3384000000001
 21
1110.5777
  0
LINE
  8
_0-0_LAYER001
  6
DASHED1
 62
    2
 10
1344.3384000000001
 20
1055.6815999999999
 11
1341.2882
 21
1041.1727000000001
  0
LINE
  8
_0-0_LAYER001
  6
DASHED1
 62
    2
 10
1344.3384000000001
 20
1110.5777
 11
1344.3384000000001
 21
1055.6815999999999
  0
LINE
  8
_0-0_LAYER001
  6
DASHED1
 62
    2
 10
1341.2882
 20
1041.1727000000001
 11
1338.3384000000001
 21
1055.4302
  0
LINE
  8
_0-0_LAYER001
  6
DASHED1
 62
    2
 10
1338.3384000000001
 20
1110.5777
 11
1338.3384000000001
 21
1055.4302
  0
LINE
  8
_0-0_LAYER001
  6
DASHED1
 62
    2
 10
1588.1795000000002
 20
1108.8584000000001
 11
1604.1795000000002
 21
1108.8584000000001
  0
LINE
  8
_0-0_LAYER001
  6
DASHED1
 62
    2
 10
1604.1795000000002
 20
1108.8584000000001
 11
1604.1795000000002
 21
1105.8584000000001
  0
LINE
  8
_0-0_LAYER001
  6
DASHED1
 62
    2
 10
1588.1795000000002
 20
1108.8584000000001
 11
1588.1795000000002
 21
1105.8584000000001
  0
LINE
  8
_0-0_LAYER001
  6
DASHED1
 62
    2
 10
1588.1795000000002
 20
1105.8584000000001
 11
1604.1795000000002
 21
1105.8584000000001
  0
LINE
  8
_0-0_LAYER001
  6
DASHED1
 62
    2
 10
1599.1795000000002
 20
1050.9622999999999
 11
1596.1293000000001
 21
1036.4534000000001
  0
LINE
  8
_0-0_LAYER001
  6
DASHED1
 62
    2
 10
1599.1795000000002
 20
1105.8584000000001
 11
1599.1795000000002
 21
1050.9622999999999
  0
LINE
  8
_0-0_LAYER001
  6
DASHED1
 62
    2
 10
1596.1293000000001
 20
1036.4534000000001
 11
1593.1795000000002
 21
1050.7109
  0
LINE
  8
_0-0_LAYER001
  6
DASHED1
 62
    2
 10
1593.1795000000002
 20
1105.8584000000001
 11
1593.1795000000002
 21
1050.7109
  0
LINE
  8
_0-0_LAYER001
  6
DASHED1
 62
    2
 10
1849.3128999999999
 20
1110.4314999999999
 11
1865.3128999999999
 21
1110.4314999999999
  0
LINE
  8
_0-0_LAYER001
  6
DASHED1
 62
    2
 10
1865.3128999999999
 20
1110.4314999999999
 11
1865.3128999999999
 21
1107.4314999999999
  0
LINE
  8
_0-0_LAYER001
  6
DASHED1
 62
    2
 10
1849.3128999999999
 20
1110.4314999999999
 11
1849.3128999999999
 21
1107.4314999999999
  0
LINE
  8
_0-0_LAYER001
  6
DASHED1
 62
    2
 10
1849.3128999999999
 20
1107.4314999999999
 11
1865.3128999999999
 21
1107.4314999999999
  0
LINE
  8
_0-0_LAYER001
  6
DASHED1
 62
    2
 10
1860.3128999999999
 20
1052.5354
 11
1857.2627000000002
 21
1038.0264999999999
  0
LINE
  8
_0-0_LAYER001
  6
DASHED1
 62
    2
 10
1860.3128999999999
 20
1107.4314999999999
 11
1860.3128999999999
 21
1052.5354
  0
LINE
  8
_0-0_LAYER001
  6
DASHED1
 62
    2
 10
1857.2627000000002
 20
1038.0264999999999
 11
1854.3128999999999
 21
1052.2840000000001
  0
LINE
  8
_0-0_LAYER001
  6
DASHED1
 62
    2
 10
1854.3128999999999
 20
1107.4314999999999
 11
1854.3128999999999
 21
1052.2840000000001
  0
LINE
  8
_0-0_LAYER001
  6
CONTINUOUS
 62
    2
 10
948.32410000000004
 20
1041.6781000000001
 11
975.82410000000004
 21
1041.6781000000001
  0
CIRCLE
  8
_0-0_LAYER001
  6
CONTINUOUS
 62
    2
 10
950.82410000000004
 20
1041.6781000000001
 40
1.6999999999999997
  0
LINE
  8
_0-0_LAYER001
  6
CONTINUOUS
 62
    2
 10
950.82410000000004
 20
1041.6781000000001
 11
950.82410000000004
 21
1056.6781000000001
  0
CIRCLE
  8
_0-0_LAYER001
  6
CONTINUOUS
 62
    2
 10
950.82410000000004
 20
1056.6781000000001
 40
1.6999999999999997
  0
LINE
  8
_0-0_LAYER001
  6
CONTINUOUS
 62
    2
 10
948.32410000000004
 20
1056.6781000000001
 11
975.82410000000004
 21
1056.6781000000001
  0
CIRCLE
  8
_0-0_LAYER001
  6
CONTINUOUS
 62
    2
 10
950.82410000000004
 20
1056.6781000000001
 40
1.6999999999999997
  0
LINE
  8
_0-0_LAYER001
  6
CONTINUOUS
 62
    2
 10
950.82410000000004
 20
1056.6781000000001
 11
950.82410000000004
 21
1083.6781000000001
  0
CIRCLE
  8
_0-0_LAYER001
  6
CONTINUOUS
 62
    2
 10
950.82410000000004
 20
1083.6781000000001
 40
1.6999999999999997
  0
LINE
  8
_0-0_LAYER001
  6
CONTINUOUS
 62
    2
 10
948.32410000000004
 20
1083.6781000000001
 11
975.82410000000004
 21
1083.6781000000001
  0
LINE
  8
_0-0_LAYER001
  6
DASHED1
 62
    2
 10
1097.5393999999999
 20
1101.7773999999999
 11
1113.5393999999999
 21
1101.7773999999999
  0
LINE
  8
_0-0_LAYER001
  6
DASHED1
 62
    2
 10
1113.5393999999999
 20
1101.7773999999999
 11
1113.5393999999999
 21
1098.7773999999999
  0
LINE
  8
_0-0_LAYER001
  6
DASHED1
 62
    2
 10
1097.5393999999999
 20
1101.7773999999999
 11
1097.5393999999999
 21
1098.7773999999999
  0
LINE
  8
_0-0_LAYER001
  6
DASHED1
 62
    2
 10
1097.5393999999999
 20
1098.7773999999999
 11
1113.5393999999999
 21
1098.7773999999999
  0
LINE
  8
_0-0_LAYER001
  6
DASHED1
 62
    2
 10
1108.5393999999999
 20
1043.8813
 11
1105.4892
 21
1029.3724
  0
LINE
  8
_0-0_LAYER001
  6
DASHED1
 62
    2
 10
1108.5393999999999
 20
1098.7773999999999
 11
1108.5393999999999
 21
1043.8813
  0
LINE
  8
_0-0_LAYER001
  6
DASHED1
 62
    2
 10
1105.4892
 20
1029.3724
 11
1102.5393999999999
 21
1043.6298999999999
  0
LINE
  8
_0-0_LAYER001
  6
DASHED1
 62
    2
 10
1102.5393999999999
 20
1098.7773999999999
 11
1102.5393999999999
 21
1043.6298999999999
  0
LINE
  8
_0-1_LAYER004
  6
CONTINUOUS
 62
    7
 10
1015.8632
 20
1285.4983999999999
 11
1015.8632
 21
1233.7983999999999
  0
LINE
  8
_0-1_LAYER004
  6
CONTINUOUS
 62
    7
 10
1015.8632
 20
1283.7984000000001
 11
1990.8631999999998
 21
1283.7984000000001
  0
LINE
  8
_0-1_LAYER004
  6
CONTINUOUS
 62
    7
 10
1990.8631999999998
 20
1286.2984000000001
 11
1990.8631999999998
 21
1233.7983999999999
  0
LINE
  8
_0-1_LAYER004
  6
CONTINUOUS
 62
    7
 10
1735.8631999999998
 20
1286.2984000000001
 11
1735.8631999999998
 21
1233.7983999999999
  0
LINE
  8
_0-1_LAYER004
  6
CONTINUOUS
 62
    7
 10
1480.8631999999998
 20
1286.2984000000001
 11
1480.8631999999998
 21
1233.7983999999999
  0
LINE
  8
_0-1_LAYER004
  6
CONTINUOUS
 62
    7
 10
1225.8632
 20
1286.2984000000001
 11
1225.8632
 21
1180.0379
  0
LINE
  8
_0-1_LAYER004
  6
CONTINUOUS
 62
    7
 10
1225.8632
 20
1230.0379
 11
1265.8632
 21
1230.0379
  0
LINE
  8
_0-1_LAYER004
  6
CONTINUOUS
 62
    7
 10
1265.8632
 20
1232.5379
 11
1265.8632
 21
1180.0379
  0
LINE
  8
_0-1_LAYER004
  6
CONTINUOUS
 62
    7
 10
1109.3547000000001
 20
1206.5517
 11
1157.3547000000001
 21
1206.5517
  0
LINE
  8
_0-1_LAYER004
  6
CONTINUOUS
 62
    7
 10
1011.3394000000001
 20
1167.5021999999999
 11
1070.5433
 21
1167.5021999999999
  0
LINE
  8
_0-1_LAYER004
  6
CONTINUOUS
 62
    7
 10
1613.1543999999999
 20
1203.5146
 11
1653.6543999999999
 21
1203.5146
  0
LINE
  8
_0-1_LAYER004
  6
CONTINUOUS
 62
    7
 10
1511.0206488052113
 20
890.75870000000009
 11
1698.3063999999999
 21
890.75870000000009
  0
LINE
  8
_0-1_LAYER004
  6
CONTINUOUS
 62
    7
 10
1519.2647000000002
 20
860.66339999999991
 11
1762.1039000000001
 21
860.66339999999991
  0
LINE
  8
_0-1_LAYER004
  6
CONTINUOUS
 62
    7
 10
1528.8078
 20
830.56799999999998
 11
1700.4791
 21
830.56799999999998
  0
LINE
  8
_0-1_LAYER004
  6
CONTINUOUS
 62
    7
 10
1535.1514000000002
 20
800.7014999999999
 11
1600.3649999999998
 21
800.7014999999999
  0
LINE
  8
_0-1_LAYER004
  6
CONTINUOUS
 62
    7
 10
1143.5742
 20
826.71730000000002
 11
1224.28
 21
826.71730000000002
  0
LINE
  8
_0-1_LAYER004
  6
CONTINUOUS
 62
    7
 10
1015.8632
 20
997.07269999999994
 11
1015.8632
 21
972.07269999999994
  0
LINE
  8
_0-1_LAYER004
  6
CONTINUOUS
 62
    7
 10
1015.8632
 20
972.07269999999994
 11
1075.8632
 21
972.07269999999994
  0
LINE
  8
_0-1_LAYER004
  6
CONTINUOUS
 62
    7
 10
1075.8632
 20
969.57269999999994
 11
1075.8632
 21
997.07269999999994
  0
LINE
  8
_0-1_LAYER004
  6
CONTINUOUS
 62
    7
 10
1015.8632
 20
997.07269999999994
 11
1015.8632
 21
969.57269999999994
  0
LINE
  8
_0-1_LAYER004
  6
CONTINUOUS
 62
    7
 10
1178.8632
 20
1041.6781000000001
 11
1178.8632
 21
981.67810000000009
  0
LINE
  8
_0-1_LAYER004
  6
CONTINUOUS
 62
    7
 10
1178.8632
 20
981.67810000000009
 11
1118.8632
 21
981.67810000000009
  0
LINE
  8
_0-1_LAYER004
  6
CONTINUOUS
 62
    7
 10
1165.8632
 20
1041.6781000000001
 11
2011.761
 21
1041.6781000000001
  0
LINE
  8
_0-1_LAYER004
  6
CONTINUOUS
 62
    7
 10
2011.761
 20
1056.6781000000001
 11
1165.8632
 21
1056.6781000000001
  0
LINE
  8
_0-1_LAYER004
  6
CONTINUOUS
 62
    7
 10
1165.8632
 20
1058.1781000000001
 11
1165.8632
 21
1056.385
  0
LINE
  8
_0-1_LAYER004
  6
CONTINUOUS
 62
    7
 10
1165.8632
 20
1058.1781000000001
 11
2011.761
 21
1058.1781000000001
  0
LINE
  8
_0-1_LAYER004
  6
CONTINUOUS
 62
    7
 10
2011.761
 20
1059.6781000000001
 11
1159.614
 21
1059.6781000000001
  0
LINE
  8
_0-1_LAYER004
  6
CONTINUOUS
 62
    7
 10
2011.761
 20
1074.6781000000001
 11
1105.8632
 21
1074.6781000000001
  0
LINE
  8
_0-1_LAYER004
  6
CONTINUOUS
 62
    7
 10
1099.9582
 20
1057.7240999999999
 11
1099.9582
 21
1065.2240999999999
  0
LINE
  8
_0-1_LAYER004
  6
CONTINUOUS
 62
    7
 10
1096.2082
 20
1064.2193
 11
1099.9582
 21
1057.7240999999999
  0
LINE
  8
_0-1_LAYER004
  6
CONTINUOUS
 62
    7
 10
1099.9582
 20
1057.7240999999999
 11
1070.5433
 21
1167.5021999999999
  0
LINE
  8
_0-1_LAYER004
  6
CONTINUOUS
 62
    7
 10
1157.3547000000001
 20
1206.5517
 11
1187.8764000000001
 21
1092.643
  0
LINE
  8
_0-1_LAYER004
  6
CONTINUOUS
 62
    7
 10
1187.8764000000001
 20
1092.643
 11
1187.8764000000001
 21
1100.143
  0
LINE
  8
_0-1_LAYER004
  6
CONTINUOUS
 62
    7
 10
1187.8764000000001
 20
1092.643
 11
1184.1264000000001
 21
1099.1382000000001
  0
LINE
  8
_0-1_LAYER004
  6
CONTINUOUS
 62
    7
 10
949.1241
 20
1083.6781000000001
 11
975.82410000000004
 21
1083.6781000000001
  0
LINE
  8
_0-1_LAYER004
  6
CONTINUOUS
 62
    7
 10
950.82410000000004
 20
1083.6781000000001
 11
950.82410000000004
 21
1041.6781000000001
  0
LINE
  8
_0-1_LAYER004
  6
CONTINUOUS
 62
    7
 10
949.1241
 20
1041.6781000000001
 11
975.82410000000004
 21
1041.6781000000001
  0
LINE
  8
_0-1_LAYER004
  6
CONTINUOUS
 62
    7
 10
975.82410000000004
 20
1056.6781000000001
 11
950.82410000000004
 21
1056.6781000000001
  0
LINE
  8
_0-1_LAYER004
  6
CONTINUOUS
 62
    7
 10
949.1241
 20
1056.6781000000001
 11
950.82410000000004
 21
1056.6781000000001
  0
LINE
  8
_0-1_LAYER004
  6
CONTINUOUS
 62
    7
 10
1178.8632
 20
981.67810000000009
 11
1118.8632
 21
1041.6781000000001
  0
LINE
  8
_0-1_LAYER004
  6
CONTINUOUS
 62
    7
 10
1111.5878
 20
946.0924
 11
1111.5878
 21
938.5924
  0
LINE
  8
_0-1_LAYER004
  6
CONTINUOUS
 62
    7
 10
1111.5878
 20
946.0924
 11
1115.3378
 21
939.5972999999999
  0
LINE
  8
_0-1_LAYER004
  6
CONTINUOUS
 62
    7
 10
1111.5878
 20
946.0924
 11
1143.5742
 21
826.71730000000002
  0
LINE
  8
_0-1_LAYER004
  6
CONTINUOUS
 62
    7
 10
1465.5463
 20
1060.4712999999999
 11
1465.5463
 21
1052.9712999999999
  0
LINE
  8
_0-1_LAYER004
  6
CONTINUOUS
 62
    7
 10
1469.2963
 20
1053.9761000000001
 11
1465.5463
 21
1060.4712999999999
  0
LINE
  8
_0-1_LAYER004
  6
CONTINUOUS
 62
    7
 10
1465.5463
 20
1060.4712999999999
 11
1535.1514000000002
 21
800.7014999999999
  0
LINE
  8
_0-1_LAYER004
  6
CONTINUOUS
 62
    7
 10
1481.8631999999998
 20
1041.6781000000001
 11
1481.8631999999998
 21
981.67810000000009
  0
LINE
  8
_0-1_LAYER004
  6
CONTINUOUS
 62
    7
 10
1481.8631999999998
 20
981.67810000000009
 11
1421.8632
 21
1041.6781000000001
  0
LINE
  8
_0-1_LAYER004
  6
CONTINUOUS
 62
    7
 10
1421.8632
 20
1041.6781000000001
 11
1421.8632
 21
981.67810000000009
  0
LINE
  8
_0-1_LAYER004
  6
CONTINUOUS
 62
    7
 10
1421.8632
 20
981.67810000000009
 11
1481.8631999999998
 21
981.67810000000009
  0
LINE
  8
_0-1_LAYER004
  6
CONTINUOUS
 62
    7
 10
1724.8631999999998
 20
1041.6781000000001
 11
1724.8631999999998
 21
981.67810000000009
  0
LINE
  8
_0-1_LAYER004
  6
CONTINUOUS
 62
    7
 10
1724.8631999999998
 20
981.67810000000009
 11
1784.8631999999998
 21
981.67810000000009
  0
LINE
  8
_0-1_LAYER004
  6
CONTINUOUS
 62
    7
 10
1784.8631999999998
 20
981.67810000000009
 11
1784.8631999999998
 21
1041.6781000000001
  0
LINE
  8
_0-1_LAYER004
  6
CONTINUOUS
 62
    7
 10
1784.8631999999998
 20
1041.6781000000001
 11
1784.8631999999998
 21
981.67810000000009
  0
LINE
  8
_0-1_LAYER004
  6
CONTINUOUS
 62
    7
 10
1784.8631999999998
 20
981.67810000000009
 11
1724.8631999999998
 21
1041.6781000000001
  0
LINE
  8
_0-1_LAYER004
  6
CONTINUOUS
 62
    7
 10
1683.5938000000001
 20
1099.2791
 11
1683.5938000000001
 21
1091.7791
  0
LINE
  8
_0-1_LAYER004
  6
CONTINUOUS
 62
    7
 10
1683.5938000000001
 20
1091.7791
 11
1679.8438000000001
 21
1098.2743
  0
LINE
  8
_0-1_LAYER004
  6
CONTINUOUS
 62
    7
 10
1683.5938000000001
 20
1091.7791
 11
1653.6543999999999
 21
1203.5146
  0
TEXT
  8
_0-0_LAYER001
 62
    7
 10
1528.8078000000005
 20
833.06799999999953
 40
20
 41
1
 50
0
  1
　野地板：杉ｔ＝１２
  0
TEXT
  8
_0-0_LAYER001
 62
    7
 10
1535.9810000000004
 20
803.20149999999956
 40
20
 41
1
 50
0
  1
　垂木
  0
TEXT
  8
_0-1_LAYER004
 62
    7
 10
1025.6829000000005
 20
1170.0021999999999
 40
20
 41
1
 50
0
  1
品板　
  0
TEXT
  8
_0-0_LAYER001
 62
    7
 10
1510.6352999999995
 20
893.25870000000054
 40
20
 41
1
 50
0
  1
　瓦桟：１５ｘ３０以上
  0
TEXT
  8
_0-1_LAYER004
 62
    7
 10
1612.4346310771994
 20
1211.4933577235681
 40
20
 41
1
 50
0
  1
桟　瓦
  0
TEXT
  8
_0-0_LAYER001
 62
    7
 10
1109.2409489453244
 20
1299.3740604261895
 40
20
 41
1
 50
0
  1
215
  0
TEXT
  8
_0-0_LAYER001
 62
    7
 10
1345.7878023593512
 20
1296.5126065542454
 40
20
 41
1
 50
0
  1
255
  0
TEXT
  8
_0-0_LAYER001
 62
    7
 10
1598.5495610477265
 20
1296.5126065542454
 40
20
 41
1
 50
0
  1
255
  0
TEXT
  8
_0-0_LAYER001
 62
    7
 10
1852.2651376934175
 20
1295.5587885969305
 40
20
 41
1
 50
0
  1
255
  0
TEXT
  8
_0-0_LAYER001
 62
    7
 10
1040.5660560186716
 20
980.79886268310452
 40
20
 41
1
 50
0
  1
60
  0
TEXT
  8
_0-0_LAYER001
 62
    7
 10
943.86835348141187
 20
1034.2098480742943
 40
20
 41
1
 50
90
  1
12
  0
TEXT
  8
_0-0_LAYER001
 62
    7
 10
944.97943912658059
 20
1066.4313317841825
 40
20
 41
1
 50
90
  1
27
  0
TEXT
  8
_0-1_LAYER004
 62
    7
 10
1126.0863992890565
 20
833.103346298784
 40
20
 41
1
 50
0
  1
　破風板
  0
TEXT
  8
_0-0_LAYER001
 62
    7
 10
1519.2647000000006
 20
863.16339999999957
 40
20
 41
1
 50
0
  1
　下葺材：ルーフィング
  0
TEXT
  8
_0-0_LAYER001
 62
    7
 10
1237.1949638059129
 20
1244.2050350111529
 40
20
 41
1
 50
0
  1
40
  0
TEXT
  8
_0-1_LAYER004
 62
    7
 10
1103.8646863856852
 20
1214.2057225916017
 40
20
 41
1
 50
0
  1
左袖瓦
  0
ENDSEC
  0
EOF
