  0
SECTION
  2
HEADER
  9
$ACADVER
  1
AC1009
  9
$INSBASE
 10
0
 20
0
 30
0
  9
$EXTMIN
 10
0
 20
0
  9
$EXTMAX
 10
2970
 20
2100
  9
$LIMMIN
 10
0
 20
0
  9
$LIMMAX
 10
2970
 20
2100
  9
$LTSCALE
 40
10
  0
ENDSEC
  0
SECTION
  2
TABLES
  0
TABLE
  2
LTYPE
 70
     9
  0
LTYPE
  2
CONTINUOUS
 70
    64
  3
実線
 72
    65
 73
     0
 40
0.0
  0
LTYPE
  2
DASHED1
 70
    64
  3
--  --  --  --  --  --  --  --  
 72
    65
 73
     2
 40
2.5
 49
1.25
 49
-1.25
  0
LTYPE
  2
DASHED2
 70
    64
  3
----    ----    ----    ----    
 72
    65
 73
     2
 40
5.0
 49
2.5
 49
-2.5
  0
LTYPE
  2
DASHED3
 70
    64
  3
------  ------  ------  ------  
 72
    65
 73
     2
 40
5.0
 49
3.75
 49
-1.25
  0
LTYPE
  2
CENTER1
 70
    64
  3
----- - ----- - ----- - ----- - 
 72
    65
 73
     4
 40
10.0
 49
6.25
 49
-1.25
 49
1.25
 49
-1.25
  0
LTYPE
  2
CENTER2
 70
    64
  3
----------  --  ----------  --  
 72
    65
 73
     4
 40
20.0
 49
12.5
 49
-2.5
 49
2.5
 49
-2.5
  0
LTYPE
  2
PHANTOM1
 70
    64
  3
--- - - --- - - --- - - --- - - 
 72
    65
 73
     6
 40
10.0
 49
3.25
 49
-1.25
 49
1.25
 49
-1.25
 49
1.25
 49
-1.25
  0
LTYPE
  2
PHANTOM2
 70
    64
  3
--------  -  -  --------  -  -  
 72
    65
 73
     6
 40
20.0
 49
10.0
 49
-2.5
 49
1.25
 49
-2.5
 49
1.25
 49
-2.5
  0
LTYPE
  2
DOT
 70
    64
  3
-   -   -   -   -   -   -   -   
 72
    65
 73
     2
 40
2.5
 49
0.625
 49
-1.875
  0
LTYPE
  2
DUMMY
 70
    64
  3
ダミー
 72
    65
 73
     0
 40
0.0
  0
LTYPE
  2
RAND1
 70
    64
  3
ランダム線1
 72
    65
 73
     4
 40
10.0
 49
1.0
 49
-2.0
 49
3.0
 49
-4.0
  0
LTYPE
  2
RAND2
 70
    64
  3
ランダム線2
 72
    65
 73
     4
 40
14.0
 49
2.0
 49
-3.0
 49
4.0
 49
-5.0
  0
LTYPE
  2
RAND3
 70
    64
  3
ランダム線3
 72
    65
 73
     4
 40
18.0
 49
3.0
 49
-4.0
 49
5.0
 49
-6.0
  0
LTYPE
  2
RAND4
 70
    64
  3
ランダム線4
 72
    65
 73
     4
 40
22.0
 49
4.0
 49
-5.0
 49
6.0
 49
-7.0
  0
LTYPE
  2
RAND5
 70
    64
  3
ランダム線5
 72
    65
 73
     4
 40
26.0
 49
5.0
 49
-6.0
 49
7.0
 49
-8.0
  0
LTYPE
  2
LONG1
 70
    64
  3
----------  --  ----------  --  
 72
    65
 73
     4
 40
40.0
 49
32.5
 49
-2.5
 49
2.5
 49
-2.5
  0
LTYPE
  2
LONG2
 70
    64
  3
--------  -  -  --------  -  -  
 72
    65
 73
     6
 40
40.0
 49
30.0
 49
-2.5
 49
1.25
 49
-2.5
 49
1.25
 49
-2.5
  0
LTYPE
  2
LONG3
 70
    64
  3
+++++++++++++++..+++++++++++++++
 72
    65
 73
     2
 40
40.0
 49
37.5
 49
-2.5
  0
LTYPE
  2
LONG4
 70
    64
  3
+++++++++++++++..+++++++++++++++
 72
    65
 73
     2
 40
80.0
 49
75.0
 49
-5.0
  0
LTYPE
  2
LONG5
 70
    64
  3
----------  --  ----------  --  
 72
    65
 73
     4
 40
60.0
 49
37.5
 49
-7.5
 49
7.5
 49
-7.5
  0
LTYPE
  2
dashed
 70
   64
  3
-------   -------------   ------
 72
   65
 73
    2
 40
7.5
 49
6
 49
-1.5
  0
LTYPE
  2
dashed_spaced
 70
   64
  3
----        --------        ----
 72
   65
 73
    2
 40
12
 49
6
 49
-6
  0
LTYPE
  2
long_dashed_dotted
 70
   64
  3
------------- --- --------------
 72
   65
 73
    4
 40
15.25
 49
12
 49
-1.5
 49
0.25
 49
-1.5
  0
LTYPE
  2
long_dashed_double-dotted
 70
   64
  3
----------- --- --- ------------
 72
   65
 73
    6
 40
17
 49
12
 49
-1.5
 49
0.25
 49
-1.5
 49
0.25
 49
-1.5
  0
LTYPE
  2
long_dashed_triplicate-dotted
 70
   64
  3
--------- --- --- --- ----------
 72
   65
 73
    8
 40
18.75
 49
12
 49
-1.5
 49
0.25
 49
-1.5
 49
0.25
 49
-1.5
 49
0.25
 49
-1.5
  0
LTYPE
  2
dotted
 70
   64
  3
   -       -       -       -    
 72
   65
 73
    2
 40
1.75
 49
0.25
 49
-1.5
  0
LTYPE
  2
chain
 70
   64
  3
-------------- -- --------------
 72
   65
 73
    4
 40
18.5
 49
12
 49
-1.5
 49
3.5
 49
-1.5
  0
LTYPE
  2
chain_double_dash
 70
   64
  3
------------ -- -- -------------
 72
   65
 73
    6
 40
23.5
 49
12
 49
-1.5
 49
3.5
 49
-1.5
 49
3.5
 49
-1.5
  0
LTYPE
  2
dashed_dotted
 70
   64
  3
-----------     -     ----------
 72
   65
 73
    4
 40
9.25
 49
6
 49
-1.5
 49
0.25
 49
-1.5
  0
LTYPE
  2
double-dashed_dotted
 70
   64
  3
------   -----------   -   -----
 72
   65
 73
    6
 40
16.75
 49
6
 49
-1.5
 49
6
 49
-1.5
 49
0.25
 49
-1.5
  0
LTYPE
  2
dashed_double-dotted
 70
   64
  3
---------    -    -    ---------
 72
   65
 73
    6
 40
11
 49
6
 49
-1.5
 49
0.25
 49
-1.5
 49
0.25
 49
-1.5
  0
LTYPE
  2
double-dashed_double-dotted
 70
   64
  3
-----   ---------   -   -   ----
 72
   65
 73
    8
 40
18.5
 49
6
 49
-1.5
 49
6
 49
-1.5
 49
0.25
 49
-1.5
 49
0.25
 49
-1.5
  0
LTYPE
  2
dashed_triplicate-dotted
 70
   64
  3
-------    -    -    -    ------
 72
   65
 73
    8
 40
12.75
 49
6
 49
-1.5
 49
0.25
 49
-1.5
 49
0.25
 49
-1.5
 49
0.25
 49
-1.5
  0
LTYPE
  2
double-dashed_triplicate-dotted
 70
   64
  3
-----  ---------  -  -  -  -----
 72
   65
 73
   10
 40
20.25
 49
6
 49
-1.5
 49
6
 49
-1.5
 49
0.25
 49
-1.5
 49
0.25
 49
-1.5
 49
0.25
 49
-1.5
  0
LTYPE
  2
undefined
 70
   64
  3
--------------------------------
 72
   65
 73
    0
 40
0
  0
ENDTAB
  0
TABLE
  2
STYLE
  5
3
100
AcDbSymbolTable
 70
     1
  0
STYLE
  5
10
100
AcDbSymbolTableRecord
100
AcDbTextStyleTableRecord
  2
STANDARD
 70
     0
 40
0.0
 41
1.0
 50
0.0
 71
     0
 42
0.2
  3
txt
  4
bigfont.shx
  0
STYLE
  5
26
100
AcDbSymbolTableRecord
100
AcDbTextStyleTableRecord
  2
TATEGAKI
 70
    68
 40
0.0
 41
1.0
 50
0.0
 71
     0
 42
1.0
  3
txt
  4
bigfont.shx
  0
ENDTAB
  0
TABLE
  2
LAYER
 70
    3
  0
LAYER
  2
_0-0_LAYER001
 70
   64
 62
    7
  6
CONTINUOUS
  0
LAYER
  2
_0-1_LAYER004
 70
   64
 62
    7
  6
CONTINUOUS
  0
LAYER
  2
ADD_LINE
 70
   64
 62
    7
  6
CONTINUOUS
  0
ENDTAB
  0
ENDSEC
  0
SECTION
  2
BLOCKS
  0
ENDSEC
  0
SECTION
  2
ENTITIES
  0
LINE
  8
_0-0_LAYER001
  6
CONTINUOUS
 62
    2
 10
1097.8885
 20
1041.6781000000001
 11
1157.8885
 21
1041.6781000000001
  0
LINE
  8
_0-0_LAYER001
  6
CONTINUOUS
 62
    2
 10
1157.8885
 20
1041.6781000000001
 11
1157.8885
 21
981.67810000000009
  0
LINE
  8
_0-0_LAYER001
  6
CONTINUOUS
 62
    2
 10
1157.8885
 20
981.67810000000009
 11
1097.8885
 21
981.67810000000009
  0
LINE
  8
_0-0_LAYER001
  6
CONTINUOUS
 62
    2
 10
1097.8885
 20
981.67810000000009
 11
1097.8885
 21
1041.6781000000001
  0
LINE
  8
_0-0_LAYER001
  6
CONTINUOUS
 62
    2
 10
1097.8885
 20
1041.6781000000001
 11
1157.8885
 21
981.67810000000009
  0
LINE
  8
_0-0_LAYER001
  6
CONTINUOUS
 62
    3
 10
1072.8885
 20
1041.6781000000001
 11
1072.8885
 21
893.34909999999991
  0
LINE
  8
_0-0_LAYER001
  6
CONTINUOUS
 62
    3
 10
1097.8885
 20
1041.6781000000001
 11
1097.8885
 21
893.34909999999991
  0
LINE
  8
_0-0_LAYER001
  6
CONTINUOUS
 62
    3
 10
1144.8885
 20
1041.6781000000001
 11
1054.8885
 21
1041.6781000000001
  0
LINE
  8
_0-0_LAYER001
  6
CONTINUOUS
 62
    2
 10
1094.2652
 20
893.34909999999991
 11
1097.8885
 21
896.97240000000011
  0
LINE
  8
_0-0_LAYER001
  6
CONTINUOUS
 62
    2
 10
1080.1231
 20
893.34909999999991
 11
1097.8885
 21
911.11460000000011
  0
LINE
  8
_0-0_LAYER001
  6
CONTINUOUS
 62
    2
 10
1072.8885
 20
900.25669999999991
 11
1097.8885
 21
925.25669999999991
  0
LINE
  8
_0-0_LAYER001
  6
CONTINUOUS
 62
    2
 10
1072.8885
 20
914.39889999999991
 11
1097.8885
 21
939.39889999999991
  0
LINE
  8
_0-0_LAYER001
  6
CONTINUOUS
 62
    2
 10
1072.8885
 20
928.54099999999994
 11
1097.8885
 21
953.54099999999994
  0
LINE
  8
_0-0_LAYER001
  6
CONTINUOUS
 62
    2
 10
1072.8885
 20
942.68309999999997
 11
1097.8885
 21
967.68309999999997
  0
LINE
  8
_0-0_LAYER001
  6
CONTINUOUS
 62
    2
 10
1072.8885
 20
956.82529999999997
 11
1097.8885
 21
981.82529999999997
  0
LINE
  8
_0-0_LAYER001
  6
CONTINUOUS
 62
    2
 10
1072.8885
 20
970.9674
 11
1097.8885
 21
995.9674
  0
LINE
  8
_0-0_LAYER001
  6
CONTINUOUS
 62
    2
 10
1072.8885
 20
985.10950000000003
 11
1097.8885
 21
1010.1095
  0
LINE
  8
_0-0_LAYER001
  6
CONTINUOUS
 62
    2
 10
1072.8885
 20
999.25170000000003
 11
1097.8885
 21
1024.2517
  0
LINE
  8
_0-0_LAYER001
  6
CONTINUOUS
 62
    2
 10
1072.8885
 20
1013.3938000000001
 11
1097.8885
 21
1038.3938000000001
  0
LINE
  8
_0-0_LAYER001
  6
CONTINUOUS
 62
    2
 10
1072.8885
 20
1027.5359000000001
 11
1087.0306
 21
1041.6781000000001
  0
LINE
  8
_0-0_LAYER001
  6
CONTINUOUS
 62
    2
 10
1444.5716000000002
 20
1052.9712999999999
 11
1444.5716000000002
 21
1060.4712999999999
  0
LINE
  8
_0-0_LAYER001
  6
CONTINUOUS
 62
    2
 10
1444.5716000000002
 20
1060.4712999999999
 11
1448.3216000000002
 21
1053.9761000000001
  0
LINE
  8
_0-0_LAYER001
  6
CONTINUOUS
 62
    2
 10
1444.5716000000002
 20
1060.4712999999999
 11
1514.1767
 21
800.7014999999999
  0
LINE
  8
_0-1_LAYER004
  6
CONTINUOUS
 62
    2
 10
1662.6190999999999
 20
1099.2791
 11
1662.6190999999999
 21
1091.7791
  0
LINE
  8
_0-1_LAYER004
  6
CONTINUOUS
 62
    2
 10
1662.6190999999999
 20
1091.7791
 11
1658.8690999999999
 21
1098.2743
  0
LINE
  8
_0-1_LAYER004
  6
CONTINUOUS
 62
    2
 10
1662.6190999999999
 20
1091.7791
 11
1632.6795999999999
 21
1203.5146
  0
LINE
  8
_0-1_LAYER004
  6
CONTINUOUS
 62
    2
 10
1632.6795999999999
 20
1203.5146
 11
1592.1795999999999
 21
1203.5146
  0
LINE
  8
_0-0_LAYER001
  6
CONTINUOUS
 62
    2
 10
1400.8885
 20
1041.6781000000001
 11
1460.8885
 21
1041.6781000000001
  0
LINE
  8
_0-0_LAYER001
  6
CONTINUOUS
 62
    2
 10
1460.8885
 20
1041.6781000000001
 11
1460.8885
 21
981.67810000000009
  0
LINE
  8
_0-0_LAYER001
  6
CONTINUOUS
 62
    2
 10
1460.8885
 20
981.67810000000009
 11
1400.8885
 21
981.67810000000009
  0
LINE
  8
_0-0_LAYER001
  6
CONTINUOUS
 62
    2
 10
1400.8885
 20
981.67810000000009
 11
1400.8885
 21
1041.6781000000001
  0
LINE
  8
_0-0_LAYER001
  6
CONTINUOUS
 62
    2
 10
1400.8885
 20
1041.6781000000001
 11
1460.8885
 21
981.67810000000009
  0
LINE
  8
_0-0_LAYER001
  6
CONTINUOUS
 62
    2
 10
1703.8885
 20
1041.6781000000001
 11
1763.8885
 21
1041.6781000000001
  0
LINE
  8
_0-0_LAYER001
  6
CONTINUOUS
 62
    2
 10
1763.8885
 20
1041.6781000000001
 11
1763.8885
 21
981.67810000000009
  0
LINE
  8
_0-0_LAYER001
  6
CONTINUOUS
 62
    2
 10
1763.8885
 20
981.67810000000009
 11
1703.8885
 21
981.67810000000009
  0
LINE
  8
_0-0_LAYER001
  6
CONTINUOUS
 62
    2
 10
1703.8885
 20
981.67810000000009
 11
1703.8885
 21
1041.6781000000001
  0
LINE
  8
_0-0_LAYER001
  6
CONTINUOUS
 62
    2
 10
1703.8885
 20
1041.6781000000001
 11
1763.8885
 21
981.67810000000009
  0
LINE
  8
_0-0_LAYER001
  6
CONTINUOUS
 62
    2
 10
1990.7863000000002
 20
1056.6781000000001
 11
1144.8885
 21
1056.6781000000001
  0
LINE
  8
_0-0_LAYER001
  6
DASHED3
 62
    2
 10
1990.7863000000002
 20
1058.1781000000001
 11
1144.8885
 21
1058.1781000000001
  0
LINE
  8
_0-0_LAYER001
  6
CONTINUOUS
 62
    2
 10
1990.7863000000002
 20
1041.6781000000001
 11
1144.8885
 21
1041.6781000000001
  0
LINE
  8
_0-0_LAYER001
  6
CONTINUOUS
 62
    3
 10
1054.8885
 20
1061.6781000000001
 11
1054.8885
 21
1041.6781000000001
  0
LINE
  8
_0-0_LAYER001
  6
CONTINUOUS
 62
    3
 10
1144.8885
 20
1041.6781000000001
 11
1144.8885
 21
1061.6781000000001
  0
LINE
  8
_0-0_LAYER001
  6
CONTINUOUS
 62
    3
 10
1144.8885
 20
1061.6781000000001
 11
1054.8885
 21
1061.6781000000001
  0
LINE
  8
_0-0_LAYER001
  6
CONTINUOUS
 62
    2
 10
1990.7863000000002
 20
1059.6781000000001
 11
1144.8885
 21
1059.6781000000001
  0
LINE
  8
_0-0_LAYER001
  6
CONTINUOUS
 62
    2
 10
1054.8885
 20
1047.3900000000001
 11
1060.6005
 21
1041.6781000000001
  0
LINE
  8
_0-0_LAYER001
  6
CONTINUOUS
 62
    2
 10
1054.8885
 20
1061.5322000000001
 11
1074.7426
 21
1041.6781000000001
  0
LINE
  8
_0-0_LAYER001
  6
CONTINUOUS
 62
    2
 10
1068.8847000000001
 20
1061.6781000000001
 11
1088.8847000000001
 21
1041.6781000000001
  0
LINE
  8
_0-0_LAYER001
  6
CONTINUOUS
 62
    2
 10
1083.0269000000001
 20
1061.6781000000001
 11
1103.0269000000001
 21
1041.6781000000001
  0
LINE
  8
_0-0_LAYER001
  6
CONTINUOUS
 62
    2
 10
1097.1690000000001
 20
1061.6781000000001
 11
1117.1690000000001
 21
1041.6781000000001
  0
LINE
  8
_0-0_LAYER001
  6
CONTINUOUS
 62
    2
 10
1111.3112000000001
 20
1061.6781000000001
 11
1131.3112000000001
 21
1041.6781000000001
  0
LINE
  8
_0-0_LAYER001
  6
CONTINUOUS
 62
    2
 10
1125.4532999999999
 20
1061.6781000000001
 11
1144.8885
 21
1042.2429
  0
LINE
  8
_0-0_LAYER001
  6
CONTINUOUS
 62
    2
 10
1144.4698000000001
 20
1056.8036999999999
 11
1144.8885
 21
1056.385
  0
LINE
  8
_0-1_LAYER004
  6
CONTINUOUS
 62
    2
 10
1187.2337
 20
1090.0186000000001
 11
1187.2337
 21
1082.5186000000001
  0
LINE
  8
_0-1_LAYER004
  6
CONTINUOUS
 62
    2
 10
1187.2337
 20
1082.5186000000001
 11
1183.4837
 21
1089.0137
  0
LINE
  8
_0-1_LAYER004
  6
CONTINUOUS
 62
    2
 10
1187.2337
 20
1082.5186000000001
 11
1156.712
 21
1196.4273000000001
  0
LINE
  8
_0-1_LAYER004
  6
CONTINUOUS
 62
    2
 10
1156.712
 20
1196.4273000000001
 11
1108.712
 21
1196.4273000000001
  0
CIRCLE
  8
_0-0_LAYER001
  6
CONTINUOUS
 62
    2
 10
1054.8885
 20
974.69149999999991
 40
1.6999999999999997
  0
LINE
  8
_0-0_LAYER001
  6
CONTINUOUS
 62
    2
 10
1054.8885
 20
974.69149999999991
 11
1034.8885
 21
974.69149999999991
  0
CIRCLE
  8
_0-0_LAYER001
  6
CONTINUOUS
 62
    2
 10
1034.8885
 20
974.69149999999991
 40
1.6999999999999997
  0
LINE
  8
_0-0_LAYER001
  6
CONTINUOUS
 62
    2
 10
1034.8885
 20
972.19149999999991
 11
1034.8885
 21
999.69149999999991
  0
LINE
  8
_0-0_LAYER001
  6
CONTINUOUS
 62
    2
 10
973.1114
 20
1041.6781000000001
 11
1000.6114
 21
1041.6781000000001
  0
CIRCLE
  8
_0-0_LAYER001
  6
CONTINUOUS
 62
    2
 10
975.6114
 20
1041.6781000000001
 40
1.6999999999999997
  0
LINE
  8
_0-0_LAYER001
  6
CONTINUOUS
 62
    2
 10
975.6114
 20
1041.6781000000001
 11
975.6114
 21
1061.6781000000001
  0
CIRCLE
  8
_0-0_LAYER001
  6
CONTINUOUS
 62
    2
 10
975.6114
 20
1061.6781000000001
 40
1.6999999999999997
  0
LINE
  8
_0-0_LAYER001
  6
CONTINUOUS
 62
    2
 10
973.1114
 20
1061.6781000000001
 11
1000.6114
 21
1061.6781000000001
  0
CIRCLE
  8
_0-0_LAYER001
  6
CONTINUOUS
 62
    2
 10
975.6114
 20
1061.6781000000001
 40
1.6999999999999997
  0
LINE
  8
_0-0_LAYER001
  6
CONTINUOUS
 62
    2
 10
975.6114
 20
1061.6781000000001
 11
975.6114
 21
1097.6781000000001
  0
CIRCLE
  8
_0-0_LAYER001
  6
CONTINUOUS
 62
    2
 10
975.6114
 20
1097.6781000000001
 40
1.6999999999999997
  0
LINE
  8
_0-0_LAYER001
  6
CONTINUOUS
 62
    2
 10
973.1114
 20
1097.6781000000001
 11
1000.6114
 21
1097.6781000000001
  0
LINE
  8
_0-0_LAYER001
  6
CONTINUOUS
 62
    2
 10
1034.8885
 20
1286.2984000000001
 11
1034.8885
 21
1233.7983999999999
  0
CIRCLE
  8
_0-0_LAYER001
  6
CONTINUOUS
 62
    2
 10
1034.8885
 20
1283.7984000000001
 40
1.6999999999999997
  0
LINE
  8
_0-0_LAYER001
  6
CONTINUOUS
 62
    2
 10
1034.8885
 20
1283.7984000000001
 11
1244.8885
 21
1283.7984000000001
  0
CIRCLE
  8
_0-0_LAYER001
  6
CONTINUOUS
 62
    2
 10
1244.8885
 20
1283.7984000000001
 40
1.6999999999999997
  0
LINE
  8
_0-0_LAYER001
  6
CONTINUOUS
 62
    2
 10
1244.8885
 20
1286.2984000000001
 11
1244.8885
 21
1233.7983999999999
  0
CIRCLE
  8
_0-0_LAYER001
  6
CONTINUOUS
 62
    2
 10
1244.8885
 20
1283.7984000000001
 40
1.6999999999999997
  0
LINE
  8
_0-0_LAYER001
  6
CONTINUOUS
 62
    2
 10
1244.8885
 20
1283.7984000000001
 11
1499.8885
 21
1283.7984000000001
  0
CIRCLE
  8
_0-0_LAYER001
  6
CONTINUOUS
 62
    2
 10
1499.8885
 20
1283.7984000000001
 40
1.6999999999999997
  0
LINE
  8
_0-0_LAYER001
  6
CONTINUOUS
 62
    2
 10
1499.8885
 20
1286.2984000000001
 11
1499.8885
 21
1233.7983999999999
  0
CIRCLE
  8
_0-0_LAYER001
  6
CONTINUOUS
 62
    2
 10
1499.8885
 20
1283.7984000000001
 40
1.6999999999999997
  0
LINE
  8
_0-0_LAYER001
  6
CONTINUOUS
 62
    2
 10
1499.8885
 20
1283.7984000000001
 11
1754.8885
 21
1283.7984000000001
  0
CIRCLE
  8
_0-0_LAYER001
  6
CONTINUOUS
 62
    2
 10
1754.8885
 20
1283.7984000000001
 40
1.6999999999999997
  0
LINE
  8
_0-0_LAYER001
  6
CONTINUOUS
 62
    2
 10
1754.8885
 20
1286.2984000000001
 11
1754.8885
 21
1233.7983999999999
  0
CIRCLE
  8
_0-0_LAYER001
  6
CONTINUOUS
 62
    2
 10
1754.8885
 20
1283.7984000000001
 40
1.6999999999999997
  0
LINE
  8
_0-0_LAYER001
  6
CONTINUOUS
 62
    2
 10
1754.8885
 20
1283.7984000000001
 11
2009.8885
 21
1283.7984000000001
  0
CIRCLE
  8
_0-0_LAYER001
  6
CONTINUOUS
 62
    2
 10
2009.8885
 20
1283.7984000000001
 40
1.6999999999999997
  0
LINE
  8
_0-0_LAYER001
  6
CONTINUOUS
 62
    2
 10
2009.8885
 20
1286.2984000000001
 11
2009.8885
 21
1233.7983999999999
  0
LINE
  8
_0-0_LAYER001
  6
CONTINUOUS
 62
    2
 10
1244.8885
 20
1232.5379
 11
1244.8885
 21
1180.0379
  0
CIRCLE
  8
_0-0_LAYER001
  6
CONTINUOUS
 62
    2
 10
1244.8885
 20
1230.0379
 40
1.6999999999999997
  0
LINE
  8
_0-0_LAYER001
  6
CONTINUOUS
 62
    2
 10
1244.8885
 20
1230.0379
 11
1284.8885
 21
1230.0379
  0
CIRCLE
  8
_0-0_LAYER001
  6
CONTINUOUS
 62
    2
 10
1284.8885
 20
1230.0379
 40
1.6999999999999997
  0
LINE
  8
_0-0_LAYER001
  6
CONTINUOUS
 62
    2
 10
1284.8885
 20
1232.5379
 11
1284.8885
 21
1180.0379
  0
LINE
  8
_0-0_LAYER001
  6
CONTINUOUS
 62
    2
 10
1507.8330999999998
 20
830.56799999999998
 11
1679.5043999999998
 21
830.56799999999998
  0
LINE
  8
_0-0_LAYER001
  6
CONTINUOUS
 62
    2
 10
1498.29
 20
860.66339999999991
 11
1737.3805000000002
 21
860.66339999999991
  0
LINE
  8
_0-0_LAYER001
  6
CONTINUOUS
 62
    2
 10
1514.1767
 20
800.7014999999999
 11
1578.3162000000002
 21
800.7014999999999
  0
LINE
  8
_0-1_LAYER004
  6
CONTINUOUS
 62
    2
 10
1090.6130000000001
 20
938.5924
 11
1090.6130000000001
 21
946.0924
  0
LINE
  8
_0-1_LAYER004
  6
CONTINUOUS
 62
    2
 10
1090.6130000000001
 20
946.0924
 11
1094.3630000000001
 21
939.5972999999999
  0
LINE
  8
_0-1_LAYER004
  6
CONTINUOUS
 62
    2
 10
1090.6130000000001
 20
946.0924
 11
1122.5995
 21
826.71730000000002
  0
LINE
  8
_0-1_LAYER004
  6
CONTINUOUS
 62
    2
 10
1122.5995
 20
826.71730000000002
 11
1198.279
 21
826.71730000000002
  0
LINE
  8
_0-1_LAYER004
  6
CONTINUOUS
 62
    2
 10
1081.7529
 20
1082.2304999999999
 11
1081.7529
 21
1074.7304999999999
  0
LINE
  8
_0-1_LAYER004
  6
CONTINUOUS
 62
    2
 10
1081.7529
 20
1074.7304999999999
 11
1078.0029
 21
1081.2256
  0
LINE
  8
_0-1_LAYER004
  6
CONTINUOUS
 62
    2
 10
1081.7529
 20
1074.7304999999999
 11
1046.4712999999999
 21
1206.4031
  0
LINE
  8
_0-1_LAYER004
  6
CONTINUOUS
 62
    2
 10
1046.4712999999999
 20
1206.4031
 11
974.96260000000007
 21
1206.4031
  0
LINE
  8
_0-1_LAYER004
  6
CONTINUOUS
 62
    2
 10
1061.6432
 20
1057.3421000000001
 11
1061.6432
 21
1049.8421000000001
  0
LINE
  8
_0-1_LAYER004
  6
CONTINUOUS
 62
    2
 10
1061.6432
 20
1049.8421000000001
 11
1057.8932
 21
1056.3372999999999
  0
LINE
  8
_0-1_LAYER004
  6
CONTINUOUS
 62
    2
 10
1061.6432
 20
1049.8421000000001
 11
1032.2282
 21
1159.6202000000001
  0
LINE
  8
_0-1_LAYER004
  6
CONTINUOUS
 62
    2
 10
1032.2282
 20
1159.6202000000001
 11
973.34140000000002
 21
1159.6202000000001
  0
LINE
  8
_0-0_LAYER001
  6
CONTINUOUS
 62
    2
 10
1489.6605
 20
890.75870000000009
 11
1676.1729
 21
890.75870000000009
  0
LINE
  8
_0-0_LAYER001
  6
CONTINUOUS
 62
    4
 10
1766.3854000000001
 20
1130.3162
 11
1768.4362000000001
 21
1131.1217999999999
  0
LINE
  8
_0-0_LAYER001
  6
CONTINUOUS
 62
    4
 10
1768.4362000000001
 20
1131.1217999999999
 11
1771.9847
 21
1132.518
  0
LINE
  8
_0-0_LAYER001
  6
CONTINUOUS
 62
    4
 10
1771.9847
 20
1132.518
 11
1775.5572000000002
 21
1133.9303
  0
LINE
  8
_0-0_LAYER001
  6
CONTINUOUS
 62
    4
 10
1775.5572000000002
 20
1133.9303
 11
1779.1579000000002
 21
1135.3644999999999
  0
LINE
  8
_0-0_LAYER001
  6
CONTINUOUS
 62
    4
 10
1779.1579000000002
 20
1135.3644999999999
 11
1782.7908000000002
 21
1136.8266000000001
  0
LINE
  8
_0-0_LAYER001
  6
CONTINUOUS
 62
    4
 10
1782.7908000000002
 20
1136.8266000000001
 11
1786.4495000000002
 21
1138.3181
  0
LINE
  8
_0-0_LAYER001
  6
CONTINUOUS
 62
    4
 10
1786.4495000000002
 20
1138.3181
 11
1788.5925999999999
 21
1139.2021999999999
  0
LINE
  8
_0-0_LAYER001
  6
CONTINUOUS
 62
    4
 10
1788.5925999999999
 20
1139.2021999999999
 11
1790.6046999999999
 21
1140.037
  0
LINE
  8
_0-0_LAYER001
  6
CONTINUOUS
 62
    4
 10
1790.6046999999999
 20
1140.037
 11
1793.8584999999998
 21
1141.354
  0
LINE
  8
_0-0_LAYER001
  6
CONTINUOUS
 62
    4
 10
1793.8584999999998
 20
1141.354
 11
1796.7390999999998
 21
1142.4166
  0
LINE
  8
_0-0_LAYER001
  6
CONTINUOUS
 62
    4
 10
1796.7390999999998
 20
1142.4166
 11
1799.1968999999999
 21
1143.1706999999999
  0
LINE
  8
_0-0_LAYER001
  6
CONTINUOUS
 62
    4
 10
1799.1968999999999
 20
1143.1706999999999
 11
1801.1828
 21
1143.6059
  0
LINE
  8
_0-0_LAYER001
  6
CONTINUOUS
 62
    4
 10
1801.1828
 20
1143.6059
 11
1802.9596000000001
 21
1143.7952
  0
LINE
  8
_0-0_LAYER001
  6
CONTINUOUS
 62
    4
 10
1802.9596000000001
 20
1143.7952
 11
1803.6392000000001
 21
1143.7959000000001
  0
LINE
  8
_0-0_LAYER001
  6
CONTINUOUS
 62
    4
 10
1803.6392000000001
 20
1143.7959000000001
 11
1803.5630000000001
 21
1143.8003000000001
  0
LINE
  8
_0-0_LAYER001
  6
CONTINUOUS
 62
    4
 10
1803.5630000000001
 20
1143.8003000000001
 11
1804.1776
 21
1143.7374
  0
LINE
  8
_0-0_LAYER001
  6
CONTINUOUS
 62
    4
 10
1804.1776
 20
1143.7374
 11
1804.7694000000001
 21
1143.646
  0
LINE
  8
_0-0_LAYER001
  6
CONTINUOUS
 62
    4
 10
1804.7694000000001
 20
1143.646
 11
1805.4387999999999
 21
1143.5101999999999
  0
LINE
  8
_0-0_LAYER001
  6
CONTINUOUS
 62
    4
 10
1805.4387999999999
 20
1143.5101999999999
 11
1806.1749
 21
1143.3279
  0
LINE
  8
_0-0_LAYER001
  6
CONTINUOUS
 62
    4
 10
1806.1749
 20
1143.3279
 11
1807.0275999999999
 21
1143.0814
  0
LINE
  8
_0-0_LAYER001
  6
CONTINUOUS
 62
    4
 10
1807.0275999999999
 20
1143.0814
 11
1807.2728000000002
 21
1143.0029
  0
LINE
  8
_0-0_LAYER001
  6
CONTINUOUS
 62
    4
 10
1807.2728000000002
 20
1143.0029
 11
1808.8407999999999
 21
1142.4327000000001
  0
LINE
  8
_0-0_LAYER001
  6
CONTINUOUS
 62
    4
 10
1808.8407999999999
 20
1142.4327000000001
 11
1811.8074000000001
 21
1141.1034999999999
  0
LINE
  8
_0-0_LAYER001
  6
CONTINUOUS
 62
    4
 10
1811.8074000000001
 20
1141.1034999999999
 11
1814.7912999999999
 21
1139.4844000000001
  0
LINE
  8
_0-0_LAYER001
  6
CONTINUOUS
 62
    4
 10
1814.7912999999999
 20
1139.4844000000001
 11
1817.9870000000001
 21
1137.5074999999999
  0
LINE
  8
_0-0_LAYER001
  6
CONTINUOUS
 62
    4
 10
1817.9870000000001
 20
1137.5074999999999
 11
1821.4041000000002
 21
1135.2101
  0
LINE
  8
_0-0_LAYER001
  6
CONTINUOUS
 62
    4
 10
1821.4041000000002
 20
1135.2101
 11
1825.0457999999999
 21
1132.6582000000001
  0
LINE
  8
_0-0_LAYER001
  6
CONTINUOUS
 62
    4
 10
1825.0457999999999
 20
1132.6582000000001
 11
1827.2748999999999
 21
1131.0867000000001
  0
LINE
  8
_0-0_LAYER001
  6
CONTINUOUS
 62
    4
 10
1827.2748999999999
 20
1131.0867000000001
 11
1830.7995000000001
 21
1128.6353999999999
  0
LINE
  8
_0-0_LAYER001
  6
CONTINUOUS
 62
    4
 10
1830.7995000000001
 20
1128.6353999999999
 11
1836.9499999999998
 21
1124.4958999999999
  0
LINE
  8
_0-0_LAYER001
  6
CONTINUOUS
 62
    4
 10
1836.9499999999998
 20
1124.4958999999999
 11
1843.3110000000001
 21
1120.4443000000001
  0
LINE
  8
_0-0_LAYER001
  6
CONTINUOUS
 62
    4
 10
1843.3110000000001
 20
1120.4443000000001
 11
1849.8867
 21
1116.5469000000001
  0
LINE
  8
_0-0_LAYER001
  6
CONTINUOUS
 62
    4
 10
1849.8867
 20
1116.5469000000001
 11
1856.7049000000002
 21
1112.8577
  0
LINE
  8
_0-0_LAYER001
  6
CONTINUOUS
 62
    4
 10
1856.7049000000002
 20
1112.8577
 11
1863.6957000000002
 21
1109.4804999999999
  0
LINE
  8
_0-0_LAYER001
  6
CONTINUOUS
 62
    4
 10
1863.6957000000002
 20
1109.4804999999999
 11
1867.9956000000002
 21
1107.6159
  0
LINE
  8
_0-0_LAYER001
  6
CONTINUOUS
 62
    4
 10
1867.9956000000002
 20
1107.6159
 11
1871.6212999999998
 21
1106.1685
  0
LINE
  8
_0-0_LAYER001
  6
CONTINUOUS
 62
    4
 10
1871.6212999999998
 20
1106.1685
 11
1877.7082999999998
 21
1103.9912999999999
  0
LINE
  8
_0-0_LAYER001
  6
CONTINUOUS
 62
    4
 10
1877.7082999999998
 20
1103.9912999999999
 11
1883.9857000000002
 21
1102.0678
  0
LINE
  8
_0-0_LAYER001
  6
CONTINUOUS
 62
    4
 10
1883.9857000000002
 20
1102.0678
 11
1890.3578000000002
 21
1100.4351999999999
  0
LINE
  8
_0-0_LAYER001
  6
CONTINUOUS
 62
    4
 10
1890.3578000000002
 20
1100.4351999999999
 11
1896.8112999999998
 21
1099.1023
  0
LINE
  8
_0-0_LAYER001
  6
CONTINUOUS
 62
    4
 10
1896.8112999999998
 20
1099.1023
 11
1903.2397000000001
 21
1098.0932
  0
LINE
  8
_0-0_LAYER001
  6
CONTINUOUS
 62
    4
 10
1903.2397000000001
 20
1098.0932
 11
1907.1053000000002
 21
1097.6384
  0
LINE
  8
_0-0_LAYER001
  6
CONTINUOUS
 62
    4
 10
1907.1053000000002
 20
1097.6384
 11
1910.1039999999998
 21
1097.3617999999999
  0
LINE
  8
_0-0_LAYER001
  6
CONTINUOUS
 62
    4
 10
1910.1039999999998
 20
1097.3617999999999
 11
1915.0012999999999
 21
1097.0479
  0
LINE
  8
_0-0_LAYER001
  6
CONTINUOUS
 62
    4
 10
1915.0012999999999
 20
1097.0479
 11
1919.9115000000002
 21
1096.8920000000001
  0
LINE
  8
_0-0_LAYER001
  6
CONTINUOUS
 62
    4
 10
1919.9115000000002
 20
1096.8920000000001
 11
1924.7595999999999
 21
1096.8768
  0
LINE
  8
_0-0_LAYER001
  6
CONTINUOUS
 62
    4
 10
1924.7595999999999
 20
1096.8768
 11
1929.5425
 21
1096.9811999999999
  0
LINE
  8
_0-0_LAYER001
  6
CONTINUOUS
 62
    4
 10
1929.5425
 20
1096.9811999999999
 11
1934.2278000000001
 21
1097.1836000000001
  0
LINE
  8
_0-0_LAYER001
  6
CONTINUOUS
 62
    4
 10
1934.2278000000001
 20
1097.1836000000001
 11
1937.0030000000002
 21
1097.3435999999999
  0
LINE
  8
_0-0_LAYER001
  6
CONTINUOUS
 62
    4
 10
1937.0030000000002
 20
1097.3435999999999
 11
1942.0308
 21
1097.6993
  0
LINE
  8
_0-0_LAYER001
  6
CONTINUOUS
 62
    4
 10
1942.0308
 20
1097.6993
 11
1950.5468999999998
 21
1098.4793
  0
LINE
  8
_0-0_LAYER001
  6
CONTINUOUS
 62
    4
 10
1950.5468999999998
 20
1098.4793
 11
1959.0191
 21
1099.4481000000001
  0
LINE
  8
_0-0_LAYER001
  6
CONTINUOUS
 62
    4
 10
1959.0191
 20
1099.4481000000001
 11
1967.3957
 21
1100.5603000000001
  0
LINE
  8
_0-0_LAYER001
  6
CONTINUOUS
 62
    4
 10
1967.3957
 20
1100.5603000000001
 11
1975.6801999999998
 21
1101.7766999999999
  0
LINE
  8
_0-0_LAYER001
  6
CONTINUOUS
 62
    4
 10
1975.6801999999998
 20
1101.7766999999999
 11
1983.8708999999999
 21
1103.0583999999999
  0
LINE
  8
_0-0_LAYER001
  6
CONTINUOUS
 62
    4
 10
1983.8708999999999
 20
1103.0583999999999
 11
1988.5978
 21
1103.8199
  0
LINE
  8
_0-0_LAYER001
  6
CONTINUOUS
 62
    4
 10
1988.5978
 20
1103.8199
 11
1990.7863000000002
 21
1104.1756
  0
LINE
  8
_0-0_LAYER001
  6
CONTINUOUS
 62
    4
 10
1249.779
 20
1148.1465000000001
 11
1250.904
 21
1148.5953
  0
LINE
  8
_0-0_LAYER001
  6
CONTINUOUS
 62
    2
 10
1063.9604999999999
 20
1092.6132
 11
1063.9604999999999
 21
1061.6781000000001
  0
LINE
  8
_0-0_LAYER001
  6
CONTINUOUS
 62
    2
 10
1098.9604999999999
 20
1079.2643
 11
1098.9604999999999
 21
1061.6781000000001
  0
LINE
  8
_0-0_LAYER001
  6
CONTINUOUS
 62
    2
 10
1063.9604999999999
 20
1092.6132
 11
1098.9604999999999
 21
1079.2643
  0
LINE
  8
_0-0_LAYER001
  6
CONTINUOUS
 62
    4
 10
1370.3198
 20
1068.1204
 11
1361.7842999999998
 21
1082.6538
  0
LINE
  8
_0-0_LAYER001
  6
CONTINUOUS
 62
    4
 10
1378.4875999999999
 20
1067.4701
 11
1386.7938999999999
 21
1077.5355999999999
  0
ARC
  8
_0-0_LAYER001
  6
CONTINUOUS
 62
    4
 10
1374.6312
 20
1070.6524999999999
 40
5
 50
210.42578
 51
320.47001
  0
LINE
  8
_0-0_LAYER001
  6
CONTINUOUS
 62
    4
 10
1454.4331999999999
 20
1067.0002999999999
 11
1447.1079
 21
1078.3063
  0
LINE
  8
_0-0_LAYER001
  6
CONTINUOUS
 62
    4
 10
1462.9427999999998
 20
1067.1902
 11
1471.8811999999998
 21
1082.4358999999999
  0
ARC
  8
_0-0_LAYER001
  6
DASHED1
 62
    4
 10
1458.6295
 20
1069.7191
 40
5
 50
212.93986000000001
 51
329.61716000000001
  0
LINE
  8
_0-0_LAYER001
  6
CONTINUOUS
 62
    4
 10
1250.9037000000001
 20
1148.5945999999999
 11
1251.7131999999999
 21
1148.9126000000001
  0
LINE
  8
_0-0_LAYER001
  6
CONTINUOUS
 62
    4
 10
1251.7131999999999
 20
1148.9126000000001
 11
1255.2434000000001
 21
1150.3016
  0
LINE
  8
_0-0_LAYER001
  6
CONTINUOUS
 62
    4
 10
1255.2434000000001
 20
1150.3016
 11
1258.7809
 21
1151.7
  0
LINE
  8
_0-0_LAYER001
  6
CONTINUOUS
 62
    4
 10
1258.7809
 20
1151.7
 11
1262.3300999999999
 21
1153.1137000000001
  0
LINE
  8
_0-0_LAYER001
  6
CONTINUOUS
 62
    4
 10
1262.3300999999999
 20
1153.1137000000001
 11
1265.8958
 21
1154.5487000000001
  0
LINE
  8
_0-0_LAYER001
  6
CONTINUOUS
 62
    4
 10
1265.8958
 20
1154.5487000000001
 11
1269.4825000000001
 21
1156.0109
  0
LINE
  8
_0-0_LAYER001
  6
CONTINUOUS
 62
    4
 10
1269.4825000000001
 20
1156.0109
 11
1271.5741
 21
1156.8738000000001
  0
LINE
  8
_0-0_LAYER001
  6
CONTINUOUS
 62
    4
 10
1271.5741
 20
1156.8738000000001
 11
1273.6416999999999
 21
1157.7316000000001
  0
LINE
  8
_0-0_LAYER001
  6
CONTINUOUS
 62
    4
 10
1273.6416999999999
 20
1157.7316000000001
 11
1277.2283
 21
1159.1832999999999
  0
LINE
  8
_0-0_LAYER001
  6
CONTINUOUS
 62
    4
 10
1277.2283
 20
1159.1832999999999
 11
1280.8427999999999
 21
1160.5165999999999
  0
LINE
  8
_0-0_LAYER001
  6
CONTINUOUS
 62
    4
 10
1280.8427999999999
 20
1160.5165999999999
 11
1284.4855000000002
 21
1161.6342
  0
LINE
  8
_0-0_LAYER001
  6
CONTINUOUS
 62
    4
 10
1284.4855000000002
 20
1161.6342
 11
1288.1567
 21
1162.4387999999999
  0
LINE
  8
_0-0_LAYER001
  6
CONTINUOUS
 62
    4
 10
1288.1567
 20
1162.4387999999999
 11
1291.8569
 21
1162.8330000000001
  0
LINE
  8
_0-0_LAYER001
  6
CONTINUOUS
 62
    4
 10
1291.8569
 20
1162.8330000000001
 11
1294.0163000000002
 21
1162.8352
  0
LINE
  8
_0-0_LAYER001
  6
CONTINUOUS
 62
    4
 10
1294.0163000000002
 20
1162.8352
 11
1294.8662999999999
 21
1162.7856999999999
  0
LINE
  8
_0-0_LAYER001
  6
CONTINUOUS
 62
    4
 10
1294.8662999999999
 20
1162.7856999999999
 11
1296.3327999999999
 21
1162.6356000000001
  0
LINE
  8
_0-0_LAYER001
  6
CONTINUOUS
 62
    4
 10
1296.3327999999999
 20
1162.6356000000001
 11
1297.7972
 21
1162.4093
  0
LINE
  8
_0-0_LAYER001
  6
CONTINUOUS
 62
    4
 10
1297.7972
 20
1162.4093
 11
1299.2552000000001
 21
1162.1135999999999
  0
LINE
  8
_0-0_LAYER001
  6
CONTINUOUS
 62
    4
 10
1299.2552000000001
 20
1162.1135999999999
 11
1300.7025000000001
 21
1161.7553
  0
LINE
  8
_0-0_LAYER001
  6
CONTINUOUS
 62
    4
 10
1300.7025000000001
 20
1161.7553
 11
1302.1348
 21
1161.3411000000001
  0
LINE
  8
_0-0_LAYER001
  6
CONTINUOUS
 62
    4
 10
1302.1348
 20
1161.3411000000001
 11
1302.9571000000001
 21
1161.0779
  0
LINE
  8
_0-0_LAYER001
  6
CONTINUOUS
 62
    4
 10
1302.9571000000001
 20
1161.0779
 11
1305.4683
 21
1160.1647
  0
LINE
  8
_0-0_LAYER001
  6
CONTINUOUS
 62
    4
 10
1305.4683
 20
1160.1647
 11
1309.6538
 21
1158.2893999999999
  0
LINE
  8
_0-0_LAYER001
  6
CONTINUOUS
 62
    4
 10
1309.6538
 20
1158.2893999999999
 11
1313.6886
 21
1156.1001000000001
  0
LINE
  8
_0-0_LAYER001
  6
CONTINUOUS
 62
    4
 10
1313.6886
 20
1156.1001000000001
 11
1317.6097
 21
1153.6744000000001
  0
LINE
  8
_0-0_LAYER001
  6
CONTINUOUS
 62
    4
 10
1317.6097
 20
1153.6744000000001
 11
1321.4540999999999
 21
1151.0896
  0
LINE
  8
_0-0_LAYER001
  6
CONTINUOUS
 62
    4
 10
1321.4540999999999
 20
1151.0896
 11
1325.259
 21
1148.4233999999999
  0
LINE
  8
_0-0_LAYER001
  6
CONTINUOUS
 62
    4
 10
1325.259
 20
1148.4233999999999
 11
1327.4621999999999
 21
1146.8702000000001
  0
LINE
  8
_0-0_LAYER001
  6
CONTINUOUS
 62
    4
 10
1327.4621999999999
 20
1146.8702000000001
 11
1330.8268
 21
1144.5300999999999
  0
LINE
  8
_0-0_LAYER001
  6
CONTINUOUS
 62
    4
 10
1330.8268
 20
1144.5300999999999
 11
1336.6746000000001
 21
1140.5944999999999
  0
LINE
  8
_0-0_LAYER001
  6
CONTINUOUS
 62
    4
 10
1336.6746000000001
 20
1140.5944999999999
 11
1342.5999999999999
 21
1136.8202000000001
  0
LINE
  8
_0-0_LAYER001
  6
CONTINUOUS
 62
    4
 10
1342.5999999999999
 20
1136.8202000000001
 11
1348.6246000000001
 21
1133.2494999999999
  0
LINE
  8
_0-0_LAYER001
  6
CONTINUOUS
 62
    4
 10
1348.6246000000001
 20
1133.2494999999999
 11
1354.7698
 21
1129.9245000000001
  0
LINE
  8
_0-0_LAYER001
  6
CONTINUOUS
 62
    4
 10
1354.7698
 20
1129.9245000000001
 11
1361.0571
 21
1126.8870999999999
  0
LINE
  8
_0-0_LAYER001
  6
CONTINUOUS
 62
    4
 10
1361.0571
 20
1126.8870999999999
 11
1364.7773000000002
 21
1125.2738999999999
  0
LINE
  8
_0-0_LAYER001
  6
CONTINUOUS
 62
    4
 10
1364.7773000000002
 20
1125.2738999999999
 11
1367.854
 21
1124.0456999999999
  0
LINE
  8
_0-0_LAYER001
  6
CONTINUOUS
 62
    4
 10
1367.854
 20
1124.0456999999999
 11
1373.2419
 21
1122.1185
  0
LINE
  8
_0-0_LAYER001
  6
CONTINUOUS
 62
    4
 10
1373.2419
 20
1122.1185
 11
1378.7216000000001
 21
1120.4394
  0
LINE
  8
_0-0_LAYER001
  6
CONTINUOUS
 62
    4
 10
1378.7216000000001
 20
1120.4394
 11
1384.277
 21
1119.0161000000001
  0
LINE
  8
_0-0_LAYER001
  6
CONTINUOUS
 62
    4
 10
1384.277
 20
1119.0161000000001
 11
1389.8921
 21
1117.8562999999999
  0
LINE
  8
_0-0_LAYER001
  6
CONTINUOUS
 62
    4
 10
1389.8921
 20
1117.8562999999999
 11
1395.5507
 21
1116.9680000000001
  0
LINE
  8
_0-0_LAYER001
  6
CONTINUOUS
 62
    4
 10
1395.5507
 20
1116.9680000000001
 11
1398.8463999999999
 21
1116.5803000000001
  0
LINE
  8
_0-0_LAYER001
  6
CONTINUOUS
 62
    4
 10
1398.8463999999999
 20
1116.5803000000001
 11
1401.3692000000001
 21
1116.3476000000001
  0
LINE
  8
_0-0_LAYER001
  6
CONTINUOUS
 62
    4
 10
1401.3692000000001
 20
1116.3476000000001
 11
1405.7256000000002
 21
1116.0684000000001
  0
LINE
  8
_0-0_LAYER001
  6
CONTINUOUS
 62
    4
 10
1405.7256000000002
 20
1116.0684000000001
 11
1410.0881999999999
 21
1115.9299000000001
  0
LINE
  8
_0-0_LAYER001
  6
CONTINUOUS
 62
    4
 10
1410.0881999999999
 20
1115.9299000000001
 11
1414.4540000000002
 21
1115.9161999999999
  0
LINE
  8
_0-0_LAYER001
  6
CONTINUOUS
 62
    4
 10
1414.4540000000002
 20
1115.9161999999999
 11
1418.8202000000001
 21
1116.0115000000001
  0
LINE
  8
_0-0_LAYER001
  6
CONTINUOUS
 62
    4
 10
1418.8202000000001
 20
1116.0115000000001
 11
1423.1839
 21
1116.2
  0
LINE
  8
_0-0_LAYER001
  6
CONTINUOUS
 62
    4
 10
1423.1839
 20
1116.2
 11
1425.7125999999998
 21
1116.3458000000001
  0
LINE
  8
_0-0_LAYER001
  6
CONTINUOUS
 62
    4
 10
1425.7125999999998
 20
1116.3458000000001
 11
1430.4375
 21
1116.6800000000001
  0
LINE
  8
_0-0_LAYER001
  6
CONTINUOUS
 62
    4
 10
1430.4375
 20
1116.6800000000001
 11
1438.5659999999998
 21
1117.4246000000001
  0
LINE
  8
_0-0_LAYER001
  6
CONTINUOUS
 62
    4
 10
1438.5659999999998
 20
1117.4246000000001
 11
1446.6747
 21
1118.3517999999999
  0
LINE
  8
_0-0_LAYER001
  6
CONTINUOUS
 62
    4
 10
1446.6747
 20
1118.3517999999999
 11
1454.7662999999998
 21
1119.4260999999999
  0
LINE
  8
_0-0_LAYER001
  6
CONTINUOUS
 62
    4
 10
1454.7662999999998
 20
1119.4260999999999
 11
1462.8440000000001
 21
1120.6122
  0
LINE
  8
_0-0_LAYER001
  6
CONTINUOUS
 62
    4
 10
1462.8440000000001
 20
1120.6122
 11
1470.9106999999999
 21
1121.8744999999999
  0
LINE
  8
_0-0_LAYER001
  6
CONTINUOUS
 62
    4
 10
1470.9106999999999
 20
1121.8744999999999
 11
1475.5855000000001
 21
1122.6276
  0
LINE
  8
_0-0_LAYER001
  6
CONTINUOUS
 62
    4
 10
1475.5855000000001
 20
1122.6276
 11
1478.0151999999998
 21
1123.0225
  0
LINE
  8
_0-0_LAYER001
  6
CONTINUOUS
 62
    4
 10
1478.0151999999998
 20
1123.0225
 11
1482.203
 21
1123.7070000000001
  0
LINE
  8
_0-0_LAYER001
  6
CONTINUOUS
 62
    4
 10
1482.203
 20
1123.7070000000001
 11
1486.3895000000002
 21
1124.3956000000001
  0
LINE
  8
_0-0_LAYER001
  6
CONTINUOUS
 62
    4
 10
1486.3895000000002
 20
1124.3956000000001
 11
1490.5751
 21
1125.0873999999999
  0
LINE
  8
_0-0_LAYER001
  6
CONTINUOUS
 62
    4
 10
1490.5751
 20
1125.0873999999999
 11
1494.7600000000002
 21
1125.7815000000001
  0
LINE
  8
_0-0_LAYER001
  6
CONTINUOUS
 62
    4
 10
1494.7600000000002
 20
1125.7815000000001
 11
1498.9445000000001
 21
1126.4770000000001
  0
LINE
  8
_0-0_LAYER001
  6
CONTINUOUS
 62
    4
 10
1498.9445000000001
 20
1126.4770000000001
 11
1501.3712999999998
 21
1126.8806999999999
  0
LINE
  8
_0-0_LAYER001
  6
CONTINUOUS
 62
    4
 10
1256.2481
 20
1131.355
 11
1258.299
 21
1132.1605999999999
  0
LINE
  8
_0-0_LAYER001
  6
CONTINUOUS
 62
    4
 10
1258.299
 20
1132.1605999999999
 11
1261.8474000000001
 21
1133.5568000000001
  0
LINE
  8
_0-0_LAYER001
  6
CONTINUOUS
 62
    4
 10
1261.8474000000001
 20
1133.5568000000001
 11
1265.4199000000001
 21
1134.9691
  0
LINE
  8
_0-0_LAYER001
  6
CONTINUOUS
 62
    4
 10
1265.4199000000001
 20
1134.9691
 11
1269.0207
 21
1136.4032999999999
  0
LINE
  8
_0-0_LAYER001
  6
CONTINUOUS
 62
    4
 10
1269.0207
 20
1136.4032999999999
 11
1272.6536000000001
 21
1137.8652999999999
  0
LINE
  8
_0-0_LAYER001
  6
CONTINUOUS
 62
    4
 10
1272.6536000000001
 20
1137.8652999999999
 11
1276.3123000000001
 21
1139.3569
  0
LINE
  8
_0-0_LAYER001
  6
CONTINUOUS
 62
    4
 10
1276.3123000000001
 20
1139.3569
 11
1278.4553000000001
 21
1140.241
  0
LINE
  8
_0-0_LAYER001
  6
CONTINUOUS
 62
    4
 10
1278.4553000000001
 20
1140.241
 11
1280.4675
 21
1141.0758000000001
  0
LINE
  8
_0-0_LAYER001
  6
CONTINUOUS
 62
    4
 10
1280.4675
 20
1141.0758000000001
 11
1283.7212999999999
 21
1142.3928000000001
  0
LINE
  8
_0-0_LAYER001
  6
CONTINUOUS
 62
    4
 10
1283.7212999999999
 20
1142.3928000000001
 11
1286.6017999999999
 21
1143.4554000000001
  0
LINE
  8
_0-0_LAYER001
  6
CONTINUOUS
 62
    4
 10
1286.6017999999999
 20
1143.4554000000001
 11
1289.0597
 21
1144.2094
  0
LINE
  8
_0-0_LAYER001
  6
CONTINUOUS
 62
    4
 10
1289.0597
 20
1144.2094
 11
1291.0454999999999
 21
1144.6447000000001
  0
LINE
  8
_0-0_LAYER001
  6
CONTINUOUS
 62
    4
 10
1291.0454999999999
 20
1144.6447000000001
 11
1292.8224
 21
1144.8340000000001
  0
LINE
  8
_0-0_LAYER001
  6
CONTINUOUS
 62
    4
 10
1292.8224
 20
1144.8340000000001
 11
1293.502
 21
1144.8347000000001
  0
LINE
  8
_0-0_LAYER001
  6
CONTINUOUS
 62
    4
 10
1293.502
 20
1144.8347000000001
 11
1293.4258
 21
1144.8390999999999
  0
LINE
  8
_0-0_LAYER001
  6
CONTINUOUS
 62
    4
 10
1293.4258
 20
1144.8390999999999
 11
1294.0404000000001
 21
1144.7762
  0
LINE
  8
_0-0_LAYER001
  6
CONTINUOUS
 62
    4
 10
1294.0404000000001
 20
1144.7762
 11
1294.6321
 21
1144.6848
  0
LINE
  8
_0-0_LAYER001
  6
CONTINUOUS
 62
    4
 10
1294.6321
 20
1144.6848
 11
1295.3015
 21
1144.549
  0
LINE
  8
_0-0_LAYER001
  6
CONTINUOUS
 62
    4
 10
1295.3015
 20
1144.549
 11
1296.0376999999999
 21
1144.3667
  0
LINE
  8
_0-0_LAYER001
  6
CONTINUOUS
 62
    4
 10
1296.0376999999999
 20
1144.3667
 11
1296.8904
 21
1144.1202000000001
  0
LINE
  8
_0-0_LAYER001
  6
CONTINUOUS
 62
    4
 10
1296.8904
 20
1144.1202000000001
 11
1297.1356000000001
 21
1144.0417
  0
LINE
  8
_0-0_LAYER001
  6
CONTINUOUS
 62
    4
 10
1297.1356000000001
 20
1144.0417
 11
1298.7036000000001
 21
1143.4713999999999
  0
LINE
  8
_0-0_LAYER001
  6
CONTINUOUS
 62
    4
 10
1298.7036000000001
 20
1143.4713999999999
 11
1301.6701
 21
1142.1423
  0
LINE
  8
_0-0_LAYER001
  6
CONTINUOUS
 62
    4
 10
1301.6701
 20
1142.1423
 11
1304.6541
 21
1140.5232000000001
  0
LINE
  8
_0-0_LAYER001
  6
CONTINUOUS
 62
    4
 10
1304.6541
 20
1140.5232000000001
 11
1307.8496999999998
 21
1138.5463
  0
LINE
  8
_0-0_LAYER001
  6
CONTINUOUS
 62
    4
 10
1307.8496999999998
 20
1138.5463
 11
1311.2668000000003
 21
1136.2488000000001
  0
LINE
  8
_0-0_LAYER001
  6
CONTINUOUS
 62
    4
 10
1311.2668000000003
 20
1136.2488000000001
 11
1314.9085
 21
1133.6969999999999
  0
LINE
  8
_0-0_LAYER001
  6
CONTINUOUS
 62
    4
 10
1314.9085
 20
1133.6969999999999
 11
1317.1377000000002
 21
1132.1255000000001
  0
LINE
  8
_0-0_LAYER001
  6
CONTINUOUS
 62
    4
 10
1317.1377000000002
 20
1132.1255000000001
 11
1320.6621999999998
 21
1129.6741999999999
  0
LINE
  8
_0-0_LAYER001
  6
CONTINUOUS
 62
    4
 10
1320.6621999999998
 20
1129.6741999999999
 11
1326.8127999999999
 21
1125.5346999999999
  0
LINE
  8
_0-0_LAYER001
  6
CONTINUOUS
 62
    4
 10
1326.8127999999999
 20
1125.5346999999999
 11
1333.1737000000001
 21
1121.4829999999999
  0
LINE
  8
_0-0_LAYER001
  6
CONTINUOUS
 62
    4
 10
1333.1737000000001
 20
1121.4829999999999
 11
1339.7494999999999
 21
1117.5857000000001
  0
LINE
  8
_0-0_LAYER001
  6
CONTINUOUS
 62
    4
 10
1339.7494999999999
 20
1117.5857000000001
 11
1346.5676000000003
 21
1113.8965000000001
  0
LINE
  8
_0-0_LAYER001
  6
CONTINUOUS
 62
    4
 10
1346.5676000000003
 20
1113.8965000000001
 11
1353.5585000000001
 21
1110.5192999999999
  0
LINE
  8
_0-0_LAYER001
  6
CONTINUOUS
 62
    4
 10
1353.5585000000001
 20
1110.5192999999999
 11
1357.8584000000001
 21
1108.6547
  0
LINE
  8
_0-0_LAYER001
  6
CONTINUOUS
 62
    4
 10
1357.8584000000001
 20
1108.6547
 11
1361.4839999999999
 21
1107.2073
  0
LINE
  8
_0-0_LAYER001
  6
CONTINUOUS
 62
    4
 10
1361.4839999999999
 20
1107.2073
 11
1367.5710999999999
 21
1105.0300999999999
  0
LINE
  8
_0-0_LAYER001
  6
CONTINUOUS
 62
    4
 10
1367.5710999999999
 20
1105.0300999999999
 11
1373.8483999999999
 21
1103.1066000000001
  0
LINE
  8
_0-0_LAYER001
  6
CONTINUOUS
 62
    4
 10
1373.8483999999999
 20
1103.1066000000001
 11
1380.2206000000001
 21
1101.4739999999999
  0
LINE
  8
_0-0_LAYER001
  6
CONTINUOUS
 62
    4
 10
1380.2206000000001
 20
1101.4739999999999
 11
1386.6741
 21
1100.1411000000001
  0
LINE
  8
_0-0_LAYER001
  6
CONTINUOUS
 62
    4
 10
1386.6741
 20
1100.1411000000001
 11
1393.1025
 21
1099.1319000000001
  0
LINE
  8
_0-0_LAYER001
  6
CONTINUOUS
 62
    4
 10
1393.1025
 20
1099.1319000000001
 11
1396.9679999999998
 21
1098.6771000000001
  0
LINE
  8
_0-0_LAYER001
  6
CONTINUOUS
 62
    4
 10
1396.9679999999998
 20
1098.6771000000001
 11
1399.9667999999999
 21
1098.4005999999999
  0
LINE
  8
_0-0_LAYER001
  6
CONTINUOUS
 62
    4
 10
1399.9667999999999
 20
1098.4005999999999
 11
1404.8641
 21
1098.0867000000001
  0
LINE
  8
_0-0_LAYER001
  6
CONTINUOUS
 62
    4
 10
1404.8641
 20
1098.0867000000001
 11
1409.7743
 21
1097.9308000000001
  0
LINE
  8
_0-0_LAYER001
  6
CONTINUOUS
 62
    4
 10
1409.7743
 20
1097.9308000000001
 11
1414.6223
 21
1097.9156
  0
LINE
  8
_0-0_LAYER001
  6
CONTINUOUS
 62
    4
 10
1414.6223
 20
1097.9156
 11
1419.4051999999999
 21
1098.02
  0
LINE
  8
_0-0_LAYER001
  6
CONTINUOUS
 62
    4
 10
1419.4051999999999
 20
1098.02
 11
1424.0905
 21
1098.2224000000001
  0
LINE
  8
_0-0_LAYER001
  6
CONTINUOUS
 62
    4
 10
1424.0905
 20
1098.2224000000001
 11
1426.8657000000003
 21
1098.3824
  0
LINE
  8
_0-0_LAYER001
  6
CONTINUOUS
 62
    4
 10
1426.8657000000003
 20
1098.3824
 11
1431.8935999999999
 21
1098.7380000000001
  0
LINE
  8
_0-0_LAYER001
  6
CONTINUOUS
 62
    4
 10
1431.8935999999999
 20
1098.7380000000001
 11
1440.4097000000002
 21
1099.5181
  0
LINE
  8
_0-0_LAYER001
  6
CONTINUOUS
 62
    4
 10
1440.4097000000002
 20
1099.5181
 11
1448.8818000000001
 21
1100.4869000000001
  0
LINE
  8
_0-0_LAYER001
  6
CONTINUOUS
 62
    4
 10
1448.8818000000001
 20
1100.4869000000001
 11
1457.2584999999999
 21
1101.5989999999999
  0
LINE
  8
_0-0_LAYER001
  6
CONTINUOUS
 62
    4
 10
1457.2584999999999
 20
1101.5989999999999
 11
1465.5430000000001
 21
1102.8154999999999
  0
LINE
  8
_0-0_LAYER001
  6
CONTINUOUS
 62
    4
 10
1465.5430000000001
 20
1102.8154999999999
 11
1473.7336
 21
1104.0971999999999
  0
LINE
  8
_0-0_LAYER001
  6
CONTINUOUS
 62
    4
 10
1473.7336
 20
1104.0971999999999
 11
1478.4605999999999
 21
1104.8587
  0
LINE
  8
_0-0_LAYER001
  6
CONTINUOUS
 62
    4
 10
1478.4605999999999
 20
1104.8587
 11
1480.9106000000002
 21
1105.2569000000001
  0
LINE
  8
_0-0_LAYER001
  6
CONTINUOUS
 62
    4
 10
1480.9106000000002
 20
1105.2569000000001
 11
1485.1154999999999
 21
1105.9441999999999
  0
LINE
  8
_0-0_LAYER001
  6
CONTINUOUS
 62
    4
 10
1485.1154999999999
 20
1105.9441999999999
 11
1489.3177999999998
 21
1106.6353999999999
  0
LINE
  8
_0-0_LAYER001
  6
CONTINUOUS
 62
    4
 10
1489.3177999999998
 20
1106.6353999999999
 11
1493.5153
 21
1107.3291999999999
  0
LINE
  8
_0-0_LAYER001
  6
CONTINUOUS
 62
    4
 10
1493.5153
 20
1107.3291999999999
 11
1497.7082
 21
1108.0246
  0
LINE
  8
_0-0_LAYER001
  6
CONTINUOUS
 62
    4
 10
1497.7082
 20
1108.0246
 11
1501.8968
 21
1108.7207000000001
  0
LINE
  8
_0-0_LAYER001
  6
CONTINUOUS
 62
    4
 10
1501.8968
 20
1108.7207000000001
 11
1503.5109000000002
 21
1108.9892
  0
ARC
  8
_0-0_LAYER001
  6
CONTINUOUS
 62
    4
 10
1537.7465000000002
 20
1134.7864
 40
3
 50
103.0288
 51
179.49999999999997
  0
LINE
  8
_0-0_LAYER001
  6
CONTINUOUS
 62
    4
 10
1249.8202000000001
 20
1128.8117999999999
 11
1256.2123999999999
 21
1131.3338000000001
  0
ARC
  8
_0-0_LAYER001
  6
CONTINUOUS
 62
    4
 10
1249.4531999999999
 20
1129.742
 40
1
 50
179.5
 51
291.53165999999999
  0
LINE
  8
_0-0_LAYER001
  6
CONTINUOUS
 62
    4
 10
1542.3105
 20
1138.9218000000001
 11
1537.0702000000001
 21
1137.7092
  0
ARC
  8
_0-0_LAYER001
  6
CONTINUOUS
 62
    4
 10
1542.5358999999999
 20
1137.9475
 40
1
 50
359.50000000000006
 51
103.02880000000002
  0
LINE
  8
_0-0_LAYER001
  6
CONTINUOUS
 62
    4
 10
1504.6954999999998
 20
1107.2512999999999
 11
1535.0093000000002
 21
1114.3453
  0
ARC
  8
_0-0_LAYER001
  6
CONTINUOUS
 62
    4
 10
1542.3501000000001
 20
1116.6546000000001
 40
1
 50
359.50000000000006
 51
103.08296000000006
  0
LINE
  8
_0-0_LAYER001
  6
CONTINUOUS
 62
    4
 10
1535.7903000000001
 20
1116.1568
 11
1542.1237000000001
 21
1117.6287
  0
LINE
  8
_0-0_LAYER001
  6
CONTINUOUS
 62
    4
 10
1535.0167000000001
 20
1115.1914999999999
 11
1535.0093000000002
 21
1114.3453
  0
ARC
  8
_0-0_LAYER001
  6
CONTINUOUS
 62
    4
 10
1536.0165999999999
 20
1115.1828
 40
1
 50
103.08296000000001
 51
179.50000000000003
  0
ARC
  8
_0-0_LAYER001
  6
CONTINUOUS
 62
    4
 10
1542.3699999999999
 20
1118.9377999999999
 40
1
 50
283.04496999999998
 51
359.5
  0
LINE
  8
_0-0_LAYER001
  6
CONTINUOUS
 62
    4
 10
1502.2248
 20
1106.7478000000001
 11
1504.6529
 21
1107.1516999999999
  0
LINE
  8
_0-0_LAYER001
  6
CONTINUOUS
 62
    4
 10
1498.0358000000001
 20
1106.0516
 11
1502.2248
 21
1106.7478000000001
  0
LINE
  8
_0-0_LAYER001
  6
CONTINUOUS
 62
    4
 10
1493.8420000000001
 20
1105.356
 11
1498.0358000000001
 21
1106.0516
  0
LINE
  8
_0-0_LAYER001
  6
CONTINUOUS
 62
    4
 10
1489.6432
 20
1104.662
 11
1493.8420000000001
 21
1105.356
  0
LINE
  8
_0-0_LAYER001
  6
CONTINUOUS
 62
    4
 10
1485.4391999999998
 20
1103.9706000000001
 11
1489.6432
 21
1104.662
  0
LINE
  8
_0-0_LAYER001
  6
CONTINUOUS
 62
    4
 10
1481.2323000000001
 20
1103.2828999999999
 11
1485.4391999999998
 21
1103.9706000000001
  0
LINE
  8
_0-0_LAYER001
  6
CONTINUOUS
 62
    4
 10
1478.7800000000002
 20
1102.8843999999999
 11
1481.2323000000001
 21
1103.2828999999999
  0
LINE
  8
_0-0_LAYER001
  6
CONTINUOUS
 62
    4
 10
1474.0473000000002
 20
1102.1220000000001
 11
1478.7800000000002
 21
1102.8843999999999
  0
LINE
  8
_0-0_LAYER001
  6
CONTINUOUS
 62
    4
 10
1465.8429000000001
 20
1100.8380999999999
 11
1474.0473000000002
 21
1102.1220000000001
  0
LINE
  8
_0-0_LAYER001
  6
CONTINUOUS
 62
    4
 10
1457.5354000000002
 20
1099.6183000000001
 11
1465.8429000000001
 21
1100.8380999999999
  0
LINE
  8
_0-0_LAYER001
  6
CONTINUOUS
 62
    4
 10
1449.1271000000002
 20
1098.5019
 11
1457.5354000000002
 21
1099.6183000000001
  0
LINE
  8
_0-0_LAYER001
  6
CONTINUOUS
 62
    4
 10
1440.6145000000001
 20
1097.5284999999999
 11
1449.1271000000002
 21
1098.5019
  0
LINE
  8
_0-0_LAYER001
  6
CONTINUOUS
 62
    4
 10
1432.0554000000002
 20
1096.7445
 11
1440.6145000000001
 21
1097.5284999999999
  0
LINE
  8
_0-0_LAYER001
  6
CONTINUOUS
 62
    4
 10
1426.9938
 20
1096.3865000000001
 11
1432.0554000000002
 21
1096.7445
  0
LINE
  8
_0-0_LAYER001
  6
CONTINUOUS
 62
    4
 10
1424.1913
 20
1096.2248999999999
 11
1426.9938
 21
1096.3865000000001
  0
LINE
  8
_0-0_LAYER001
  6
CONTINUOUS
 62
    4
 10
1419.4702000000002
 20
1096.0209
 11
1424.1913
 21
1096.2248999999999
  0
LINE
  8
_0-0_LAYER001
  6
CONTINUOUS
 62
    4
 10
1414.6410000000001
 20
1095.9155000000001
 11
1419.4702000000002
 21
1096.0209
  0
LINE
  8
_0-0_LAYER001
  6
CONTINUOUS
 62
    4
 10
1409.7393999999999
 20
1095.9309000000001
 11
1414.6410000000001
 21
1095.9155000000001
  0
LINE
  8
_0-0_LAYER001
  6
CONTINUOUS
 62
    4
 10
1404.7683000000002
 20
1096.0887
 11
1409.7393999999999
 21
1095.9309000000001
  0
LINE
  8
_0-0_LAYER001
  6
CONTINUOUS
 62
    4
 10
1399.8108999999999
 20
1096.4065000000001
 11
1404.7683000000002
 21
1096.0887
  0
LINE
  8
_0-0_LAYER001
  6
CONTINUOUS
 62
    4
 10
1396.7592999999999
 20
1096.6878999999999
 11
1399.8108999999999
 21
1096.4065000000001
  0
LINE
  8
_0-0_LAYER001
  6
CONTINUOUS
 62
    4
 10
1392.8304000000001
 20
1097.1501000000001
 11
1396.7592999999999
 21
1096.6878999999999
  0
LINE
  8
_0-0_LAYER001
  6
CONTINUOUS
 62
    4
 10
1386.3164999999999
 20
1098.1727000000001
 11
1392.8304000000001
 21
1097.1501000000001
  0
LINE
  8
_0-0_LAYER001
  6
CONTINUOUS
 62
    4
 10
1379.7699
 20
1099.5247999999999
 11
1386.3164999999999
 21
1098.1727000000001
  0
LINE
  8
_0-0_LAYER001
  6
CONTINUOUS
 62
    4
 10
1373.3069
 20
1101.1806999999999
 11
1379.7699
 21
1099.5247999999999
  0
LINE
  8
_0-0_LAYER001
  6
CONTINUOUS
 62
    4
 10
1366.9409999999998
 20
1103.1314
 11
1373.3069
 21
1101.1806999999999
  0
LINE
  8
_0-0_LAYER001
  6
CONTINUOUS
 62
    4
 10
1360.7762
 20
1105.3363999999999
 11
1366.9409999999998
 21
1103.1314
  0
LINE
  8
_0-0_LAYER001
  6
CONTINUOUS
 62
    4
 10
1357.0895999999998
 20
1106.8081
 11
1360.7762
 21
1105.3363999999999
  0
LINE
  8
_0-0_LAYER001
  6
CONTINUOUS
 62
    4
 10
1352.7253000000001
 20
1108.7007000000001
 11
1357.0895999999998
 21
1106.8081
  0
LINE
  8
_0-0_LAYER001
  6
CONTINUOUS
 62
    4
 10
1345.6563000000001
 20
1112.1156000000001
 11
1352.7253000000001
 21
1108.7007000000001
  0
LINE
  8
_0-0_LAYER001
  6
CONTINUOUS
 62
    4
 10
1338.7634
 20
1115.8452
 11
1345.6563000000001
 21
1112.1156000000001
  0
LINE
  8
_0-0_LAYER001
  6
CONTINUOUS
 62
    4
 10
1332.1264000000001
 20
1119.7789
 11
1338.7634
 21
1115.8452
  0
LINE
  8
_0-0_LAYER001
  6
CONTINUOUS
 62
    4
 10
1325.7170000000001
 20
1123.8614
 11
1332.1264000000001
 21
1119.7789
  0
LINE
  8
_0-0_LAYER001
  6
CONTINUOUS
 62
    4
 10
1319.5328
 20
1128.0235
 11
1325.7170000000001
 21
1123.8614
  0
LINE
  8
_0-0_LAYER001
  6
CONTINUOUS
 62
    4
 10
1315.9905000000001
 20
1130.4872
 11
1319.5328
 21
1128.0235
  0
LINE
  8
_0-0_LAYER001
  6
CONTINUOUS
 62
    4
 10
1313.7584999999999
 20
1132.0607
 11
1315.9905000000001
 21
1130.4872
  0
LINE
  8
_0-0_LAYER001
  6
CONTINUOUS
 62
    4
 10
1310.1349
 20
1134.5998999999999
 11
1313.7584999999999
 21
1132.0607
  0
LINE
  8
_0-0_LAYER001
  6
CONTINUOUS
 62
    4
 10
1306.7653
 20
1136.8653999999999
 11
1310.1349
 21
1134.5998999999999
  0
LINE
  8
_0-0_LAYER001
  6
CONTINUOUS
 62
    4
 10
1303.6502999999998
 20
1138.7924
 11
1306.7653
 21
1136.8653999999999
  0
LINE
  8
_0-0_LAYER001
  6
CONTINUOUS
 62
    4
 10
1300.7831000000001
 20
1140.3481999999999
 11
1303.6502999999998
 21
1138.7924
  0
LINE
  8
_0-0_LAYER001
  6
CONTINUOUS
 62
    4
 10
1297.952
 20
1141.6166000000001
 11
1300.7831000000001
 21
1140.3481999999999
  0
LINE
  8
_0-0_LAYER001
  6
CONTINUOUS
 62
    4
 10
1296.4887000000001
 20
1142.1487999999999
 11
1297.952
 21
1141.6166000000001
  0
LINE
  8
_0-0_LAYER001
  6
CONTINUOUS
 62
    4
 10
1296.3076000000001
 20
1142.2067
 11
1296.4887000000001
 21
1142.1487999999999
  0
LINE
  8
_0-0_LAYER001
  6
CONTINUOUS
 62
    4
 10
1295.5194000000001
 20
1142.4347
 11
1296.3076000000001
 21
1142.2067
  0
LINE
  8
_0-0_LAYER001
  6
CONTINUOUS
 62
    4
 10
1294.8622
 20
1142.5974000000001
 11
1295.5194000000001
 21
1142.4347
  0
LINE
  8
_0-0_LAYER001
  6
CONTINUOUS
 62
    4
 10
1294.2804000000001
 20
1142.7154
 11
1294.8622
 21
1142.5974000000001
  0
LINE
  8
_0-0_LAYER001
  6
CONTINUOUS
 62
    4
 10
1294.2403999999999
 20
1142.7216000000001
 11
1294.2804000000001
 21
1142.7154
  0
LINE
  8
_0-0_LAYER001
  6
CONTINUOUS
 62
    4
 10
1498.2141999999999
 20
1087.5604000000001
 11
1499.8283000000001
 21
1087.8288
  0
LINE
  8
_0-0_LAYER001
  6
CONTINUOUS
 62
    4
 10
1494.0255999999999
 20
1086.8642
 11
1498.2141999999999
 21
1087.5604000000001
  0
LINE
  8
_0-0_LAYER001
  6
CONTINUOUS
 62
    4
 10
1489.8326999999999
 20
1086.1687999999999
 11
1494.0255999999999
 21
1086.8642
  0
LINE
  8
_0-0_LAYER001
  6
CONTINUOUS
 62
    4
 10
1485.6352999999999
 20
1085.4749999999999
 11
1489.8326999999999
 21
1086.1687999999999
  0
LINE
  8
_0-0_LAYER001
  6
CONTINUOUS
 62
    4
 10
1481.433
 20
1084.7837999999999
 11
1485.6352999999999
 21
1085.4749999999999
  0
LINE
  8
_0-0_LAYER001
  6
CONTINUOUS
 62
    4
 10
1477.2280000000001
 20
1084.0965000000001
 11
1481.433
 21
1084.7837999999999
  0
LINE
  8
_0-0_LAYER001
  6
CONTINUOUS
 62
    4
 10
1474.7779999999998
 20
1083.6983
 11
1477.2280000000001
 21
1084.0965000000001
  0
LINE
  8
_0-0_LAYER001
  6
CONTINUOUS
 62
    4
 10
1470.0509999999999
 20
1082.9367999999999
 11
1474.7779999999998
 21
1083.6983
  0
LINE
  8
_0-0_LAYER001
  6
CONTINUOUS
 62
    4
 10
1461.8604
 20
1081.6550999999999
 11
1470.0509999999999
 21
1082.9367999999999
  0
LINE
  8
_0-0_LAYER001
  6
CONTINUOUS
 62
    4
 10
1453.5758999999998
 20
1080.4386
 11
1461.8604
 21
1081.6550999999999
  0
LINE
  8
_0-0_LAYER001
  6
CONTINUOUS
 62
    4
 10
1445.1993000000002
 20
1079.3264999999999
 11
1453.5758999999998
 21
1080.4386
  0
LINE
  8
_0-0_LAYER001
  6
CONTINUOUS
 62
    4
 10
1436.7271000000001
 20
1078.3577
 11
1445.1993000000002
 21
1079.3264999999999
  0
LINE
  8
_0-0_LAYER001
  6
CONTINUOUS
 62
    4
 10
1428.211
 20
1077.5777
 11
1436.7271000000001
 21
1078.3577
  0
LINE
  8
_0-0_LAYER001
  6
CONTINUOUS
 62
    4
 10
1423.1831
 20
1077.222
 11
1428.211
 21
1077.5777
  0
LINE
  8
_0-0_LAYER001
  6
CONTINUOUS
 62
    4
 10
1420.4078999999999
 20
1077.0619999999999
 11
1423.1831
 21
1077.222
  0
LINE
  8
_0-0_LAYER001
  6
CONTINUOUS
 62
    4
 10
1415.7226000000001
 20
1076.8596
 11
1420.4078999999999
 21
1077.0619999999999
  0
LINE
  8
_0-0_LAYER001
  6
CONTINUOUS
 62
    4
 10
1410.9396999999999
 20
1076.7552000000001
 11
1415.7226000000001
 21
1076.8596
  0
LINE
  8
_0-0_LAYER001
  6
CONTINUOUS
 62
    4
 10
1406.0916999999999
 20
1076.7704000000001
 11
1410.9396999999999
 21
1076.7552000000001
  0
LINE
  8
_0-0_LAYER001
  6
CONTINUOUS
 62
    4
 10
1401.1814999999999
 20
1076.9263000000001
 11
1406.0916999999999
 21
1076.7704000000001
  0
LINE
  8
_0-0_LAYER001
  6
CONTINUOUS
 62
    4
 10
1396.2842000000001
 20
1077.2402
 11
1401.1814999999999
 21
1076.9263000000001
  0
LINE
  8
_0-0_LAYER001
  6
CONTINUOUS
 62
    4
 10
1393.2854
 20
1077.5166999999999
 11
1396.2842000000001
 21
1077.2402
  0
LINE
  8
_0-0_LAYER001
  6
CONTINUOUS
 62
    4
 10
1389.4199000000001
 20
1077.9715000000001
 11
1393.2854
 21
1077.5166999999999
  0
LINE
  8
_0-0_LAYER001
  6
CONTINUOUS
 62
    4
 10
1382.9915000000001
 20
1078.9807000000001
 11
1389.4199000000001
 21
1077.9715000000001
  0
LINE
  8
_0-0_LAYER001
  6
CONTINUOUS
 62
    4
 10
1376.538
 20
1080.3136
 11
1382.9915000000001
 21
1078.9807000000001
  0
LINE
  8
_0-0_LAYER001
  6
CONTINUOUS
 62
    4
 10
1370.1658
 20
1081.9462000000001
 11
1376.538
 21
1080.3136
  0
LINE
  8
_0-0_LAYER001
  6
CONTINUOUS
 62
    4
 10
1363.8885
 20
1083.8697
 11
1370.1658
 21
1081.9462000000001
  0
LINE
  8
_0-0_LAYER001
  6
CONTINUOUS
 62
    4
 10
1357.8014000000003
 20
1086.0469000000001
 11
1363.8885
 21
1083.8697
  0
LINE
  8
_0-0_LAYER001
  6
CONTINUOUS
 62
    4
 10
1354.1758
 20
1087.4943000000001
 11
1357.8014000000003
 21
1086.0469000000001
  0
LINE
  8
_0-0_LAYER001
  6
CONTINUOUS
 62
    4
 10
1349.8759
 20
1089.3588999999999
 11
1354.1758
 21
1087.4943000000001
  0
LINE
  8
_0-0_LAYER001
  6
CONTINUOUS
 62
    4
 10
1342.885
 20
1092.7361000000001
 11
1349.8759
 21
1089.3588999999999
  0
LINE
  8
_0-0_LAYER001
  6
CONTINUOUS
 62
    4
 10
1336.0669000000003
 20
1096.4253000000001
 11
1342.885
 21
1092.7361000000001
  0
LINE
  8
_0-0_LAYER001
  6
CONTINUOUS
 62
    4
 10
1329.4911
 20
1100.3226
 11
1336.0669000000003
 21
1096.4253000000001
  0
LINE
  8
_0-0_LAYER001
  6
CONTINUOUS
 62
    4
 10
1323.1302000000001
 20
1104.3742999999999
 11
1329.4911
 21
1100.3226
  0
LINE
  8
_0-0_LAYER001
  6
CONTINUOUS
 62
    4
 10
1316.9795999999999
 20
1108.5137999999999
 11
1323.1302000000001
 21
1104.3742999999999
  0
LINE
  8
_0-0_LAYER001
  6
CONTINUOUS
 62
    4
 10
1313.4550999999999
 20
1110.9650999999999
 11
1316.9795999999999
 21
1108.5137999999999
  0
LINE
  8
_0-0_LAYER001
  6
CONTINUOUS
 62
    4
 10
1311.2260000000001
 20
1112.5365999999999
 11
1313.4550999999999
 21
1110.9650999999999
  0
LINE
  8
_0-0_LAYER001
  6
CONTINUOUS
 62
    4
 10
1307.5843
 20
1115.0884000000001
 11
1311.2260000000001
 21
1112.5365999999999
  0
LINE
  8
_0-0_LAYER001
  6
CONTINUOUS
 62
    4
 10
1304.1670999999999
 20
1117.3859
 11
1307.5843
 21
1115.0884000000001
  0
LINE
  8
_0-0_LAYER001
  6
CONTINUOUS
 62
    4
 10
1300.9715000000001
 20
1119.3628000000001
 11
1304.1670999999999
 21
1117.3859
  0
LINE
  8
_0-0_LAYER001
  6
CONTINUOUS
 62
    4
 10
1297.9875999999999
 20
1120.9819
 11
1300.9715000000001
 21
1119.3628000000001
  0
LINE
  8
_0-0_LAYER001
  6
CONTINUOUS
 62
    4
 10
1295.0209999999997
 20
1122.3109999999999
 11
1297.9875999999999
 21
1120.9819
  0
LINE
  8
_0-0_LAYER001
  6
CONTINUOUS
 62
    4
 10
1294.271
 20
1122.5838000000001
 11
1295.0209999999997
 21
1122.3109999999999
  0
LINE
  8
_0-0_LAYER001
  6
CONTINUOUS
 62
    4
 10
1294.6041
 20
1142.6269
 11
1294.4281000000001
 21
1122.4535000000001
  0
LINE
  8
_0-0_LAYER001
  6
CONTINUOUS
 62
    4
 10
1542.4182000000001
 20
1097.6152999999999
 11
1499.598
 21
1087.6940999999999
  0
ARC
  8
_0-0_LAYER001
  6
CONTINUOUS
 62
    4
 10
1542.1925000000001
 20
1098.5895
 40
1
 50
283.04496999999998
 51
359.5
  0
LINE
  8
_0-0_LAYER001
  6
CONTINUOUS
 62
    4
 10
1495.1071000000002
 20
1077.3806
 11
1492.8616999999999
 21
1085.954
  0
ARC
  8
_0-0_LAYER001
  6
CONTINUOUS
 62
    4
 10
1498.0092
 20
1078.1405999999999
 40
3
 50
194.67639000000003
 51
270.00000000000006
  0
LINE
  8
_0-0_LAYER001
  6
CONTINUOUS
 62
    4
 10
1501.4270000000001
 20
1075.1405999999999
 11
1498.0092
 21
1075.1405999999999
  0
LINE
  8
_0-0_LAYER001
  6
CONTINUOUS
 62
    4
 10
1504.3861999999999
 20
1077.6474000000001
 11
1506.3202000000001
 21
1089.2516000000001
  0
ARC
  8
_0-0_LAYER001
  6
CONTINUOUS
 62
    4
 10
1501.4270000000001
 20
1078.1405999999999
 40
3
 50
270
 51
350.53766999999999
  0
LINE
  8
_0-0_LAYER001
  6
CONTINUOUS
 62
    4
 10
1248.5201
 20
1146.2889
 11
1248.5201
 21
1129.7564
  0
ARC
  8
_0-0_LAYER001
  6
CONTINUOUS
 62
    4
 10
1250.5201
 20
1146.2889
 40
2
 50
111.74902000000002
 51
180
  0
LINE
  8
_0-0_LAYER001
  6
CONTINUOUS
 62
    4
 10
1542.5956999999999
 20
1117.9636
 11
1503.5201000000002
 21
1108.9100000000001
  0
LINE
  8
_0-0_LAYER001
  6
CONTINUOUS
 62
    4
 10
1503.5201000000002
 20
1127.3868
 11
1503.5201000000002
 21
1108.9100000000001
  0
LINE
  8
_0-0_LAYER001
  6
CONTINUOUS
 62
    4
 10
1501.4958000000001
 20
1126.9177999999999
 11
1534.7449999999999
 21
1134.6215
  0
LINE
  8
_0-0_LAYER001
  6
CONTINUOUS
 62
    4
 10
1543.4564999999998
 20
1137.9956
 11
1543.4564999999998
 21
1118.9155000000001
  0
LINE
  8
_0-0_LAYER001
  6
CONTINUOUS
 62
    4
 10
1543.5639000000001
 20
1116.9286
 11
1543.5639000000001
 21
1098.7574
  0
LINE
  8
_0-0_LAYER001
  6
CONTINUOUS
 62
    4
 10
1625.4827
 20
1068.2071000000001
 11
1616.9472000000001
 21
1082.7405000000001
  0
LINE
  8
_0-0_LAYER001
  6
CONTINUOUS
 62
    4
 10
1633.6505999999999
 20
1067.5568000000001
 11
1641.9567999999999
 21
1077.6223
  0
ARC
  8
_0-0_LAYER001
  6
CONTINUOUS
 62
    4
 10
1629.7941000000001
 20
1070.7393
 40
5
 50
210.42578
 51
320.47001
  0
LINE
  8
_0-0_LAYER001
  6
CONTINUOUS
 62
    4
 10
1709.5962
 20
1067.087
 11
1702.2707999999998
 21
1078.393
  0
LINE
  8
_0-0_LAYER001
  6
CONTINUOUS
 62
    4
 10
1718.1057000000001
 20
1067.2769000000001
 11
1727.0441999999998
 21
1082.5226
  0
ARC
  8
_0-0_LAYER001
  6
DASHED1
 62
    4
 10
1713.7923999999998
 20
1069.8058000000001
 40
5
 50
212.93986000000001
 51
329.61716000000001
  0
LINE
  8
_0-0_LAYER001
  6
CONTINUOUS
 62
    4
 10
1506.0666000000001
 20
1148.6813
 11
1506.8762000000002
 21
1148.9992999999999
  0
LINE
  8
_0-0_LAYER001
  6
CONTINUOUS
 62
    4
 10
1506.8762000000002
 20
1148.9992999999999
 11
1510.4063999999998
 21
1150.3883000000001
  0
LINE
  8
_0-0_LAYER001
  6
CONTINUOUS
 62
    4
 10
1510.4063999999998
 20
1150.3883000000001
 11
1513.9438
 21
1151.7867000000001
  0
LINE
  8
_0-0_LAYER001
  6
CONTINUOUS
 62
    4
 10
1513.9438
 20
1151.7867000000001
 11
1517.4931000000001
 21
1153.2003999999999
  0
LINE
  8
_0-0_LAYER001
  6
CONTINUOUS
 62
    4
 10
1517.4931000000001
 20
1153.2003999999999
 11
1521.0587
 21
1154.6353999999999
  0
LINE
  8
_0-0_LAYER001
  6
CONTINUOUS
 62
    4
 10
1521.0587
 20
1154.6353999999999
 11
1524.6453999999999
 21
1156.0976000000001
  0
LINE
  8
_0-0_LAYER001
  6
CONTINUOUS
 62
    4
 10
1524.6453999999999
 20
1156.0976000000001
 11
1526.7370999999998
 21
1156.9604999999999
  0
LINE
  8
_0-0_LAYER001
  6
CONTINUOUS
 62
    4
 10
1526.7370999999998
 20
1156.9604999999999
 11
1528.8045999999999
 21
1157.8182999999999
  0
LINE
  8
_0-0_LAYER001
  6
CONTINUOUS
 62
    4
 10
1528.8045999999999
 20
1157.8182999999999
 11
1532.3912
 21
1159.27
  0
LINE
  8
_0-0_LAYER001
  6
CONTINUOUS
 62
    4
 10
1532.3912
 20
1159.27
 11
1536.0057000000002
 21
1160.6033
  0
LINE
  8
_0-0_LAYER001
  6
CONTINUOUS
 62
    4
 10
1536.0057000000002
 20
1160.6033
 11
1539.6484
 21
1161.7209
  0
LINE
  8
_0-0_LAYER001
  6
CONTINUOUS
 62
    4
 10
1539.6484
 20
1161.7209
 11
1543.3195999999998
 21
1162.5255
  0
LINE
  8
_0-0_LAYER001
  6
CONTINUOUS
 62
    4
 10
1543.3195999999998
 20
1162.5255
 11
1547.0198
 21
1162.9196999999999
  0
LINE
  8
_0-0_LAYER001
  6
CONTINUOUS
 62
    4
 10
1547.0198
 20
1162.9196999999999
 11
1549.1792
 21
1162.9219000000001
  0
LINE
  8
_0-0_LAYER001
  6
CONTINUOUS
 62
    4
 10
1549.1792
 20
1162.9219000000001
 11
1550.0291999999999
 21
1162.8724
  0
LINE
  8
_0-0_LAYER001
  6
CONTINUOUS
 62
    4
 10
1550.0291999999999
 20
1162.8724
 11
1551.4958000000001
 21
1162.7222999999999
  0
LINE
  8
_0-0_LAYER001
  6
CONTINUOUS
 62
    4
 10
1551.4958000000001
 20
1162.7222999999999
 11
1552.9602
 21
1162.4960000000001
  0
LINE
  8
_0-0_LAYER001
  6
CONTINUOUS
 62
    4
 10
1552.9602
 20
1162.4960000000001
 11
1554.4180999999999
 21
1162.2003
  0
LINE
  8
_0-0_LAYER001
  6
CONTINUOUS
 62
    4
 10
1554.4180999999999
 20
1162.2003
 11
1555.8654000000001
 21
1161.8420000000001
  0
LINE
  8
_0-0_LAYER001
  6
CONTINUOUS
 62
    4
 10
1555.8654000000001
 20
1161.8420000000001
 11
1557.2977000000001
 21
1161.4277999999999
  0
LINE
  8
_0-0_LAYER001
  6
CONTINUOUS
 62
    4
 10
1557.2977000000001
 20
1161.4277999999999
 11
1558.1199999999999
 21
1161.1646000000001
  0
LINE
  8
_0-0_LAYER001
  6
CONTINUOUS
 62
    4
 10
1558.1199999999999
 20
1161.1646000000001
 11
1560.6311999999998
 21
1160.2514000000001
  0
LINE
  8
_0-0_LAYER001
  6
CONTINUOUS
 62
    4
 10
1560.6311999999998
 20
1160.2514000000001
 11
1564.8166999999999
 21
1158.3761
  0
LINE
  8
_0-0_LAYER001
  6
CONTINUOUS
 62
    4
 10
1564.8166999999999
 20
1158.3761
 11
1568.8515000000002
 21
1156.1867999999999
  0
LINE
  8
_0-0_LAYER001
  6
CONTINUOUS
 62
    4
 10
1568.8515000000002
 20
1156.1867999999999
 11
1572.7725999999998
 21
1153.7610999999999
  0
LINE
  8
_0-0_LAYER001
  6
CONTINUOUS
 62
    4
 10
1572.7725999999998
 20
1153.7610999999999
 11
1576.6170999999999
 21
1151.1763000000001
  0
LINE
  8
_0-0_LAYER001
  6
CONTINUOUS
 62
    4
 10
1576.6170999999999
 20
1151.1763000000001
 11
1580.4218999999998
 21
1148.5101
  0
LINE
  8
_0-0_LAYER001
  6
CONTINUOUS
 62
    4
 10
1580.4218999999998
 20
1148.5101
 11
1582.6251999999999
 21
1146.9568999999999
  0
LINE
  8
_0-0_LAYER001
  6
CONTINUOUS
 62
    4
 10
1582.6251999999999
 20
1146.9568999999999
 11
1585.9897000000001
 21
1144.6169
  0
LINE
  8
_0-0_LAYER001
  6
CONTINUOUS
 62
    4
 10
1585.9897000000001
 20
1144.6169
 11
1591.8375000000001
 21
1140.6812
  0
LINE
  8
_0-0_LAYER001
  6
CONTINUOUS
 62
    4
 10
1591.8375000000001
 20
1140.6812
 11
1597.7629000000002
 21
1136.9069
  0
LINE
  8
_0-0_LAYER001
  6
CONTINUOUS
 62
    4
 10
1597.7629000000002
 20
1136.9069
 11
1603.7874999999999
 21
1133.3362
  0
LINE
  8
_0-0_LAYER001
  6
CONTINUOUS
 62
    4
 10
1603.7874999999999
 20
1133.3362
 11
1609.9326999999998
 21
1130.0111999999999
  0
LINE
  8
_0-0_LAYER001
  6
CONTINUOUS
 62
    4
 10
1609.9326999999998
 20
1130.0111999999999
 11
1616.2199999999998
 21
1126.9738
  0
LINE
  8
_0-0_LAYER001
  6
CONTINUOUS
 62
    4
 10
1616.2199999999998
 20
1126.9738
 11
1619.9402
 21
1125.3606
  0
LINE
  8
_0-0_LAYER001
  6
CONTINUOUS
 62
    4
 10
1619.9402
 20
1125.3606
 11
1623.0169000000001
 21
1124.1324
  0
LINE
  8
_0-0_LAYER001
  6
CONTINUOUS
 62
    4
 10
1623.0169000000001
 20
1124.1324
 11
1628.4049
 21
1122.2053000000001
  0
LINE
  8
_0-0_LAYER001
  6
CONTINUOUS
 62
    4
 10
1628.4049
 20
1122.2053000000001
 11
1633.8845999999999
 21
1120.5261
  0
LINE
  8
_0-0_LAYER001
  6
CONTINUOUS
 62
    4
 10
1633.8845999999999
 20
1120.5261
 11
1639.4398999999999
 21
1119.1027999999999
  0
LINE
  8
_0-0_LAYER001
  6
CONTINUOUS
 62
    4
 10
1639.4398999999999
 20
1119.1027999999999
 11
1645.0549999999998
 21
1117.9431
  0
LINE
  8
_0-0_LAYER001
  6
CONTINUOUS
 62
    4
 10
1645.0549999999998
 20
1117.9431
 11
1650.7136999999998
 21
1117.0547999999999
  0
LINE
  8
_0-0_LAYER001
  6
CONTINUOUS
 62
    4
 10
1650.7136999999998
 20
1117.0547999999999
 11
1654.0093999999999
 21
1116.6669999999999
  0
LINE
  8
_0-0_LAYER001
  6
CONTINUOUS
 62
    4
 10
1654.0093999999999
 20
1116.6669999999999
 11
1656.5320999999999
 21
1116.4344000000001
  0
LINE
  8
_0-0_LAYER001
  6
CONTINUOUS
 62
    4
 10
1656.5320999999999
 20
1116.4344000000001
 11
1660.8886000000002
 21
1116.1550999999999
  0
LINE
  8
_0-0_LAYER001
  6
CONTINUOUS
 62
    4
 10
1660.8886000000002
 20
1116.1550999999999
 11
1665.2511
 21
1116.0165999999999
  0
LINE
  8
_0-0_LAYER001
  6
CONTINUOUS
 62
    4
 10
1665.2511
 20
1116.0165999999999
 11
1669.6170000000002
 21
1116.0029
  0
LINE
  8
_0-0_LAYER001
  6
CONTINUOUS
 62
    4
 10
1669.6170000000002
 20
1116.0029
 11
1673.9832000000001
 21
1116.0981999999999
  0
LINE
  8
_0-0_LAYER001
  6
CONTINUOUS
 62
    4
 10
1673.9832000000001
 20
1116.0981999999999
 11
1678.3469
 21
1116.2867000000001
  0
LINE
  8
_0-0_LAYER001
  6
CONTINUOUS
 62
    4
 10
1678.3469
 20
1116.2867000000001
 11
1680.8755000000001
 21
1116.4324999999999
  0
LINE
  8
_0-0_LAYER001
  6
CONTINUOUS
 62
    4
 10
1680.8755000000001
 20
1116.4324999999999
 11
1685.6003999999998
 21
1116.7666999999999
  0
LINE
  8
_0-0_LAYER001
  6
CONTINUOUS
 62
    4
 10
1685.6003999999998
 20
1116.7666999999999
 11
1693.7289999999998
 21
1117.5112999999999
  0
LINE
  8
_0-0_LAYER001
  6
CONTINUOUS
 62
    4
 10
1693.7289999999998
 20
1117.5112999999999
 11
1701.8375999999998
 21
1118.4385
  0
LINE
  8
_0-0_LAYER001
  6
CONTINUOUS
 62
    4
 10
1701.8375999999998
 20
1118.4385
 11
1709.9292
 21
1119.5128
  0
LINE
  8
_0-0_LAYER001
  6
CONTINUOUS
 62
    4
 10
1709.9292
 20
1119.5128
 11
1718.0068999999999
 21
1120.6989000000001
  0
LINE
  8
_0-0_LAYER001
  6
CONTINUOUS
 62
    4
 10
1718.0068999999999
 20
1120.6989000000001
 11
1726.0736000000002
 21
1121.9612
  0
LINE
  8
_0-0_LAYER001
  6
CONTINUOUS
 62
    4
 10
1726.0736000000002
 20
1121.9612
 11
1730.7485000000001
 21
1122.7144000000001
  0
LINE
  8
_0-0_LAYER001
  6
CONTINUOUS
 62
    4
 10
1730.7485000000001
 20
1122.7144000000001
 11
1733.1781000000001
 21
1123.1092000000001
  0
LINE
  8
_0-0_LAYER001
  6
CONTINUOUS
 62
    4
 10
1733.1781000000001
 20
1123.1092000000001
 11
1737.3658999999998
 21
1123.7936999999999
  0
LINE
  8
_0-0_LAYER001
  6
CONTINUOUS
 62
    4
 10
1737.3658999999998
 20
1123.7936999999999
 11
1741.5524
 21
1124.4822999999999
  0
LINE
  8
_0-0_LAYER001
  6
CONTINUOUS
 62
    4
 10
1741.5524
 20
1124.4822999999999
 11
1745.7379999999998
 21
1125.1741
  0
LINE
  8
_0-0_LAYER001
  6
CONTINUOUS
 62
    4
 10
1745.7379999999998
 20
1125.1741
 11
1749.9229
 21
1125.8681999999999
  0
LINE
  8
_0-0_LAYER001
  6
CONTINUOUS
 62
    4
 10
1749.9229
 20
1125.8681999999999
 11
1754.1073000000001
 21
1126.5636999999999
  0
LINE
  8
_0-0_LAYER001
  6
CONTINUOUS
 62
    4
 10
1754.1073000000001
 20
1126.5636999999999
 11
1756.5342000000001
 21
1126.9674
  0
LINE
  8
_0-0_LAYER001
  6
CONTINUOUS
 62
    4
 10
1511.4110999999998
 20
1131.4417000000001
 11
1513.4618999999998
 21
1132.2473
  0
LINE
  8
_0-0_LAYER001
  6
CONTINUOUS
 62
    4
 10
1513.4618999999998
 20
1132.2473
 11
1517.0102999999999
 21
1133.6434999999999
  0
LINE
  8
_0-0_LAYER001
  6
CONTINUOUS
 62
    4
 10
1517.0102999999999
 20
1133.6434999999999
 11
1520.5828999999999
 21
1135.0558000000001
  0
LINE
  8
_0-0_LAYER001
  6
CONTINUOUS
 62
    4
 10
1520.5828999999999
 20
1135.0558000000001
 11
1524.1835999999998
 21
1136.49
  0
LINE
  8
_0-0_LAYER001
  6
CONTINUOUS
 62
    4
 10
1524.1835999999998
 20
1136.49
 11
1527.8164999999999
 21
1137.9521
  0
LINE
  8
_0-0_LAYER001
  6
CONTINUOUS
 62
    4
 10
1527.8164999999999
 20
1137.9521
 11
1531.4751999999999
 21
1139.4436000000001
  0
LINE
  8
_0-0_LAYER001
  6
CONTINUOUS
 62
    4
 10
1531.4751999999999
 20
1139.4436000000001
 11
1533.6183000000001
 21
1140.3277
  0
LINE
  8
_0-0_LAYER001
  6
CONTINUOUS
 62
    4
 10
1533.6183000000001
 20
1140.3277
 11
1535.6304
 21
1141.1624999999999
  0
LINE
  8
_0-0_LAYER001
  6
CONTINUOUS
 62
    4
 10
1535.6304
 20
1141.1624999999999
 11
1538.8842
 21
1142.4794999999999
  0
LINE
  8
_0-0_LAYER001
  6
CONTINUOUS
 62
    4
 10
1538.8842
 20
1142.4794999999999
 11
1541.7647999999999
 21
1143.5420999999999
  0
LINE
  8
_0-0_LAYER001
  6
CONTINUOUS
 62
    4
 10
1541.7647999999999
 20
1143.5420999999999
 11
1544.2226000000001
 21
1144.2962
  0
LINE
  8
_0-0_LAYER001
  6
CONTINUOUS
 62
    4
 10
1544.2226000000001
 20
1144.2962
 11
1546.2084
 21
1144.7313999999999
  0
LINE
  8
_0-0_LAYER001
  6
CONTINUOUS
 62
    4
 10
1546.2084
 20
1144.7313999999999
 11
1547.9852999999998
 21
1144.9206999999999
  0
LINE
  8
_0-0_LAYER001
  6
CONTINUOUS
 62
    4
 10
1547.9852999999998
 20
1144.9206999999999
 11
1548.6649000000002
 21
1144.9213999999999
  0
LINE
  8
_0-0_LAYER001
  6
CONTINUOUS
 62
    4
 10
1548.6649000000002
 20
1144.9213999999999
 11
1548.5886999999998
 21
1144.9258
  0
LINE
  8
_0-0_LAYER001
  6
CONTINUOUS
 62
    4
 10
1548.5886999999998
 20
1144.9258
 11
1549.2033000000001
 21
1144.8629000000001
  0
LINE
  8
_0-0_LAYER001
  6
CONTINUOUS
 62
    4
 10
1549.2033000000001
 20
1144.8629000000001
 11
1549.7950000000001
 21
1144.7715000000001
  0
LINE
  8
_0-0_LAYER001
  6
CONTINUOUS
 62
    4
 10
1549.7950000000001
 20
1144.7715000000001
 11
1550.4643999999998
 21
1144.6357
  0
LINE
  8
_0-0_LAYER001
  6
CONTINUOUS
 62
    4
 10
1550.4643999999998
 20
1144.6357
 11
1551.2006000000001
 21
1144.4534000000001
  0
LINE
  8
_0-0_LAYER001
  6
CONTINUOUS
 62
    4
 10
1551.2006000000001
 20
1144.4534000000001
 11
1552.0533
 21
1144.2068999999999
  0
LINE
  8
_0-0_LAYER001
  6
CONTINUOUS
 62
    4
 10
1552.0533
 20
1144.2068999999999
 11
1552.2984999999999
 21
1144.1284000000001
  0
LINE
  8
_0-0_LAYER001
  6
CONTINUOUS
 62
    4
 10
1552.2984999999999
 20
1144.1284000000001
 11
1553.8665000000001
 21
1143.5581999999999
  0
LINE
  8
_0-0_LAYER001
  6
CONTINUOUS
 62
    4
 10
1553.8665000000001
 20
1143.5581999999999
 11
1556.8330999999998
 21
1142.229
  0
LINE
  8
_0-0_LAYER001
  6
CONTINUOUS
 62
    4
 10
1556.8330999999998
 20
1142.229
 11
1559.817
 21
1140.6098999999999
  0
LINE
  8
_0-0_LAYER001
  6
CONTINUOUS
 62
    4
 10
1559.817
 20
1140.6098999999999
 11
1563.0126
 21
1138.633
  0
LINE
  8
_0-0_LAYER001
  6
CONTINUOUS
 62
    4
 10
1563.0126
 20
1138.633
 11
1566.4297999999999
 21
1136.3356000000001
  0
LINE
  8
_0-0_LAYER001
  6
CONTINUOUS
 62
    4
 10
1566.4297999999999
 20
1136.3356000000001
 11
1570.0715
 21
1133.7837
  0
LINE
  8
_0-0_LAYER001
  6
CONTINUOUS
 62
    4
 10
1570.0715
 20
1133.7837
 11
1572.3006
 21
1132.2121999999999
  0
LINE
  8
_0-0_LAYER001
  6
CONTINUOUS
 62
    4
 10
1572.3006
 20
1132.2121999999999
 11
1575.8251
 21
1129.7609
  0
LINE
  8
_0-0_LAYER001
  6
CONTINUOUS
 62
    4
 10
1575.8251
 20
1129.7609
 11
1581.9757
 21
1125.6214
  0
LINE
  8
_0-0_LAYER001
  6
CONTINUOUS
 62
    4
 10
1581.9757
 20
1125.6214
 11
1588.3366999999998
 21
1121.5698
  0
LINE
  8
_0-0_LAYER001
  6
CONTINUOUS
 62
    4
 10
1588.3366999999998
 20
1121.5698
 11
1594.9124000000002
 21
1117.6723999999999
  0
LINE
  8
_0-0_LAYER001
  6
CONTINUOUS
 62
    4
 10
1594.9124000000002
 20
1117.6723999999999
 11
1601.7305000000001
 21
1113.9831999999999
  0
LINE
  8
_0-0_LAYER001
  6
CONTINUOUS
 62
    4
 10
1601.7305000000001
 20
1113.9831999999999
 11
1608.7213999999999
 21
1110.606
  0
LINE
  8
_0-0_LAYER001
  6
CONTINUOUS
 62
    4
 10
1608.7213999999999
 20
1110.606
 11
1613.0212999999999
 21
1108.7414000000001
  0
LINE
  8
_0-0_LAYER001
  6
CONTINUOUS
 62
    4
 10
1613.0212999999999
 20
1108.7414000000001
 11
1616.6469000000002
 21
1107.2940000000001
  0
LINE
  8
_0-0_LAYER001
  6
CONTINUOUS
 62
    4
 10
1616.6469000000002
 20
1107.2940000000001
 11
1622.7339999999999
 21
1105.1168
  0
LINE
  8
_0-0_LAYER001
  6
CONTINUOUS
 62
    4
 10
1622.7339999999999
 20
1105.1168
 11
1629.0113000000001
 21
1103.1932999999999
  0
LINE
  8
_0-0_LAYER001
  6
CONTINUOUS
 62
    4
 10
1629.0113000000001
 20
1103.1932999999999
 11
1635.3834999999999
 21
1101.5607
  0
LINE
  8
_0-0_LAYER001
  6
CONTINUOUS
 62
    4
 10
1635.3834999999999
 20
1101.5607
 11
1641.837
 21
1100.2277999999999
  0
LINE
  8
_0-0_LAYER001
  6
CONTINUOUS
 62
    4
 10
1641.837
 20
1100.2277999999999
 11
1648.2654000000002
 21
1099.2186999999999
  0
LINE
  8
_0-0_LAYER001
  6
CONTINUOUS
 62
    4
 10
1648.2654000000002
 20
1099.2186999999999
 11
1652.1309000000001
 21
1098.7638999999999
  0
LINE
  8
_0-0_LAYER001
  6
CONTINUOUS
 62
    4
 10
1652.1309000000001
 20
1098.7638999999999
 11
1655.1297
 21
1098.4873
  0
LINE
  8
_0-0_LAYER001
  6
CONTINUOUS
 62
    4
 10
1655.1297
 20
1098.4873
 11
1660.027
 21
1098.1733999999999
  0
LINE
  8
_0-0_LAYER001
  6
CONTINUOUS
 62
    4
 10
1660.027
 20
1098.1733999999999
 11
1664.9371999999998
 21
1098.0174999999999
  0
LINE
  8
_0-0_LAYER001
  6
CONTINUOUS
 62
    4
 10
1664.9371999999998
 20
1098.0174999999999
 11
1669.7851999999998
 21
1098.0023000000001
  0
LINE
  8
_0-0_LAYER001
  6
CONTINUOUS
 62
    4
 10
1669.7851999999998
 20
1098.0023000000001
 11
1674.5681
 21
1098.1067
  0
LINE
  8
_0-0_LAYER001
  6
CONTINUOUS
 62
    4
 10
1674.5681
 20
1098.1067
 11
1679.2534000000001
 21
1098.3090999999999
  0
LINE
  8
_0-0_LAYER001
  6
CONTINUOUS
 62
    4
 10
1679.2534000000001
 20
1098.3090999999999
 11
1682.0286000000001
 21
1098.4691
  0
LINE
  8
_0-0_LAYER001
  6
CONTINUOUS
 62
    4
 10
1682.0286000000001
 20
1098.4691
 11
1687.0565000000001
 21
1098.8248000000001
  0
LINE
  8
_0-0_LAYER001
  6
CONTINUOUS
 62
    4
 10
1687.0565000000001
 20
1098.8248000000001
 11
1695.5726
 21
1099.6048000000001
  0
LINE
  8
_0-0_LAYER001
  6
CONTINUOUS
 62
    4
 10
1695.5726
 20
1099.6048000000001
 11
1704.0448000000001
 21
1100.5735999999999
  0
LINE
  8
_0-0_LAYER001
  6
CONTINUOUS
 62
    4
 10
1704.0448000000001
 20
1100.5735999999999
 11
1712.4214000000002
 21
1101.6858
  0
LINE
  8
_0-0_LAYER001
  6
CONTINUOUS
 62
    4
 10
1712.4214000000002
 20
1101.6858
 11
1720.7058999999999
 21
1102.9022
  0
LINE
  8
_0-0_LAYER001
  6
CONTINUOUS
 62
    4
 10
1720.7058999999999
 20
1102.9022
 11
1728.8964999999998
 21
1104.1839
  0
LINE
  8
_0-0_LAYER001
  6
CONTINUOUS
 62
    4
 10
1728.8964999999998
 20
1104.1839
 11
1733.6235000000001
 21
1104.9455
  0
LINE
  8
_0-0_LAYER001
  6
CONTINUOUS
 62
    4
 10
1733.6235000000001
 20
1104.9455
 11
1736.0735
 21
1105.3435999999999
  0
LINE
  8
_0-0_LAYER001
  6
CONTINUOUS
 62
    4
 10
1736.0735
 20
1105.3435999999999
 11
1740.2784000000001
 21
1106.0309
  0
LINE
  8
_0-0_LAYER001
  6
CONTINUOUS
 62
    4
 10
1740.2784000000001
 20
1106.0309
 11
1744.4807000000001
 21
1106.7221
  0
LINE
  8
_0-0_LAYER001
  6
CONTINUOUS
 62
    4
 10
1744.4807000000001
 20
1106.7221
 11
1748.6781999999998
 21
1107.4159
  0
LINE
  8
_0-0_LAYER001
  6
CONTINUOUS
 62
    4
 10
1748.6781999999998
 20
1107.4159
 11
1752.8710999999998
 21
1108.1113
  0
LINE
  8
_0-0_LAYER001
  6
CONTINUOUS
 62
    4
 10
1752.8710999999998
 20
1108.1113
 11
1757.0596999999998
 21
1108.8074999999999
  0
LINE
  8
_0-0_LAYER001
  6
CONTINUOUS
 62
    4
 10
1757.0596999999998
 20
1108.8074999999999
 11
1758.6738
 21
1109.0759
  0
ARC
  8
_0-0_LAYER001
  6
CONTINUOUS
 62
    4
 10
1792.9094
 20
1134.8731
 40
3
 50
103.0288
 51
179.49999999999997
  0
LINE
  8
_0-0_LAYER001
  6
CONTINUOUS
 62
    4
 10
1504.9830999999999
 20
1128.8985
 11
1511.3753999999999
 21
1131.4205999999999
  0
ARC
  8
_0-0_LAYER001
  6
CONTINUOUS
 62
    4
 10
1504.6161000000002
 20
1129.8287
 40
1
 50
179.5
 51
291.53165999999999
  0
LINE
  8
_0-0_LAYER001
  6
CONTINUOUS
 62
    4
 10
1797.4733999999999
 20
1139.0084999999999
 11
1792.2330999999999
 21
1137.7959000000001
  0
ARC
  8
_0-0_LAYER001
  6
CONTINUOUS
 62
    4
 10
1797.6988000000001
 20
1138.0342000000001
 40
1
 50
359.50000000000006
 51
103.02880000000002
  0
LINE
  8
_0-0_LAYER001
  6
CONTINUOUS
 62
    4
 10
1759.8584000000001
 20
1107.3380999999999
 11
1790.1722
 21
1114.4321
  0
ARC
  8
_0-0_LAYER001
  6
CONTINUOUS
 62
    4
 10
1797.5129999999999
 20
1116.7414000000001
 40
1
 50
359.50000000000006
 51
103.08296000000006
  0
LINE
  8
_0-0_LAYER001
  6
CONTINUOUS
 62
    4
 10
1790.9531999999999
 20
1116.2435
 11
1797.2865999999999
 21
1117.7154
  0
LINE
  8
_0-0_LAYER001
  6
CONTINUOUS
 62
    4
 10
1790.1795999999999
 20
1115.2782
 11
1790.1722
 21
1114.4321
  0
ARC
  8
_0-0_LAYER001
  6
CONTINUOUS
 62
    4
 10
1791.1795000000002
 20
1115.2695000000001
 40
1
 50
103.08296000000001
 51
179.50000000000003
  0
ARC
  8
_0-0_LAYER001
  6
CONTINUOUS
 62
    4
 10
1797.5329000000002
 20
1119.0245
 40
1
 50
283.04496999999998
 51
359.5
  0
LINE
  8
_0-0_LAYER001
  6
CONTINUOUS
 62
    4
 10
1757.3877000000002
 20
1106.8344999999999
 11
1759.8157999999999
 21
1107.2384
  0
LINE
  8
_0-0_LAYER001
  6
CONTINUOUS
 62
    4
 10
1753.1986999999999
 20
1106.1383000000001
 11
1757.3877000000002
 21
1106.8344999999999
  0
LINE
  8
_0-0_LAYER001
  6
CONTINUOUS
 62
    4
 10
1749.0048999999999
 20
1105.4427000000001
 11
1753.1986999999999
 21
1106.1383000000001
  0
LINE
  8
_0-0_LAYER001
  6
CONTINUOUS
 62
    4
 10
1744.8060999999998
 20
1104.7488000000001
 11
1749.0048999999999
 21
1105.4427000000001
  0
LINE
  8
_0-0_LAYER001
  6
CONTINUOUS
 62
    4
 10
1740.6019999999999
 20
1104.0572999999999
 11
1744.8060999999998
 21
1104.7488000000001
  0
LINE
  8
_0-0_LAYER001
  6
CONTINUOUS
 62
    4
 10
1736.3951999999999
 20
1103.3696
 11
1740.6019999999999
 21
1104.0572999999999
  0
LINE
  8
_0-0_LAYER001
  6
CONTINUOUS
 62
    4
 10
1733.9430000000002
 20
1102.9711
 11
1736.3951999999999
 21
1103.3696
  0
LINE
  8
_0-0_LAYER001
  6
CONTINUOUS
 62
    4
 10
1729.2102
 20
1102.2086999999999
 11
1733.9430000000002
 21
1102.9711
  0
LINE
  8
_0-0_LAYER001
  6
CONTINUOUS
 62
    4
 10
1721.0057999999999
 20
1100.9248
 11
1729.2102
 21
1102.2086999999999
  0
LINE
  8
_0-0_LAYER001
  6
CONTINUOUS
 62
    4
 10
1712.6983
 20
1099.7049999999999
 11
1721.0057999999999
 21
1100.9248
  0
LINE
  8
_0-0_LAYER001
  6
CONTINUOUS
 62
    4
 10
1704.29
 20
1098.5886
 11
1712.6983
 21
1099.7049999999999
  0
LINE
  8
_0-0_LAYER001
  6
CONTINUOUS
 62
    4
 10
1695.7773999999999
 20
1097.6152
 11
1704.29
 21
1098.5886
  0
LINE
  8
_0-0_LAYER001
  6
CONTINUOUS
 62
    4
 10
1687.2183
 20
1096.8312000000001
 11
1695.7773999999999
 21
1097.6152
  0
LINE
  8
_0-0_LAYER001
  6
CONTINUOUS
 62
    4
 10
1682.1568000000002
 20
1096.4731999999999
 11
1687.2183
 21
1096.8312000000001
  0
LINE
  8
_0-0_LAYER001
  6
CONTINUOUS
 62
    4
 10
1679.3542000000002
 20
1096.3116
 11
1682.1568000000002
 21
1096.4731999999999
  0
LINE
  8
_0-0_LAYER001
  6
CONTINUOUS
 62
    4
 10
1674.6331
 20
1096.1076
 11
1679.3542000000002
 21
1096.3116
  0
LINE
  8
_0-0_LAYER001
  6
CONTINUOUS
 62
    4
 10
1669.8038999999999
 20
1096.0021999999999
 11
1674.6331
 21
1096.1076
  0
LINE
  8
_0-0_LAYER001
  6
CONTINUOUS
 62
    4
 10
1664.9023000000002
 20
1096.0175999999999
 11
1669.8038999999999
 21
1096.0021999999999
  0
LINE
  8
_0-0_LAYER001
  6
CONTINUOUS
 62
    4
 10
1659.9313000000002
 20
1096.1754000000001
 11
1664.9023000000002
 21
1096.0175999999999
  0
LINE
  8
_0-0_LAYER001
  6
CONTINUOUS
 62
    4
 10
1654.9739
 20
1096.4931999999999
 11
1659.9313000000002
 21
1096.1754000000001
  0
LINE
  8
_0-0_LAYER001
  6
CONTINUOUS
 62
    4
 10
1651.9222
 20
1096.7746
 11
1654.9739
 21
1096.4931999999999
  0
LINE
  8
_0-0_LAYER001
  6
CONTINUOUS
 62
    4
 10
1647.9933999999998
 20
1097.2369000000001
 11
1651.9222
 21
1096.7746
  0
LINE
  8
_0-0_LAYER001
  6
CONTINUOUS
 62
    4
 10
1641.4794000000002
 20
1098.2593999999999
 11
1647.9933999999998
 21
1097.2369000000001
  0
LINE
  8
_0-0_LAYER001
  6
CONTINUOUS
 62
    4
 10
1634.9328
 20
1099.6115
 11
1641.4794000000002
 21
1098.2593999999999
  0
LINE
  8
_0-0_LAYER001
  6
CONTINUOUS
 62
    4
 10
1628.4699000000001
 20
1101.2674
 11
1634.9328
 21
1099.6115
  0
LINE
  8
_0-0_LAYER001
  6
CONTINUOUS
 62
    4
 10
1622.1039000000001
 20
1103.2181
 11
1628.4699000000001
 21
1101.2674
  0
LINE
  8
_0-0_LAYER001
  6
CONTINUOUS
 62
    4
 10
1615.9391999999998
 20
1105.4231
 11
1622.1039000000001
 21
1103.2181
  0
LINE
  8
_0-0_LAYER001
  6
CONTINUOUS
 62
    4
 10
1612.2525000000001
 20
1106.8949
 11
1615.9391999999998
 21
1105.4231
  0
LINE
  8
_0-0_LAYER001
  6
CONTINUOUS
 62
    4
 10
1607.8881999999999
 20
1108.7873999999999
 11
1612.2525000000001
 21
1106.8949
  0
LINE
  8
_0-0_LAYER001
  6
CONTINUOUS
 62
    4
 10
1600.8191999999999
 20
1112.2022999999999
 11
1607.8881999999999
 21
1108.7873999999999
  0
LINE
  8
_0-0_LAYER001
  6
CONTINUOUS
 62
    4
 10
1593.9263000000001
 20
1115.932
 11
1600.8191999999999
 21
1112.2022999999999
  0
LINE
  8
_0-0_LAYER001
  6
CONTINUOUS
 62
    4
 10
1587.2892999999999
 20
1119.8656000000001
 11
1593.9263000000001
 21
1115.932
  0
LINE
  8
_0-0_LAYER001
  6
CONTINUOUS
 62
    4
 10
1580.8800000000001
 20
1123.9481000000001
 11
1587.2892999999999
 21
1119.8656000000001
  0
LINE
  8
_0-0_LAYER001
  6
CONTINUOUS
 62
    4
 10
1574.6958
 20
1128.1102000000001
 11
1580.8800000000001
 21
1123.9481000000001
  0
LINE
  8
_0-0_LAYER001
  6
CONTINUOUS
 62
    4
 10
1571.1534000000001
 20
1130.5739000000001
 11
1574.6958
 21
1128.1102000000001
  0
LINE
  8
_0-0_LAYER001
  6
CONTINUOUS
 62
    4
 10
1568.9214000000002
 20
1132.1474000000001
 11
1571.1534000000001
 21
1130.5739000000001
  0
LINE
  8
_0-0_LAYER001
  6
CONTINUOUS
 62
    4
 10
1565.2977999999998
 20
1134.6866
 11
1568.9214000000002
 21
1132.1474000000001
  0
LINE
  8
_0-0_LAYER001
  6
CONTINUOUS
 62
    4
 10
1561.9281999999998
 20
1136.9521
 11
1565.2977999999998
 21
1134.6866
  0
LINE
  8
_0-0_LAYER001
  6
CONTINUOUS
 62
    4
 10
1558.8132000000001
 20
1138.8791000000001
 11
1561.9281999999998
 21
1136.9521
  0
LINE
  8
_0-0_LAYER001
  6
CONTINUOUS
 62
    4
 10
1555.9459999999999
 20
1140.4349
 11
1558.8132000000001
 21
1138.8791000000001
  0
LINE
  8
_0-0_LAYER001
  6
CONTINUOUS
 62
    4
 10
1553.1149
 20
1141.7032999999999
 11
1555.9459999999999
 21
1140.4349
  0
LINE
  8
_0-0_LAYER001
  6
CONTINUOUS
 62
    4
 10
1551.6516999999999
 20
1142.2355
 11
1553.1149
 21
1141.7032999999999
  0
LINE
  8
_0-0_LAYER001
  6
CONTINUOUS
 62
    4
 10
1551.4706000000001
 20
1142.2934
 11
1551.6516999999999
 21
1142.2355
  0
LINE
  8
_0-0_LAYER001
  6
CONTINUOUS
 62
    4
 10
1550.6822999999999
 20
1142.5214000000001
 11
1551.4706000000001
 21
1142.2934
  0
LINE
  8
_0-0_LAYER001
  6
CONTINUOUS
 62
    4
 10
1550.0250999999998
 20
1142.6840999999999
 11
1550.6822999999999
 21
1142.5214000000001
  0
LINE
  8
_0-0_LAYER001
  6
CONTINUOUS
 62
    4
 10
1549.4432999999999
 20
1142.8021000000001
 11
1550.0250999999998
 21
1142.6840999999999
  0
LINE
  8
_0-0_LAYER001
  6
CONTINUOUS
 62
    4
 10
1549.4032999999999
 20
1142.8082999999999
 11
1549.4432999999999
 21
1142.8021000000001
  0
LINE
  8
_0-0_LAYER001
  6
CONTINUOUS
 62
    4
 10
1753.3771000000002
 20
1087.6470999999999
 11
1754.9911999999999
 21
1087.9155000000001
  0
LINE
  8
_0-0_LAYER001
  6
CONTINUOUS
 62
    4
 10
1749.1885000000002
 20
1086.9509
 11
1753.3771000000002
 21
1087.6470999999999
  0
LINE
  8
_0-0_LAYER001
  6
CONTINUOUS
 62
    4
 10
1744.9956000000002
 20
1086.2555
 11
1749.1885000000002
 21
1086.9509
  0
LINE
  8
_0-0_LAYER001
  6
CONTINUOUS
 62
    4
 10
1740.7981
 20
1085.5617
 11
1744.9956000000002
 21
1086.2555
  0
LINE
  8
_0-0_LAYER001
  6
CONTINUOUS
 62
    4
 10
1736.5958000000001
 20
1084.8705
 11
1740.7981
 21
1085.5617
  0
LINE
  8
_0-0_LAYER001
  6
CONTINUOUS
 62
    4
 10
1732.3910000000001
 20
1084.1831999999999
 11
1736.5958000000001
 21
1084.8705
  0
LINE
  8
_0-0_LAYER001
  6
CONTINUOUS
 62
    4
 10
1729.9409000000001
 20
1083.7851000000001
 11
1732.3910000000001
 21
1084.1831999999999
  0
LINE
  8
_0-0_LAYER001
  6
CONTINUOUS
 62
    4
 10
1725.2139999999999
 20
1083.0235
 11
1729.9409000000001
 21
1083.7851000000001
  0
LINE
  8
_0-0_LAYER001
  6
CONTINUOUS
 62
    4
 10
1717.0232999999998
 20
1081.7418
 11
1725.2139999999999
 21
1083.0235
  0
LINE
  8
_0-0_LAYER001
  6
CONTINUOUS
 62
    4
 10
1708.7388000000001
 20
1080.5254
 11
1717.0232999999998
 21
1081.7418
  0
LINE
  8
_0-0_LAYER001
  6
CONTINUOUS
 62
    4
 10
1700.3622
 20
1079.4132
 11
1708.7388000000001
 21
1080.5254
  0
LINE
  8
_0-0_LAYER001
  6
CONTINUOUS
 62
    4
 10
1691.8899999999999
 20
1078.4444000000001
 11
1700.3622
 21
1079.4132
  0
LINE
  8
_0-0_LAYER001
  6
CONTINUOUS
 62
    4
 10
1683.3739
 20
1077.6643999999999
 11
1691.8899999999999
 21
1078.4444000000001
  0
LINE
  8
_0-0_LAYER001
  6
CONTINUOUS
 62
    4
 10
1678.3461000000002
 20
1077.3087
 11
1683.3739
 21
1077.6643999999999
  0
LINE
  8
_0-0_LAYER001
  6
CONTINUOUS
 62
    4
 10
1675.5709000000002
 20
1077.1487
 11
1678.3461000000002
 21
1077.3087
  0
LINE
  8
_0-0_LAYER001
  6
CONTINUOUS
 62
    4
 10
1670.8856000000001
 20
1076.9463000000001
 11
1675.5709000000002
 21
1077.1487
  0
LINE
  8
_0-0_LAYER001
  6
CONTINUOUS
 62
    4
 10
1666.1026000000002
 20
1076.8418999999999
 11
1670.8856000000001
 21
1076.9463000000001
  0
LINE
  8
_0-0_LAYER001
  6
CONTINUOUS
 62
    4
 10
1661.2546000000002
 20
1076.8570999999999
 11
1666.1026000000002
 21
1076.8418999999999
  0
LINE
  8
_0-0_LAYER001
  6
CONTINUOUS
 62
    4
 10
1656.3444
 20
1077.0129999999999
 11
1661.2546000000002
 21
1076.8570999999999
  0
LINE
  8
_0-0_LAYER001
  6
CONTINUOUS
 62
    4
 10
1651.4470999999999
 20
1077.3269
 11
1656.3444
 21
1077.0129999999999
  0
LINE
  8
_0-0_LAYER001
  6
CONTINUOUS
 62
    4
 10
1648.4484000000002
 20
1077.6034999999999
 11
1651.4470999999999
 21
1077.3269
  0
LINE
  8
_0-0_LAYER001
  6
CONTINUOUS
 62
    4
 10
1644.5828000000001
 20
1078.0582999999999
 11
1648.4484000000002
 21
1077.6034999999999
  0
LINE
  8
_0-0_LAYER001
  6
CONTINUOUS
 62
    4
 10
1638.1543999999999
 20
1079.0673999999999
 11
1644.5828000000001
 21
1078.0582999999999
  0
LINE
  8
_0-0_LAYER001
  6
CONTINUOUS
 62
    4
 10
1631.7008999999998
 20
1080.4003
 11
1638.1543999999999
 21
1079.0673999999999
  0
LINE
  8
_0-0_LAYER001
  6
CONTINUOUS
 62
    4
 10
1625.3287999999998
 20
1082.0328999999999
 11
1631.7008999999998
 21
1080.4003
  0
LINE
  8
_0-0_LAYER001
  6
CONTINUOUS
 62
    4
 10
1619.0513999999998
 20
1083.9564
 11
1625.3287999999998
 21
1082.0328999999999
  0
LINE
  8
_0-0_LAYER001
  6
CONTINUOUS
 62
    4
 10
1612.9643999999998
 20
1086.1335999999999
 11
1619.0513999999998
 21
1083.9564
  0
LINE
  8
_0-0_LAYER001
  6
CONTINUOUS
 62
    4
 10
1609.3386999999998
 20
1087.5809999999999
 11
1612.9643999999998
 21
1086.1335999999999
  0
LINE
  8
_0-0_LAYER001
  6
CONTINUOUS
 62
    4
 10
1605.0387999999998
 20
1089.4456
 11
1609.3386999999998
 21
1087.5809999999999
  0
LINE
  8
_0-0_LAYER001
  6
CONTINUOUS
 62
    4
 10
1598.0479999999998
 20
1092.8227999999999
 11
1605.0387999999998
 21
1089.4456
  0
LINE
  8
_0-0_LAYER001
  6
CONTINUOUS
 62
    4
 10
1591.2298000000001
 20
1096.5119999999999
 11
1598.0479999999998
 21
1092.8227999999999
  0
LINE
  8
_0-0_LAYER001
  6
CONTINUOUS
 62
    4
 10
1584.6541000000002
 20
1100.4094
 11
1591.2298000000001
 21
1096.5119999999999
  0
LINE
  8
_0-0_LAYER001
  6
CONTINUOUS
 62
    4
 10
1578.2930999999999
 20
1104.461
 11
1584.6541000000002
 21
1100.4094
  0
LINE
  8
_0-0_LAYER001
  6
CONTINUOUS
 62
    4
 10
1572.1426000000001
 20
1108.6005
 11
1578.2930999999999
 21
1104.461
  0
LINE
  8
_0-0_LAYER001
  6
CONTINUOUS
 62
    4
 10
1568.6179999999999
 20
1111.0518
 11
1572.1426000000001
 21
1108.6005
  0
LINE
  8
_0-0_LAYER001
  6
CONTINUOUS
 62
    4
 10
1566.3888999999999
 20
1112.6233
 11
1568.6179999999999
 21
1111.0518
  0
LINE
  8
_0-0_LAYER001
  6
CONTINUOUS
 62
    4
 10
1562.7471999999998
 20
1115.1751999999999
 11
1566.3888999999999
 21
1112.6233
  0
LINE
  8
_0-0_LAYER001
  6
CONTINUOUS
 62
    4
 10
1559.3301000000001
 20
1117.4726000000001
 11
1562.7471999999998
 21
1115.1751999999999
  0
LINE
  8
_0-0_LAYER001
  6
CONTINUOUS
 62
    4
 10
1556.1343999999999
 20
1119.4494999999999
 11
1559.3301000000001
 21
1117.4726000000001
  0
LINE
  8
_0-0_LAYER001
  6
CONTINUOUS
 62
    4
 10
1553.1505000000002
 20
1121.0686000000001
 11
1556.1343999999999
 21
1119.4494999999999
  0
LINE
  8
_0-0_LAYER001
  6
CONTINUOUS
 62
    4
 10
1550.1839
 20
1122.3978
 11
1553.1505000000002
 21
1121.0686000000001
  0
LINE
  8
_0-0_LAYER001
  6
CONTINUOUS
 62
    4
 10
1549.4340000000002
 20
1122.6704999999999
 11
1550.1839
 21
1122.3978
  0
LINE
  8
_0-0_LAYER001
  6
CONTINUOUS
 62
    4
 10
1549.7669999999998
 20
1142.7136
 11
1549.5909999999999
 21
1122.5401999999999
  0
LINE
  8
_0-0_LAYER001
  6
CONTINUOUS
 62
    4
 10
1797.5810999999999
 20
1097.702
 11
1754.7609000000002
 21
1087.7808
  0
ARC
  8
_0-0_LAYER001
  6
CONTINUOUS
 62
    4
 10
1797.3553000000002
 20
1098.6762000000001
 40
1
 50
283.04496999999998
 51
359.5
  0
LINE
  8
_0-0_LAYER001
  6
CONTINUOUS
 62
    4
 10
1750.27
 20
1077.4673
 11
1748.0246000000002
 21
1086.0407
  0
ARC
  8
_0-0_LAYER001
  6
CONTINUOUS
 62
    4
 10
1753.1720999999998
 20
1078.2274
 40
3
 50
194.67639000000003
 51
270.00000000000006
  0
LINE
  8
_0-0_LAYER001
  6
CONTINUOUS
 62
    4
 10
1756.5898999999999
 20
1075.2274
 11
1753.1720999999998
 21
1075.2274
  0
LINE
  8
_0-0_LAYER001
  6
CONTINUOUS
 62
    4
 10
1759.5491000000002
 20
1077.7342000000001
 11
1761.4830999999999
 21
1089.3382999999999
  0
ARC
  8
_0-0_LAYER001
  6
CONTINUOUS
 62
    4
 10
1756.5898999999999
 20
1078.2274
 40
3
 50
270
 51
350.53766999999999
  0
LINE
  8
_0-0_LAYER001
  6
CONTINUOUS
 62
    4
 10
1503.683
 20
1146.3756000000001
 11
1503.683
 21
1129.8431
  0
LINE
  8
_0-0_LAYER001
  6
CONTINUOUS
 62
    4
 10
1504.9418999999998
 20
1148.2331999999999
 11
1506.067
 21
1148.682
  0
ARC
  8
_0-0_LAYER001
  6
CONTINUOUS
 62
    4
 10
1505.683
 20
1146.3756000000001
 40
2
 50
111.74902000000002
 51
180
  0
LINE
  8
_0-0_LAYER001
  6
CONTINUOUS
 62
    4
 10
1797.7586000000001
 20
1118.0503000000001
 11
1758.683
 21
1108.9966999999999
  0
LINE
  8
_0-0_LAYER001
  6
CONTINUOUS
 62
    4
 10
1758.683
 20
1127.4735000000001
 11
1758.683
 21
1108.9966999999999
  0
LINE
  8
_0-0_LAYER001
  6
CONTINUOUS
 62
    4
 10
1756.6586000000002
 20
1127.0045
 11
1789.9078
 21
1134.7082
  0
LINE
  8
_0-0_LAYER001
  6
CONTINUOUS
 62
    4
 10
1798.6194
 20
1138.0823
 11
1798.6194
 21
1119.0021999999999
  0
LINE
  8
_0-0_LAYER001
  6
CONTINUOUS
 62
    4
 10
1798.7267999999999
 20
1117.0153
 11
1798.7267999999999
 21
1098.8442
  0
LINE
  8
_0-0_LAYER001
  6
CONTINUOUS
 62
    4
 10
1880.4569999999999
 20
1067.0816
 11
1871.9216000000001
 21
1081.615
  0
LINE
  8
_0-0_LAYER001
  6
CONTINUOUS
 62
    4
 10
1888.6248999999998
 20
1066.4313
 11
1896.9310999999998
 21
1076.4967999999999
  0
ARC
  8
_0-0_LAYER001
  6
DASHED1
 62
    4
 10
1884.7683999999999
 20
1069.6138000000001
 40
5
 50
210.42578
 51
320.47001
  0
LINE
  8
_0-0_LAYER001
  6
CONTINUOUS
 62
    4
 10
1964.5704999999998
 20
1065.9614999999999
 11
1957.2451000000001
 21
1077.2674999999999
  0
LINE
  8
_0-0_LAYER001
  6
CONTINUOUS
 62
    4
 10
1973.0799999999999
 20
1066.1514
 11
1982.0185000000001
 21
1081.3970999999999
  0
ARC
  8
_0-0_LAYER001
  6
CONTINUOUS
 62
    4
 10
1968.7667000000001
 20
1068.6803
 40
5
 50
212.93986000000001
 51
329.61716000000001
  0
LINE
  8
_0-0_LAYER001
  6
CONTINUOUS
 62
    4
 10
1761.0409
 20
1147.5558000000001
 11
1761.8505
 21
1147.8738000000001
  0
LINE
  8
_0-0_LAYER001
  6
CONTINUOUS
 62
    4
 10
1761.8505
 20
1147.8738000000001
 11
1765.3807000000002
 21
1149.2628
  0
LINE
  8
_0-0_LAYER001
  6
CONTINUOUS
 62
    4
 10
1765.3807000000002
 20
1149.2628
 11
1768.9180999999999
 21
1150.6612
  0
LINE
  8
_0-0_LAYER001
  6
CONTINUOUS
 62
    4
 10
1768.9180999999999
 20
1150.6612
 11
1772.4674
 21
1152.0749000000001
  0
LINE
  8
_0-0_LAYER001
  6
CONTINUOUS
 62
    4
 10
1772.4674
 20
1152.0749000000001
 11
1776.0329999999999
 21
1153.5099
  0
LINE
  8
_0-0_LAYER001
  6
CONTINUOUS
 62
    4
 10
1776.0329999999999
 20
1153.5099
 11
1779.6197000000002
 21
1154.9721
  0
LINE
  8
_0-0_LAYER001
  6
CONTINUOUS
 62
    4
 10
1779.6197000000002
 20
1154.9721
 11
1781.7114000000001
 21
1155.835
  0
LINE
  8
_0-0_LAYER001
  6
CONTINUOUS
 62
    4
 10
1781.7114000000001
 20
1155.835
 11
1783.779
 21
1156.6928
  0
LINE
  8
_0-0_LAYER001
  6
CONTINUOUS
 62
    4
 10
1783.779
 20
1156.6928
 11
1787.3656000000001
 21
1158.1445000000001
  0
LINE
  8
_0-0_LAYER001
  6
CONTINUOUS
 62
    4
 10
1787.3656000000001
 20
1158.1445000000001
 11
1790.98
 21
1159.4777999999999
  0
LINE
  8
_0-0_LAYER001
  6
CONTINUOUS
 62
    4
 10
1790.98
 20
1159.4777999999999
 11
1794.6226999999999
 21
1160.5953999999999
  0
LINE
  8
_0-0_LAYER001
  6
CONTINUOUS
 62
    4
 10
1794.6226999999999
 20
1160.5953999999999
 11
1798.2939999999999
 21
1161.4000000000001
  0
LINE
  8
_0-0_LAYER001
  6
CONTINUOUS
 62
    4
 10
1798.2939999999999
 20
1161.4000000000001
 11
1801.9940999999999
 21
1161.7942
  0
LINE
  8
_0-0_LAYER001
  6
CONTINUOUS
 62
    4
 10
1801.9940999999999
 20
1161.7942
 11
1804.1536000000001
 21
1161.7963999999999
  0
LINE
  8
_0-0_LAYER001
  6
CONTINUOUS
 62
    4
 10
1804.1536000000001
 20
1161.7963999999999
 11
1805.0034999999998
 21
1161.7469000000001
  0
LINE
  8
_0-0_LAYER001
  6
CONTINUOUS
 62
    4
 10
1805.0034999999998
 20
1161.7469000000001
 11
1806.4701
 21
1161.5968
  0
LINE
  8
_0-0_LAYER001
  6
CONTINUOUS
 62
    4
 10
1806.4701
 20
1161.5968
 11
1807.9344999999998
 21
1161.3705
  0
LINE
  8
_0-0_LAYER001
  6
CONTINUOUS
 62
    4
 10
1807.9344999999998
 20
1161.3705
 11
1809.3924000000002
 21
1161.0748000000001
  0
LINE
  8
_0-0_LAYER001
  6
CONTINUOUS
 62
    4
 10
1809.3924000000002
 20
1161.0748000000001
 11
1810.8397
 21
1160.7165
  0
LINE
  8
_0-0_LAYER001
  6
CONTINUOUS
 62
    4
 10
1810.8397
 20
1160.7165
 11
1812.2721000000001
 21
1160.3023000000001
  0
LINE
  8
_0-0_LAYER001
  6
CONTINUOUS
 62
    4
 10
1812.2721000000001
 20
1160.3023000000001
 11
1813.0943000000002
 21
1160.0391
  0
LINE
  8
_0-0_LAYER001
  6
CONTINUOUS
 62
    4
 10
1813.0943000000002
 20
1160.0391
 11
1815.6055000000001
 21
1159.1259
  0
LINE
  8
_0-0_LAYER001
  6
CONTINUOUS
 62
    4
 10
1815.6055000000001
 20
1159.1259
 11
1819.7910000000002
 21
1157.2506000000001
  0
LINE
  8
_0-0_LAYER001
  6
CONTINUOUS
 62
    4
 10
1819.7910000000002
 20
1157.2506000000001
 11
1823.8258000000001
 21
1155.0613000000001
  0
LINE
  8
_0-0_LAYER001
  6
CONTINUOUS
 62
    4
 10
1823.8258000000001
 20
1155.0613000000001
 11
1827.7469000000001
 21
1152.6356000000001
  0
LINE
  8
_0-0_LAYER001
  6
CONTINUOUS
 62
    4
 10
1827.7469000000001
 20
1152.6356000000001
 11
1831.5913999999998
 21
1150.0508
  0
LINE
  8
_0-0_LAYER001
  6
CONTINUOUS
 62
    4
 10
1831.5913999999998
 20
1150.0508
 11
1835.3962000000001
 21
1147.3846000000001
  0
LINE
  8
_0-0_LAYER001
  6
CONTINUOUS
 62
    4
 10
1835.3962000000001
 20
1147.3846000000001
 11
1837.5994999999998
 21
1145.8314
  0
LINE
  8
_0-0_LAYER001
  6
CONTINUOUS
 62
    4
 10
1837.5994999999998
 20
1145.8314
 11
1840.9641000000001
 21
1143.4914000000001
  0
LINE
  8
_0-0_LAYER001
  6
CONTINUOUS
 62
    4
 10
1840.9641000000001
 20
1143.4914000000001
 11
1846.8117999999999
 21
1139.5556999999999
  0
LINE
  8
_0-0_LAYER001
  6
CONTINUOUS
 62
    4
 10
1846.8117999999999
 20
1139.5556999999999
 11
1852.7372
 21
1135.7814000000001
  0
LINE
  8
_0-0_LAYER001
  6
CONTINUOUS
 62
    4
 10
1852.7372
 20
1135.7814000000001
 11
1858.7619
 21
1132.2107000000001
  0
LINE
  8
_0-0_LAYER001
  6
CONTINUOUS
 62
    4
 10
1858.7619
 20
1132.2107000000001
 11
1864.9070999999999
 21
1128.8857
  0
LINE
  8
_0-0_LAYER001
  6
CONTINUOUS
 62
    4
 10
1864.9070999999999
 20
1128.8857
 11
1871.1943999999999
 21
1125.8483000000001
  0
LINE
  8
_0-0_LAYER001
  6
CONTINUOUS
 62
    4
 10
1871.1943999999999
 20
1125.8483000000001
 11
1874.9146000000001
 21
1124.2351000000001
  0
LINE
  8
_0-0_LAYER001
  6
CONTINUOUS
 62
    4
 10
1874.9146000000001
 20
1124.2351000000001
 11
1877.9911999999999
 21
1123.0069000000001
  0
LINE
  8
_0-0_LAYER001
  6
CONTINUOUS
 62
    4
 10
1877.9911999999999
 20
1123.0069000000001
 11
1883.3791999999999
 21
1121.0798
  0
LINE
  8
_0-0_LAYER001
  6
CONTINUOUS
 62
    4
 10
1883.3791999999999
 20
1121.0798
 11
1888.8589000000002
 21
1119.4005999999999
  0
LINE
  8
_0-0_LAYER001
  6
CONTINUOUS
 62
    4
 10
1888.8589000000002
 20
1119.4005999999999
 11
1894.4142999999999
 21
1117.9773
  0
LINE
  8
_0-0_LAYER001
  6
CONTINUOUS
 62
    4
 10
1894.4142999999999
 20
1117.9773
 11
1900.0293000000001
 21
1116.8175000000001
  0
LINE
  8
_0-0_LAYER001
  6
CONTINUOUS
 62
    4
 10
1900.0293000000001
 20
1116.8175000000001
 11
1905.6880000000001
 21
1115.9293
  0
LINE
  8
_0-0_LAYER001
  6
CONTINUOUS
 62
    4
 10
1905.6880000000001
 20
1115.9293
 11
1908.9837000000002
 21
1115.5415
  0
LINE
  8
_0-0_LAYER001
  6
CONTINUOUS
 62
    4
 10
1908.9837000000002
 20
1115.5415
 11
1911.5065
 21
1115.3088
  0
LINE
  8
_0-0_LAYER001
  6
CONTINUOUS
 62
    4
 10
1911.5065
 20
1115.3088
 11
1915.8629000000001
 21
1115.0296000000001
  0
LINE
  8
_0-0_LAYER001
  6
CONTINUOUS
 62
    4
 10
1915.8629000000001
 20
1115.0296000000001
 11
1920.2255
 21
1114.8911000000001
  0
LINE
  8
_0-0_LAYER001
  6
CONTINUOUS
 62
    4
 10
1920.2255
 20
1114.8911000000001
 11
1924.5913
 21
1114.8774000000001
  0
LINE
  8
_0-0_LAYER001
  6
CONTINUOUS
 62
    4
 10
1924.5913
 20
1114.8774000000001
 11
1928.9575
 21
1114.9727
  0
LINE
  8
_0-0_LAYER001
  6
CONTINUOUS
 62
    4
 10
1928.9575
 20
1114.9727
 11
1933.3211999999999
 21
1115.1612
  0
LINE
  8
_0-0_LAYER001
  6
CONTINUOUS
 62
    4
 10
1933.3211999999999
 20
1115.1612
 11
1935.8498
 21
1115.307
  0
LINE
  8
_0-0_LAYER001
  6
CONTINUOUS
 62
    4
 10
1935.8498
 20
1115.307
 11
1940.5747000000001
 21
1115.6412
  0
LINE
  8
_0-0_LAYER001
  6
CONTINUOUS
 62
    4
 10
1940.5747000000001
 20
1115.6412
 11
1948.7033000000001
 21
1116.3858
  0
LINE
  8
_0-0_LAYER001
  6
CONTINUOUS
 62
    4
 10
1948.7033000000001
 20
1116.3858
 11
1956.8119000000002
 21
1117.3130000000001
  0
LINE
  8
_0-0_LAYER001
  6
CONTINUOUS
 62
    4
 10
1956.8119000000002
 20
1117.3130000000001
 11
1964.9034999999999
 21
1118.3873000000001
  0
LINE
  8
_0-0_LAYER001
  6
CONTINUOUS
 62
    4
 10
1964.9034999999999
 20
1118.3873000000001
 11
1972.9812000000002
 21
1119.5734
  0
LINE
  8
_0-0_LAYER001
  6
CONTINUOUS
 62
    4
 10
1972.9812000000002
 20
1119.5734
 11
1981.0479
 21
1120.8357000000001
  0
LINE
  8
_0-0_LAYER001
  6
CONTINUOUS
 62
    4
 10
1981.0479
 20
1120.8357000000001
 11
1985.7228
 21
1121.5889
  0
LINE
  8
_0-0_LAYER001
  6
CONTINUOUS
 62
    4
 10
1985.7228
 20
1121.5889
 11
1988.1523999999999
 21
1121.9837
  0
LINE
  8
_0-0_LAYER001
  6
CONTINUOUS
 62
    4
 10
1988.1523999999999
 20
1121.9837
 11
1990.7863000000002
 21
1122.4141999999999
  0
LINE
  8
_0-0_LAYER001
  6
CONTINUOUS
 62
    4
 10
1759.9573999999998
 20
1127.7729999999999
 11
1766.3497000000002
 21
1130.2951
  0
ARC
  8
_0-0_LAYER001
  6
CONTINUOUS
 62
    4
 10
1759.5904
 20
1128.7031999999999
 40
1
 50
179.5
 51
291.53165999999999
  0
LINE
  8
_0-0_LAYER001
  6
CONTINUOUS
 62
    4
 10
1988.9173000000001
 20
1101.8456000000001
 11
1990.7863000000002
 21
1102.1493
  0
LINE
  8
_0-0_LAYER001
  6
CONTINUOUS
 62
    4
 10
1984.1844999999998
 20
1101.0832
 11
1988.9173000000001
 21
1101.8456000000001
  0
LINE
  8
_0-0_LAYER001
  6
CONTINUOUS
 62
    4
 10
1975.9801000000002
 20
1099.7992999999999
 11
1984.1844999999998
 21
1101.0832
  0
LINE
  8
_0-0_LAYER001
  6
CONTINUOUS
 62
    4
 10
1967.6725999999999
 20
1098.5795000000001
 11
1975.9801000000002
 21
1099.7992999999999
  0
LINE
  8
_0-0_LAYER001
  6
CONTINUOUS
 62
    4
 10
1959.2642999999998
 20
1097.4630999999999
 11
1967.6725999999999
 21
1098.5795000000001
  0
LINE
  8
_0-0_LAYER001
  6
CONTINUOUS
 62
    4
 10
1950.7518
 20
1096.4897000000001
 11
1959.2642999999998
 21
1097.4630999999999
  0
LINE
  8
_0-0_LAYER001
  6
CONTINUOUS
 62
    4
 10
1942.1925999999999
 20
1095.7057
 11
1950.7518
 21
1096.4897000000001
  0
LINE
  8
_0-0_LAYER001
  6
CONTINUOUS
 62
    4
 10
1937.1311000000001
 20
1095.3477
 11
1942.1925999999999
 21
1095.7057
  0
LINE
  8
_0-0_LAYER001
  6
CONTINUOUS
 62
    4
 10
1934.3285000000001
 20
1095.1860999999999
 11
1937.1311000000001
 21
1095.3477
  0
LINE
  8
_0-0_LAYER001
  6
CONTINUOUS
 62
    4
 10
1929.6075000000001
 20
1094.9820999999999
 11
1934.3285000000001
 21
1095.1860999999999
  0
LINE
  8
_0-0_LAYER001
  6
CONTINUOUS
 62
    4
 10
1924.7782999999999
 20
1094.8767
 11
1929.6075000000001
 21
1094.9820999999999
  0
LINE
  8
_0-0_LAYER001
  6
CONTINUOUS
 62
    4
 10
1919.8766000000001
 20
1094.8921
 11
1924.7782999999999
 21
1094.8767
  0
LINE
  8
_0-0_LAYER001
  6
CONTINUOUS
 62
    4
 10
1914.9056
 20
1095.0499
 11
1919.8766000000001
 21
1094.8921
  0
LINE
  8
_0-0_LAYER001
  6
CONTINUOUS
 62
    4
 10
1909.9481999999998
 20
1095.3677
 11
1914.9056
 21
1095.0499
  0
LINE
  8
_0-0_LAYER001
  6
CONTINUOUS
 62
    4
 10
1906.8966
 20
1095.6491000000001
 11
1909.9481999999998
 21
1095.3677
  0
LINE
  8
_0-0_LAYER001
  6
CONTINUOUS
 62
    4
 10
1902.9677000000001
 20
1096.1114
 11
1906.8966
 21
1095.6491000000001
  0
LINE
  8
_0-0_LAYER001
  6
CONTINUOUS
 62
    4
 10
1896.4537999999998
 20
1097.1339
 11
1902.9677000000001
 21
1096.1114
  0
LINE
  8
_0-0_LAYER001
  6
CONTINUOUS
 62
    4
 10
1889.9070999999999
 20
1098.4860000000001
 11
1896.4537999999998
 21
1097.1339
  0
LINE
  8
_0-0_LAYER001
  6
CONTINUOUS
 62
    4
 10
1883.4441999999999
 20
1100.1419000000001
 11
1889.9070999999999
 21
1098.4860000000001
  0
LINE
  8
_0-0_LAYER001
  6
CONTINUOUS
 62
    4
 10
1877.0783000000001
 20
1102.0925999999999
 11
1883.4441999999999
 21
1100.1419000000001
  0
LINE
  8
_0-0_LAYER001
  6
CONTINUOUS
 62
    4
 10
1870.9135000000001
 20
1104.2976000000001
 11
1877.0783000000001
 21
1102.0925999999999
  0
LINE
  8
_0-0_LAYER001
  6
CONTINUOUS
 62
    4
 10
1867.2267999999999
 20
1105.7693999999999
 11
1870.9135000000001
 21
1104.2976000000001
  0
LINE
  8
_0-0_LAYER001
  6
CONTINUOUS
 62
    4
 10
1862.8625999999999
 20
1107.6619000000001
 11
1867.2267999999999
 21
1105.7693999999999
  0
LINE
  8
_0-0_LAYER001
  6
CONTINUOUS
 62
    4
 10
1855.7935000000002
 20
1111.0768
 11
1862.8625999999999
 21
1107.6619000000001
  0
LINE
  8
_0-0_LAYER001
  6
CONTINUOUS
 62
    4
 10
1848.9005999999999
 20
1114.8064999999999
 11
1855.7935000000002
 21
1111.0768
  0
LINE
  8
_0-0_LAYER001
  6
CONTINUOUS
 62
    4
 10
1842.2636000000002
 20
1118.7401
 11
1848.9005999999999
 21
1114.8064999999999
  0
LINE
  8
_0-0_LAYER001
  6
CONTINUOUS
 62
    4
 10
1835.8543
 20
1122.8226
 11
1842.2636000000002
 21
1118.7401
  0
LINE
  8
_0-0_LAYER001
  6
CONTINUOUS
 62
    4
 10
1829.6700999999998
 20
1126.9847
 11
1835.8543
 21
1122.8226
  0
LINE
  8
_0-0_LAYER001
  6
CONTINUOUS
 62
    4
 10
1826.1278000000002
 20
1129.4484
 11
1829.6700999999998
 21
1126.9847
  0
LINE
  8
_0-0_LAYER001
  6
CONTINUOUS
 62
    4
 10
1823.8957
 20
1131.0219
 11
1826.1278000000002
 21
1129.4484
  0
LINE
  8
_0-0_LAYER001
  6
CONTINUOUS
 62
    4
 10
1820.2721999999999
 20
1133.5610999999999
 11
1823.8957
 21
1131.0219
  0
LINE
  8
_0-0_LAYER001
  6
CONTINUOUS
 62
    4
 10
1816.9025000000001
 20
1135.8266000000001
 11
1820.2721999999999
 21
1133.5610999999999
  0
LINE
  8
_0-0_LAYER001
  6
CONTINUOUS
 62
    4
 10
1813.7874999999999
 20
1137.7536
 11
1816.9025000000001
 21
1135.8266000000001
  0
LINE
  8
_0-0_LAYER001
  6
CONTINUOUS
 62
    4
 10
1810.9203000000002
 20
1139.3094000000001
 11
1813.7874999999999
 21
1137.7536
  0
LINE
  8
_0-0_LAYER001
  6
CONTINUOUS
 62
    4
 10
1808.0891999999999
 20
1140.5778
 11
1810.9203000000002
 21
1139.3094000000001
  0
LINE
  8
_0-0_LAYER001
  6
CONTINUOUS
 62
    4
 10
1806.6260000000002
 20
1141.1099999999999
 11
1808.0891999999999
 21
1140.5778
  0
LINE
  8
_0-0_LAYER001
  6
CONTINUOUS
 62
    4
 10
1806.4449
 20
1141.1678999999999
 11
1806.6260000000002
 21
1141.1099999999999
  0
LINE
  8
_0-0_LAYER001
  6
CONTINUOUS
 62
    4
 10
1805.6565999999998
 20
1141.3959
 11
1806.4449
 21
1141.1678999999999
  0
LINE
  8
_0-0_LAYER001
  6
CONTINUOUS
 62
    4
 10
1804.9994999999999
 20
1141.5586000000001
 11
1805.6565999999998
 21
1141.3959
  0
LINE
  8
_0-0_LAYER001
  6
CONTINUOUS
 62
    4
 10
1804.4177
 20
1141.6766
 11
1804.9994999999999
 21
1141.5586000000001
  0
LINE
  8
_0-0_LAYER001
  6
CONTINUOUS
 62
    4
 10
1804.3775999999998
 20
1141.6828
 11
1804.4177
 21
1141.6766
  0
LINE
  8
_0-0_LAYER001
  6
CONTINUOUS
 62
    4
 10
1987.3652999999999
 20
1083.0577000000001
 11
1990.7863000000002
 21
1083.6169
  0
LINE
  8
_0-0_LAYER001
  6
CONTINUOUS
 62
    4
 10
1984.9153000000001
 20
1082.6596
 11
1987.3652999999999
 21
1083.0577000000001
  0
LINE
  8
_0-0_LAYER001
  6
CONTINUOUS
 62
    4
 10
1980.1882999999998
 20
1081.8979999999999
 11
1984.9153000000001
 21
1082.6596
  0
LINE
  8
_0-0_LAYER001
  6
CONTINUOUS
 62
    4
 10
1971.9976000000001
 20
1080.6162999999999
 11
1980.1882999999998
 21
1081.8979999999999
  0
LINE
  8
_0-0_LAYER001
  6
CONTINUOUS
 62
    4
 10
1963.7130999999999
 20
1079.3998999999999
 11
1971.9976000000001
 21
1080.6162999999999
  0
LINE
  8
_0-0_LAYER001
  6
CONTINUOUS
 62
    4
 10
1955.3364999999999
 20
1078.2877000000001
 11
1963.7130999999999
 21
1079.3998999999999
  0
LINE
  8
_0-0_LAYER001
  6
CONTINUOUS
 62
    4
 10
1946.8643000000002
 20
1077.3189
 11
1955.3364999999999
 21
1078.2877000000001
  0
LINE
  8
_0-0_LAYER001
  6
CONTINUOUS
 62
    4
 10
1938.3481999999999
 20
1076.5389
 11
1946.8643000000002
 21
1077.3189
  0
LINE
  8
_0-0_LAYER001
  6
CONTINUOUS
 62
    4
 10
1933.3204000000001
 20
1076.1831999999999
 11
1938.3481999999999
 21
1076.5389
  0
LINE
  8
_0-0_LAYER001
  6
CONTINUOUS
 62
    4
 10
1930.5452
 20
1076.0232000000001
 11
1933.3204000000001
 21
1076.1831999999999
  0
LINE
  8
_0-0_LAYER001
  6
CONTINUOUS
 62
    4
 10
1925.8598999999999
 20
1075.8208
 11
1930.5452
 21
1076.0232000000001
  0
LINE
  8
_0-0_LAYER001
  6
CONTINUOUS
 62
    4
 10
1921.0770000000002
 20
1075.7164
 11
1925.8598999999999
 21
1075.8208
  0
LINE
  8
_0-0_LAYER001
  6
CONTINUOUS
 62
    4
 10
1916.2289000000001
 20
1075.7316000000001
 11
1921.0770000000002
 21
1075.7164
  0
LINE
  8
_0-0_LAYER001
  6
CONTINUOUS
 62
    4
 10
1911.3186999999998
 20
1075.8875
 11
1916.2289000000001
 21
1075.7316000000001
  0
LINE
  8
_0-0_LAYER001
  6
CONTINUOUS
 62
    4
 10
1906.4214000000002
 20
1076.2013999999999
 11
1911.3186999999998
 21
1075.8875
  0
LINE
  8
_0-0_LAYER001
  6
CONTINUOUS
 62
    4
 10
1903.4227000000001
 20
1076.4780000000001
 11
1906.4214000000002
 21
1076.2013999999999
  0
LINE
  8
_0-0_LAYER001
  6
CONTINUOUS
 62
    4
 10
1899.5571
 20
1076.9328
 11
1903.4227000000001
 21
1076.4780000000001
  0
LINE
  8
_0-0_LAYER001
  6
CONTINUOUS
 62
    4
 10
1893.1287000000002
 20
1077.9419
 11
1899.5571
 21
1076.9328
  0
LINE
  8
_0-0_LAYER001
  6
CONTINUOUS
 62
    4
 10
1886.6752999999999
 20
1079.2747999999999
 11
1893.1287000000002
 21
1077.9419
  0
LINE
  8
_0-0_LAYER001
  6
CONTINUOUS
 62
    4
 10
1880.3031000000001
 20
1080.9074000000001
 11
1886.6752999999999
 21
1079.2747999999999
  0
LINE
  8
_0-0_LAYER001
  6
CONTINUOUS
 62
    4
 10
1874.0257999999999
 20
1082.8308999999999
 11
1880.3031000000001
 21
1080.9074000000001
  0
LINE
  8
_0-0_LAYER001
  6
CONTINUOUS
 62
    4
 10
1867.9387000000002
 20
1085.0081
 11
1874.0257999999999
 21
1082.8308999999999
  0
LINE
  8
_0-0_LAYER001
  6
CONTINUOUS
 62
    4
 10
1864.3130000000001
 20
1086.4555
 11
1867.9387000000002
 21
1085.0081
  0
LINE
  8
_0-0_LAYER001
  6
CONTINUOUS
 62
    4
 10
1860.0131999999999
 20
1088.3200999999999
 11
1864.3130000000001
 21
1086.4555
  0
LINE
  8
_0-0_LAYER001
  6
CONTINUOUS
 62
    4
 10
1853.0223000000001
 20
1091.6973
 11
1860.0131999999999
 21
1088.3200999999999
  0
LINE
  8
_0-0_LAYER001
  6
CONTINUOUS
 62
    4
 10
1846.2042000000001
 20
1095.3865000000001
 11
1853.0223000000001
 21
1091.6973
  0
LINE
  8
_0-0_LAYER001
  6
CONTINUOUS
 62
    4
 10
1839.6284000000001
 20
1099.2838999999999
 11
1846.2042000000001
 21
1095.3865000000001
  0
LINE
  8
_0-0_LAYER001
  6
CONTINUOUS
 62
    4
 10
1833.2674999999999
 20
1103.3354999999999
 11
1839.6284000000001
 21
1099.2838999999999
  0
LINE
  8
_0-0_LAYER001
  6
CONTINUOUS
 62
    4
 10
1827.1169
 20
1107.4749999999999
 11
1833.2674999999999
 21
1103.3354999999999
  0
LINE
  8
_0-0_LAYER001
  6
CONTINUOUS
 62
    4
 10
1823.5922999999998
 20
1109.9263000000001
 11
1827.1169
 21
1107.4749999999999
  0
LINE
  8
_0-0_LAYER001
  6
CONTINUOUS
 62
    4
 10
1821.3631999999998
 20
1111.4978000000001
 11
1823.5922999999998
 21
1109.9263000000001
  0
LINE
  8
_0-0_LAYER001
  6
CONTINUOUS
 62
    4
 10
1817.7215000000001
 20
1114.0497
 11
1821.3631999999998
 21
1111.4978000000001
  0
LINE
  8
_0-0_LAYER001
  6
CONTINUOUS
 62
    4
 10
1814.3044
 20
1116.3471
 11
1817.7215000000001
 21
1114.0497
  0
LINE
  8
_0-0_LAYER001
  6
CONTINUOUS
 62
    4
 10
1811.1088
 20
1118.3240000000001
 11
1814.3044
 21
1116.3471
  0
LINE
  8
_0-0_LAYER001
  6
CONTINUOUS
 62
    4
 10
1808.1248000000001
 20
1119.9431
 11
1811.1088
 21
1118.3240000000001
  0
LINE
  8
_0-0_LAYER001
  6
CONTINUOUS
 62
    4
 10
1805.1583000000001
 20
1121.2723000000001
 11
1808.1248000000001
 21
1119.9431
  0
LINE
  8
_0-0_LAYER001
  6
CONTINUOUS
 62
    4
 10
1804.4083000000001
 20
1121.5450000000001
 11
1805.1583000000001
 21
1121.2723000000001
  0
LINE
  8
_0-0_LAYER001
  6
CONTINUOUS
 62
    4
 10
1804.7413999999999
 20
1141.5880999999999
 11
1804.5653000000002
 21
1121.4147
  0
LINE
  8
_0-0_LAYER001
  6
CONTINUOUS
 62
    4
 10
1758.6574000000001
 20
1145.2501
 11
1758.6574000000001
 21
1128.7175999999999
  0
LINE
  8
_0-0_LAYER001
  6
CONTINUOUS
 62
    4
 10
1759.9162999999999
 20
1147.1077
 11
1761.0412999999999
 21
1147.5564999999999
  0
ARC
  8
_0-0_LAYER001
  6
CONTINUOUS
 62
    4
 10
1760.6574000000001
 20
1145.2501
 40
2
 50
111.74902000000002
 51
180
  0
LINE
  8
_0-0_LAYER001
  6
CONTINUOUS
 62
    4
 10
1042.0949000000001
 20
1144.2514000000001
 11
1046.4041999999999
 21
1142.3757000000001
  0
LINE
  8
_0-0_LAYER001
  6
CONTINUOUS
 62
    4
 10
1046.4041999999999
 20
1142.3757000000001
 11
1053.7854
 21
1139.1921
  0
LINE
  8
_0-0_LAYER001
  6
CONTINUOUS
 62
    4
 10
1053.7854
 20
1139.1921
 11
1061.0909999999999
 21
1136.1215999999999
  0
LINE
  8
_0-0_LAYER001
  6
CONTINUOUS
 62
    4
 10
1061.0909999999999
 20
1136.1215999999999
 11
1068.3341
 21
1133.2063000000001
  0
LINE
  8
_0-0_LAYER001
  6
CONTINUOUS
 62
    4
 10
1068.3341
 20
1133.2063000000001
 11
1075.5269000000001
 21
1130.4870000000001
  0
LINE
  8
_0-0_LAYER001
  6
CONTINUOUS
 62
    4
 10
1075.5269000000001
 20
1130.4870000000001
 11
1082.7465
 21
1127.9795999999999
  0
LINE
  8
_0-0_LAYER001
  6
CONTINUOUS
 62
    4
 10
1082.7465
 20
1127.9795999999999
 11
1086.8597
 21
1126.6677
  0
LINE
  8
_0-0_LAYER001
  6
CONTINUOUS
 62
    4
 10
1086.8597
 20
1126.6677
 11
1089.7639999999999
 21
1125.7978000000001
  0
LINE
  8
_0-0_LAYER001
  6
CONTINUOUS
 62
    4
 10
1089.7639999999999
 20
1125.7978000000001
 11
1094.9976999999999
 21
1124.3382999999999
  0
LINE
  8
_0-0_LAYER001
  6
CONTINUOUS
 62
    4
 10
1094.9976999999999
 20
1124.3382999999999
 11
1100.268
 21
1122.9911999999999
  0
LINE
  8
_0-0_LAYER001
  6
CONTINUOUS
 62
    4
 10
1100.268
 20
1122.9911999999999
 11
1105.6172999999999
 21
1121.7311999999999
  0
LINE
  8
_0-0_LAYER001
  6
CONTINUOUS
 62
    4
 10
1105.6172999999999
 20
1121.7311999999999
 11
1111.0400999999999
 21
1120.546
  0
LINE
  8
_0-0_LAYER001
  6
CONTINUOUS
 62
    4
 10
1111.0400999999999
 20
1120.546
 11
1116.548
 21
1119.4190000000001
  0
LINE
  8
_0-0_LAYER001
  6
CONTINUOUS
 62
    4
 10
1116.548
 20
1119.4190000000001
 11
1119.7411999999999
 21
1118.7945999999999
  0
LINE
  8
_0-0_LAYER001
  6
CONTINUOUS
 62
    4
 10
1119.7411999999999
 20
1118.7945999999999
 11
1122.2038
 21
1118.3259
  0
LINE
  8
_0-0_LAYER001
  6
CONTINUOUS
 62
    4
 10
1122.2038
 20
1118.3259
 11
1126.4618
 21
1117.5504000000001
  0
LINE
  8
_0-0_LAYER001
  6
CONTINUOUS
 62
    4
 10
1126.4618
 20
1117.5504000000001
 11
1130.6383000000001
 21
1116.8487
  0
LINE
  8
_0-0_LAYER001
  6
CONTINUOUS
 62
    4
 10
1130.6383000000001
 20
1116.8487
 11
1134.7463
 21
1116.2338999999999
  0
LINE
  8
_0-0_LAYER001
  6
CONTINUOUS
 62
    4
 10
1134.7463
 20
1116.2338999999999
 11
1138.7854
 21
1115.7209
  0
LINE
  8
_0-0_LAYER001
  6
CONTINUOUS
 62
    4
 10
1138.7854
 20
1115.7209
 11
1142.8177000000001
 21
1115.3169
  0
LINE
  8
_0-0_LAYER001
  6
CONTINUOUS
 62
    4
 10
1142.8177000000001
 20
1115.3169
 11
1145.0398
 21
1115.1478
  0
LINE
  8
_0-0_LAYER001
  6
CONTINUOUS
 62
    4
 10
1145.0398
 20
1115.1478
 11
1147.2537
 21
1115.021
  0
LINE
  8
_0-0_LAYER001
  6
CONTINUOUS
 62
    4
 10
1147.2537
 20
1115.021
 11
1151.2862
 21
1114.8858
  0
LINE
  8
_0-0_LAYER001
  6
CONTINUOUS
 62
    4
 10
1151.2862
 20
1114.8858
 11
1155.3411000000001
 21
1114.8563999999999
  0
LINE
  8
_0-0_LAYER001
  6
CONTINUOUS
 62
    4
 10
1155.3411000000001
 20
1114.8563999999999
 11
1159.4784999999999
 21
1114.9170999999999
  0
LINE
  8
_0-0_LAYER001
  6
CONTINUOUS
 62
    4
 10
1159.4784999999999
 20
1114.9170999999999
 11
1163.6958
 21
1115.0533
  0
LINE
  8
_0-0_LAYER001
  6
CONTINUOUS
 62
    4
 10
1163.6958
 20
1115.0533
 11
1168.0029999999999
 21
1115.2497000000001
  0
LINE
  8
_0-0_LAYER001
  6
CONTINUOUS
 62
    4
 10
1168.0029999999999
 20
1115.2497000000001
 11
1170.5012999999999
 21
1115.3827000000001
  0
LINE
  8
_0-0_LAYER001
  6
CONTINUOUS
 62
    4
 10
1170.5012999999999
 20
1115.3827000000001
 11
1173.3617999999999
 21
1115.5476000000001
  0
LINE
  8
_0-0_LAYER001
  6
CONTINUOUS
 62
    4
 10
1173.3617999999999
 20
1115.5476000000001
 11
1178.3123000000001
 21
1115.8669
  0
LINE
  8
_0-0_LAYER001
  6
CONTINUOUS
 62
    4
 10
1178.3123000000001
 20
1115.8669
 11
1183.2137
 21
1116.232
  0
LINE
  8
_0-0_LAYER001
  6
CONTINUOUS
 62
    4
 10
1183.2137
 20
1116.232
 11
1188.0785000000001
 21
1116.6507999999999
  0
LINE
  8
_0-0_LAYER001
  6
CONTINUOUS
 62
    4
 10
1188.0785000000001
 20
1116.6507999999999
 11
1192.9050999999999
 21
1117.1301000000001
  0
LINE
  8
_0-0_LAYER001
  6
CONTINUOUS
 62
    4
 10
1192.9050999999999
 20
1117.1301000000001
 11
1197.7244000000001
 21
1117.6802
  0
LINE
  8
_0-0_LAYER001
  6
CONTINUOUS
 62
    4
 10
1197.7244000000001
 20
1117.6802
 11
1200.3773000000001
 21
1118.0172
  0
LINE
  8
_0-0_LAYER001
  6
CONTINUOUS
 62
    4
 10
1200.3773000000001
 20
1118.0172
 11
1208.1269
 21
1119.1474000000001
  0
LINE
  8
_0-0_LAYER001
  6
CONTINUOUS
 62
    4
 10
1208.1269
 20
1119.1474000000001
 11
1221.5953
 21
1121.5784000000001
  0
LINE
  8
_0-0_LAYER001
  6
CONTINUOUS
 62
    4
 10
1221.5953
 20
1121.5784000000001
 11
1235.0356999999999
 21
1124.5063
  0
LINE
  8
_0-0_LAYER001
  6
CONTINUOUS
 62
    4
 10
1235.0356999999999
 20
1124.5063
 11
1248.5532000000001
 21
1127.8498999999999
  0
LINE
  8
_0-0_LAYER001
  6
CONTINUOUS
 62
    4
 10
1248.5532000000001
 20
1127.8498999999999
 11
1262.1629
 21
1131.5079000000001
  0
LINE
  8
_0-0_LAYER001
  6
CONTINUOUS
 62
    4
 10
1262.1629
 20
1131.5079000000001
 11
1275.8806999999999
 21
1135.3761
  0
LINE
  8
_0-0_LAYER001
  6
CONTINUOUS
 62
    4
 10
1275.8806999999999
 20
1135.3761
 11
1281.6418000000001
 21
1137.0281
  0
LINE
  8
_0-0_LAYER001
  6
CONTINUOUS
 62
    4
 10
1281.6633999999999
 20
1139.5377000000001
 11
1281.5816
 21
1137.1938
  0
ARC
  8
_0-0_LAYER001
  6
CONTINUOUS
 62
    4
 10
1282.6628000000001
 20
1139.5028
 40
1
 50
106.29949000000002
 51
178.00000000000003
  0
LINE
  8
_0-0_LAYER001
  6
CONTINUOUS
 62
    4
 10
1288.3368999999998
 20
1142.2038
 11
1282.3821
 21
1140.4626000000001
  0
ARC
  8
_0-0_LAYER001
  6
CONTINUOUS
 62
    4
 10
1288.6175000000001
 20
1141.2439999999999
 40
1
 50
358
 51
106.29949000000001
  0
LINE
  8
_0-0_LAYER001
  6
CONTINUOUS
 62
    4
 10
1042.0644
 20
1144.2834
 11
1034.7164
 21
1147.7080000000001
  0
LINE
  8
_0-0_LAYER001
  6
CONTINUOUS
 62
    4
 10
1280.9236000000001
 20
1117.2416000000001
 11
1280.8841000000002
 21
1116.1103000000001
  0
ARC
  8
_0-0_LAYER001
  6
CONTINUOUS
 62
    4
 10
1281.9229999999998
 20
1117.2067
 40
1
 50
106.35783000000001
 51
178.00000000000003
  0
LINE
  8
_0-0_LAYER001
  6
CONTINUOUS
 62
    4
 10
1280.8988999999999
 20
1116.0112999999999
 11
1267.4728
 21
1112.2253000000001
  0
LINE
  8
_0-0_LAYER001
  6
CONTINUOUS
 62
    4
 10
1267.4728
 20
1112.2253000000001
 11
1253.5506
 21
1108.4831999999999
  0
LINE
  8
_0-0_LAYER001
  6
CONTINUOUS
 62
    4
 10
1253.5506
 20
1108.4831999999999
 11
1239.5663
 21
1105.0242000000001
  0
LINE
  8
_0-0_LAYER001
  6
CONTINUOUS
 62
    4
 10
1239.5663
 20
1105.0242000000001
 11
1225.5012999999999
 21
1101.9602
  0
LINE
  8
_0-0_LAYER001
  6
CONTINUOUS
 62
    4
 10
1225.5012999999999
 20
1101.9602
 11
1211.3471999999999
 21
1099.4055000000001
  0
LINE
  8
_0-0_LAYER001
  6
CONTINUOUS
 62
    4
 10
1211.3471999999999
 20
1099.4055000000001
 11
1203.0808
 21
1098.1999000000001
  0
LINE
  8
_0-0_LAYER001
  6
CONTINUOUS
 62
    4
 10
1203.0808
 20
1098.1999000000001
 11
1200.1187
 21
1097.8236999999999
  0
LINE
  8
_0-0_LAYER001
  6
CONTINUOUS
 62
    4
 10
1200.1187
 20
1097.8236999999999
 11
1195.0275999999999
 21
1097.2425000000001
  0
LINE
  8
_0-0_LAYER001
  6
CONTINUOUS
 62
    4
 10
1195.0275999999999
 20
1097.2425000000001
 11
1189.9244000000001
 21
1096.7357
  0
LINE
  8
_0-0_LAYER001
  6
CONTINUOUS
 62
    4
 10
1189.9244000000001
 20
1096.7357
 11
1184.8142
 21
1096.2958000000001
  0
LINE
  8
_0-0_LAYER001
  6
CONTINUOUS
 62
    4
 10
1184.8142
 20
1096.2958000000001
 11
1179.6986999999999
 21
1095.9148
  0
LINE
  8
_0-0_LAYER001
  6
CONTINUOUS
 62
    4
 10
1179.6986999999999
 20
1095.9148
 11
1174.5809999999999
 21
1095.5847000000001
  0
LINE
  8
_0-0_LAYER001
  6
CONTINUOUS
 62
    4
 10
1174.5809999999999
 20
1095.5847000000001
 11
1171.6087
 21
1095.4132999999999
  0
LINE
  8
_0-0_LAYER001
  6
CONTINUOUS
 62
    4
 10
1171.6087
 20
1095.4132999999999
 11
1168.9902
 21
1095.2738999999999
  0
LINE
  8
_0-0_LAYER001
  6
CONTINUOUS
 62
    4
 10
1168.9902
 20
1095.2738999999999
 11
1164.4739999999999
 21
1095.068
  0
LINE
  8
_0-0_LAYER001
  6
CONTINUOUS
 62
    4
 10
1164.4739999999999
 20
1095.068
 11
1159.9478999999999
 21
1094.9219000000001
  0
LINE
  8
_0-0_LAYER001
  6
CONTINUOUS
 62
    4
 10
1159.9478999999999
 20
1094.9219000000001
 11
1155.4154000000001
 21
1094.8553999999999
  0
LINE
  8
_0-0_LAYER001
  6
CONTINUOUS
 62
    4
 10
1155.4154000000001
 20
1094.8553999999999
 11
1150.8787
 21
1094.8882000000001
  0
LINE
  8
_0-0_LAYER001
  6
CONTINUOUS
 62
    4
 10
1150.8787
 20
1094.8882000000001
 11
1146.3468
 21
1095.0400999999999
  0
LINE
  8
_0-0_LAYER001
  6
CONTINUOUS
 62
    4
 10
1146.3468
 20
1095.0400999999999
 11
1143.7088000000001
 21
1095.1912
  0
LINE
  8
_0-0_LAYER001
  6
CONTINUOUS
 62
    4
 10
1143.7088000000001
 20
1095.1912
 11
1141.0615
 21
1095.3928000000001
  0
LINE
  8
_0-0_LAYER001
  6
CONTINUOUS
 62
    4
 10
1141.0615
 20
1095.3928000000001
 11
1136.5282
 21
1095.8469
  0
LINE
  8
_0-0_LAYER001
  6
CONTINUOUS
 62
    4
 10
1136.5282
 20
1095.8469
 11
1132.0059000000001
 21
1096.4213
  0
LINE
  8
_0-0_LAYER001
  6
CONTINUOUS
 62
    4
 10
1132.0059000000001
 20
1096.4213
 11
1127.501
 21
1097.0954999999999
  0
LINE
  8
_0-0_LAYER001
  6
CONTINUOUS
 62
    4
 10
1127.501
 20
1097.0954999999999
 11
1123.0128999999999
 21
1097.8496
  0
LINE
  8
_0-0_LAYER001
  6
CONTINUOUS
 62
    4
 10
1123.0128999999999
 20
1097.8496
 11
1118.5423000000001
 21
1098.6637000000001
  0
LINE
  8
_0-0_LAYER001
  6
CONTINUOUS
 62
    4
 10
1118.5423000000001
 20
1098.6637000000001
 11
1115.9521999999999
 21
1099.1567
  0
LINE
  8
_0-0_LAYER001
  6
CONTINUOUS
 62
    4
 10
1115.9521999999999
 20
1099.1567
 11
1112.6242999999999
 21
1099.8074999999999
  0
LINE
  8
_0-0_LAYER001
  6
CONTINUOUS
 62
    4
 10
1112.6242999999999
 20
1099.8074999999999
 11
1106.9002
 21
1100.9786999999999
  0
LINE
  8
_0-0_LAYER001
  6
CONTINUOUS
 62
    4
 10
1106.9002
 20
1100.9786999999999
 11
1101.1891000000001
 21
1102.2268999999999
  0
LINE
  8
_0-0_LAYER001
  6
CONTINUOUS
 62
    4
 10
1101.1891000000001
 20
1102.2268999999999
 11
1095.4985999999999
 21
1103.5672999999999
  0
LINE
  8
_0-0_LAYER001
  6
CONTINUOUS
 62
    4
 10
1095.4985999999999
 20
1103.5672999999999
 11
1089.8344999999999
 21
1105.0150000000001
  0
LINE
  8
_0-0_LAYER001
  6
CONTINUOUS
 62
    4
 10
1089.8344999999999
 20
1105.0150000000001
 11
1084.2079000000001
 21
1106.5841
  0
LINE
  8
_0-0_LAYER001
  6
CONTINUOUS
 62
    4
 10
1084.2079000000001
 20
1106.5841
 11
1080.9512999999999
 21
1107.5596
  0
LINE
  8
_0-0_LAYER001
  6
CONTINUOUS
 62
    4
 10
1080.9512999999999
 20
1107.5596
 11
1076.4260999999999
 21
1109.0028
  0
LINE
  8
_0-0_LAYER001
  6
CONTINUOUS
 62
    4
 10
1076.4260999999999
 20
1109.0028
 11
1068.7085
 21
1111.6831999999999
  0
LINE
  8
_0-0_LAYER001
  6
CONTINUOUS
 62
    4
 10
1068.7085
 20
1111.6831999999999
 11
1061.0631000000001
 21
1114.5735999999999
  0
LINE
  8
_0-0_LAYER001
  6
CONTINUOUS
 62
    4
 10
1061.0631000000001
 20
1114.5735999999999
 11
1053.4820999999999
 21
1117.6249
  0
LINE
  8
_0-0_LAYER001
  6
CONTINUOUS
 62
    4
 10
1053.4820999999999
 20
1117.6249
 11
1053.1033
 21
1117.7841000000001
  0
LINE
  8
_0-0_LAYER001
  6
CONTINUOUS
 62
    4
 10
1286.8861999999999
 20
1099.0005000000001
 11
1286.2745
 21
1098.8251
  0
LINE
  8
_0-0_LAYER001
  6
CONTINUOUS
 62
    4
 10
1286.2745
 20
1098.8251
 11
1272.2517
 21
1094.8708999999999
  0
LINE
  8
_0-0_LAYER001
  6
CONTINUOUS
 62
    4
 10
1272.2517
 20
1094.8708999999999
 11
1258.0482
 21
1091.0533
  0
LINE
  8
_0-0_LAYER001
  6
CONTINUOUS
 62
    4
 10
1258.0482
 20
1091.0533
 11
1243.6438000000001
 21
1087.4902999999999
  0
LINE
  8
_0-0_LAYER001
  6
CONTINUOUS
 62
    4
 10
1243.6438000000001
 20
1087.4902999999999
 11
1229.0166999999999
 21
1084.3039000000001
  0
LINE
  8
_0-0_LAYER001
  6
CONTINUOUS
 62
    4
 10
1229.0166999999999
 20
1084.3039000000001
 11
1214.2455
 21
1081.6378
  0
LINE
  8
_0-0_LAYER001
  6
CONTINUOUS
 62
    4
 10
1214.2455
 20
1081.6378
 11
1205.5138999999999
 21
1080.3643
  0
LINE
  8
_0-0_LAYER001
  6
CONTINUOUS
 62
    4
 10
1205.5138999999999
 20
1080.3643
 11
1202.2737
 21
1079.9527
  0
LINE
  8
_0-0_LAYER001
  6
CONTINUOUS
 62
    4
 10
1202.2737
 20
1079.9527
 11
1196.9377999999999
 21
1079.3435999999999
  0
LINE
  8
_0-0_LAYER001
  6
CONTINUOUS
 62
    4
 10
1196.9377999999999
 20
1079.3435999999999
 11
1191.5857000000001
 21
1078.8122000000001
  0
LINE
  8
_0-0_LAYER001
  6
CONTINUOUS
 62
    4
 10
1191.5857000000001
 20
1078.8122000000001
 11
1186.2547
 21
1078.3532
  0
LINE
  8
_0-0_LAYER001
  6
CONTINUOUS
 62
    4
 10
1186.2547
 20
1078.3532
 11
1180.9464
 21
1077.9577999999999
  0
LINE
  8
_0-0_LAYER001
  6
CONTINUOUS
 62
    4
 10
1180.9464
 20
1077.9577999999999
 11
1175.6783
 21
1077.6180999999999
  0
LINE
  8
_0-0_LAYER001
  6
CONTINUOUS
 62
    4
 10
1175.6783
 20
1077.6180999999999
 11
1172.6052999999999
 21
1077.4409000000001
  0
LINE
  8
_0-0_LAYER001
  6
CONTINUOUS
 62
    4
 10
1172.6052999999999
 20
1077.4409000000001
 11
1169.8788
 21
1077.2956999999999
  0
LINE
  8
_0-0_LAYER001
  6
CONTINUOUS
 62
    4
 10
1169.8788
 20
1077.2956999999999
 11
1165.1744000000001
 21
1077.0812000000001
  0
LINE
  8
_0-0_LAYER001
  6
CONTINUOUS
 62
    4
 10
1165.1744000000001
 20
1077.0812000000001
 11
1160.3703
 21
1076.9260999999999
  0
LINE
  8
_0-0_LAYER001
  6
CONTINUOUS
 62
    4
 10
1160.3703
 20
1076.9260999999999
 11
1155.4821999999999
 21
1076.8543999999999
  0
LINE
  8
_0-0_LAYER001
  6
CONTINUOUS
 62
    4
 10
1155.4821999999999
 20
1076.8543999999999
 11
1150.5119
 21
1076.8904
  0
LINE
  8
_0-0_LAYER001
  6
CONTINUOUS
 62
    4
 10
1150.5119
 20
1076.8904
 11
1145.5306
 21
1077.0573999999999
  0
LINE
  8
_0-0_LAYER001
  6
CONTINUOUS
 62
    4
 10
1145.5306
 20
1077.0573999999999
 11
1142.5109
 21
1077.2302999999999
  0
LINE
  8
_0-0_LAYER001
  6
CONTINUOUS
 62
    4
 10
1142.5109
 20
1077.2302999999999
 11
1139.481
 21
1077.461
  0
LINE
  8
_0-0_LAYER001
  6
CONTINUOUS
 62
    4
 10
1139.481
 20
1077.461
 11
1134.4965999999999
 21
1077.9603
  0
LINE
  8
_0-0_LAYER001
  6
CONTINUOUS
 62
    4
 10
1134.4965999999999
 20
1077.9603
 11
1129.5395000000001
 21
1078.5899999999999
  0
LINE
  8
_0-0_LAYER001
  6
CONTINUOUS
 62
    4
 10
1129.5395000000001
 20
1078.5899999999999
 11
1124.6775
 21
1079.3176000000001
  0
LINE
  8
_0-0_LAYER001
  6
CONTINUOUS
 62
    4
 10
1124.6775
 20
1079.3176000000001
 11
1119.9088999999999
 21
1080.1188
  0
LINE
  8
_0-0_LAYER001
  6
CONTINUOUS
 62
    4
 10
1119.9088999999999
 20
1080.1188
 11
1115.2470000000001
 21
1080.9677999999999
  0
LINE
  8
_0-0_LAYER001
  6
CONTINUOUS
 62
    4
 10
1115.2470000000001
 20
1080.9677999999999
 11
1112.5422000000001
 21
1081.4826
  0
LINE
  8
_0-0_LAYER001
  6
CONTINUOUS
 62
    4
 10
1112.5422000000001
 20
1081.4826
 11
1109.0929000000001
 21
1082.1570999999999
  0
LINE
  8
_0-0_LAYER001
  6
CONTINUOUS
 62
    4
 10
1109.0929000000001
 20
1082.1570999999999
 11
1103.1741999999999
 21
1083.3680999999999
  0
LINE
  8
_0-0_LAYER001
  6
CONTINUOUS
 62
    4
 10
1103.1741999999999
 20
1083.3680999999999
 11
1097.2037
 21
1084.6731
  0
LINE
  8
_0-0_LAYER001
  6
CONTINUOUS
 62
    4
 10
1097.2037
 20
1084.6731
 11
1091.2061000000001
 21
1086.0857000000001
  0
LINE
  8
_0-0_LAYER001
  6
CONTINUOUS
 62
    4
 10
1091.2061000000001
 20
1086.0857000000001
 11
1085.1876
 21
1087.6241
  0
LINE
  8
_0-0_LAYER001
  6
CONTINUOUS
 62
    4
 10
1085.1876
 20
1087.6241
 11
1079.2074
 21
1089.2918
  0
LINE
  8
_0-0_LAYER001
  6
CONTINUOUS
 62
    4
 10
1079.2074
 20
1089.2918
 11
1075.6338000000001
 21
1090.3622
  0
LINE
  8
_0-0_LAYER001
  6
CONTINUOUS
 62
    4
 10
1075.6338000000001
 20
1090.3622
 11
1070.7376999999999
 21
1091.9237000000001
  0
LINE
  8
_0-0_LAYER001
  6
CONTINUOUS
 62
    4
 10
1070.7376999999999
 20
1091.9237000000001
 11
1062.5718999999999
 21
1094.7598
  0
LINE
  8
_0-0_LAYER001
  6
CONTINUOUS
 62
    4
 10
1062.5718999999999
 20
1094.7598
 11
1054.5192999999999
 21
1097.8042
  0
LINE
  8
_0-0_LAYER001
  6
CONTINUOUS
 62
    4
 10
1054.5192999999999
 20
1097.8042
 11
1053.0987
 21
1098.3759
  0
LINE
  8
_0-0_LAYER001
  6
CONTINUOUS
 62
    4
 10
1031.1367
 20
1127.2514000000001
 11
1034.7728999999999
 21
1066.7587000000001
  0
LINE
  8
_0-0_LAYER001
  6
CONTINUOUS
 62
    4
 10
1034.8885
 20
1125.9748999999999
 11
1030.9114999999999
 21
1127.1959999999999
  0
LINE
  8
_0-0_LAYER001
  6
CONTINUOUS
 62
    4
 10
1034.8885
 20
1147.8616
 11
1034.8885
 21
1065.8711000000001
  0
LINE
  8
_0-0_LAYER001
  6
CONTINUOUS
 62
    4
 10
1034.8885
 20
1065.8711000000001
 11
1052.8885
 21
1065.8711000000001
  0
LINE
  8
_0-0_LAYER001
  6
CONTINUOUS
 62
    4
 10
1052.8885
 20
1119.9916000000001
 11
1052.8885
 21
1065.8711000000001
  0
ARC
  8
_0-0_LAYER001
  6
CONTINUOUS
 62
    4
 10
1036.9462000000001
 20
1086.6587999999999
 40
36.94905
 50
64.439241999999993
 51
92.897946000000005
  0
LINE
  8
_0-0_LAYER001
  6
CONTINUOUS
 62
    4
 10
1280.8041000000001
 20
1118.0625
 11
1287.5601999999999
 21
1119.9998000000001
  0
LINE
  8
_0-0_LAYER001
  6
CONTINUOUS
 62
    4
 10
1266.9418000000001
 20
1114.1536000000001
 11
1280.8041000000001
 21
1118.0625
  0
LINE
  8
_0-0_LAYER001
  6
CONTINUOUS
 62
    4
 10
1253.0509
 20
1110.4199000000001
 11
1266.9418000000001
 21
1114.1536000000001
  0
LINE
  8
_0-0_LAYER001
  6
CONTINUOUS
 62
    4
 10
1239.1132
 20
1106.9724000000001
 11
1253.0509
 21
1110.4199000000001
  0
LINE
  8
_0-0_LAYER001
  6
CONTINUOUS
 62
    4
 10
1225.1107
 20
1103.922
 11
1239.1132
 21
1106.9724000000001
  0
LINE
  8
_0-0_LAYER001
  6
CONTINUOUS
 62
    4
 10
1211.0252
 20
1101.3797
 11
1225.1107
 21
1103.922
  0
LINE
  8
_0-0_LAYER001
  6
CONTINUOUS
 62
    4
 10
1202.8104000000001
 20
1100.1815999999999
 11
1211.0252
 21
1101.3797
  0
LINE
  8
_0-0_LAYER001
  6
CONTINUOUS
 62
    4
 10
1199.8793000000001
 20
1099.8092999999999
 11
1202.8104000000001
 21
1100.1815999999999
  0
LINE
  8
_0-0_LAYER001
  6
CONTINUOUS
 62
    4
 10
1194.8154
 20
1099.2311999999999
 11
1199.8793000000001
 21
1099.8092999999999
  0
LINE
  8
_0-0_LAYER001
  6
CONTINUOUS
 62
    4
 10
1189.7398000000001
 20
1098.7272
 11
1194.8154
 21
1099.2311999999999
  0
LINE
  8
_0-0_LAYER001
  6
CONTINUOUS
 62
    4
 10
1184.6541999999999
 20
1098.2893999999999
 11
1189.7398000000001
 21
1098.7272
  0
LINE
  8
_0-0_LAYER001
  6
CONTINUOUS
 62
    4
 10
1179.5600999999999
 20
1097.9100000000001
 11
1184.6541999999999
 21
1098.2893999999999
  0
LINE
  8
_0-0_LAYER001
  6
CONTINUOUS
 62
    4
 10
1174.4591
 20
1097.5809999999999
 11
1179.5600999999999
 21
1097.9100000000001
  0
LINE
  8
_0-0_LAYER001
  6
CONTINUOUS
 62
    4
 10
1171.4979000000001
 20
1097.4103
 11
1174.4591
 21
1097.5809999999999
  0
LINE
  8
_0-0_LAYER001
  6
CONTINUOUS
 62
    4
 10
1168.8915
 20
1097.2715000000001
 11
1171.4979000000001
 21
1097.4103
  0
LINE
  8
_0-0_LAYER001
  6
CONTINUOUS
 62
    4
 10
1164.3961999999999
 20
1097.0664999999999
 11
1168.8915
 21
1097.2715000000001
  0
LINE
  8
_0-0_LAYER001
  6
CONTINUOUS
 62
    4
 10
1159.9009000000001
 20
1096.9213999999999
 11
1164.3961999999999
 21
1097.0664999999999
  0
LINE
  8
_0-0_LAYER001
  6
CONTINUOUS
 62
    4
 10
1155.4079999999999
 20
1096.8554999999999
 11
1159.9009000000001
 21
1096.9213999999999
  0
LINE
  8
_0-0_LAYER001
  6
CONTINUOUS
 62
    4
 10
1150.9194
 20
1096.8879999999999
 11
1155.4079999999999
 21
1096.8554999999999
  0
LINE
  8
_0-0_LAYER001
  6
CONTINUOUS
 62
    4
 10
1146.4375
 20
1097.0382
 11
1150.9194
 21
1096.8879999999999
  0
LINE
  8
_0-0_LAYER001
  6
CONTINUOUS
 62
    4
 10
1143.8418999999999
 20
1097.1868999999999
 11
1146.4375
 21
1097.0382
  0
LINE
  8
_0-0_LAYER001
  6
CONTINUOUS
 62
    4
 10
1141.2372
 20
1097.3851999999999
 11
1143.8418999999999
 21
1097.1868999999999
  0
LINE
  8
_0-0_LAYER001
  6
CONTINUOUS
 62
    4
 10
1136.7538999999999
 20
1097.8343
 11
1141.2372
 21
1097.3851999999999
  0
LINE
  8
_0-0_LAYER001
  6
CONTINUOUS
 62
    4
 10
1132.2799
 20
1098.4025999999999
 11
1136.7538999999999
 21
1097.8343
  0
LINE
  8
_0-0_LAYER001
  6
CONTINUOUS
 62
    4
 10
1127.8148000000001
 20
1099.0708
 11
1132.2799
 21
1098.4025999999999
  0
LINE
  8
_0-0_LAYER001
  6
CONTINUOUS
 62
    4
 10
1123.3578
 20
1099.8197
 11
1127.8148000000001
 21
1099.0708
  0
LINE
  8
_0-0_LAYER001
  6
CONTINUOUS
 62
    4
 10
1118.9085
 20
1100.6300000000001
 11
1123.3578
 21
1099.8197
  0
LINE
  8
_0-0_LAYER001
  6
CONTINUOUS
 62
    4
 10
1116.3311000000001
 20
1101.1205
 11
1118.9085
 21
1100.6300000000001
  0
LINE
  8
_0-0_LAYER001
  6
CONTINUOUS
 62
    4
 10
1113.0166999999999
 20
1101.7687000000001
 11
1116.3311000000001
 21
1101.1205
  0
LINE
  8
_0-0_LAYER001
  6
CONTINUOUS
 62
    4
 10
1107.3142
 20
1102.9354000000001
 11
1113.0166999999999
 21
1101.7687000000001
  0
LINE
  8
_0-0_LAYER001
  6
CONTINUOUS
 62
    4
 10
1101.6319000000001
 20
1104.1774
 11
1107.3142
 21
1102.9354000000001
  0
LINE
  8
_0-0_LAYER001
  6
CONTINUOUS
 62
    4
 10
1095.9755
 20
1105.5096000000001
 11
1101.6319000000001
 21
1104.1774
  0
LINE
  8
_0-0_LAYER001
  6
CONTINUOUS
 62
    4
 10
1090.3507999999999
 20
1106.9473
 11
1095.9755
 21
1105.5096000000001
  0
LINE
  8
_0-0_LAYER001
  6
CONTINUOUS
 62
    4
 10
1084.7635
 20
1108.5055
 11
1090.3507999999999
 21
1106.9473
  0
LINE
  8
_0-0_LAYER001
  6
CONTINUOUS
 62
    4
 10
1081.5422000000001
 20
1109.4703999999999
 11
1084.7635
 21
1108.5055
  0
LINE
  8
_0-0_LAYER001
  6
CONTINUOUS
 62
    4
 10
1077.0581
 20
1110.9005
 11
1081.5422000000001
 21
1109.4703999999999
  0
LINE
  8
_0-0_LAYER001
  6
CONTINUOUS
 62
    4
 10
1069.3904
 20
1113.5636
 11
1077.0581
 21
1110.9005
  0
LINE
  8
_0-0_LAYER001
  6
CONTINUOUS
 62
    4
 10
1061.7901999999999
 20
1116.4368999999999
 11
1069.3904
 21
1113.5636
  0
LINE
  8
_0-0_LAYER001
  6
CONTINUOUS
 62
    4
 10
1054.2429
 20
1119.4746
 11
1061.7901999999999
 21
1116.4368999999999
  0
LINE
  8
_0-0_LAYER001
  6
CONTINUOUS
 62
    4
 10
1053.0073
 20
1119.9938999999999
 11
1054.2429
 21
1119.4746
  0
LINE
  8
_0-0_LAYER001
  6
CONTINUOUS
 62
    4
 10
1248.5881999999999
 20
1127.5332000000001
 11
1248.5881999999999
 21
1109.7757999999999
  0
LINE
  8
_0-0_LAYER001
  6
CONTINUOUS
 62
    4
 10
1288.1728000000001
 20
1120.0833
 11
1281.6414
 21
1118.1663000000001
  0
ARC
  8
_0-0_LAYER001
  6
CONTINUOUS
 62
    4
 10
1288.4545000000001
 20
1119.1238000000001
 40
1
 50
0
 51
106.35783000000001
  0
LINE
  8
_0-0_LAYER001
  6
CONTINUOUS
 62
    4
 10
1288.7846
 20
1120.4485
 11
1287.5644
 21
1120.0216
  0
LINE
  8
_0-0_LAYER001
  6
CONTINUOUS
 62
    4
 10
1289.4544999999998
 20
1121.3924
 11
1289.4544999999998
 21
1141.1552999999999
  0
ARC
  8
_0-0_LAYER001
  6
CONTINUOUS
 62
    4
 10
1288.4545000000001
 20
1121.3924
 40
1
 50
289.27960000000002
 51
0.0000000000000127
  0
LINE
  8
_0-0_LAYER001
  6
CONTINUOUS
 62
    4
 10
1288.7577000000001
 20
1099.6103000000001
 11
1286.9436000000001
 21
1099.0328999999999
  0
LINE
  8
_0-0_LAYER001
  6
CONTINUOUS
 62
    4
 10
1289.4544999999998
 20
1100.5632000000001
 11
1289.4544999999998
 21
1119.1238000000001
  0
ARC
  8
_0-0_LAYER001
  6
CONTINUOUS
 62
    4
 10
1288.4545000000001
 20
1100.5632000000001
 40
1
 50
287.65382
 51
0.0000000000000254
  0
LINE
  8
_0-0_LAYER001
  6
DASHED1
 62
    2
 10
1077.0724
 20
1118.2969000000001
 11
1093.0724
 21
1118.2969000000001
  0
LINE
  8
_0-0_LAYER001
  6
DASHED1
 62
    2
 10
1093.0724
 20
1118.2969000000001
 11
1093.0724
 21
1115.2969000000001
  0
LINE
  8
_0-0_LAYER001
  6
DASHED1
 62
    2
 10
1077.0724
 20
1118.2969000000001
 11
1077.0724
 21
1115.2969000000001
  0
LINE
  8
_0-0_LAYER001
  6
DASHED1
 62
    2
 10
1077.0724
 20
1115.2969000000001
 11
1093.0724
 21
1115.2969000000001
  0
LINE
  8
_0-0_LAYER001
  6
DASHED1
 62
    2
 10
1088.0724
 20
1060.4009000000001
 11
1085.0222000000001
 21
1045.8919000000001
  0
LINE
  8
_0-0_LAYER001
  6
DASHED1
 62
    2
 10
1088.0724
 20
1115.2969000000001
 11
1088.0724
 21
1060.4009000000001
  0
LINE
  8
_0-0_LAYER001
  6
DASHED1
 62
    2
 10
1085.0222000000001
 20
1045.8919000000001
 11
1082.0724
 21
1060.1494
  0
LINE
  8
_0-0_LAYER001
  6
DASHED1
 62
    2
 10
1082.0724
 20
1115.2969000000001
 11
1082.0724
 21
1060.1494
  0
LINE
  8
_0-0_LAYER001
  6
DASHED1
 62
    2
 10
1352.3637000000003
 20
1113.5777
 11
1368.3637000000001
 21
1113.5777
  0
LINE
  8
_0-0_LAYER001
  6
DASHED1
 62
    2
 10
1368.3637000000001
 20
1113.5777
 11
1368.3637000000001
 21
1110.5777
  0
LINE
  8
_0-0_LAYER001
  6
DASHED1
 62
    2
 10
1352.3637000000003
 20
1113.5777
 11
1352.3637000000003
 21
1110.5777
  0
LINE
  8
_0-0_LAYER001
  6
DASHED1
 62
    2
 10
1352.3637000000003
 20
1110.5777
 11
1368.3637000000001
 21
1110.5777
  0
LINE
  8
_0-0_LAYER001
  6
DASHED1
 62
    2
 10
1363.3637000000001
 20
1055.6815999999999
 11
1360.3135
 21
1041.1727000000001
  0
LINE
  8
_0-0_LAYER001
  6
DASHED1
 62
    2
 10
1363.3637000000001
 20
1110.5777
 11
1363.3637000000001
 21
1055.6815999999999
  0
LINE
  8
_0-0_LAYER001
  6
DASHED1
 62
    2
 10
1360.3135
 20
1041.1727000000001
 11
1357.3637000000003
 21
1055.4302
  0
LINE
  8
_0-0_LAYER001
  6
DASHED1
 62
    2
 10
1357.3637000000003
 20
1110.5777
 11
1357.3637000000003
 21
1055.4302
  0
LINE
  8
_0-0_LAYER001
  6
DASHED1
 62
    2
 10
1607.2048
 20
1108.8584000000001
 11
1623.2048
 21
1108.8584000000001
  0
LINE
  8
_0-0_LAYER001
  6
DASHED1
 62
    2
 10
1623.2048
 20
1108.8584000000001
 11
1623.2048
 21
1105.8584000000001
  0
LINE
  8
_0-0_LAYER001
  6
DASHED1
 62
    2
 10
1607.2048
 20
1108.8584000000001
 11
1607.2048
 21
1105.8584000000001
  0
LINE
  8
_0-0_LAYER001
  6
DASHED1
 62
    2
 10
1607.2048
 20
1105.8584000000001
 11
1623.2048
 21
1105.8584000000001
  0
LINE
  8
_0-0_LAYER001
  6
DASHED1
 62
    2
 10
1618.2048
 20
1050.9622999999999
 11
1615.1545999999998
 21
1036.4534000000001
  0
LINE
  8
_0-0_LAYER001
  6
DASHED1
 62
    2
 10
1618.2048
 20
1105.8584000000001
 11
1618.2048
 21
1050.9622999999999
  0
LINE
  8
_0-0_LAYER001
  6
DASHED1
 62
    2
 10
1615.1545999999998
 20
1036.4534000000001
 11
1612.2048
 21
1050.7109
  0
LINE
  8
_0-0_LAYER001
  6
DASHED1
 62
    2
 10
1612.2048
 20
1105.8584000000001
 11
1612.2048
 21
1050.7109
  0
LINE
  8
_0-0_LAYER001
  6
DASHED1
 62
    2
 10
1868.3382000000001
 20
1110.4314999999999
 11
1884.3382000000001
 21
1110.4314999999999
  0
LINE
  8
_0-0_LAYER001
  6
DASHED1
 62
    2
 10
1884.3382000000001
 20
1110.4314999999999
 11
1884.3382000000001
 21
1107.4314999999999
  0
LINE
  8
_0-0_LAYER001
  6
DASHED1
 62
    2
 10
1868.3382000000001
 20
1110.4314999999999
 11
1868.3382000000001
 21
1107.4314999999999
  0
LINE
  8
_0-0_LAYER001
  6
DASHED1
 62
    2
 10
1868.3382000000001
 20
1107.4314999999999
 11
1884.3382000000001
 21
1107.4314999999999
  0
LINE
  8
_0-0_LAYER001
  6
DASHED1
 62
    2
 10
1879.3382000000001
 20
1052.5354
 11
1876.288
 21
1038.0264999999999
  0
LINE
  8
_0-0_LAYER001
  6
DASHED1
 62
    2
 10
1879.3382000000001
 20
1107.4314999999999
 11
1879.3382000000001
 21
1052.5354
  0
LINE
  8
_0-0_LAYER001
  6
DASHED1
 62
    2
 10
1876.288
 20
1038.0264999999999
 11
1873.3382000000001
 21
1052.2840000000001
  0
LINE
  8
_0-0_LAYER001
  6
DASHED1
 62
    2
 10
1873.3382000000001
 20
1107.4314999999999
 11
1873.3382000000001
 21
1052.2840000000001
  0
LINE
  8
_0-0_LAYER001
  6
CONTINUOUS
 62
    2
 10
1990.7863000000002
 20
1074.6781000000001
 11
1098.3610000000001
 21
1074.6781000000001
  0
LINE
  8
_0-0_LAYER001
  6
CONTINUOUS
 62
    2
 10
1098.9604999999999
 20
1079.2643
 11
1063.9604999999999
 21
1061.6781000000001
  0
LINE
  8
_0-0_LAYER001
  6
CONTINUOUS
 62
    2
 10
1063.9604999999999
 20
1092.6132
 11
1098.9604999999999
 21
1061.6781000000001
  0
LINE
  8
_0-1_LAYER004
  6
CONTINUOUS
 62
    7
 10
1034.8885
 20
1286.2984000000001
 11
1034.8885
 21
1233.7983999999999
  0
LINE
  8
_0-1_LAYER004
  6
CONTINUOUS
 62
    7
 10
1036.5885000000001
 20
1283.7984000000001
 11
2007.1284934380164
 21
1283.7984000000001
  0
LINE
  8
_0-1_LAYER004
  6
CONTINUOUS
 62
    7
 10
2009.8885
 20
1233.7983999999999
 11
2009.8885
 21
1286.2984000000001
  0
LINE
  8
_0-1_LAYER004
  6
CONTINUOUS
 62
    7
 10
2007.1284934380164
 20
1283.7984000000001
 11
2009.8885
 21
1283.7984000000001
  0
LINE
  8
_0-1_LAYER004
  6
CONTINUOUS
 62
    7
 10
1754.8885
 20
1286.2984000000001
 11
1754.8885
 21
1233.7983999999999
  0
LINE
  8
_0-1_LAYER004
  6
CONTINUOUS
 62
    7
 10
1499.8885
 20
1286.2984000000001
 11
1499.8885
 21
1233.7983999999999
  0
LINE
  8
_0-1_LAYER004
  6
CONTINUOUS
 62
    7
 10
1244.8885
 20
1286.2984000000001
 11
1244.8885
 21
1180.0379
  0
LINE
  8
_0-1_LAYER004
  6
CONTINUOUS
 62
    7
 10
1246.5885000000001
 20
1230.0379
 11
1284.8885
 21
1230.0379
  0
LINE
  8
_0-1_LAYER004
  6
CONTINUOUS
 62
    7
 10
1284.8885
 20
1230.0379
 11
1284.8885
 21
1232.5379
  0
LINE
  8
_0-1_LAYER004
  6
CONTINUOUS
 62
    7
 10
1284.8885
 20
1228.3379
 11
1284.8885
 21
1180.0379
  0
LINE
  8
_0-1_LAYER004
  6
CONTINUOUS
 62
    7
 10
1108.712
 20
1196.4273000000001
 11
1156.712
 21
1196.4273000000001
  0
LINE
  8
_0-1_LAYER004
  6
CONTINUOUS
 62
    7
 10
974.96260000000007
 20
1206.4031
 11
1046.4712999999999
 21
1206.4031
  0
LINE
  8
_0-1_LAYER004
  6
CONTINUOUS
 62
    7
 10
973.34140000000002
 20
1159.6202000000001
 11
1032.2282
 21
1159.6202000000001
  0
LINE
  8
_0-1_LAYER004
  6
CONTINUOUS
 62
    7
 10
975.6114
 20
1097.6781000000001
 11
1000.6114
 21
1097.6781000000001
  0
LINE
  8
_0-1_LAYER004
  6
CONTINUOUS
 62
    7
 10
1592.1795999999999
 20
1203.5146
 11
1632.6795999999999
 21
1203.5146
  0
LINE
  8
_0-1_LAYER004
  6
CONTINUOUS
 62
    7
 10
1490.0459488052115
 20
890.75870000000009
 11
1676.1729
 21
890.75870000000009
  0
LINE
  8
_0-1_LAYER004
  6
CONTINUOUS
 62
    7
 10
1498.29
 20
860.66339999999991
 11
1737.3805000000002
 21
860.66339999999991
  0
LINE
  8
_0-1_LAYER004
  6
CONTINUOUS
 62
    7
 10
1507.8330999999998
 20
830.56799999999998
 11
1679.5043999999998
 21
830.56799999999998
  0
LINE
  8
_0-1_LAYER004
  6
CONTINUOUS
 62
    7
 10
1514.1767
 20
800.7014999999999
 11
1578.3162000000002
 21
800.7014999999999
  0
LINE
  8
_0-1_LAYER004
  6
CONTINUOUS
 62
    7
 10
1122.5995
 20
826.71730000000002
 11
1198.279
 21
826.71730000000002
  0
LINE
  8
_0-1_LAYER004
  6
CONTINUOUS
 62
    7
 10
1400.8885
 20
1041.6781000000001
 11
1400.8885
 21
981.67810000000009
  0
LINE
  8
_0-1_LAYER004
  6
CONTINUOUS
 62
    7
 10
1400.8885
 20
981.67810000000009
 11
1460.8885
 21
981.67810000000009
  0
LINE
  8
_0-1_LAYER004
  6
CONTINUOUS
 62
    7
 10
1460.8885
 20
981.67810000000009
 11
1460.8885
 21
1041.6781000000001
  0
LINE
  8
_0-1_LAYER004
  6
CONTINUOUS
 62
    7
 10
1703.8885
 20
1041.6781000000001
 11
1703.8885
 21
981.67810000000009
  0
LINE
  8
_0-1_LAYER004
  6
CONTINUOUS
 62
    7
 10
1703.8885
 20
981.67810000000009
 11
1763.8885
 21
981.67810000000009
  0
LINE
  8
_0-1_LAYER004
  6
CONTINUOUS
 62
    7
 10
1763.8885
 20
981.67810000000009
 11
1763.8885
 21
1041.6781000000001
  0
LINE
  8
_0-1_LAYER004
  6
CONTINUOUS
 62
    7
 10
1990.7863000000002
 20
1041.6781000000001
 11
1144.8885
 21
1041.6781000000001
  0
LINE
  8
_0-1_LAYER004
  6
CONTINUOUS
 62
    7
 10
1157.8885
 20
1041.6781000000001
 11
1157.8885
 21
981.67810000000009
  0
LINE
  8
_0-1_LAYER004
  6
CONTINUOUS
 62
    7
 10
1157.8885
 20
981.67810000000009
 11
1097.8885
 21
981.67810000000009
  0
LINE
  8
_0-1_LAYER004
  6
CONTINUOUS
 62
    7
 10
1054.8885
 20
999.69149999999991
 11
1054.8885
 21
972.19149999999991
  0
LINE
  8
_0-1_LAYER004
  6
CONTINUOUS
 62
    7
 10
1054.8885
 20
974.69149999999991
 11
1034.8885
 21
974.69149999999991
  0
LINE
  8
_0-1_LAYER004
  6
CONTINUOUS
 62
    7
 10
1034.8885
 20
974.69149999999991
 11
1034.8885
 21
972.99149999999997
  0
LINE
  8
_0-1_LAYER004
  6
CONTINUOUS
 62
    7
 10
1034.8885
 20
974.69149999999991
 11
1034.8885
 21
999.69149999999991
  0
LINE
  8
_0-1_LAYER004
  6
CONTINUOUS
 62
    7
 10
1000.6114
 20
1041.6781000000001
 11
973.91140000000007
 21
1041.6781000000001
  0
LINE
  8
_0-1_LAYER004
  6
CONTINUOUS
 62
    7
 10
975.6114
 20
1041.6781000000001
 11
975.6114
 21
1097.6781000000001
  0
LINE
  8
_0-1_LAYER004
  6
CONTINUOUS
 62
    7
 10
977.31140000000005
 20
1097.6781000000001
 11
973.91140000000007
 21
1097.6781000000001
  0
LINE
  8
_0-1_LAYER004
  6
CONTINUOUS
 62
    7
 10
973.91140000000007
 20
1061.6781000000001
 11
1000.6114
 21
1061.6781000000001
  0
LINE
  8
_0-0_LAYER001
  6
CONTINUOUS
 62
    2
 10
1054.8885
 20
973.01759082132662
 11
1054.8885
 21
999.69149999999991
  0
LINE
  8
_0-1_LAYER004
  6
CONTINUOUS
 62
    7
 10
1054.8885
 20
973.01759082132662
 11
1054.8885
 21
999.69149999999991
  0
LINE
  8
_0-1_LAYER004
  6
CONTINUOUS
 62
    7
 10
1144.8885
 20
1056.385
 11
1990.7863000000002
 21
1056.385
  0
LINE
  8
_0-1_LAYER004
  6
CONTINUOUS
 62
    7
 10
1990.7863000000002
 20
1058.1781000000001
 11
1144.8885
 21
1058.1781000000001
  0
LINE
  8
_0-1_LAYER004
  6
CONTINUOUS
 62
    7
 10
1144.8885
 20
1059.6781000000001
 11
1990.7863000000002
 21
1059.6781000000001
  0
LINE
  8
_0-1_LAYER004
  6
CONTINUOUS
 62
    7
 10
1990.7863000000002
 20
1074.6781000000001
 11
1098.9604999999999
 21
1074.6781000000001
  0
LINE
  8
_0-1_LAYER004
  6
CONTINUOUS
 62
    7
 10
1098.9604999999999
 20
1061.6781000000001
 11
1098.9604999999999
 21
1079.2643
  0
LINE
  8
_0-1_LAYER004
  6
CONTINUOUS
 62
    7
 10
1063.9604999999999
 20
1061.6781000000001
 11
1063.9604999999999
 21
1092.6132
  0
LINE
  8
_0-1_LAYER004
  6
CONTINUOUS
 62
    7
 10
1046.4712999999999
 20
1206.4031
 11
1081.7529
 21
1074.7304999999999
  0
LINE
  8
_0-1_LAYER004
  6
CONTINUOUS
 62
    7
 10
1081.7529
 20
1074.7304999999999
 11
1081.7529
 21
1082.2304999999999
  0
LINE
  8
_0-1_LAYER004
  6
CONTINUOUS
 62
    7
 10
1081.7529
 20
1074.7304999999999
 11
1078.0029
 21
1081.2256
  0
LINE
  8
_0-1_LAYER004
  6
CONTINUOUS
 62
    7
 10
1063.9604999999999
 20
1092.6132
 11
1098.9604999999999
 21
1079.2643
  0
LINE
  8
_0-1_LAYER004
  6
CONTINUOUS
 62
    7
 10
1098.9604999999999
 20
1079.2643
 11
1063.9604999999999
 21
1061.6781000000001
  0
LINE
  8
_0-1_LAYER004
  6
CONTINUOUS
 62
    7
 10
1098.9604999999999
 20
1061.6781000000001
 11
1063.9604999999999
 21
1092.6132
  0
LINE
  8
_0-1_LAYER004
  6
CONTINUOUS
 62
    7
 10
1061.6432
 20
1057.3421000000001
 11
1061.6432
 21
1049.8421000000001
  0
LINE
  8
_0-1_LAYER004
  6
CONTINUOUS
 62
    7
 10
1061.6432
 20
1049.8421000000001
 11
1057.8932
 21
1056.3372999999999
  0
LINE
  8
_0-1_LAYER004
  6
CONTINUOUS
 62
    7
 10
1061.6432
 20
1049.8421000000001
 11
1032.2282
 21
1159.6202000000001
  0
LINE
  8
_0-1_LAYER004
  6
CONTINUOUS
 62
    7
 10
1156.712
 20
1196.4273000000001
 11
1187.2337
 21
1082.5186000000001
  0
LINE
  8
_0-1_LAYER004
  6
CONTINUOUS
 62
    7
 10
1187.2337
 20
1082.5186000000001
 11
1187.2337
 21
1090.0186000000001
  0
LINE
  8
_0-1_LAYER004
  6
CONTINUOUS
 62
    7
 10
1187.2337
 20
1082.5186000000001
 11
1183.4837
 21
1089.0137
  0
LINE
  8
_0-1_LAYER004
  6
CONTINUOUS
 62
    7
 10
1460.8885
 20
981.67810000000009
 11
1400.8885
 21
1041.6781000000001
  0
LINE
  8
_0-1_LAYER004
  6
CONTINUOUS
 62
    7
 10
1444.5716000000002
 20
1060.4712999999999
 11
1444.5716000000002
 21
1052.9712999999999
  0
LINE
  8
_0-1_LAYER004
  6
CONTINUOUS
 62
    7
 10
1444.5716000000002
 20
1060.4712999999999
 11
1448.3216000000002
 21
1053.9761000000001
  0
LINE
  8
_0-1_LAYER004
  6
CONTINUOUS
 62
    7
 10
1444.5716000000002
 20
1060.4712999999999
 11
1514.1767
 21
800.7014999999999
  0
LINE
  8
_0-1_LAYER004
  6
CONTINUOUS
 62
    7
 10
1703.8885
 20
1041.6781000000001
 11
1763.8885
 21
981.67810000000009
  0
LINE
  8
_0-1_LAYER004
  6
CONTINUOUS
 62
    7
 10
1662.6190999999999
 20
1099.2791
 11
1662.6190999999999
 21
1091.7791
  0
LINE
  8
_0-1_LAYER004
  6
CONTINUOUS
 62
    7
 10
1662.6190999999999
 20
1091.7791
 11
1658.8690999999999
 21
1098.2743
  0
LINE
  8
_0-1_LAYER004
  6
CONTINUOUS
 62
    7
 10
1662.6190999999999
 20
1091.7791
 11
1632.6795999999999
 21
1203.5146
  0
LINE
  8
_0-1_LAYER004
  6
CONTINUOUS
 62
    7
 10
1157.8885
 20
981.67810000000009
 11
1097.8885
 21
1041.6781000000001
  0
LINE
  8
_0-1_LAYER004
  6
CONTINUOUS
 62
    7
 10
1090.6130000000001
 20
946.0924
 11
1090.6130000000001
 21
938.5924
  0
LINE
  8
_0-1_LAYER004
  6
CONTINUOUS
 62
    7
 10
1090.6130000000001
 20
946.0924
 11
1094.3630000000001
 21
939.5972999999999
  0
LINE
  8
_0-1_LAYER004
  6
CONTINUOUS
 62
    7
 10
1090.6130000000001
 20
946.0924
 11
1122.5995
 21
826.71730000000002
  0
TEXT
  8
_0-1_LAYER004
 62
    7
 10
1108.7119999999995
 20
1198.9273000000001
 40
20
 41
1
 50
0
  1
左袖瓦
  0
TEXT
  8
_0-0_LAYER001
 62
    7
 10
1507.8330999999998
 20
833.06799999999976
 40
20
 41
1
 50
0
  1
　野地板：杉ｔ＝１２
  0
TEXT
  8
_0-0_LAYER001
 62
    7
 10
1515.0061999999998
 20
803.2014999999999
 40
20
 41
1
 50
0
  1
　垂木
  0
TEXT
  8
_0-1_LAYER004
 62
    7
 10
981.97129999999959
 20
1208.9031000000002
 40
20
 41
1
 50
0
  1
登瓦座　
  0
TEXT
  8
_0-1_LAYER004
 62
    7
 10
984.22819999999956
 20
1162.1202000000003
 40
20
 41
1
 50
0
  1
品板　
  0
TEXT
  8
_0-0_LAYER001
 62
    7
 10
1489.6604999999997
 20
893.25869999999986
 40
20
 41
1
 50
0
  1
　瓦桟：１５ｘ３０以上
  0
TEXT
  8
_0-1_LAYER004
 62
    7
 10
1591.0815097495718
 20
1207.946680650799
 40
20
 41
1
 50
0
  1
桟　瓦
  0
TEXT
  8
_0-0_LAYER001
 62
    7
 10
1259.5767917821606
 20
1234.4670580881918
 40
20
 41
1
 50
0
  1
40
  0
TEXT
  8
_0-0_LAYER001
 62
    7
 10
1136.6186782087937
 20
1294.7406431731758
 40
20
 41
1
 50
0
  1
215
  0
TEXT
  8
_0-0_LAYER001
 62
    7
 10
1362.1466025841569
 20
1292.8330071068458
 40
20
 41
1
 50
0
  1
255
  0
TEXT
  8
_0-0_LAYER001
 62
    7
 10
1618.1932774272495
 20
1294.0129457005928
 40
20
 41
1
 50
0
  1
255
  0
TEXT
  8
_0-0_LAYER001
 62
    7
 10
1874.2399522703427
 20
1297.5527614818338
 40
20
 41
1
 50
0
  1
255
  0
TEXT
  8
_0-0_LAYER001
 62
    7
 10
966.9310659936757
 20
1041.1113148386514
 40
20
 41
1
 50
90
  1
20
  0
TEXT
  8
_0-0_LAYER001
 62
    7
 10
968.25734213929195
 20
1074.2682184790574
 40
20
 41
1
 50
90
  1
36
  0
TEXT
  8
_0-0_LAYER001
 62
    7
 10
1036.4835507099926
 20
944.75112195148984
 40
20
 41
1
 50
0
  1
20
  0
TEXT
  8
_0-0_LAYER001
 62
    7
 10
1498.2899999999995
 20
863.1633999999998
 40
20
 41
1
 50
0
  1
　下葺材：ルーフィング
  0
TEXT
  8
_0-1_LAYER004
 62
    7
 10
1135.3681364869371
 20
832.88595997690322
 40
20
 41
1
 50
0
  1
破風板
  0
ENDSEC
  0
EOF
