  0
SECTION
  2
HEADER
  9
$ACADVER
  1
AC1009
  9
$INSBASE
 10
0
 20
0
 30
0
  9
$EXTMIN
 10
0
 20
0
  9
$EXTMAX
 10
2970
 20
2100
  9
$LIMMIN
 10
0
 20
0
  9
$LIMMAX
 10
2970
 20
2100
  9
$LTSCALE
 40
10
  0
ENDSEC
  0
SECTION
  2
TABLES
  0
TABLE
  2
LTYPE
 70
     9
  0
LTYPE
  2
CONTINUOUS
 70
    64
  3
実線
 72
    65
 73
     0
 40
0.0
  0
LTYPE
  2
DASHED1
 70
    64
  3
--  --  --  --  --  --  --  --  
 72
    65
 73
     2
 40
2.5
 49
1.25
 49
-1.25
  0
LTYPE
  2
DASHED2
 70
    64
  3
----    ----    ----    ----    
 72
    65
 73
     2
 40
5.0
 49
2.5
 49
-2.5
  0
LTYPE
  2
DASHED3
 70
    64
  3
------  ------  ------  ------  
 72
    65
 73
     2
 40
5.0
 49
3.75
 49
-1.25
  0
LTYPE
  2
CENTER1
 70
    64
  3
----- - ----- - ----- - ----- - 
 72
    65
 73
     4
 40
10.0
 49
6.25
 49
-1.25
 49
1.25
 49
-1.25
  0
LTYPE
  2
CENTER2
 70
    64
  3
----------  --  ----------  --  
 72
    65
 73
     4
 40
20.0
 49
12.5
 49
-2.5
 49
2.5
 49
-2.5
  0
LTYPE
  2
PHANTOM1
 70
    64
  3
--- - - --- - - --- - - --- - - 
 72
    65
 73
     6
 40
10.0
 49
3.25
 49
-1.25
 49
1.25
 49
-1.25
 49
1.25
 49
-1.25
  0
LTYPE
  2
PHANTOM2
 70
    64
  3
--------  -  -  --------  -  -  
 72
    65
 73
     6
 40
20.0
 49
10.0
 49
-2.5
 49
1.25
 49
-2.5
 49
1.25
 49
-2.5
  0
LTYPE
  2
DOT
 70
    64
  3
-   -   -   -   -   -   -   -   
 72
    65
 73
     2
 40
2.5
 49
0.625
 49
-1.875
  0
LTYPE
  2
DUMMY
 70
    64
  3
ダミー
 72
    65
 73
     0
 40
0.0
  0
LTYPE
  2
RAND1
 70
    64
  3
ランダム線1
 72
    65
 73
     4
 40
10.0
 49
1.0
 49
-2.0
 49
3.0
 49
-4.0
  0
LTYPE
  2
RAND2
 70
    64
  3
ランダム線2
 72
    65
 73
     4
 40
14.0
 49
2.0
 49
-3.0
 49
4.0
 49
-5.0
  0
LTYPE
  2
RAND3
 70
    64
  3
ランダム線3
 72
    65
 73
     4
 40
18.0
 49
3.0
 49
-4.0
 49
5.0
 49
-6.0
  0
LTYPE
  2
RAND4
 70
    64
  3
ランダム線4
 72
    65
 73
     4
 40
22.0
 49
4.0
 49
-5.0
 49
6.0
 49
-7.0
  0
LTYPE
  2
RAND5
 70
    64
  3
ランダム線5
 72
    65
 73
     4
 40
26.0
 49
5.0
 49
-6.0
 49
7.0
 49
-8.0
  0
LTYPE
  2
LONG1
 70
    64
  3
----------  --  ----------  --  
 72
    65
 73
     4
 40
40.0
 49
32.5
 49
-2.5
 49
2.5
 49
-2.5
  0
LTYPE
  2
LONG2
 70
    64
  3
--------  -  -  --------  -  -  
 72
    65
 73
     6
 40
40.0
 49
30.0
 49
-2.5
 49
1.25
 49
-2.5
 49
1.25
 49
-2.5
  0
LTYPE
  2
LONG3
 70
    64
  3
+++++++++++++++..+++++++++++++++
 72
    65
 73
     2
 40
40.0
 49
37.5
 49
-2.5
  0
LTYPE
  2
LONG4
 70
    64
  3
+++++++++++++++..+++++++++++++++
 72
    65
 73
     2
 40
80.0
 49
75.0
 49
-5.0
  0
LTYPE
  2
LONG5
 70
    64
  3
----------  --  ----------  --  
 72
    65
 73
     4
 40
60.0
 49
37.5
 49
-7.5
 49
7.5
 49
-7.5
  0
LTYPE
  2
dashed
 70
   64
  3
-------   -------------   ------
 72
   65
 73
    2
 40
7.5
 49
6
 49
-1.5
  0
LTYPE
  2
dashed_spaced
 70
   64
  3
----        --------        ----
 72
   65
 73
    2
 40
12
 49
6
 49
-6
  0
LTYPE
  2
long_dashed_dotted
 70
   64
  3
------------- --- --------------
 72
   65
 73
    4
 40
15.25
 49
12
 49
-1.5
 49
0.25
 49
-1.5
  0
LTYPE
  2
long_dashed_double-dotted
 70
   64
  3
----------- --- --- ------------
 72
   65
 73
    6
 40
17
 49
12
 49
-1.5
 49
0.25
 49
-1.5
 49
0.25
 49
-1.5
  0
LTYPE
  2
long_dashed_triplicate-dotted
 70
   64
  3
--------- --- --- --- ----------
 72
   65
 73
    8
 40
18.75
 49
12
 49
-1.5
 49
0.25
 49
-1.5
 49
0.25
 49
-1.5
 49
0.25
 49
-1.5
  0
LTYPE
  2
dotted
 70
   64
  3
   -       -       -       -    
 72
   65
 73
    2
 40
1.75
 49
0.25
 49
-1.5
  0
LTYPE
  2
chain
 70
   64
  3
-------------- -- --------------
 72
   65
 73
    4
 40
18.5
 49
12
 49
-1.5
 49
3.5
 49
-1.5
  0
LTYPE
  2
chain_double_dash
 70
   64
  3
------------ -- -- -------------
 72
   65
 73
    6
 40
23.5
 49
12
 49
-1.5
 49
3.5
 49
-1.5
 49
3.5
 49
-1.5
  0
LTYPE
  2
dashed_dotted
 70
   64
  3
-----------     -     ----------
 72
   65
 73
    4
 40
9.25
 49
6
 49
-1.5
 49
0.25
 49
-1.5
  0
LTYPE
  2
double-dashed_dotted
 70
   64
  3
------   -----------   -   -----
 72
   65
 73
    6
 40
16.75
 49
6
 49
-1.5
 49
6
 49
-1.5
 49
0.25
 49
-1.5
  0
LTYPE
  2
dashed_double-dotted
 70
   64
  3
---------    -    -    ---------
 72
   65
 73
    6
 40
11
 49
6
 49
-1.5
 49
0.25
 49
-1.5
 49
0.25
 49
-1.5
  0
LTYPE
  2
double-dashed_double-dotted
 70
   64
  3
-----   ---------   -   -   ----
 72
   65
 73
    8
 40
18.5
 49
6
 49
-1.5
 49
6
 49
-1.5
 49
0.25
 49
-1.5
 49
0.25
 49
-1.5
  0
LTYPE
  2
dashed_triplicate-dotted
 70
   64
  3
-------    -    -    -    ------
 72
   65
 73
    8
 40
12.75
 49
6
 49
-1.5
 49
0.25
 49
-1.5
 49
0.25
 49
-1.5
 49
0.25
 49
-1.5
  0
LTYPE
  2
double-dashed_triplicate-dotted
 70
   64
  3
-----  ---------  -  -  -  -----
 72
   65
 73
   10
 40
20.25
 49
6
 49
-1.5
 49
6
 49
-1.5
 49
0.25
 49
-1.5
 49
0.25
 49
-1.5
 49
0.25
 49
-1.5
  0
LTYPE
  2
undefined
 70
   64
  3
--------------------------------
 72
   65
 73
    0
 40
0
  0
ENDTAB
  0
TABLE
  2
STYLE
  5
3
100
AcDbSymbolTable
 70
     1
  0
STYLE
  5
10
100
AcDbSymbolTableRecord
100
AcDbTextStyleTableRecord
  2
STANDARD
 70
     0
 40
0.0
 41
1.0
 50
0.0
 71
     0
 42
0.2
  3
txt
  4
bigfont.shx
  0
STYLE
  5
26
100
AcDbSymbolTableRecord
100
AcDbTextStyleTableRecord
  2
TATEGAKI
 70
    68
 40
0.0
 41
1.0
 50
0.0
 71
     0
 42
1.0
  3
txt
  4
bigfont.shx
  0
ENDTAB
  0
TABLE
  2
LAYER
 70
    6
  0
LAYER
  2
_0-0_LAYER001
 70
   64
 62
    7
  6
CONTINUOUS
  0
LAYER
  2
_0-1_LAYER003
 70
   64
 62
    7
  6
CONTINUOUS
  0
LAYER
  2
_0-2_LAYER004
 70
   64
 62
    7
  6
CONTINUOUS
  0
LAYER
  2
_0-3_LAYER005
 70
   64
 62
    7
  6
CONTINUOUS
  0
LAYER
  2
_0-4_LAYER006
 70
   64
 62
    7
  6
CONTINUOUS
  0
LAYER
  2
ADD_LINE
 70
   64
 62
    7
  6
CONTINUOUS
  0
ENDTAB
  0
ENDSEC
  0
SECTION
  2
BLOCKS
  0
ENDSEC
  0
SECTION
  2
ENTITIES
  0
LINE
  8
_0-2_LAYER004
  6
CONTINUOUS
 62
    2
 10
1761.5938000000001
 20
1039.6777
 11
1755.4382999999998
 21
1053.3567
  0
LINE
  8
_0-2_LAYER004
  6
CONTINUOUS
 62
    2
 10
1727.0425
 20
1408.8981000000001
 11
1728.9836
 21
1401.6536000000001
  0
LINE
  8
_0-2_LAYER004
  6
CONTINUOUS
 62
    2
 10
1728.9836
 20
1401.6536000000001
 11
1723.6803
 21
1406.9568999999999
  0
LINE
  8
_0-2_LAYER004
  6
CONTINUOUS
 62
    2
 10
1728.9836
 20
1401.6536000000001
 11
1684.0286999999998
 21
1479.5177000000001
  0
LINE
  8
_0-2_LAYER004
  6
CONTINUOUS
 62
    2
 10
1684.0286999999998
 20
1479.5177000000001
 11
1511.5286999999998
 21
1479.5177000000001
  0
LINE
  8
_0-2_LAYER004
  6
CONTINUOUS
 62
    2
 10
1939.4404
 20
1356.1267
 11
1886.9404
 21
1356.1267
  0
CIRCLE
  8
_0-2_LAYER004
  6
CONTINUOUS
 62
    2
 10
1936.9404
 20
1356.1267
 40
1.6999999999999997
  0
LINE
  8
_0-2_LAYER004
  6
CONTINUOUS
 62
    2
 10
1936.9404
 20
1356.1267
 11
1936.9404
 21
1059.1357
  0
CIRCLE
  8
_0-2_LAYER004
  6
CONTINUOUS
 62
    2
 10
1936.9404
 20
1059.1357
 40
1.6999999999999997
  0
LINE
  8
_0-2_LAYER004
  6
CONTINUOUS
 62
    2
 10
1939.4404
 20
1059.1357
 11
1886.9404
 21
1059.1357
  0
LINE
  8
_0-2_LAYER004
  6
CONTINUOUS
 62
    2
 10
1761.5938000000001
 20
1156.8838000000001
 11
1761.5938000000001
 21
1196.8838000000001
  0
LINE
  8
_0-0_LAYER001
  6
CONTINUOUS
 62
    2
 10
1714.2498999999998
 20
1041.9553000000001
 11
1741.5356000000002
 21
1054.4249
  0
LINE
  8
_0-0_LAYER001
  6
CONTINUOUS
 62
    2
 10
1735.3008
 20
1068.0677000000001
 11
1708.0151000000001
 21
1055.5980999999999
  0
LINE
  8
_0-0_LAYER001
  6
CONTINUOUS
 62
    2
 10
1741.5356000000002
 20
1054.4249
 11
1735.3008
 21
1068.0677000000001
  0
LINE
  8
_0-0_LAYER001
  6
CONTINUOUS
 62
    2
 10
1708.0151000000001
 20
1055.5980999999999
 11
1714.2498999999998
 21
1041.9553000000001
  0
LINE
  8
_0-0_LAYER001
  6
CONTINUOUS
 62
    2
 10
1735.3008
 20
1068.0677000000001
 11
1714.2498999999998
 21
1041.9553000000001
  0
LINE
  8
_0-0_LAYER001
  6
CONTINUOUS
 62
    4
 10
1530.8024
 20
976.68319999999994
 11
1534.8883000000001
 21
965.40020000000004
  0
LINE
  8
_0-0_LAYER001
  6
CONTINUOUS
 62
    4
 10
1265.5059000000001
 20
898.69110000000001
 11
1736.5695000000001
 21
1069.2784999999999
  0
LINE
  8
_0-0_LAYER001
  6
CONTINUOUS
 62
    4
 10
1248.8793000000001
 20
944.60400000000004
 11
1451.0324000000001
 21
1017.8100999999999
  0
LINE
  8
_0-0_LAYER001
  6
CONTINUOUS
 62
    4
 10
1448.6489000000001
 20
1024.3919000000001
 11
1467.6588999999999
 21
971.89730000000009
  0
ARC
  8
_0-0_LAYER001
  6
CONTINUOUS
 62
    4
 10
1458.0513999999998
 20
1027.7968000000001
 40
10
 50
109.90694999999999
 51
199.90694999999999
  0
ARC
  8
_0-0_LAYER001
  6
CONTINUOUS
 62
    4
 10
1268.9108000000001
 20
889.28860000000009
 40
10
 50
109.90694999999999
 51
199.90694999999999
  0
ARC
  8
_0-0_LAYER001
  6
CONTINUOUS
 62
    4
 10
1474.6779000000001
 20
981.88390000000004
 40
10
 50
109.90694999999999
 51
199.90694999999999
  0
LINE
  8
_0-0_LAYER001
  6
CONTINUOUS
 62
    4
 10
1722.6167999999998
 20
1134.24
 11
1749.1176
 21
1061.0599
  0
LINE
  8
_0-0_LAYER001
  6
CONTINUOUS
 62
    4
 10
1471.2730000000001
 20
991.28639999999996
 11
1739.2433000000001
 21
1088.3271
  0
LINE
  8
_0-0_LAYER001
  6
CONTINUOUS
 62
    4
 10
1722.6167999999998
 20
1134.24
 11
1739.2433000000001
 21
1088.3271
  0
LINE
  8
_0-0_LAYER001
  6
CONTINUOUS
 62
    4
 10
1740.6554000000001
 20
1057.9955
 11
1749.1176
 21
1061.0599
  0
LINE
  8
_0-0_LAYER001
  6
CONTINUOUS
 62
    4
 10
1534.8883000000001
 20
965.40020000000004
 11
1543.3505
 21
968.46469999999999
  0
LINE
  8
_0-0_LAYER001
  6
CONTINUOUS
 62
    4
 10
1533.4762000000001
 20
995.73180000000002
 11
1543.3505
 21
968.46469999999999
  0
LINE
  8
_0-0_LAYER001
  6
CONTINUOUS
 62
    4
 10
1736.5695000000001
 20
1069.2784999999999
 11
1740.6554000000001
 21
1057.9955
  0
LINE
  8
_0-0_LAYER001
  6
CONTINUOUS
 62
    4
 10
1448.6489000000001
 20
1024.3919000000001
 11
1461.8705
 21
987.88149999999996
  0
LINE
  8
_0-0_LAYER001
  6
CONTINUOUS
 62
    4
 10
1081.7722000000001
 20
795.99450000000002
 11
1325.0352
 21
884.08789999999999
  0
LINE
  8
_0-0_LAYER001
  6
CONTINUOUS
 62
    4
 10
1325.0352
 20
884.08789999999999
 11
1329.1212
 21
872.80490000000009
  0
LINE
  8
_0-0_LAYER001
  6
CONTINUOUS
 62
    4
 10
1329.1212
 20
872.80490000000009
 11
1337.5834
 21
875.86940000000004
  0
LINE
  8
_0-0_LAYER001
  6
CONTINUOUS
 62
    4
 10
1131.8162
 20
783.27410000000009
 11
1123.354
 21
780.20970000000011
  0
LINE
  8
_0-0_LAYER001
  6
CONTINUOUS
 62
    4
 10
1089.1124
 20
780.57230000000004
 11
1119.2681
 21
791.49260000000004
  0
LINE
  8
_0-0_LAYER001
  6
CONTINUOUS
 62
    4
 10
1119.2681
 20
791.49260000000004
 11
1123.354
 21
780.20970000000011
  0
LINE
  8
_0-0_LAYER001
  6
CONTINUOUS
 62
    4
 10
1081.7722000000001
 20
795.99450000000002
 11
1121.9419
 21
810.54130000000009
  0
LINE
  8
_0-0_LAYER001
  6
CONTINUOUS
 62
    4
 10
1121.9419
 20
810.54130000000009
 11
1131.8162
 21
783.27410000000009
  0
LINE
  8
_0-0_LAYER001
  6
CONTINUOUS
 62
    4
 10
1053.3478
 20
855.71540000000005
 11
1245.2652
 21
925.21489999999994
  0
LINE
  8
_0-0_LAYER001
  6
CONTINUOUS
 62
    4
 10
1248.6702
 20
915.81240000000003
 11
1261.8918000000001
 21
879.30199999999991
  0
LINE
  8
_0-0_LAYER001
  6
CONTINUOUS
 62
    4
 10
1327.7091
 20
903.13650000000007
 11
1337.5834
 21
875.86940000000004
  0
LINE
  8
_0-0_LAYER001
  6
CONTINUOUS
 62
    4
 10
1074.4319
 20
811.41669999999999
 11
1530.8024
 21
976.68319999999994
  0
LINE
  8
_0-0_LAYER001
  6
CONTINUOUS
 62
    4
 10
1454.6464999999998
 20
1037.1993
 11
1722.6167999999998
 21
1134.24
  0
LINE
  8
_0-0_LAYER001
  6
CONTINUOUS
 62
    4
 10
1722.6167999999998
 20
1134.24
 11
1739.2433000000001
 21
1088.3271
  0
LINE
  8
_0-0_LAYER001
  6
CONTINUOUS
 62
    4
 10
1242.8818000000001
 20
931.7965999999999
 11
1261.8918000000001
 21
879.30199999999991
  0
ARC
  8
_0-0_LAYER001
  6
CONTINUOUS
 62
    4
 10
1252.2843
 20
935.2014999999999
 40
10
 50
109.90694999999999
 51
199.90694999999999
  0
LINE
  8
_0-0_LAYER001
  6
CONTINUOUS
 62
    2
 10
1508.4828000000002
 20
949.3599999999999
 11
1535.7683999999999
 21
961.82960000000003
  0
LINE
  8
_0-0_LAYER001
  6
CONTINUOUS
 62
    2
 10
1529.5336000000002
 20
975.47250000000008
 11
1502.248
 21
963.00279999999998
  0
LINE
  8
_0-0_LAYER001
  6
CONTINUOUS
 62
    2
 10
1535.7683999999999
 20
961.82960000000003
 11
1529.5336000000002
 21
975.47250000000008
  0
LINE
  8
_0-0_LAYER001
  6
CONTINUOUS
 62
    2
 10
1502.248
 20
963.00279999999998
 11
1508.4828000000002
 21
949.3599999999999
  0
LINE
  8
_0-0_LAYER001
  6
CONTINUOUS
 62
    2
 10
1529.5336000000002
 20
975.47250000000008
 11
1508.4828000000002
 21
949.3599999999999
  0
LINE
  8
_0-0_LAYER001
  6
CONTINUOUS
 62
    2
 10
1302.7156
 20
856.76469999999995
 11
1330.0012999999999
 21
869.23430000000008
  0
LINE
  8
_0-0_LAYER001
  6
CONTINUOUS
 62
    2
 10
1323.7664999999997
 20
882.8771999999999
 11
1296.4807999999998
 21
870.4076
  0
LINE
  8
_0-0_LAYER001
  6
CONTINUOUS
 62
    2
 10
1330.0012999999999
 20
869.23430000000008
 11
1323.7664999999997
 21
882.8771999999999
  0
LINE
  8
_0-0_LAYER001
  6
CONTINUOUS
 62
    2
 10
1296.4807999999998
 20
870.4076
 11
1302.7156
 21
856.76469999999995
  0
LINE
  8
_0-0_LAYER001
  6
CONTINUOUS
 62
    2
 10
1323.7664999999997
 20
882.8771999999999
 11
1302.7156
 21
856.76469999999995
  0
LINE
  8
_0-0_LAYER001
  6
CONTINUOUS
 62
    2
 10
1096.9485
 20
764.1694
 11
1124.2342000000001
 21
776.6389999999999
  0
LINE
  8
_0-0_LAYER001
  6
CONTINUOUS
 62
    2
 10
1117.9993999999999
 20
790.28189999999995
 11
1090.7137
 21
777.81230000000005
  0
LINE
  8
_0-0_LAYER001
  6
CONTINUOUS
 62
    2
 10
1124.2342000000001
 20
776.6389999999999
 11
1117.9993999999999
 21
790.28189999999995
  0
LINE
  8
_0-0_LAYER001
  6
CONTINUOUS
 62
    2
 10
1090.7137
 20
777.81230000000005
 11
1096.9485
 21
764.1694
  0
LINE
  8
_0-0_LAYER001
  6
CONTINUOUS
 62
    2
 10
1117.9993999999999
 20
790.28189999999995
 11
1096.9485
 21
764.1694
  0
LINE
  8
_0-0_LAYER001
  6
CONTINUOUS
 62
    2
 10
1672.6853000000001
 20
1138.2684999999999
 11
1676.8479000000002
 21
1123.8576
  0
LINE
  8
_0-0_LAYER001
  6
CONTINUOUS
 62
    2
 10
1761.5938000000001
 20
1148.3369
 11
1757.4312
 21
1162.7476999999999
  0
LINE
  8
_0-0_LAYER001
  6
CONTINUOUS
 62
    2
 10
1649.2314999999999
 20
1116.2795000000001
 11
1672.8136
 21
1124.8626999999999
  0
LINE
  8
_0-0_LAYER001
  6
CONTINUOUS
 62
    2
 10
1649.2314999999999
 20
1116.2795000000001
 11
1655.1441
 21
1117.2998
  0
LINE
  8
_0-0_LAYER001
  6
CONTINUOUS
 62
    2
 10
1676.8479000000002
 20
1123.8576
 11
1761.5938000000001
 21
1148.3369
  0
LINE
  8
_0-0_LAYER001
  6
CONTINUOUS
 62
    2
 10
1672.6853000000001
 20
1138.2684999999999
 11
1757.4312
 21
1162.7476999999999
  0
LINE
  8
_0-0_LAYER001
  6
CONTINUOUS
 62
    2
 10
1670.2089000000001
 20
1139.6348
 11
1672.8136
 21
1124.8626999999999
  0
LINE
  8
_0-0_LAYER001
  6
DASHED1
 62
    2
 10
1809.5749000000001
 20
1128.4159
 11
1804.5749000000001
 21
1131.4158
  0
LINE
  8
_0-0_LAYER001
  6
DASHED1
 62
    2
 10
1804.5749000000001
 20
1125.4159
 11
1809.5749000000001
 21
1128.4159
  0
LINE
  8
_0-0_LAYER001
  6
CONTINUOUS
 62
    2
 10
1737.5747999999999
 20
1125.4159
 11
1737.5747999999999
 21
1131.4158
  0
LINE
  8
_0-0_LAYER001
  6
CONTINUOUS
 62
    2
 10
1731.5749000000001
 20
1122.4158
 11
1731.5749000000001
 21
1134.4159
  0
LINE
  8
_0-0_LAYER001
  6
CONTINUOUS
 62
    2
 10
1740.4618999999998
 20
1125.4159
 11
1743.9249
 21
1131.4158
  0
LINE
  8
_0-0_LAYER001
  6
CONTINUOUS
 62
    2
 10
1731.5749000000001
 20
1122.4158
 11
1737.5747999999999
 21
1125.4159
  0
LINE
  8
_0-0_LAYER001
  6
CONTINUOUS
 62
    2
 10
1737.5747999999999
 20
1131.4158
 11
1731.5749000000001
 21
1134.4159
  0
LINE
  8
_0-0_LAYER001
  6
DASHED1
 62
    2
 10
1804.5749000000001
 20
1131.4158
 11
1761.5749000000001
 21
1131.4158
  0
LINE
  8
_0-0_LAYER001
  6
DASHED1
 62
    2
 10
1804.5749000000001
 20
1125.4159
 11
1761.5749000000001
 21
1125.4159
  0
LINE
  8
_0-0_LAYER001
  6
CONTINUOUS
 62
    2
 10
1761.5749000000001
 20
1124.1659
 11
1761.5749000000001
 21
1132.6659
  0
LINE
  8
_0-0_LAYER001
  6
CONTINUOUS
 62
    2
 10
1731.5749000000001
 20
1108.4159
 11
1761.5749000000001
 21
1108.4159
  0
LINE
  8
_0-0_LAYER001
  6
CONTINUOUS
 62
    2
 10
1761.5749000000001
 20
1131.4158
 11
1737.5747999999999
 21
1131.4158
  0
LINE
  8
_0-0_LAYER001
  6
CONTINUOUS
 62
    2
 10
1761.5749000000001
 20
1125.4159
 11
1737.5747999999999
 21
1125.4159
  0
LINE
  8
_0-0_LAYER001
  6
CONTINUOUS
 62
    2
 10
1746.1849999999999
 20
1125.4159
 11
1749.6480999999999
 21
1131.4158
  0
LINE
  8
_0-0_LAYER001
  6
CONTINUOUS
 62
    2
 10
1751.9081000000001
 20
1125.4159
 11
1755.3712
 21
1131.4158
  0
LINE
  8
_0-0_LAYER001
  6
CONTINUOUS
 62
    2
 10
1757.6313
 20
1125.4159
 11
1761.0943000000002
 21
1131.4158
  0
LINE
  8
_0-0_LAYER001
  6
CONTINUOUS
 62
    2
 10
1731.5749000000001
 20
1108.4159
 11
1731.5749000000001
 21
1139.6658
  0
LINE
  8
_0-0_LAYER001
  6
CONTINUOUS
 62
    2
 10
1761.5749000000001
 20
1108.4159
 11
1736.9688999999998
 21
1141.2239
  0
LINE
  8
_0-0_LAYER001
  6
CONTINUOUS
 62
    2
 10
1670.2089000000001
 20
1139.6348
 11
1757.1886
 21
1164.7592999999999
  0
LINE
  8
_0-0_LAYER001
  6
CONTINUOUS
 62
    2
 10
1740.9652000000001
 20
1157.8168000000001
 11
1749.7345999999998
 21
1159.3631
  0
LINE
  8
_0-0_LAYER001
  6
CONTINUOUS
 62
    2
 10
1748.2786999999998
 20
1132.2637999999999
 11
1751.7204999999999
 21
1124.0248999999999
  0
LINE
  8
_0-0_LAYER001
  6
CONTINUOUS
 62
    2
 10
1747.5969
 20
1157.4697000000001
 11
1751.9288000000001
 21
1132.9076
  0
LINE
  8
_0-0_LAYER001
  6
CONTINUOUS
 62
    2
 10
1751.7204999999999
 20
1124.0248999999999
 11
1751.9288000000001
 21
1132.9076
  0
LINE
  8
_0-0_LAYER001
  6
CONTINUOUS
 62
    2
 10
1743.8011000000001
 20
1156.6982
 11
1740.9652000000001
 21
1157.8168000000001
  0
LINE
  8
_0-0_LAYER001
  6
CONTINUOUS
 62
    2
 10
1747.4511000000002
 20
1157.3405
 11
1749.7345999999998
 21
1159.3631
  0
LINE
  8
_0-0_LAYER001
  6
CONTINUOUS
 62
    2
 10
1743.9647
 20
1156.7271000000001
 11
1748.2786999999998
 21
1132.2637999999999
  0
ARC
  8
_0-0_LAYER001
  6
CONTINUOUS
 62
    2
 10
1615.4069
 20
1100.2935
 40
71.747425000000007
 50
331.31356
 51
20.228506999999961
  0
LINE
  8
_0-2_LAYER004
  6
CONTINUOUS
 62
    2
 10
1843.4133000000002
 20
1312.7502999999999
 11
1790.9133000000002
 21
1312.7502999999999
  0
CIRCLE
  8
_0-2_LAYER004
  6
CONTINUOUS
 62
    2
 10
1840.9133000000002
 20
1312.7502999999999
 40
1.6999999999999997
  0
LINE
  8
_0-2_LAYER004
  6
CONTINUOUS
 62
    2
 10
1840.9133000000002
 20
1312.7502999999999
 11
1840.9133000000002
 21
1164.7592999999999
  0
CIRCLE
  8
_0-2_LAYER004
  6
CONTINUOUS
 62
    2
 10
1840.9133000000002
 20
1164.7592999999999
 40
1.6999999999999997
  0
LINE
  8
_0-2_LAYER004
  6
CONTINUOUS
 62
    2
 10
1843.4133000000002
 20
1164.7592999999999
 11
1790.9133000000002
 21
1164.7592999999999
  0
LINE
  8
_0-1_LAYER003
  6
CONTINUOUS
 62
    2
 10
1105.8427999999999
 20
678.79469999999992
 11
1761.5938000000001
 21
973.88270000000011
  0
LINE
  8
_0-1_LAYER003
  6
CONTINUOUS
 62
    2
 10
1081.2208000000001
 20
733.50970000000007
 11
1761.5938000000001
 21
1039.6777
  0
LINE
  8
_0-1_LAYER003
  6
CONTINUOUS
 62
    2
 10
1075.0658000000001
 20
747.18869999999993
 11
1755.4382999999998
 21
1053.3567
  0
LINE
  8
_0-2_LAYER004
  6
DASHED3
 62
    2
 10
1073.4238
 20
750.83670000000006
 11
1758.5328
 21
1059.1357
  0
LINE
  8
_0-4_LAYER006
  6
DASHED3
 62
    2
 10
1758.5328
 20
1059.1357
 11
1758.5328
 21
1356.1267
  0
LINE
  8
_0-4_LAYER006
  6
CONTINUOUS
 62
    2
 10
1757.1997999999999
 20
1164.7592999999999
 11
1757.1997999999999
 21
1312.7502999999999
  0
LINE
  8
_0-4_LAYER006
  6
CONTINUOUS
 62
    2
 10
1734.1988000000001
 20
1165.4242999999999
 11
1722.1997999999999
 21
1165.4242999999999
  0
LINE
  8
_0-4_LAYER006
  6
CONTINUOUS
 62
    2
 10
1734.1988000000001
 20
1187.2122999999999
 11
1734.1988000000001
 21
1227.2122999999999
  0
LINE
  8
_0-4_LAYER006
  6
CONTINUOUS
 62
    2
 10
1734.1988000000001
 20
1227.2122999999999
 11
1754.1997999999999
 21
1227.2122999999999
  0
LINE
  8
_0-4_LAYER006
  6
CONTINUOUS
 62
    2
 10
1754.1997999999999
 20
1227.2122999999999
 11
1754.1997999999999
 21
1187.2122999999999
  0
LINE
  8
_0-4_LAYER006
  6
CONTINUOUS
 62
    2
 10
1754.1997999999999
 20
1187.2122999999999
 11
1734.1988000000001
 21
1187.2122999999999
  0
LINE
  8
_0-4_LAYER006
  6
CONTINUOUS
 62
    2
 10
1754.1997999999999
 20
1227.2122999999999
 11
1734.1988000000001
 21
1187.2122999999999
  0
LINE
  8
_0-3_LAYER005
  6
CONTINUOUS
 62
    2
 10
1701.5938000000001
 20
946.88270000000011
 11
1761.5938000000001
 21
946.88270000000011
  0
LINE
  8
_0-3_LAYER005
  6
CONTINUOUS
 62
    2
 10
1701.5938000000001
 20
841.88270000000011
 11
1761.5938000000001
 21
841.88270000000011
  0
LINE
  8
_0-3_LAYER005
  6
CONTINUOUS
 62
    2
 10
1701.5938000000001
 20
946.88270000000011
 11
1701.5938000000001
 21
841.88270000000011
  0
LINE
  8
_0-3_LAYER005
  6
CONTINUOUS
 62
    2
 10
1761.5938000000001
 20
946.88270000000011
 11
1701.5938000000001
 21
841.88270000000011
  0
LINE
  8
_0-1_LAYER003
  6
CONTINUOUS
 62
    3
 10
1761.5938000000001
 20
1474.8857
 11
1761.5938000000001
 21
641.19370000000004
  0
LINE
  8
_0-4_LAYER006
  6
CONTINUOUS
 62
    2
 10
1734.1988000000001
 20
1165.4242999999999
 11
1734.1988000000001
 21
1474.8857
  0
LINE
  8
_0-4_LAYER006
  6
CONTINUOUS
 62
    2
 10
1722.1997999999999
 20
1165.4242999999999
 11
1722.1997999999999
 21
1474.8857
  0
CIRCLE
  8
_0-3_LAYER005
  6
CONTINUOUS
 62
    2
 10
1702.4108000000001
 20
1085.2157
 40
1.018
  0
CIRCLE
  8
_0-3_LAYER005
  6
CONTINUOUS
 62
    2
 10
1694.7318
 20
1084.1187
 40
1.018
  0
CIRCLE
  8
_0-3_LAYER005
  6
CONTINUOUS
 62
    2
 10
1689.2467999999999
 20
1112.4616000000001
 40
1.018
  0
CIRCLE
  8
_0-3_LAYER005
  6
CONTINUOUS
 62
    2
 10
1694.0007999999998
 20
1107.3425999999999
 40
1.018
  0
CIRCLE
  8
_0-3_LAYER005
  6
CONTINUOUS
 62
    2
 10
1694.7318
 20
1101.4916000000001
 40
1.018
  0
CIRCLE
  8
_0-3_LAYER005
  6
CONTINUOUS
 62
    2
 10
1691.0758000000001
 20
1082.0817
 40
1.018
  0
CIRCLE
  8
_0-3_LAYER005
  6
CONTINUOUS
 62
    2
 10
1702.4108000000001
 20
1079.5217
 40
1.018
  0
CIRCLE
  8
_0-3_LAYER005
  6
CONTINUOUS
 62
    2
 10
1700.5828000000001
 20
1100.7606000000001
 40
1.018
  0
CIRCLE
  8
_0-3_LAYER005
  6
CONTINUOUS
 62
    2
 10
1703.5077999999999
 20
1106.6116
 40
1.018
  0
CIRCLE
  8
_0-3_LAYER005
  6
CONTINUOUS
 62
    2
 10
1715.9398000000001
 20
1117.9466
 40
1.018
  0
CIRCLE
  8
_0-3_LAYER005
  6
CONTINUOUS
 62
    2
 10
1711.1867999999999
 20
1086.3126999999999
 40
1.018
  0
CIRCLE
  8
_0-3_LAYER005
  6
CONTINUOUS
 62
    2
 10
1718.1338000000001
 20
1107.1856
 40
1.018
  0
CIRCLE
  8
_0-3_LAYER005
  6
CONTINUOUS
 62
    2
 10
1714.1118000000001
 20
1114.4985999999999
 40
1.018
  0
CIRCLE
  8
_0-3_LAYER005
  6
CONTINUOUS
 62
    2
 10
1704.2388000000001
 20
1111.2076
 40
1.018
  0
CIRCLE
  8
_0-3_LAYER005
  6
CONTINUOUS
 62
    2
 10
1700.2168000000001
 20
1101.7016000000001
 40
1.018
  0
CIRCLE
  8
_0-3_LAYER005
  6
CONTINUOUS
 62
    2
 10
1693.2698
 20
1103.5296000000001
 40
1.018
  0
CIRCLE
  8
_0-3_LAYER005
  6
CONTINUOUS
 62
    2
 10
1703.5077999999999
 20
1079.7307000000001
 40
1.018
  0
CIRCLE
  8
_0-3_LAYER005
  6
CONTINUOUS
 62
    2
 10
1710.4548
 20
1118.6776
 40
1.018
  0
CIRCLE
  8
_0-3_LAYER005
  6
CONTINUOUS
 62
    2
 10
1717.0367999999999
 20
1103.6856
 40
1.018
  0
CIRCLE
  8
_0-3_LAYER005
  6
CONTINUOUS
 62
    2
 10
1719.2307999999998
 20
1099.2986000000001
 40
1.018
  0
CIRCLE
  8
_0-3_LAYER005
  6
CONTINUOUS
 62
    2
 10
1723.6188000000002
 20
1080.9847
 40
1.018
  0
CIRCLE
  8
_0-3_LAYER005
  6
CONTINUOUS
 62
    2
 10
1729.8348000000001
 20
1106.2456
 40
1.018
  0
CIRCLE
  8
_0-3_LAYER005
  6
CONTINUOUS
 62
    2
 10
1732.7597999999998
 20
1079.7307000000001
 40
1.018
  0
CIRCLE
  8
_0-3_LAYER005
  6
CONTINUOUS
 62
    2
 10
1722.8868000000002
 20
1122.9086
 40
1.018
  0
CIRCLE
  8
_0-3_LAYER005
  6
CONTINUOUS
 62
    2
 10
1729.1028000000001
 20
1106.4546
 40
1.018
  0
CIRCLE
  8
_0-3_LAYER005
  6
CONTINUOUS
 62
    2
 10
1723.2528000000002
 20
1083.3877
 40
1.018
  0
CIRCLE
  8
_0-3_LAYER005
  6
CONTINUOUS
 62
    2
 10
1725.4468000000002
 20
1118.3116
 40
1.018
  0
CIRCLE
  8
_0-3_LAYER005
  6
CONTINUOUS
 62
    2
 10
1709.7238000000002
 20
1112.0956000000001
 40
1.018
  0
CIRCLE
  8
_0-3_LAYER005
  6
CONTINUOUS
 62
    2
 10
1711.1867999999999
 20
1106.6116
 40
1.018
  0
CIRCLE
  8
_0-3_LAYER005
  6
CONTINUOUS
 62
    2
 10
1716.6707999999999
 20
1083.5436999999999
 40
1.018
  0
CIRCLE
  8
_0-3_LAYER005
  6
CONTINUOUS
 62
    2
 10
1736.7818000000002
 20
1081.3507
 40
1.018
  0
CIRCLE
  8
_0-3_LAYER005
  6
CONTINUOUS
 62
    2
 10
1744.8258000000001
 20
1099.2986000000001
 40
1.018
  0
CIRCLE
  8
_0-3_LAYER005
  6
CONTINUOUS
 62
    2
 10
1747.3858
 20
1083.5436999999999
 40
1.018
  0
CIRCLE
  8
_0-3_LAYER005
  6
CONTINUOUS
 62
    2
 10
1741.9007999999999
 20
1100.7606000000001
 40
1.018
  0
CIRCLE
  8
_0-3_LAYER005
  6
CONTINUOUS
 62
    2
 10
1749.5798
 20
1082.6557
 40
1.018
  0
CIRCLE
  8
_0-3_LAYER005
  6
CONTINUOUS
 62
    2
 10
1755.4297999999999
 20
1104.6266000000001
 40
1.018
  0
CIRCLE
  8
_0-3_LAYER005
  6
CONTINUOUS
 62
    2
 10
1705.6738
 20
1103.9096
 40
1.018
  0
CIRCLE
  8
_0-3_LAYER005
  6
CONTINUOUS
 62
    2
 10
1722.7748000000001
 20
1117.9336000000001
 40
1.018
  0
CIRCLE
  8
_0-3_LAYER005
  6
CONTINUOUS
 62
    2
 10
1718.2748000000001
 20
1125.1335999999999
 40
1.018
  0
CIRCLE
  8
_0-3_LAYER005
  6
CONTINUOUS
 62
    2
 10
1726.3748000000001
 20
1107.1325999999999
 40
1.018
  0
CIRCLE
  8
_0-3_LAYER005
  6
CONTINUOUS
 62
    2
 10
1716.4748
 20
1110.7326
 40
1.018
  0
CIRCLE
  8
_0-3_LAYER005
  6
CONTINUOUS
 62
    2
 10
1738.9748
 20
1100.3086000000001
 40
1.018
  0
LINE
  8
_0-0_LAYER001
  6
CONTINUOUS
 62
    2
 10
1672.6853000000001
 20
1138.2684999999999
 11
1761.5938000000001
 21
1148.3369
  0
LINE
  8
_0-2_LAYER004
  6
CONTINUOUS
 62
    2
 10
1706.1866
 20
1158.4476
 11
1708.1277
 21
1151.2031999999999
  0
LINE
  8
_0-2_LAYER004
  6
CONTINUOUS
 62
    2
 10
1708.1277
 20
1151.2031999999999
 11
1702.8244
 21
1156.5065
  0
LINE
  8
_0-2_LAYER004
  6
CONTINUOUS
 62
    2
 10
1708.1277
 20
1151.2031999999999
 11
1591.0196999999998
 21
1354.0400999999999
  0
LINE
  8
_0-2_LAYER004
  6
CONTINUOUS
 62
    2
 10
1591.0196999999998
 20
1354.0400999999999
 11
1357.0197000000003
 21
1354.0400999999999
  0
LINE
  8
_0-0_LAYER001
  6
CONTINUOUS
 62
    2
 10
1391.2382
 20
1180.7458999999999
 11
1409.2464
 21
1131.431
  0
CIRCLE
  8
_0-0_LAYER001
  6
CONTINUOUS
 62
    2
 10
1392.0958000000001
 20
1178.3976
 40
1.6999999999999997
  0
LINE
  8
_0-0_LAYER001
  6
CONTINUOUS
 62
    2
 10
1392.0958000000001
 20
1178.3976
 11
1669.1984000000002
 21
1279.5862
  0
CIRCLE
  8
_0-0_LAYER001
  6
CONTINUOUS
 62
    2
 10
1669.1984000000002
 20
1279.5862
 40
1.6999999999999997
  0
LINE
  8
_0-0_LAYER001
  6
CONTINUOUS
 62
    2
 10
1669.1984000000002
 20
1279.5862
 11
1687.2064999999998
 21
1230.2713000000001
  0
LINE
  8
_0-0_LAYER001
  6
CONTINUOUS
 62
    2
 10
1402.442
 20
1150.095
 11
1420.2444
 21
1100.7055
  0
CIRCLE
  8
_0-0_LAYER001
  6
CONTINUOUS
 62
    2
 10
1403.2898
 20
1147.7430999999999
 40
1.6999999999999997
  0
LINE
  8
_0-0_LAYER001
  6
CONTINUOUS
 62
    2
 10
1403.2898
 20
1147.7430999999999
 11
1191.6203
 21
1071.4473
  0
CIRCLE
  8
_0-0_LAYER001
  6
CONTINUOUS
 62
    2
 10
1191.6203
 20
1071.4473
 40
1.6999999999999997
  0
LINE
  8
_0-0_LAYER001
  6
CONTINUOUS
 62
    2
 10
1190.7726
 20
1073.7991
 11
1208.575
 21
1024.4096
  0
LINE
  8
_0-0_LAYER001
  6
CONTINUOUS
 62
    2
 10
1203.9933000000001
 20
1037.1205
 11
1221.7956999999999
 21
987.73099999999999
  0
CIRCLE
  8
_0-0_LAYER001
  6
CONTINUOUS
 62
    2
 10
1204.8411000000001
 20
1034.7687000000001
 40
1.6999999999999997
  0
LINE
  8
_0-0_LAYER001
  6
CONTINUOUS
 62
    2
 10
1204.8411000000001
 20
1034.7687000000001
 11
1010.1758
 21
964.60189999999989
  0
LINE
  8
_0-0_LAYER001
  6
CONTINUOUS
 62
    2
 10
1411.2585999999999
 20
952.01070000000004
 11
1413.1998000000001
 21
944.76620000000003
  0
LINE
  8
_0-0_LAYER001
  6
CONTINUOUS
 62
    2
 10
1413.1998000000001
 20
944.76620000000003
 11
1407.8964999999998
 21
950.06950000000006
  0
LINE
  8
_0-0_LAYER001
  6
CONTINUOUS
 62
    2
 10
1413.1998000000001
 20
944.76620000000003
 11
1358.2118
 21
1040.0082
  0
LINE
  8
_0-0_LAYER001
  6
CONTINUOUS
 62
    2
 10
1358.2118
 20
1040.0082
 11
1317.7118
 21
1040.0082
  0
LINE
  8
_0-0_LAYER001
  6
CONTINUOUS
 62
    2
 10
1643.4607999999998
 20
1335.8566000000001
 11
1643.4607999999998
 21
1241.338
  0
CIRCLE
  8
_0-0_LAYER001
  6
CONTINUOUS
 62
    2
 10
1643.4607999999998
 20
1333.3566000000001
 40
1.6999999999999997
  0
LINE
  8
_0-0_LAYER001
  6
CONTINUOUS
 62
    2
 10
1643.4607999999998
 20
1333.3566000000001
 11
1722.1997999999999
 21
1333.3566000000001
  0
CIRCLE
  8
_0-0_LAYER001
  6
CONTINUOUS
 62
    2
 10
1722.1997999999999
 20
1333.3566000000001
 40
1.6999999999999997
  0
LINE
  8
_0-0_LAYER001
  6
CONTINUOUS
 62
    2
 10
1722.1997999999999
 20
1282.1473000000001
 11
1722.1997999999999
 21
1264.6473000000001
  0
LINE
  8
_0-2_LAYER004
  6
CONTINUOUS
 62
    2
 10
1746.7552000000001
 20
1225.0481
 11
1741.4519
 21
1219.7447999999999
  0
LINE
  8
_0-2_LAYER004
  6
CONTINUOUS
 62
    2
 10
1741.4519
 20
1219.7447999999999
 11
1743.3930999999998
 21
1226.9893
  0
LINE
  8
_0-2_LAYER004
  6
CONTINUOUS
 62
    2
 10
1741.4519
 20
1219.7447999999999
 11
1822.2662
 21
1359.7192999999997
  0
LINE
  8
_0-2_LAYER004
  6
CONTINUOUS
 62
    2
 10
1822.2662
 20
1359.7192999999997
 11
1862.7662
 21
1359.7192999999997
  0
LINE
  8
_0-0_LAYER001
  6
CONTINUOUS
 62
    2
 10
1753.6615999999999
 20
1116.7804000000001
 11
1751.7204999999999
 21
1124.0248999999999
  0
LINE
  8
_0-0_LAYER001
  6
CONTINUOUS
 62
    2
 10
1751.7204999999999
 20
1124.0248999999999
 11
1757.0237999999999
 21
1118.7216000000001
  0
LINE
  8
_0-0_LAYER001
  6
CONTINUOUS
 62
    2
 10
1751.7204999999999
 20
1124.0248999999999
 11
1810.047
 21
1023.0003999999999
  0
LINE
  8
_0-0_LAYER001
  6
CONTINUOUS
 62
    2
 10
1810.047
 20
1023.0003999999999
 11
1924.047
 21
1023.0003999999999
  0
LINE
  8
_0-2_LAYER004
  6
CONTINUOUS
 62
    2
 10
1686.2374
 20
1140.779
 11
1688.1786000000002
 21
1133.5345
  0
LINE
  8
_0-2_LAYER004
  6
CONTINUOUS
 62
    2
 10
1688.1786000000002
 20
1133.5345
 11
1682.8753000000002
 21
1138.8378
  0
LINE
  8
_0-2_LAYER004
  6
CONTINUOUS
 62
    2
 10
1688.1786000000002
 20
1133.5345
 11
1590.1898000000001
 21
1303.2560000000001
  0
LINE
  8
_0-2_LAYER004
  6
CONTINUOUS
 62
    2
 10
1590.1898000000001
 20
1303.2560000000001
 11
1441.2907
 21
1303.2560000000001
  0
LINE
  8
_0-0_LAYER001
  6
CONTINUOUS
 62
    2
 10
1738.3274999999999
 20
1086.7113999999999
 11
1736.3863999999999
 21
1093.9558999999999
  0
LINE
  8
_0-0_LAYER001
  6
CONTINUOUS
 62
    2
 10
1736.3863999999999
 20
1093.9558999999999
 11
1741.6896999999999
 21
1088.6525999999999
  0
LINE
  8
_0-0_LAYER001
  6
CONTINUOUS
 62
    2
 10
1736.3863999999999
 20
1093.9558999999999
 11
1804.7004000000002
 21
975.63259999999991
  0
LINE
  8
_0-0_LAYER001
  6
CONTINUOUS
 62
    2
 10
1804.7004000000002
 20
975.63259999999991
 11
1887.6667000000002
 21
975.63259999999991
  0
LINE
  8
_0-0_LAYER001
  6
CONTINUOUS
 62
    2
 10
1358.9377999999999
 20
693.03939999999989
 11
1547.7458999999999
 21
693.03939999999989
  0
LINE
  8
_0-0_LAYER001
  6
CONTINUOUS
 62
    2
 10
1367.5672
 20
662.94409999999993
 11
1608.7786999999998
 21
662.94409999999993
  0
LINE
  8
_0-0_LAYER001
  6
CONTINUOUS
 62
    2
 10
1377.1102999999998
 20
632.84870000000001
 11
1548.7817
 21
632.84870000000001
  0
LINE
  8
_0-0_LAYER001
  6
CONTINUOUS
 62
    2
 10
1313.8488000000002
 20
855.25199999999995
 11
1313.8488000000002
 21
862.75199999999995
  0
LINE
  8
_0-0_LAYER001
  6
CONTINUOUS
 62
    2
 10
1313.8488000000002
 20
862.75199999999995
 11
1317.5988000000002
 21
856.25680000000011
  0
LINE
  8
_0-0_LAYER001
  6
CONTINUOUS
 62
    2
 10
1313.8488000000002
 20
862.75199999999995
 11
1383.4539999999997
 21
602.98219999999992
  0
LINE
  8
_0-0_LAYER001
  6
CONTINUOUS
 62
    2
 10
1383.4539999999997
 20
602.98219999999992
 11
1449.1837999999998
 21
602.98219999999992
  0
LINE
  8
_0-1_LAYER003
  6
CONTINUOUS
 62
    7
 10
1511.5286999999998
 20
1479.5177000000001
 11
1684.0286999999998
 21
1479.5177000000001
  0
LINE
  8
_0-1_LAYER003
  6
CONTINUOUS
 62
    7
 10
1357.0197000000003
 20
1354.0400999999999
 11
1591.0196999999998
 21
1354.0400999999999
  0
LINE
  8
_0-1_LAYER003
  6
CONTINUOUS
 62
    7
 10
1441.2907
 20
1303.2560000000001
 11
1590.1898000000001
 21
1303.2560000000001
  0
LINE
  8
_0-1_LAYER003
  6
CONTINUOUS
 62
    7
 10
1643.4607999999998
 20
1335.8566000000001
 11
1643.4607999999998
 21
1241.338
  0
LINE
  8
_0-1_LAYER003
  6
CONTINUOUS
 62
    7
 10
1822.2662
 20
1359.7192999999997
 11
1862.7662
 21
1359.7192999999997
  0
LINE
  8
_0-1_LAYER003
  6
CONTINUOUS
 62
    7
 10
1886.9404
 20
1356.1267
 11
1939.4404
 21
1356.1267
  0
LINE
  8
_0-1_LAYER003
  6
CONTINUOUS
 62
    7
 10
1936.9404
 20
1354.4267
 11
1936.9404
 21
1059.1357
  0
LINE
  8
_0-1_LAYER003
  6
CONTINUOUS
 62
    7
 10
1886.9404
 20
1059.1357
 11
1939.4404
 21
1059.1357
  0
LINE
  8
_0-1_LAYER003
  6
CONTINUOUS
 62
    7
 10
1810.047
 20
1023.0003999999999
 11
1907.547
 21
1023.0003999999999
  0
LINE
  8
_0-1_LAYER003
  6
CONTINUOUS
 62
    7
 10
1804.7004000000002
 20
975.63259999999991
 11
1869.2004000000002
 21
975.63259999999991
  0
LINE
  8
_0-1_LAYER003
  6
CONTINUOUS
 62
    7
 10
1701.5938000000001
 20
946.88269542509283
 11
1761.5938000000001
 21
946.88269542509283
  0
LINE
  8
_0-1_LAYER003
  6
CONTINUOUS
 62
    7
 10
1701.5938000000003
 20
946.88269542509283
 11
1701.5938000000003
 21
841.88270000000011
  0
LINE
  8
_0-1_LAYER003
  6
CONTINUOUS
 62
    7
 10
1701.5938000000001
 20
841.88270000000011
 11
1761.5938000000001
 21
841.88270000000011
  0
LINE
  8
_0-1_LAYER003
  6
CONTINUOUS
 62
    7
 10
1701.5938000000001
 20
841.88270000000011
 11
1701.5938000000001
 21
946.88269542509283
  0
LINE
  8
_0-1_LAYER003
  6
CONTINUOUS
 62
    7
 10
1383.4539999999997
 20
602.98219999999992
 11
1432.2835
 21
602.98219999999992
  0
LINE
  8
_0-1_LAYER003
  6
CONTINUOUS
 62
    7
 10
1377.1102999999998
 20
632.84870000000001
 11
1548.7817
 21
632.84870000000001
  0
LINE
  8
_0-1_LAYER003
  6
CONTINUOUS
 62
    7
 10
1367.5672
 20
662.94409999999993
 11
1608.7786999999998
 21
662.94409999999993
  0
LINE
  8
_0-1_LAYER003
  6
CONTINUOUS
 62
    7
 10
1359.3232141371323
 20
693.03939999999989
 11
1547.7458999999999
 21
693.03939999999989
  0
LINE
  8
_0-1_LAYER003
  6
CONTINUOUS
 62
    7
 10
1317.7118
 20
1040.0082
 11
1358.2118
 21
1040.0082
  0
LINE
  8
_0-1_LAYER003
  6
CONTINUOUS
 62
    7
 10
1643.4607999999998
 20
1333.3566000000001
 11
1722.1997999999999
 21
1333.3566000000001
  0
LINE
  8
_0-1_LAYER003
  6
CONTINUOUS
 62
    7
 10
1722.1997999999999
 20
1474.8857
 11
1722.1997999999999
 21
1165.4242999999999
  0
LINE
  8
_0-1_LAYER003
  6
CONTINUOUS
 62
    7
 10
1722.1997999999999
 20
1165.4242999999999
 11
1734.1988000000001
 21
1165.4242999999999
  0
LINE
  8
_0-1_LAYER003
  6
CONTINUOUS
 62
    7
 10
1734.1988000000001
 20
1165.4242999999999
 11
1734.1988000000001
 21
1474.8857
  0
LINE
  8
_0-1_LAYER003
  6
CONTINUOUS
 62
    7
 10
1758.5328
 20
1356.1267
 11
1758.5328
 21
1059.1357
  0
LINE
  8
_0-1_LAYER003
  6
CONTINUOUS
 62
    7
 10
1761.5749000000001
 20
1108.4159
 11
1731.9685159371331
 21
1108.4159
  0
LINE
  8
_0-1_LAYER003
  6
CONTINUOUS
 62
    7
 10
1731.9685159371331
 20
1108.4159
 11
1731.9685159371331
 21
1139.6657824737244
  0
LINE
  8
_0-1_LAYER003
  6
CONTINUOUS
 62
    7
 10
1737.5747999999999
 20
1131.4158
 11
1737.5747999999999
 21
1125.4159
  0
LINE
  8
_0-1_LAYER003
  6
CONTINUOUS
 62
    7
 10
1737.5747999999999
 20
1125.4159
 11
1804.5749000000001
 21
1125.4159
  0
LINE
  8
_0-1_LAYER003
  6
CONTINUOUS
 62
    7
 10
1804.5749000000001
 20
1131.4158
 11
1737.5747999999999
 21
1131.4158
  0
LINE
  8
_0-1_LAYER003
  6
CONTINUOUS
 62
    7
 10
1757.1997999999999
 20
1164.7592999999999
 11
1757.1997999999999
 21
1312.7502999999999
  0
LINE
  8
_0-1_LAYER003
  6
CONTINUOUS
 62
    7
 10
1734.1988000000001
 20
1227.2122999999999
 11
1754.1997999999999
 21
1227.2122999999999
  0
LINE
  8
_0-1_LAYER003
  6
CONTINUOUS
 62
    7
 10
1754.1997999999999
 20
1227.2122999999999
 11
1754.1997999999999
 21
1187.2122999999999
  0
LINE
  8
_0-1_LAYER003
  6
CONTINUOUS
 62
    7
 10
1754.1997999999999
 20
1187.2122999999999
 11
1734.1988000000001
 21
1187.2122999999999
  0
LINE
  8
_0-1_LAYER003
  6
CONTINUOUS
 62
    7
 10
1790.9133000000002
 20
1312.7502999999999
 11
1840.9133000000002
 21
1312.7502999999999
  0
LINE
  8
_0-1_LAYER003
  6
CONTINUOUS
 62
    7
 10
1840.9133000000002
 20
1312.7502999999999
 11
1840.9133000000002
 21
1164.7592999999999
  0
LINE
  8
_0-1_LAYER003
  6
CONTINUOUS
 62
    7
 10
1790.9133000000002
 20
1164.7592999999999
 11
1843.4133000000002
 21
1164.7592999999999
  0
LINE
  8
_0-1_LAYER003
  6
CONTINUOUS
 62
    7
 10
1839.2133000000001
 20
1312.7502999999999
 11
1842.6133000000002
 21
1312.7502999999999
  0
LINE
  8
_0-1_LAYER003
  6
CONTINUOUS
 62
    7
 10
1591.0196999999998
 20
1354.0400999999999
 11
1708.1277
 21
1151.2031999999999
  0
LINE
  8
_0-1_LAYER003
  6
CONTINUOUS
 62
    7
 10
1708.1277
 20
1151.2031999999999
 11
1706.1866
 21
1158.4476
  0
LINE
  8
_0-1_LAYER003
  6
CONTINUOUS
 62
    7
 10
1708.1277
 20
1151.2031999999999
 11
1702.8244
 21
1156.5065
  0
LINE
  8
_0-1_LAYER003
  6
CONTINUOUS
 62
    7
 10
1686.2374
 20
1140.779
 11
1688.1786000000002
 21
1133.5345
  0
LINE
  8
_0-1_LAYER003
  6
CONTINUOUS
 62
    7
 10
1688.1786000000002
 20
1133.5345
 11
1682.8753000000002
 21
1138.8378
  0
LINE
  8
_0-1_LAYER003
  6
CONTINUOUS
 62
    7
 10
1761.5938000000001
 20
1148.3369
 11
1676.8479000000002
 21
1123.8576
  0
LINE
  8
_0-1_LAYER003
  6
CONTINUOUS
 62
    7
 10
1676.8479000000002
 20
1123.8576
 11
1672.6853000000001
 21
1138.2684999999999
  0
LINE
  8
_0-1_LAYER003
  6
CONTINUOUS
 62
    7
 10
1672.6853000000001
 20
1138.2684999999999
 11
1757.4312
 21
1162.7476999999999
  0
LINE
  8
_0-1_LAYER003
  6
CONTINUOUS
 62
    7
 10
1757.4312
 20
1162.7476999999999
 11
1761.5938000000001
 21
1148.3369
  0
LINE
  8
_0-1_LAYER003
  6
CONTINUOUS
 62
    7
 10
1761.5938000000001
 20
1148.3369
 11
1672.6853000000001
 21
1138.2684999999999
  0
LINE
  8
_0-1_LAYER003
  6
CONTINUOUS
 62
    7
 10
1670.2089000000001
 20
1139.6348
 11
1757.1997999999999
 21
1164.7592999999999
  0
LINE
  8
_0-1_LAYER003
  6
CONTINUOUS
 62
    7
 10
1670.2089000000001
 20
1139.6348
 11
1672.8136
 21
1124.8626999999999
  0
LINE
  8
_0-1_LAYER003
  6
CONTINUOUS
 62
    7
 10
1672.8136
 20
1124.8626999999999
 11
1649.2314999999999
 21
1116.2795000000001
  0
LINE
  8
_0-1_LAYER003
  6
CONTINUOUS
 62
    7
 10
1649.2314999999999
 20
1116.2795000000001
 11
1655.1441
 21
1117.2998
  0
LINE
  8
_0-1_LAYER003
  6
CONTINUOUS
 62
    7
 10
1736.9689198428307
 20
1141.2238735428923
 11
1761.5749000000001
 21
1108.4159
  0
LINE
  8
_0-1_LAYER003
  6
CONTINUOUS
 62
    7
 10
1737.5747999999999
 20
1131.4158
 11
1731.9685159371331
 21
1134.2190821908709
  0
LINE
  8
_0-1_LAYER003
  6
CONTINUOUS
 62
    7
 10
1737.5747999999999
 20
1125.4159
 11
1731.5749000000001
 21
1122.4158
  0
LINE
  8
_0-1_LAYER003
  6
CONTINUOUS
 62
    7
 10
1743.9647
 20
1156.7271000000001
 11
1740.9652000000001
 21
1157.8168000000001
  0
LINE
  8
_0-1_LAYER003
  6
CONTINUOUS
 62
    7
 10
1740.9652000000001
 20
1157.8168000000001
 11
1749.7345999999998
 21
1159.3631
  0
LINE
  8
_0-1_LAYER003
  6
CONTINUOUS
 62
    7
 10
1749.7345999999998
 20
1159.3631
 11
1747.5969088923537
 21
1157.469649579888
  0
LINE
  8
_0-1_LAYER003
  6
CONTINUOUS
 62
    7
 10
1747.5969088923537
 20
1157.469649579888
 11
1751.9288000000001
 21
1132.9076
  0
LINE
  8
_0-1_LAYER003
  6
CONTINUOUS
 62
    7
 10
1751.9288000000001
 20
1132.9076
 11
1751.7204999999999
 21
1124.0248999999999
  0
LINE
  8
_0-1_LAYER003
  6
CONTINUOUS
 62
    7
 10
1751.7204999999999
 20
1124.0248999999999
 11
1748.2786999999998
 21
1132.2637999999999
  0
LINE
  8
_0-1_LAYER003
  6
CONTINUOUS
 62
    7
 10
1748.2786999999998
 20
1132.2637999999999
 11
1743.9647
 21
1156.7271000000001
  0
LINE
  8
_0-1_LAYER003
  6
CONTINUOUS
 62
    7
 10
1751.7204999999999
 20
1124.0248999999999
 11
1753.6615999999999
 21
1116.7804000000001
  0
LINE
  8
_0-1_LAYER003
  6
CONTINUOUS
 62
    7
 10
1751.7204999999999
 20
1124.0248999999999
 11
1757.0237999999999
 21
1118.7216000000001
  0
LINE
  8
_0-1_LAYER003
  6
CONTINUOUS
 62
    7
 10
1751.7204999999999
 20
1124.0248999999999
 11
1810.047
 21
1023.0003999999999
  0
LINE
  8
_0-1_LAYER003
  6
CONTINUOUS
 62
    7
 10
1804.5749000000001
 20
1131.4158
 11
1809.5749000000001
 21
1128.4159
  0
LINE
  8
_0-1_LAYER003
  6
CONTINUOUS
 62
    7
 10
1809.5749000000001
 20
1128.4159
 11
1804.5749000000001
 21
1125.4159
  0
LINE
  8
_0-1_LAYER003
  6
CONTINUOUS
 62
    7
 10
1737.6696345665569
 20
1092.6726654334432
 11
1741.6896999999999
 21
1088.6525999999999
  0
LINE
  8
_0-1_LAYER003
  6
CONTINUOUS
 62
    7
 10
1761.5938000000001
 20
946.88270000000011
 11
1701.5938000000003
 21
841.88270000000045
  0
LINE
  8
_0-1_LAYER003
  6
CONTINUOUS
 62
    7
 10
1761.5938000000001
 20
973.88270000000011
 11
1105.8427999999999
 21
678.79469999999992
  0
LINE
  8
_0-1_LAYER003
  6
CONTINUOUS
 62
    7
 10
1383.4539999999997
 20
602.98219999999992
 11
1313.8488000000002
 21
862.75199999999995
  0
LINE
  8
_0-1_LAYER003
  6
CONTINUOUS
 62
    7
 10
1313.8488000000002
 20
862.75199999999995
 11
1313.8488000000002
 21
855.25199999999995
  0
LINE
  8
_0-1_LAYER003
  6
CONTINUOUS
 62
    7
 10
1314.2596683585512
 20
862.04035409001017
 11
1317.5658568737558
 21
856.31385925162181
  0
LINE
  8
_0-1_LAYER003
  6
CONTINUOUS
 62
    7
 10
1330.0012999999999
 20
869.23430000000008
 11
1302.7156
 21
856.76469999999995
  0
LINE
  8
_0-1_LAYER003
  6
CONTINUOUS
 62
    7
 10
1302.7156
 20
856.76469999999995
 11
1296.4807999999998
 21
870.4076
  0
LINE
  8
_0-1_LAYER003
  6
CONTINUOUS
 62
    7
 10
1296.4807999999998
 20
870.4076
 11
1323.7664999999997
 21
882.8771999999999
  0
LINE
  8
_0-1_LAYER003
  6
CONTINUOUS
 62
    7
 10
1323.7664999999997
 20
882.8771999999999
 11
1302.7156
 21
856.76469999999995
  0
LINE
  8
_0-1_LAYER003
  6
CONTINUOUS
 62
    7
 10
1323.7664999999997
 20
882.8771999999999
 11
1330.0012999999999
 21
869.23430000000008
  0
LINE
  8
_0-1_LAYER003
  6
CONTINUOUS
 62
    7
 10
1081.2208000000001
 20
733.50970000000007
 11
1761.5938000000001
 21
1039.6777
  0
LINE
  8
_0-1_LAYER003
  6
CONTINUOUS
 62
    7
 10
1761.5938000000001
 20
1039.6777
 11
1755.4382999999998
 21
1053.3567
  0
LINE
  8
_0-1_LAYER003
  6
CONTINUOUS
 62
    7
 10
1755.4382999999998
 20
1053.3567
 11
1075.0658000000001
 21
747.18869999999993
  0
LINE
  8
_0-1_LAYER003
  6
CONTINUOUS
 62
    7
 10
1073.4238
 20
750.83670000000006
 11
1758.5328
 21
1059.1357
  0
LINE
  8
_0-1_LAYER003
  6
CONTINUOUS
 62
    7
 10
1714.2498999999998
 20
1041.9553000000001
 11
1708.0151000000001
 21
1055.5980999999999
  0
LINE
  8
_0-1_LAYER003
  6
CONTINUOUS
 62
    7
 10
1708.0151000000001
 20
1055.5980999999999
 11
1735.3008
 21
1068.0677000000001
  0
LINE
  8
_0-1_LAYER003
  6
CONTINUOUS
 62
    7
 10
1735.3008
 20
1068.0677000000001
 11
1741.5356000000002
 21
1054.4249
  0
LINE
  8
_0-1_LAYER003
  6
CONTINUOUS
 62
    7
 10
1741.5356000000002
 20
1054.4249
 11
1714.2498999999998
 21
1041.9553000000001
  0
LINE
  8
_0-1_LAYER003
  6
CONTINUOUS
 62
    7
 10
1714.2498999999998
 20
1041.9553000000001
 11
1735.3008
 21
1068.0677000000001
  0
LINE
  8
_0-1_LAYER003
  6
CONTINUOUS
 62
    7
 10
1736.3863999999999
 20
1093.9558999999999
 11
1737.6696345665569
 21
1092.6726654334432
  0
LINE
  8
_0-1_LAYER003
  6
CONTINUOUS
 62
    7
 10
1736.3863999999999
 20
1093.9558999999999
 11
1738.3274999999999
 21
1086.7113999999999
  0
LINE
  8
_0-1_LAYER003
  6
CONTINUOUS
 62
    7
 10
1736.3863999999999
 20
1093.9558999999999
 11
1804.7004000000002
 21
975.63259999999991
  0
LINE
  8
_0-1_LAYER003
  6
CONTINUOUS
 62
    7
 10
1590.1898000000001
 20
1303.2560000000001
 11
1688.1786000000002
 21
1133.5345
  0
LINE
  8
_0-1_LAYER003
  6
CONTINUOUS
 62
    7
 10
1734.1988000000001
 20
1187.2122999999999
 11
1754.1997999999999
 21
1227.2122999999999
  0
LINE
  8
_0-1_LAYER003
  6
CONTINUOUS
 62
    7
 10
1743.3930999999998
 20
1226.9893
 11
1741.4519
 21
1219.7447999999999
  0
LINE
  8
_0-1_LAYER003
  6
CONTINUOUS
 62
    7
 10
1741.4519
 20
1219.7447999999999
 11
1746.7552000000001
 21
1225.0481
  0
LINE
  8
_0-1_LAYER003
  6
CONTINUOUS
 62
    7
 10
1741.4519
 20
1219.7447999999999
 11
1822.2662
 21
1359.7192999999997
  0
LINE
  8
_0-1_LAYER003
  6
CONTINUOUS
 62
    7
 10
1723.6803
 20
1406.9568999999999
 11
1728.9836
 21
1401.6536000000001
  0
LINE
  8
_0-1_LAYER003
  6
CONTINUOUS
 62
    7
 10
1728.9836
 20
1401.6536000000001
 11
1727.0425
 21
1408.8981000000001
  0
LINE
  8
_0-1_LAYER003
  6
CONTINUOUS
 62
    7
 10
1728.9836
 20
1401.6536000000001
 11
1684.0286999999998
 21
1479.5177000000001
  0
LINE
  8
_0-1_LAYER003
  6
CONTINUOUS
 62
    7
 10
1669.1984000000002
 20
1279.5862
 11
1687.2064999999998
 21
1230.2713000000001
  0
LINE
  8
_0-1_LAYER003
  6
CONTINUOUS
 62
    7
 10
1669.1984000000002
 20
1279.5862
 11
1392.0958000000001
 21
1178.3976
  0
LINE
  8
_0-1_LAYER003
  6
CONTINUOUS
 62
    7
 10
1391.512609794959
 20
1179.9944372442876
 11
1420.2444
 21
1100.7055
  0
LINE
  8
_0-1_LAYER003
  6
CONTINUOUS
 62
    7
 10
1403.2889297346853
 20
1147.7453484849664
 11
1191.6203036764641
 21
1071.4473013251734
  0
LINE
  8
_0-1_LAYER003
  6
CONTINUOUS
 62
    7
 10
1191.0438448169659
 20
1073.0465809077687
 11
1221.7956999999999
 21
987.73099999999999
  0
LINE
  8
_0-1_LAYER003
  6
CONTINUOUS
 62
    7
 10
1204.8411000000001
 20
1034.7687000000001
 11
1010.1758
 21
964.60189999999989
  0
LINE
  8
_0-1_LAYER003
  6
CONTINUOUS
 62
    7
 10
1096.9485
 20
764.1694
 11
1090.7137
 21
777.81230000000005
  0
LINE
  8
_0-1_LAYER003
  6
CONTINUOUS
 62
    7
 10
1090.7137
 20
777.81230000000005
 11
1117.9993999999999
 21
790.28189999999995
  0
LINE
  8
_0-1_LAYER003
  6
CONTINUOUS
 62
    7
 10
1117.9993999999999
 20
790.28189999999995
 11
1124.2342000000001
 21
776.6389999999999
  0
LINE
  8
_0-1_LAYER003
  6
CONTINUOUS
 62
    7
 10
1124.2342000000001
 20
776.6389999999999
 11
1096.9485
 21
764.1694
  0
LINE
  8
_0-1_LAYER003
  6
CONTINUOUS
 62
    7
 10
1096.9485
 20
764.1694
 11
1117.9993999999999
 21
790.28189999999995
  0
LINE
  8
_0-1_LAYER003
  6
CONTINUOUS
 62
    7
 10
1358.2118
 20
1040.0082
 11
1413.1998000000001
 21
944.76620000000003
  0
LINE
  8
_0-1_LAYER003
  6
CONTINUOUS
 62
    7
 10
1413.1998000000001
 20
944.76620000000003
 11
1411.3899651760355
 21
951.52044911508847
  0
LINE
  8
_0-1_LAYER003
  6
CONTINUOUS
 62
    7
 10
1413.1998000000001
 20
944.76620000000003
 11
1407.8964999999998
 21
950.06950000000006
  0
LINE
  8
_0-1_LAYER003
  6
CONTINUOUS
 62
    7
 10
1508.4828000000002
 20
949.3599999999999
 11
1502.248
 21
963.00279999999998
  0
LINE
  8
_0-1_LAYER003
  6
CONTINUOUS
 62
    7
 10
1502.248
 20
963.00279999999998
 11
1529.5336000000002
 21
975.47250000000008
  0
LINE
  8
_0-1_LAYER003
  6
CONTINUOUS
 62
    7
 10
1529.5336000000002
 20
975.47250000000008
 11
1535.7683999999999
 21
961.82960000000003
  0
LINE
  8
_0-1_LAYER003
  6
CONTINUOUS
 62
    7
 10
1535.7683999999999
 20
961.82960000000003
 11
1508.4828000000002
 21
949.3599999999999
  0
LINE
  8
_0-1_LAYER003
  6
CONTINUOUS
 62
    7
 10
1508.4828000000002
 20
949.3599999999999
 11
1529.5336000000002
 21
975.47250000000008
  0
ARC
  8
_0-1_LAYER003
  6
CONTINUOUS
 62
    7
 10
1616.0485869047195
 20
1100.2487311973514
 40
71.161285385506844
 50
331.57721106516584
 51
20.440971831421795
  0
TEXT
  8
_0-0_LAYER001
 62
    7
 10
1334.2118
 20
1042.5082
 40
20
 41
1
 50
0
  1
　
  0
TEXT
  8
_0-0_LAYER001
 62
    7
 10
1518.3905098099308
 20
1235.7406995466827
 40
20
 41
1
 50
20.060506999999966
  1
２９５
  0
TEXT
  8
_0-0_LAYER001
 62
    7
 10
1820.1941919635219
 20
979.37861926075652
 40
20
 41
1
 50
0
  1
葺
  0
TEXT
  8
_0-2_LAYER004
 62
    7
 10
1511.5286999999998
 20
1482.0177000000008
 40
20
 41
1
 50
0
  1
外壁　防火サイディング
  0
TEXT
  8
_0-0_LAYER001
 62
    7
 10
1810.047
 20
1025.5003999999999
 40
20
 41
1
 50
0
  1
下地４０ｘ３０
  0
TEXT
  8
_0-0_LAYER001
 62
    7
 10
1804.7004000000011
 20
978.13259999999957
 40
20
 41
1
 50
0
  1
　　土
  0
TEXT
  8
_0-0_LAYER001
 62
    7
 10
1358.9377999999999
 20
695.53939999999955
 40
20
 41
1
 50
0
  1
　瓦桟：１５ｘ３０以上
  0
TEXT
  8
_0-0_LAYER001
 62
    7
 10
1377.1102999999998
 20
635.34869999999955
 40
20
 41
1
 50
0
  1
　野地板：杉ｔ＝１２
  0
TEXT
  8
_0-0_LAYER001
 62
    7
 10
1384.2835
 20
605.48219999999958
 40
20
 41
1
 50
0
  1
　垂木
  0
TEXT
  8
_0-0_LAYER001
 62
    7
 10
1319.8005639869089
 20
1044.7796101513172
 40
20
 41
1
 50
0
  1
桟　瓦
  0
TEXT
  8
_0-2_LAYER004
 62
    7
 10
1817.1522854104728
 20
1365.7007514980205
 40
20
 41
1
 50
0
  1
胴　縁
  0
TEXT
  8
_0-0_LAYER001
 62
    7
 10
1082.3083583692169
 20
1003.7821083548125
 40
20
 41
1
 50
19.821599999999993
  1
225
  0
TEXT
  8
_0-0_LAYER001
 62
    7
 10
1284.3700644741341
 20
1118.2150133428017
 40
20
 41
1
 50
19.821608999999995
  1
225
  0
TEXT
  8
_0-2_LAYER004
 62
    7
 10
1826.6377043271259
 20
1225.4314288270436
 40
20
 41
1
 50
90
  1
150
  0
TEXT
  8
_0-2_LAYER004
 62
    7
 10
1918.3902137319089
 20
1196.5654708120553
 40
20
 41
1
 50
90
  1
300
  0
TEXT
  8
_0-0_LAYER001
 62
    7
 10
1683.368172532585
 20
1300.163605401483
 40
20
 41
1
 50
0
  1
75
  0
TEXT
  8
_0-2_LAYER004
 62
    7
 10
1394.6029058072536
 20
1312.5171996998927
 40
20
 41
1
 50
0
  1
笠木：１５ｘ１０５
  0
TEXT
  8
_0-2_LAYER004
 62
    7
 10
1357.0196999999998
 20
1356.5400999999997
 40
20
 41
1
 50
0
  1
雨押水切カラー鋼板0.35ｍｍ以上
  0
TEXT
  8
_0-2_LAYER004
 62
    7
 10
1876.3930834452401
 20
1145.743676671359
 40
20
 41
1
 50
90
  1
水切り立上がり寸法
  0
TEXT
  8
_0-1_LAYER003
 62
    7
 10
1979.8544356944228
 20
1096.3292994777196
 40
20
 41
1
 50
90
  1
下葺き材立上がり寸法
  0
TEXT
  8
_0-0_LAYER001
 62
    7
 10
1367.5672
 20
665.44409999999959
 40
20
 41
1
 50
0
  1
　下葺材：ルーフィング
  0
ENDSEC
  0
EOF
