  0
SECTION
  2
HEADER
  9
$ACADVER
  1
AC1009
  9
$INSBASE
 10
0
 20
0
 30
0
  9
$EXTMIN
 10
0
 20
0
  9
$EXTMAX
 10
2970
 20
2100
  9
$LIMMIN
 10
0
 20
0
  9
$LIMMAX
 10
2970
 20
2100
  9
$LTSCALE
 40
10
  0
ENDSEC
  0
SECTION
  2
TABLES
  0
TABLE
  2
LTYPE
 70
     9
  0
LTYPE
  2
CONTINUOUS
 70
    64
  3
実線
 72
    65
 73
     0
 40
0.0
  0
LTYPE
  2
DASHED1
 70
    64
  3
--  --  --  --  --  --  --  --  
 72
    65
 73
     2
 40
2.5
 49
1.25
 49
-1.25
  0
LTYPE
  2
DASHED2
 70
    64
  3
----    ----    ----    ----    
 72
    65
 73
     2
 40
5.0
 49
2.5
 49
-2.5
  0
LTYPE
  2
DASHED3
 70
    64
  3
------  ------  ------  ------  
 72
    65
 73
     2
 40
5.0
 49
3.75
 49
-1.25
  0
LTYPE
  2
CENTER1
 70
    64
  3
----- - ----- - ----- - ----- - 
 72
    65
 73
     4
 40
10.0
 49
6.25
 49
-1.25
 49
1.25
 49
-1.25
  0
LTYPE
  2
CENTER2
 70
    64
  3
----------  --  ----------  --  
 72
    65
 73
     4
 40
20.0
 49
12.5
 49
-2.5
 49
2.5
 49
-2.5
  0
LTYPE
  2
PHANTOM1
 70
    64
  3
--- - - --- - - --- - - --- - - 
 72
    65
 73
     6
 40
10.0
 49
3.25
 49
-1.25
 49
1.25
 49
-1.25
 49
1.25
 49
-1.25
  0
LTYPE
  2
PHANTOM2
 70
    64
  3
--------  -  -  --------  -  -  
 72
    65
 73
     6
 40
20.0
 49
10.0
 49
-2.5
 49
1.25
 49
-2.5
 49
1.25
 49
-2.5
  0
LTYPE
  2
DOT
 70
    64
  3
-   -   -   -   -   -   -   -   
 72
    65
 73
     2
 40
2.5
 49
0.625
 49
-1.875
  0
LTYPE
  2
DUMMY
 70
    64
  3
ダミー
 72
    65
 73
     0
 40
0.0
  0
LTYPE
  2
RAND1
 70
    64
  3
ランダム線1
 72
    65
 73
     4
 40
10.0
 49
1.0
 49
-2.0
 49
3.0
 49
-4.0
  0
LTYPE
  2
RAND2
 70
    64
  3
ランダム線2
 72
    65
 73
     4
 40
14.0
 49
2.0
 49
-3.0
 49
4.0
 49
-5.0
  0
LTYPE
  2
RAND3
 70
    64
  3
ランダム線3
 72
    65
 73
     4
 40
18.0
 49
3.0
 49
-4.0
 49
5.0
 49
-6.0
  0
LTYPE
  2
RAND4
 70
    64
  3
ランダム線4
 72
    65
 73
     4
 40
22.0
 49
4.0
 49
-5.0
 49
6.0
 49
-7.0
  0
LTYPE
  2
RAND5
 70
    64
  3
ランダム線5
 72
    65
 73
     4
 40
26.0
 49
5.0
 49
-6.0
 49
7.0
 49
-8.0
  0
LTYPE
  2
LONG1
 70
    64
  3
----------  --  ----------  --  
 72
    65
 73
     4
 40
40.0
 49
32.5
 49
-2.5
 49
2.5
 49
-2.5
  0
LTYPE
  2
LONG2
 70
    64
  3
--------  -  -  --------  -  -  
 72
    65
 73
     6
 40
40.0
 49
30.0
 49
-2.5
 49
1.25
 49
-2.5
 49
1.25
 49
-2.5
  0
LTYPE
  2
LONG3
 70
    64
  3
+++++++++++++++..+++++++++++++++
 72
    65
 73
     2
 40
40.0
 49
37.5
 49
-2.5
  0
LTYPE
  2
LONG4
 70
    64
  3
+++++++++++++++..+++++++++++++++
 72
    65
 73
     2
 40
80.0
 49
75.0
 49
-5.0
  0
LTYPE
  2
LONG5
 70
    64
  3
----------  --  ----------  --  
 72
    65
 73
     4
 40
60.0
 49
37.5
 49
-7.5
 49
7.5
 49
-7.5
  0
LTYPE
  2
dashed
 70
   64
  3
-------   -------------   ------
 72
   65
 73
    2
 40
7.5
 49
6
 49
-1.5
  0
LTYPE
  2
dashed_spaced
 70
   64
  3
----        --------        ----
 72
   65
 73
    2
 40
12
 49
6
 49
-6
  0
LTYPE
  2
long_dashed_dotted
 70
   64
  3
------------- --- --------------
 72
   65
 73
    4
 40
15.25
 49
12
 49
-1.5
 49
0.25
 49
-1.5
  0
LTYPE
  2
long_dashed_double-dotted
 70
   64
  3
----------- --- --- ------------
 72
   65
 73
    6
 40
17
 49
12
 49
-1.5
 49
0.25
 49
-1.5
 49
0.25
 49
-1.5
  0
LTYPE
  2
long_dashed_triplicate-dotted
 70
   64
  3
--------- --- --- --- ----------
 72
   65
 73
    8
 40
18.75
 49
12
 49
-1.5
 49
0.25
 49
-1.5
 49
0.25
 49
-1.5
 49
0.25
 49
-1.5
  0
LTYPE
  2
dotted
 70
   64
  3
   -       -       -       -    
 72
   65
 73
    2
 40
1.75
 49
0.25
 49
-1.5
  0
LTYPE
  2
chain
 70
   64
  3
-------------- -- --------------
 72
   65
 73
    4
 40
18.5
 49
12
 49
-1.5
 49
3.5
 49
-1.5
  0
LTYPE
  2
chain_double_dash
 70
   64
  3
------------ -- -- -------------
 72
   65
 73
    6
 40
23.5
 49
12
 49
-1.5
 49
3.5
 49
-1.5
 49
3.5
 49
-1.5
  0
LTYPE
  2
dashed_dotted
 70
   64
  3
-----------     -     ----------
 72
   65
 73
    4
 40
9.25
 49
6
 49
-1.5
 49
0.25
 49
-1.5
  0
LTYPE
  2
double-dashed_dotted
 70
   64
  3
------   -----------   -   -----
 72
   65
 73
    6
 40
16.75
 49
6
 49
-1.5
 49
6
 49
-1.5
 49
0.25
 49
-1.5
  0
LTYPE
  2
dashed_double-dotted
 70
   64
  3
---------    -    -    ---------
 72
   65
 73
    6
 40
11
 49
6
 49
-1.5
 49
0.25
 49
-1.5
 49
0.25
 49
-1.5
  0
LTYPE
  2
double-dashed_double-dotted
 70
   64
  3
-----   ---------   -   -   ----
 72
   65
 73
    8
 40
18.5
 49
6
 49
-1.5
 49
6
 49
-1.5
 49
0.25
 49
-1.5
 49
0.25
 49
-1.5
  0
LTYPE
  2
dashed_triplicate-dotted
 70
   64
  3
-------    -    -    -    ------
 72
   65
 73
    8
 40
12.75
 49
6
 49
-1.5
 49
0.25
 49
-1.5
 49
0.25
 49
-1.5
 49
0.25
 49
-1.5
  0
LTYPE
  2
double-dashed_triplicate-dotted
 70
   64
  3
-----  ---------  -  -  -  -----
 72
   65
 73
   10
 40
20.25
 49
6
 49
-1.5
 49
6
 49
-1.5
 49
0.25
 49
-1.5
 49
0.25
 49
-1.5
 49
0.25
 49
-1.5
  0
LTYPE
  2
undefined
 70
   64
  3
--------------------------------
 72
   65
 73
    0
 40
0
  0
ENDTAB
  0
TABLE
  2
STYLE
  5
3
100
AcDbSymbolTable
 70
     1
  0
STYLE
  5
10
100
AcDbSymbolTableRecord
100
AcDbTextStyleTableRecord
  2
STANDARD
 70
     0
 40
0.0
 41
1.0
 50
0.0
 71
     0
 42
0.2
  3
txt
  4
bigfont.shx
  0
STYLE
  5
26
100
AcDbSymbolTableRecord
100
AcDbTextStyleTableRecord
  2
TATEGAKI
 70
    68
 40
0.0
 41
1.0
 50
0.0
 71
     0
 42
1.0
  3
txt
  4
bigfont.shx
  0
ENDTAB
  0
TABLE
  2
LAYER
 70
    7
  0
LAYER
  2
_0-0_LAYER001
 70
   64
 62
    7
  6
CONTINUOUS
  0
LAYER
  2
_0-1_LAYER003
 70
   64
 62
    7
  6
CONTINUOUS
  0
LAYER
  2
_0-2_LAYER004
 70
   64
 62
    7
  6
CONTINUOUS
  0
LAYER
  2
_0-3_LAYER005
 70
   64
 62
    7
  6
CONTINUOUS
  0
LAYER
  2
_0-4_LAYER006
 70
   64
 62
    7
  6
CONTINUOUS
  0
LAYER
  2
_0-5_LAYER007
 70
   64
 62
    7
  6
CONTINUOUS
  0
LAYER
  2
ADD_LINE
 70
   64
 62
    7
  6
CONTINUOUS
  0
ENDTAB
  0
ENDSEC
  0
SECTION
  2
BLOCKS
  0
ENDSEC
  0
SECTION
  2
ENTITIES
  0
LINE
  8
_0-0_LAYER001
  6
CONTINUOUS
 62
    2
 10
1851.8809000000001
 20
771.16460000000006
 11
1851.8809000000001
 21
823.66460000000006
  0
CIRCLE
  8
_0-0_LAYER001
  6
CONTINUOUS
 62
    2
 10
1851.8809000000001
 20
773.66460000000006
 40
1.6999999999999997
  0
LINE
  8
_0-0_LAYER001
  6
CONTINUOUS
 62
    2
 10
1851.8809000000001
 20
773.66460000000006
 11
1732.3069
 21
773.66460000000006
  0
CIRCLE
  8
_0-0_LAYER001
  6
CONTINUOUS
 62
    2
 10
1732.3069
 20
773.66460000000006
 40
1.6999999999999997
  0
LINE
  8
_0-0_LAYER001
  6
CONTINUOUS
 62
    2
 10
1732.3069
 20
771.16460000000006
 11
1732.3069
 21
823.66460000000006
  0
LINE
  8
_0-0_LAYER001
  6
CONTINUOUS
 62
    2
 10
1784.9047999999998
 20
959.49749999999995
 11
1790.2080999999998
 21
964.80079999999998
  0
LINE
  8
_0-0_LAYER001
  6
CONTINUOUS
 62
    2
 10
1790.2080999999998
 20
964.80079999999998
 11
1788.2669999999998
 21
957.55639999999994
  0
LINE
  8
_0-0_LAYER001
  6
CONTINUOUS
 62
    2
 10
1790.2080999999998
 20
964.80079999999998
 11
1692.4380999999998
 21
795.45810000000006
  0
LINE
  8
_0-0_LAYER001
  6
CONTINUOUS
 62
    2
 10
1692.4380999999998
 20
795.45810000000006
 11
1491.4380999999998
 21
795.45810000000006
  0
LINE
  8
_0-0_LAYER001
  6
CONTINUOUS
 62
    2
 10
2014.6133
 20
1258.9137000000001
 11
1937.1133
 21
1258.9137000000001
  0
CIRCLE
  8
_0-0_LAYER001
  6
CONTINUOUS
 62
    2
 10
2012.1133
 20
1258.9137000000001
 40
1.6999999999999997
  0
LINE
  8
_0-0_LAYER001
  6
CONTINUOUS
 62
    2
 10
2012.1133
 20
1258.9137000000001
 11
2012.1133
 21
958.91270000000009
  0
CIRCLE
  8
_0-0_LAYER001
  6
CONTINUOUS
 62
    2
 10
2012.1133
 20
958.91270000000009
 40
1.6999999999999997
  0
LINE
  8
_0-0_LAYER001
  6
CONTINUOUS
 62
    2
 10
2014.6133
 20
958.91270000000009
 11
1937.1133
 21
958.91270000000009
  0
LINE
  8
_0-0_LAYER001
  6
CONTINUOUS
 62
    2
 10
1854.4119000000001
 20
1092.9655
 11
1869.4119000000001
 21
963.15869999999995
  0
LINE
  8
_0-0_LAYER001
  6
CONTINUOUS
 62
    2
 10
1864.9576000000002
 20
992.76420000000007
 11
1863.0165000000002
 21
1000.0087000000001
  0
LINE
  8
_0-0_LAYER001
  6
CONTINUOUS
 62
    2
 10
1863.0165000000002
 20
1000.0087000000001
 11
1868.3198000000002
 21
994.70540000000005
  0
LINE
  8
_0-0_LAYER001
  6
CONTINUOUS
 62
    2
 10
1863.0165000000002
 20
1000.0087000000001
 11
1923.8613999999998
 21
894.62220000000002
  0
LINE
  8
_0-0_LAYER001
  6
CONTINUOUS
 62
    2
 10
1923.8613999999998
 20
894.62220000000002
 11
2087.3613999999998
 21
894.62220000000002
  0
LINE
  8
_0-0_LAYER001
  6
CONTINUOUS
 62
    2
 10
1957.9245999999998
 20
963.78469999999993
 11
1905.4245999999998
 21
963.78469999999993
  0
CIRCLE
  8
_0-0_LAYER001
  6
CONTINUOUS
 62
    2
 10
1955.4245999999998
 20
963.78469999999993
 40
1.6999999999999997
  0
LINE
  8
_0-0_LAYER001
  6
CONTINUOUS
 62
    2
 10
1955.4245999999998
 20
963.78469999999993
 11
1955.4245999999998
 21
1090.5065
  0
CIRCLE
  8
_0-0_LAYER001
  6
CONTINUOUS
 62
    2
 10
1955.4245999999998
 20
1090.5065
 40
1.6999999999999997
  0
LINE
  8
_0-0_LAYER001
  6
CONTINUOUS
 62
    2
 10
1957.9245999999998
 20
1090.5065
 11
1905.4245999999998
 21
1090.5065
  0
LINE
  8
_0-0_LAYER001
  6
CONTINUOUS
 62
    2
 10
1860.4290000000001
 20
1187.798
 11
1862.3701000000001
 21
1180.5535
  0
LINE
  8
_0-0_LAYER001
  6
CONTINUOUS
 62
    2
 10
1862.3701000000001
 20
1180.5535
 11
1857.0668000000001
 21
1185.8568
  0
LINE
  8
_0-0_LAYER001
  6
CONTINUOUS
 62
    2
 10
1862.3701000000001
 20
1180.5535
 11
1769.4834999999998
 21
1341.4378999999999
  0
LINE
  8
_0-0_LAYER001
  6
CONTINUOUS
 62
    2
 10
1769.4834999999998
 20
1341.4378999999999
 11
1728.9834999999998
 21
1341.4378999999999
  0
LINE
  8
_0-0_LAYER001
  6
CONTINUOUS
 62
    2
 10
1843.348
 20
1340.2909
 11
1845.2892000000002
 21
1333.0464999999999
  0
LINE
  8
_0-0_LAYER001
  6
CONTINUOUS
 62
    2
 10
1845.2892000000002
 20
1333.0464999999999
 11
1839.9859000000001
 21
1338.3498
  0
LINE
  8
_0-0_LAYER001
  6
CONTINUOUS
 62
    2
 10
1845.2892000000002
 20
1333.0464999999999
 11
1795.1334000000002
 21
1419.9187999999999
  0
LINE
  8
_0-0_LAYER001
  6
CONTINUOUS
 62
    2
 10
1795.1334000000002
 20
1419.9187999999999
 11
1622.6334000000002
 21
1419.9187999999999
  0
LINE
  8
_0-0_LAYER001
  6
CONTINUOUS
 62
    2
 10
1435.5823
 20
1004.9328
 11
1437.5234999999998
 21
997.6884
  0
LINE
  8
_0-0_LAYER001
  6
CONTINUOUS
 62
    2
 10
1437.5234999999998
 20
997.6884
 11
1432.2202000000002
 21
1002.9917
  0
LINE
  8
_0-0_LAYER001
  6
CONTINUOUS
 62
    2
 10
1437.5234999999998
 20
997.6884
 11
1386.1116999999999
 21
1086.7361000000001
  0
LINE
  8
_0-0_LAYER001
  6
CONTINUOUS
 62
    2
 10
1386.1116999999999
 20
1086.7361000000001
 11
1345.6116999999999
 21
1086.7361000000001
  0
LINE
  8
_0-0_LAYER001
  6
CONTINUOUS
 62
    2
 10
1176.0636
 20
692.44769999999994
 11
1004.3922
 21
692.44769999999994
  0
LINE
  8
_0-0_LAYER001
  6
CONTINUOUS
 62
    2
 10
1193.4391000000001
 20
722.54299999999989
 11
947.43910000000005
 21
722.54299999999989
  0
LINE
  8
_0-0_LAYER001
  6
CONTINUOUS
 62
    2
 10
1158.8200999999999
 20
662.58110000000011
 11
1099.741
 21
662.58110000000011
  0
LINE
  8
_0-0_LAYER001
  6
CONTINUOUS
 62
    2
 10
1334.7570000000001
 20
971.19509999999991
 11
1340.0603000000001
 21
976.49839999999995
  0
LINE
  8
_0-0_LAYER001
  6
CONTINUOUS
 62
    2
 10
1340.0603000000001
 20
976.49839999999995
 11
1338.1192000000001
 21
969.25389999999993
  0
LINE
  8
_0-0_LAYER001
  6
CONTINUOUS
 62
    2
 10
1340.0603000000001
 20
976.49839999999995
 11
1158.8200999999999
 21
662.58110000000011
  0
LINE
  8
_0-0_LAYER001
  6
CONTINUOUS
 62
    2
 10
1210.7487000000001
 20
752.52399999999989
 11
1047.2487000000001
 21
752.52399999999989
  0
LINE
  8
_0-4_LAYER006
  6
CONTINUOUS
 62
    2
 10
1874.2179000000001
 20
1147.9655
 11
1857.8881999999999
 21
1147.9655
  0
LINE
  8
_0-4_LAYER006
  6
CONTINUOUS
 62
    2
 10
1844.2179000000001
 20
1145.4613999999999
 11
1844.2179000000001
 21
1117.9655
  0
LINE
  8
_0-4_LAYER006
  6
CONTINUOUS
 62
    2
 10
1844.2179000000001
 20
1117.9655
 11
1874.2179000000001
 21
1117.9655
  0
LINE
  8
_0-4_LAYER006
  6
CONTINUOUS
 62
    2
 10
1874.2179000000001
 20
1117.9655
 11
1874.2179000000001
 21
1147.9655
  0
LINE
  8
_0-4_LAYER006
  6
CONTINUOUS
 62
    2
 10
1874.2179000000001
 20
1147.9655
 11
1844.2179000000001
 21
1117.9655
  0
LINE
  8
_0-4_LAYER006
  6
CONTINUOUS
 62
    2
 10
1863.0828999999999
 20
1136.0229999999999
 11
1857.7795999999998
 21
1130.7197000000001
  0
LINE
  8
_0-4_LAYER006
  6
CONTINUOUS
 62
    2
 10
1857.7795999999998
 20
1130.7197000000001
 11
1859.7206999999999
 21
1137.9640999999999
  0
LINE
  8
_0-4_LAYER006
  6
CONTINUOUS
 62
    2
 10
1857.7795999999998
 20
1130.7197000000001
 11
1896.0774000000001
 21
1197.0535
  0
LINE
  8
_0-1_LAYER003
  6
CONTINUOUS
 62
    2
 10
1763.6698999999999
 20
1129.9878000000001
 11
1768.7399999999998
 21
1136.0775000000001
  0
LINE
  8
_0-0_LAYER001
  6
CONTINUOUS
 62
    2
 10
1764.2179000000001
 20
1229.7997
 11
1764.2179000000001
 21
1183.1102000000001
  0
CIRCLE
  8
_0-0_LAYER001
  6
CONTINUOUS
 62
    2
 10
1764.2179000000001
 20
1227.2997
 40
1.6999999999999997
  0
LINE
  8
_0-0_LAYER001
  6
CONTINUOUS
 62
    2
 10
1764.2179000000001
 20
1227.2997
 11
1839.2179000000001
 21
1227.2997
  0
CIRCLE
  8
_0-0_LAYER001
  6
CONTINUOUS
 62
    2
 10
1839.2179000000001
 20
1227.2997
 40
1.6999999999999997
  0
LINE
  8
_0-0_LAYER001
  6
CONTINUOUS
 62
    2
 10
1839.2179000000001
 20
1229.7997
 11
1839.2179000000001
 21
1212.2997
  0
LINE
  8
_0-0_LAYER001
  6
CONTINUOUS
 62
    4
 10
1841.3319999999999
 20
1141.7493999999999
 11
1841.3319999999999
 21
1141.2836
  0
LINE
  8
_0-0_LAYER001
  6
CONTINUOUS
 62
    4
 10
1841.3319999999999
 20
1141.2836
 11
1841.3319999999999
 21
1140.0193999999999
  0
LINE
  8
_0-0_LAYER001
  6
CONTINUOUS
 62
    4
 10
1841.3319999999999
 20
1140.0193999999999
 11
1841.3319999999999
 21
1138.1561999999999
  0
LINE
  8
_0-0_LAYER001
  6
CONTINUOUS
 62
    4
 10
1841.3319999999999
 20
1138.1561999999999
 11
1841.3319999999999
 21
1135.8939
  0
LINE
  8
_0-0_LAYER001
  6
CONTINUOUS
 62
    4
 10
1841.3319999999999
 20
1135.8939
 11
1841.3319999999999
 21
1133.4319
  0
LINE
  8
_0-0_LAYER001
  6
CONTINUOUS
 62
    4
 10
1841.3319999999999
 20
1133.4319
 11
1841.3319999999999
 21
1130.9699000000001
  0
LINE
  8
_0-0_LAYER001
  6
CONTINUOUS
 62
    4
 10
1841.3319999999999
 20
1130.9699000000001
 11
1841.3319999999999
 21
1128.7076
  0
LINE
  8
_0-0_LAYER001
  6
CONTINUOUS
 62
    4
 10
1841.3319999999999
 20
1128.7076
 11
1841.3319999999999
 21
1126.8444999999999
  0
LINE
  8
_0-0_LAYER001
  6
CONTINUOUS
 62
    4
 10
1841.3319999999999
 20
1126.8444999999999
 11
1841.3319999999999
 21
1125.5802000000001
  0
LINE
  8
_0-0_LAYER001
  6
CONTINUOUS
 62
    4
 10
1841.3319999999999
 20
1125.5802000000001
 11
1841.3319999999999
 21
1125.1143999999999
  0
LINE
  8
_0-0_LAYER001
  6
CONTINUOUS
 62
    4
 10
1841.3319999999999
 20
1125.1143999999999
 11
1840.1844999999998
 21
1125.1342999999999
  0
LINE
  8
_0-0_LAYER001
  6
CONTINUOUS
 62
    4
 10
1840.1844999999998
 20
1125.1342999999999
 11
1836.8099000000002
 21
1125.0387000000001
  0
LINE
  8
_0-0_LAYER001
  6
CONTINUOUS
 62
    4
 10
1836.8099000000002
 20
1125.0387000000001
 11
1831.3099000000002
 21
1124.5948000000001
  0
LINE
  8
_0-0_LAYER001
  6
CONTINUOUS
 62
    4
 10
1831.3099000000002
 20
1124.5948000000001
 11
1823.7864
 21
1123.5697
  0
LINE
  8
_0-0_LAYER001
  6
CONTINUOUS
 62
    4
 10
1823.7864
 20
1123.5697
 11
1814.3409999999999
 21
1121.7303999999999
  0
LINE
  8
_0-0_LAYER001
  6
CONTINUOUS
 62
    4
 10
1814.3409999999999
 20
1121.7303999999999
 11
1803.0756000000001
 21
1118.8441
  0
LINE
  8
_0-0_LAYER001
  6
CONTINUOUS
 62
    4
 10
1803.0756000000001
 20
1118.8441
 11
1790.0918999999999
 21
1114.6777999999999
  0
LINE
  8
_0-0_LAYER001
  6
CONTINUOUS
 62
    4
 10
1790.0918999999999
 20
1114.6777999999999
 11
1775.4915999999998
 21
1108.9988000000001
  0
LINE
  8
_0-0_LAYER001
  6
CONTINUOUS
 62
    4
 10
1775.4915999999998
 20
1108.9988000000001
 11
1759.3766000000001
 21
1101.5740000000001
  0
LINE
  8
_0-0_LAYER001
  6
CONTINUOUS
 62
    4
 10
1759.3766000000001
 20
1101.5740000000001
 11
1741.8485999999998
 21
1092.1706999999999
  0
LINE
  8
_0-0_LAYER001
  6
CONTINUOUS
 62
    4
 10
1741.8485999999998
 20
1092.1706999999999
 11
1741.8485999999998
 21
1092.9286999999999
  0
LINE
  8
_0-0_LAYER001
  6
CONTINUOUS
 62
    4
 10
1741.8485999999998
 20
1092.9286999999999
 11
1741.8485999999998
 21
1094.9863
  0
LINE
  8
_0-0_LAYER001
  6
CONTINUOUS
 62
    4
 10
1741.8485999999998
 20
1094.9863
 11
1741.8485999999998
 21
1098.0183999999999
  0
LINE
  8
_0-0_LAYER001
  6
CONTINUOUS
 62
    4
 10
1741.8485999999998
 20
1098.0183999999999
 11
1741.8485999999998
 21
1101.7003999999999
  0
LINE
  8
_0-0_LAYER001
  6
CONTINUOUS
 62
    4
 10
1741.8485999999998
 20
1101.7003999999999
 11
1741.8485999999998
 21
1105.7072000000001
  0
LINE
  8
_0-0_LAYER001
  6
CONTINUOUS
 62
    4
 10
1741.8485999999998
 20
1105.7072000000001
 11
1741.8485999999998
 21
1109.7139999999999
  0
LINE
  8
_0-0_LAYER001
  6
CONTINUOUS
 62
    4
 10
1741.8485999999998
 20
1109.7139999999999
 11
1741.8485999999998
 21
1113.3959
  0
LINE
  8
_0-0_LAYER001
  6
CONTINUOUS
 62
    4
 10
1741.8485999999998
 20
1113.3959
 11
1741.8485999999998
 21
1116.4280000000001
  0
LINE
  8
_0-0_LAYER001
  6
CONTINUOUS
 62
    4
 10
1741.8485999999998
 20
1116.4280000000001
 11
1741.8485999999998
 21
1118.4856
  0
LINE
  8
_0-0_LAYER001
  6
CONTINUOUS
 62
    4
 10
1741.8485999999998
 20
1118.4856
 11
1741.8485999999998
 21
1119.2436
  0
LINE
  8
_0-0_LAYER001
  6
CONTINUOUS
 62
    4
 10
1741.8485999999998
 20
1119.2436
 11
1743.5156999999999
 21
1119.8298
  0
LINE
  8
_0-0_LAYER001
  6
CONTINUOUS
 62
    4
 10
1743.5156999999999
 20
1119.8298
 11
1748.2181999999998
 21
1121.4277
  0
LINE
  8
_0-0_LAYER001
  6
CONTINUOUS
 62
    4
 10
1748.2181999999998
 20
1121.4277
 11
1755.5079000000001
 21
1123.7967000000001
  0
LINE
  8
_0-0_LAYER001
  6
CONTINUOUS
 62
    4
 10
1755.5079000000001
 20
1123.7967000000001
 11
1764.9366
 21
1126.6959999999999
  0
LINE
  8
_0-0_LAYER001
  6
CONTINUOUS
 62
    4
 10
1764.9366
 20
1126.6959999999999
 11
1776.0562
 21
1129.885
  0
LINE
  8
_0-0_LAYER001
  6
CONTINUOUS
 62
    4
 10
1776.0562
 20
1129.885
 11
1788.4186
 21
1133.1229000000001
  0
LINE
  8
_0-0_LAYER001
  6
CONTINUOUS
 62
    4
 10
1788.4186
 20
1133.1229000000001
 11
1801.5754999999999
 21
1136.1690000000001
  0
LINE
  8
_0-0_LAYER001
  6
CONTINUOUS
 62
    4
 10
1801.5754999999999
 20
1136.1690000000001
 11
1815.0787999999998
 21
1138.7826
  0
LINE
  8
_0-0_LAYER001
  6
CONTINUOUS
 62
    4
 10
1815.0787999999998
 20
1138.7826
 11
1828.4803999999999
 21
1140.723
  0
LINE
  8
_0-0_LAYER001
  6
CONTINUOUS
 62
    4
 10
1841.3319999999999
 20
1141.7493999999999
 11
1828.3679999999999
 21
1140.7067
  0
LINE
  8
_0-0_LAYER001
  6
CONTINUOUS
 62
    4
 10
1831.3319999999999
 20
1110.1292000000001
 11
1831.3319999999999
 21
1109.6633999999999
  0
LINE
  8
_0-0_LAYER001
  6
CONTINUOUS
 62
    4
 10
1831.3319999999999
 20
1109.6633999999999
 11
1831.3319999999999
 21
1108.3992000000001
  0
LINE
  8
_0-0_LAYER001
  6
CONTINUOUS
 62
    4
 10
1831.3319999999999
 20
1108.3992000000001
 11
1831.3319999999999
 21
1106.5361
  0
LINE
  8
_0-0_LAYER001
  6
CONTINUOUS
 62
    4
 10
1831.3319999999999
 20
1106.5361
 11
1831.3319999999999
 21
1104.2737
  0
LINE
  8
_0-0_LAYER001
  6
CONTINUOUS
 62
    4
 10
1831.3319999999999
 20
1104.2737
 11
1831.3319999999999
 21
1101.8117
  0
LINE
  8
_0-0_LAYER001
  6
CONTINUOUS
 62
    4
 10
1831.3319999999999
 20
1101.8117
 11
1831.3319999999999
 21
1099.3497
  0
LINE
  8
_0-0_LAYER001
  6
CONTINUOUS
 62
    4
 10
1831.3319999999999
 20
1099.3497
 11
1831.3319999999999
 21
1097.0873999999999
  0
LINE
  8
_0-0_LAYER001
  6
CONTINUOUS
 62
    4
 10
1831.3319999999999
 20
1097.0873999999999
 11
1831.3319999999999
 21
1095.2243000000001
  0
LINE
  8
_0-0_LAYER001
  6
CONTINUOUS
 62
    4
 10
1831.3319999999999
 20
1095.2243000000001
 11
1831.3319999999999
 21
1093.96
  0
LINE
  8
_0-0_LAYER001
  6
CONTINUOUS
 62
    4
 10
1831.3319999999999
 20
1093.96
 11
1831.3319999999999
 21
1093.4942000000001
  0
LINE
  8
_0-0_LAYER001
  6
CONTINUOUS
 62
    4
 10
1831.3319999999999
 20
1093.4942000000001
 11
1830.1844999999998
 21
1093.5141000000001
  0
LINE
  8
_0-0_LAYER001
  6
CONTINUOUS
 62
    4
 10
1830.1844999999998
 20
1093.5141000000001
 11
1826.8099000000002
 21
1093.4186
  0
LINE
  8
_0-0_LAYER001
  6
CONTINUOUS
 62
    4
 10
1826.8099000000002
 20
1093.4186
 11
1821.3099000000002
 21
1092.9746
  0
LINE
  8
_0-0_LAYER001
  6
CONTINUOUS
 62
    4
 10
1821.3099000000002
 20
1092.9746
 11
1813.7864
 21
1091.9494999999999
  0
LINE
  8
_0-0_LAYER001
  6
CONTINUOUS
 62
    4
 10
1813.7864
 20
1091.9494999999999
 11
1804.3409999999999
 21
1090.1102000000001
  0
LINE
  8
_0-0_LAYER001
  6
CONTINUOUS
 62
    4
 10
1804.3409999999999
 20
1090.1102000000001
 11
1793.0756000000001
 21
1087.2239
  0
LINE
  8
_0-0_LAYER001
  6
CONTINUOUS
 62
    4
 10
1793.0756000000001
 20
1087.2239
 11
1780.0918999999999
 21
1083.0576000000001
  0
LINE
  8
_0-0_LAYER001
  6
CONTINUOUS
 62
    4
 10
1780.0918999999999
 20
1083.0576000000001
 11
1765.4915999999998
 21
1077.3786
  0
LINE
  8
_0-0_LAYER001
  6
CONTINUOUS
 62
    4
 10
1765.4915999999998
 20
1077.3786
 11
1749.3766000000001
 21
1069.9538
  0
LINE
  8
_0-0_LAYER001
  6
CONTINUOUS
 62
    4
 10
1749.3766000000001
 20
1069.9538
 11
1731.8485999999998
 21
1060.5505000000001
  0
LINE
  8
_0-0_LAYER001
  6
CONTINUOUS
 62
    4
 10
1731.8485999999998
 20
1060.5505000000001
 11
1731.8485999999998
 21
1061.3085000000001
  0
LINE
  8
_0-0_LAYER001
  6
CONTINUOUS
 62
    4
 10
1731.8485999999998
 20
1061.3085000000001
 11
1731.8485999999998
 21
1063.3661
  0
LINE
  8
_0-0_LAYER001
  6
CONTINUOUS
 62
    4
 10
1731.8485999999998
 20
1063.3661
 11
1731.8485999999998
 21
1066.3983000000001
  0
LINE
  8
_0-0_LAYER001
  6
CONTINUOUS
 62
    4
 10
1731.8485999999998
 20
1066.3983000000001
 11
1731.8485999999998
 21
1070.0802000000001
  0
LINE
  8
_0-0_LAYER001
  6
CONTINUOUS
 62
    4
 10
1731.8485999999998
 20
1070.0802000000001
 11
1731.8485999999998
 21
1074.087
  0
LINE
  8
_0-0_LAYER001
  6
CONTINUOUS
 62
    4
 10
1731.8485999999998
 20
1074.087
 11
1731.8485999999998
 21
1078.0938000000001
  0
LINE
  8
_0-0_LAYER001
  6
CONTINUOUS
 62
    4
 10
1731.8485999999998
 20
1078.0938000000001
 11
1731.8485999999998
 21
1081.7756999999999
  0
LINE
  8
_0-0_LAYER001
  6
CONTINUOUS
 62
    4
 10
1731.8485999999998
 20
1081.7756999999999
 11
1731.8485999999998
 21
1084.8078
  0
LINE
  8
_0-0_LAYER001
  6
CONTINUOUS
 62
    4
 10
1731.8485999999998
 20
1084.8078
 11
1731.8485999999998
 21
1086.8653999999999
  0
LINE
  8
_0-0_LAYER001
  6
CONTINUOUS
 62
    4
 10
1731.8485999999998
 20
1086.8653999999999
 11
1731.8485999999998
 21
1087.6233999999999
  0
LINE
  8
_0-0_LAYER001
  6
CONTINUOUS
 62
    4
 10
1731.8485999999998
 20
1087.6233999999999
 11
1733.5156999999999
 21
1088.2095999999999
  0
LINE
  8
_0-0_LAYER001
  6
CONTINUOUS
 62
    4
 10
1733.5156999999999
 20
1088.2095999999999
 11
1738.2181999999998
 21
1089.8074999999999
  0
LINE
  8
_0-0_LAYER001
  6
CONTINUOUS
 62
    4
 10
1738.2181999999998
 20
1089.8074999999999
 11
1745.5079000000001
 21
1092.1765
  0
LINE
  8
_0-0_LAYER001
  6
CONTINUOUS
 62
    4
 10
1745.5079000000001
 20
1092.1765
 11
1754.9366
 21
1095.0758000000001
  0
LINE
  8
_0-0_LAYER001
  6
CONTINUOUS
 62
    4
 10
1754.9366
 20
1095.0758000000001
 11
1766.0562
 21
1098.2647999999999
  0
LINE
  8
_0-0_LAYER001
  6
CONTINUOUS
 62
    4
 10
1766.0562
 20
1098.2647999999999
 11
1778.4186
 21
1101.5027
  0
LINE
  8
_0-0_LAYER001
  6
CONTINUOUS
 62
    4
 10
1778.4186
 20
1101.5027
 11
1791.5754999999999
 21
1104.5488
  0
LINE
  8
_0-0_LAYER001
  6
CONTINUOUS
 62
    4
 10
1791.5754999999999
 20
1104.5488
 11
1805.0787999999998
 21
1107.1623999999999
  0
LINE
  8
_0-0_LAYER001
  6
CONTINUOUS
 62
    4
 10
1805.0787999999998
 20
1107.1623999999999
 11
1818.4803999999999
 21
1109.1027999999999
  0
LINE
  8
_0-0_LAYER001
  6
CONTINUOUS
 62
    4
 10
1831.3319999999999
 20
1110.1292000000001
 11
1818.3679999999999
 21
1109.0864999999999
  0
LINE
  8
_0-0_LAYER001
  6
CONTINUOUS
 62
    4
 10
1851.1444999999999
 20
1038.2103999999999
 11
1851.1444999999999
 21
1022.9641999999999
  0
LINE
  8
_0-0_LAYER001
  6
CONTINUOUS
 62
    4
 10
1731.8485999999998
 20
1059.5562
 11
1731.8485999999998
 21
1041.8402000000001
  0
ARC
  8
_0-0_LAYER001
  6
CONTINUOUS
 62
    4
 10
1907.0046000000002
 20
1200.5981999999999
 40
171.72701000000001
 50
228.22927000000001
 51
251.0172
  0
LINE
  8
_0-0_LAYER001
  6
CONTINUOUS
 62
    4
 10
1735.5722000000001
 20
1044.5411999999999
 11
1771.7622999999999
 21
1060.6975
  0
LINE
  8
_0-0_LAYER001
  6
CONTINUOUS
 62
    4
 10
1735.5722000000001
 20
1044.5411999999999
 11
1735.5722000000001
 21
1042.9280000000001
  0
LINE
  8
_0-0_LAYER001
  6
CONTINUOUS
 62
    4
 10
1731.8485999999998
 20
1041.8402000000001
 11
1735.5641999999998
 21
1042.9548
  0
ARC
  8
_0-0_LAYER001
  6
CONTINUOUS
 62
    4
 10
1777.4391000000001
 20
1044.1991
 40
17.566393000000001
 50
69.918021999999993
 51
110.08197
  0
ARC
  8
_0-0_LAYER001
  6
CONTINUOUS
 62
    4
 10
1913.2460999999998
 20
1214.1199999999999
 40
200.99046999999999
 50
229.91572000000002
 51
252.00235000000004
  0
LINE
  8
_0-0_LAYER001
  6
CONTINUOUS
 62
    4
 10
1731.8485999999998
 20
1059.5562
 11
1766.0853999999999
 21
1074.5347999999999
  0
ARC
  8
_0-0_LAYER001
  6
CONTINUOUS
 62
    4
 10
1777.6988000000001
 20
1052.0556999999999
 40
25.304210000000001
 50
53.942641000000009
 51
117.01753000000001
  0
LINE
  8
_0-0_LAYER001
  6
CONTINUOUS
 62
    2
 10
1780.0127000000002
 20
1110.7574
 11
1779.1145999999999
 21
1101.6639
  0
LINE
  8
_0-0_LAYER001
  6
CONTINUOUS
 62
    2
 10
1777.6149
 20
1082.0942
 11
1776.3346000000001
 21
1076.6884
  0
LINE
  8
_0-0_LAYER001
  6
CONTINUOUS
 62
    2
 10
1832.3294999999998
 20
1141.6008999999999
 11
1847.1988000000001
 21
1142.7515000000001
  0
LINE
  8
_0-0_LAYER001
  6
CONTINUOUS
 62
    2
 10
1832.3294999999998
 20
1141.6008999999999
 11
1832.3294999999998
 21
1123.6338000000001
  0
LINE
  8
_0-0_LAYER001
  6
CONTINUOUS
 62
    2
 10
1832.3294999999998
 20
1123.6338000000001
 11
1846.6677
 21
1124.8729000000001
  0
LINE
  8
_0-0_LAYER001
  6
CONTINUOUS
 62
    2
 10
1847.1988000000001
 20
1142.7515000000001
 11
1847.1988000000001
 21
1124.8729000000001
  0
LINE
  8
_0-0_LAYER001
  6
CONTINUOUS
 62
    2
 10
1826.3108999999999
 20
1109.8266000000001
 11
1847.1988000000001
 21
1123.8108
  0
LINE
  8
_0-0_LAYER001
  6
CONTINUOUS
 62
    2
 10
1847.1988000000001
 20
1123.8108
 11
1850.2080999999998
 21
1119.2527
  0
LINE
  8
_0-0_LAYER001
  6
CONTINUOUS
 62
    2
 10
1850.2080999999998
 20
1119.2527
 11
1832.3294999999998
 21
1093.4084
  0
LINE
  8
_0-0_LAYER001
  6
CONTINUOUS
 62
    2
 10
1832.3294999999998
 20
1093.4084
 11
1826.8099000000002
 21
1093.4186
  0
LINE
  8
_0-0_LAYER001
  6
CONTINUOUS
 62
    2
 10
1826.3108999999999
 20
1109.8266000000001
 11
1826.3108999999999
 21
1093.4186
  0
LINE
  8
_0-0_LAYER001
  6
CONTINUOUS
 62
    2
 10
2101.5617000000002
 20
1167.5585000000001
 11
2049.0617000000002
 21
1167.5585000000001
  0
CIRCLE
  8
_0-0_LAYER001
  6
CONTINUOUS
 62
    2
 10
2099.0617000000002
 20
1167.5585000000001
 40
1.6999999999999997
  0
LINE
  8
_0-0_LAYER001
  6
CONTINUOUS
 62
    2
 10
2099.0617000000002
 20
1167.5585000000001
 11
2099.0617000000002
 21
1317.5585000000001
  0
CIRCLE
  8
_0-0_LAYER001
  6
CONTINUOUS
 62
    2
 10
2099.0617000000002
 20
1317.5585000000001
 40
1.6999999999999997
  0
LINE
  8
_0-0_LAYER001
  6
CONTINUOUS
 62
    2
 10
2101.5617000000002
 20
1317.5585000000001
 11
2049.0617000000002
 21
1317.5585000000001
  0
LINE
  8
_0-2_LAYER004
  6
CONTINUOUS
 62
    2
 10
1874.2179000000001
 20
1297.8687
 11
1874.2179000000001
 21
881.14670000000001
  0
LINE
  8
_0-2_LAYER004
  6
CONTINUOUS
 62
    2
 10
1157.0969
 20
983.04870000000005
 11
854.36059999999998
 21
983.04870000000005
  0
LINE
  8
_0-2_LAYER004
  6
CONTINUOUS
 62
    2
 10
1854.4119000000001
 20
963.15869999999995
 11
1854.4119000000001
 21
1092.9655
  0
LINE
  8
_0-2_LAYER004
  6
CONTINUOUS
 62
    2
 10
1869.4119000000001
 20
1092.9655
 11
1869.4119000000001
 21
963.15869999999995
  0
LINE
  8
_0-2_LAYER004
  6
CONTINUOUS
 62
    2
 10
1144.4329
 20
983.04870000000005
 11
1727.0319
 21
983.04870000000005
  0
LINE
  8
_0-2_LAYER004
  6
CONTINUOUS
 62
    2
 10
851.18090000000007
 20
968.04870000000005
 11
1727.0319
 21
968.04870000000005
  0
LINE
  8
_0-2_LAYER004
  6
CONTINUOUS
 62
    2
 10
1727.0319
 20
983.04870000000005
 11
1727.0319
 21
968.04870000000005
  0
LINE
  8
_0-2_LAYER004
  6
CONTINUOUS
 62
    2
 10
1732.3069
 20
963.78469999999993
 11
1732.3069
 21
983.04870000000005
  0
LINE
  8
_0-2_LAYER004
  6
CONTINUOUS
 62
    2
 10
1732.3069
 20
983.04870000000005
 11
1752.8508999999999
 21
983.04870000000005
  0
LINE
  8
_0-2_LAYER004
  6
CONTINUOUS
 62
    2
 10
1851.8809000000001
 20
963.78469999999993
 11
1851.8809000000001
 21
1090.5065
  0
LINE
  8
_0-2_LAYER004
  6
CONTINUOUS
 62
    2
 10
1874.2179000000001
 20
946.91270000000009
 11
851.18090000000007
 21
946.91270000000009
  0
LINE
  8
_0-2_LAYER004
  6
CONTINUOUS
 62
    2
 10
1874.2179000000001
 20
958.91270000000009
 11
851.18090000000007
 21
958.91270000000009
  0
LINE
  8
_0-2_LAYER004
  6
CONTINUOUS
 62
    2
 10
1732.3069
 20
963.78469999999993
 11
1851.8809000000001
 21
963.78469999999993
  0
LINE
  8
_0-2_LAYER004
  6
DASHED3
 62
    2
 10
1871.8948999999998
 20
961.40969999999993
 11
851.18090000000007
 21
961.40969999999993
  0
LINE
  8
_0-2_LAYER004
  6
DASHED3
 62
    2
 10
1871.8948999999998
 20
961.40969999999993
 11
1871.8948999999998
 21
1258.9127000000001
  0
LINE
  8
_0-2_LAYER004
  6
CONTINUOUS
 62
    2
 10
1869.4119000000001
 20
963.15869999999995
 11
1854.4119000000001
 21
963.15869999999995
  0
LINE
  8
_0-2_LAYER004
  6
CONTINUOUS
 62
    3
 10
1874.2179000000001
 20
881.14670000000001
 11
1874.2179000000001
 21
727.05670000000009
  0
LINE
  8
_0-2_LAYER004
  6
CONTINUOUS
 62
    2
 10
1814.2179000000001
 20
886.91270000000009
 11
1814.2179000000001
 21
946.91270000000009
  0
LINE
  8
_0-2_LAYER004
  6
CONTINUOUS
 62
    2
 10
1814.2179000000001
 20
946.91270000000009
 11
1874.2179000000001
 21
946.91270000000009
  0
LINE
  8
_0-2_LAYER004
  6
CONTINUOUS
 62
    2
 10
1874.2179000000001
 20
946.91270000000009
 11
1874.2179000000001
 21
886.91270000000009
  0
LINE
  8
_0-2_LAYER004
  6
CONTINUOUS
 62
    2
 10
1874.2179000000001
 20
886.91270000000009
 11
1814.2179000000001
 21
886.91270000000009
  0
LINE
  8
_0-2_LAYER004
  6
CONTINUOUS
 62
    2
 10
1874.2179000000001
 20
946.91270000000009
 11
1814.2179000000001
 21
886.91270000000009
  0
LINE
  8
_0-2_LAYER004
  6
CONTINUOUS
 62
    2
 10
1776.1968999999999
 20
1133.0695000000001
 11
1773.4938999999999
 21
1147.8235
  0
LINE
  8
_0-2_LAYER004
  6
CONTINUOUS
 62
    2
 10
1773.4938999999999
 20
1147.8235
 11
1862.0219000000002
 21
1164.0395000000001
  0
LINE
  8
_0-2_LAYER004
  6
CONTINUOUS
 62
    2
 10
1862.0219000000002
 20
1164.0395000000001
 11
1864.7239
 21
1149.2845
  0
LINE
  8
_0-2_LAYER004
  6
CONTINUOUS
 62
    2
 10
1864.7239
 20
1149.2845
 11
1776.1968999999999
 21
1133.0695000000001
  0
LINE
  8
_0-2_LAYER004
  6
CONTINUOUS
 62
    2
 10
1773.4938999999999
 20
1147.8235
 11
1864.7239
 21
1149.2845
  0
LINE
  8
_0-2_LAYER004
  6
CONTINUOUS
 62
    2
 10
1764.2179000000001
 20
1148.0668000000001
 11
1763.6698999999999
 21
1129.9878000000001
  0
LINE
  8
_0-2_LAYER004
  6
CONTINUOUS
 62
    2
 10
1839.2179000000001
 20
1167.0355
 11
1851.2179000000001
 21
1167.0355
  0
LINE
  8
_0-2_LAYER004
  6
CONTINUOUS
 62
    2
 10
1851.2179000000001
 20
1174.8444999999999
 11
1851.2179000000001
 21
1214.8444999999999
  0
LINE
  8
_0-2_LAYER004
  6
CONTINUOUS
 62
    2
 10
1851.2179000000001
 20
1214.8444999999999
 11
1869.2179000000001
 21
1214.8444999999999
  0
LINE
  8
_0-2_LAYER004
  6
CONTINUOUS
 62
    2
 10
1869.2179000000001
 20
1214.8444999999999
 11
1869.2179000000001
 21
1174.8444999999999
  0
LINE
  8
_0-2_LAYER004
  6
CONTINUOUS
 62
    2
 10
1869.2179000000001
 20
1174.8444999999999
 11
1851.2179000000001
 21
1174.8444999999999
  0
LINE
  8
_0-2_LAYER004
  6
CONTINUOUS
 62
    2
 10
1869.2179000000001
 20
1214.8444999999999
 11
1851.2179000000001
 21
1174.8444999999999
  0
LINE
  8
_0-2_LAYER004
  6
CONTINUOUS
 62
    2
 10
1764.2179000000001
 20
1148.0668000000001
 11
1870.6329000000001
 21
1167.5585000000001
  0
LINE
  8
_0-2_LAYER004
  6
CONTINUOUS
 62
    2
 10
1870.6329000000001
 20
1167.5585000000001
 11
1870.6329000000001
 21
1317.5585000000001
  0
LINE
  8
_0-5_LAYER007
  6
CONTINUOUS
 62
    3
 10
1874.2179000000001
 20
1375.7407000000001
 11
1874.2179000000001
 21
864.41370000000006
  0
LINE
  8
_0-2_LAYER004
  6
CONTINUOUS
 62
    3
 10
1874.2179000000001
 20
1297.8687
 11
1874.2179000000001
 21
1375.7407000000001
  0
LINE
  8
_0-2_LAYER004
  6
CONTINUOUS
 62
    2
 10
1851.2179000000001
 20
1167.0355
 11
1851.2179000000001
 21
1375.7407000000001
  0
LINE
  8
_0-2_LAYER004
  6
CONTINUOUS
 62
    2
 10
1839.2179000000001
 20
1167.0355
 11
1839.2179000000001
 21
1375.7407000000001
  0
LINE
  8
_0-2_LAYER004
  6
CONTINUOUS
 62
    2
 10
1511.2179000000001
 20
886.91270000000009
 11
1511.2179000000001
 21
946.91270000000009
  0
LINE
  8
_0-2_LAYER004
  6
CONTINUOUS
 62
    2
 10
1511.2179000000001
 20
946.91270000000009
 11
1571.2179000000001
 21
946.91270000000009
  0
LINE
  8
_0-2_LAYER004
  6
CONTINUOUS
 62
    2
 10
1571.2179000000001
 20
946.91270000000009
 11
1571.2179000000001
 21
886.91270000000009
  0
LINE
  8
_0-2_LAYER004
  6
CONTINUOUS
 62
    2
 10
1571.2179000000001
 20
886.91270000000009
 11
1511.2179000000001
 21
886.91270000000009
  0
LINE
  8
_0-2_LAYER004
  6
CONTINUOUS
 62
    2
 10
1571.2179000000001
 20
946.91270000000009
 11
1511.2179000000001
 21
886.91270000000009
  0
LINE
  8
_0-2_LAYER004
  6
CONTINUOUS
 62
    2
 10
1208.2179000000001
 20
886.91270000000009
 11
1208.2179000000001
 21
946.91270000000009
  0
LINE
  8
_0-2_LAYER004
  6
CONTINUOUS
 62
    2
 10
1208.2179000000001
 20
946.91270000000009
 11
1268.2179000000001
 21
946.91270000000009
  0
LINE
  8
_0-2_LAYER004
  6
CONTINUOUS
 62
    2
 10
1268.2179000000001
 20
946.91270000000009
 11
1268.2179000000001
 21
886.91270000000009
  0
LINE
  8
_0-2_LAYER004
  6
CONTINUOUS
 62
    2
 10
1268.2179000000001
 20
886.91270000000009
 11
1208.2179000000001
 21
886.91270000000009
  0
LINE
  8
_0-2_LAYER004
  6
CONTINUOUS
 62
    2
 10
1268.2179000000001
 20
946.91270000000009
 11
1208.2179000000001
 21
886.91270000000009
  0
LINE
  8
_0-2_LAYER004
  6
CONTINUOUS
 62
    2
 10
905.2179000000001
 20
886.91270000000009
 11
905.2179000000001
 21
946.91270000000009
  0
LINE
  8
_0-2_LAYER004
  6
CONTINUOUS
 62
    2
 10
905.2179000000001
 20
946.91270000000009
 11
965.2179000000001
 21
946.91270000000009
  0
LINE
  8
_0-2_LAYER004
  6
CONTINUOUS
 62
    2
 10
965.2179000000001
 20
946.91270000000009
 11
965.2179000000001
 21
886.91270000000009
  0
LINE
  8
_0-2_LAYER004
  6
CONTINUOUS
 62
    2
 10
965.2179000000001
 20
886.91270000000009
 11
905.2179000000001
 21
886.91270000000009
  0
LINE
  8
_0-2_LAYER004
  6
CONTINUOUS
 62
    2
 10
965.2179000000001
 20
946.91270000000009
 11
905.2179000000001
 21
886.91270000000009
  0
CIRCLE
  8
_0-3_LAYER005
  6
CONTINUOUS
 62
    2
 10
1805.7258999999999
 20
1062.0954999999999
 40
1.1619999999999999
  0
CIRCLE
  8
_0-3_LAYER005
  6
CONTINUOUS
 62
    2
 10
1802.4389000000001
 20
1067.2946999999999
 40
1.1619999999999999
  0
CIRCLE
  8
_0-3_LAYER005
  6
CONTINUOUS
 62
    2
 10
1819.1064999999999
 20
1085.481
 40
1.1619999999999999
  0
CIRCLE
  8
_0-3_LAYER005
  6
CONTINUOUS
 62
    2
 10
1792.5779000000002
 20
1072.7784999999999
 40
1.1619999999999999
  0
CIRCLE
  8
_0-3_LAYER005
  6
CONTINUOUS
 62
    2
 10
1811.4778999999999
 20
1076.8875
 40
1.1619999999999999
  0
CIRCLE
  8
_0-3_LAYER005
  6
CONTINUOUS
 62
    2
 10
1829.9929999999999
 20
1052.8179
 40
1.1619999999999999
  0
CIRCLE
  8
_0-3_LAYER005
  6
CONTINUOUS
 62
    2
 10
1800.8449000000001
 20
1081.3082999999999
 40
1.1619999999999999
  0
CIRCLE
  8
_0-3_LAYER005
  6
CONTINUOUS
 62
    2
 10
1816.4088999999999
 20
1056.6116999999999
 40
1.1619999999999999
  0
CIRCLE
  8
_0-3_LAYER005
  6
CONTINUOUS
 62
    2
 10
1819.6959000000002
 20
1064.0077000000001
 40
1.1619999999999999
  0
CIRCLE
  8
_0-3_LAYER005
  6
CONTINUOUS
 62
    2
 10
1828.7348999999999
 20
1068.9386999999999
 40
1.1619999999999999
  0
CIRCLE
  8
_0-3_LAYER005
  6
CONTINUOUS
 62
    2
 10
1832.2914999999998
 20
1079.5630000000001
 40
1.1619999999999999
  0
CIRCLE
  8
_0-3_LAYER005
  6
CONTINUOUS
 62
    2
 10
1820.5178999999998
 20
1061.2745
 40
1.1619999999999999
  0
CIRCLE
  8
_0-3_LAYER005
  6
CONTINUOUS
 62
    2
 10
1832.0219000000002
 20
1069.4915000000001
 40
1.1619999999999999
  0
CIRCLE
  8
_0-3_LAYER005
  6
CONTINUOUS
 62
    2
 10
1830.3789000000002
 20
1071.9575
 40
1.1619999999999999
  0
CIRCLE
  8
_0-3_LAYER005
  6
CONTINUOUS
 62
    2
 10
1837.7748999999999
 20
1076.0654999999999
 40
1.1619999999999999
  0
CIRCLE
  8
_0-3_LAYER005
  6
CONTINUOUS
 62
    2
 10
1840.2399
 20
1084.2835
 40
1.1619999999999999
  0
CIRCLE
  8
_0-3_LAYER005
  6
CONTINUOUS
 62
    2
 10
1805.8960999999999
 20
1116.8498
 40
1.1619999999999999
  0
CIRCLE
  8
_0-3_LAYER005
  6
CONTINUOUS
 62
    2
 10
1796.0565000000001
 20
1113.7949000000001
 40
1.1619999999999999
  0
CIRCLE
  8
_0-3_LAYER005
  6
CONTINUOUS
 62
    2
 10
1798.5814
 20
1110.1803
 40
1.1619999999999999
  0
CIRCLE
  8
_0-3_LAYER005
  6
CONTINUOUS
 62
    2
 10
1787.6469000000002
 20
1109.7584999999999
 40
1.1619999999999999
  0
CIRCLE
  8
_0-3_LAYER005
  6
CONTINUOUS
 62
    2
 10
1792.6428000000001
 20
1108.6167
 40
1.1619999999999999
  0
CIRCLE
  8
_0-3_LAYER005
  6
CONTINUOUS
 62
    2
 10
1821.5162
 20
1117.4094
 40
1.1619999999999999
  0
CIRCLE
  8
_0-3_LAYER005
  6
CONTINUOUS
 62
    2
 10
1805.7258999999999
 20
1111.4014999999999
 40
1.1619999999999999
  0
CIRCLE
  8
_0-3_LAYER005
  6
CONTINUOUS
 62
    2
 10
1812.2999
 20
1110.5805
 40
1.1619999999999999
  0
CIRCLE
  8
_0-3_LAYER005
  6
CONTINUOUS
 62
    2
 10
1817.0985000000001
 20
1115.2004999999999
 40
1.1619999999999999
  0
CIRCLE
  8
_0-3_LAYER005
  6
CONTINUOUS
 62
    2
 10
1827.5832999999998
 20
1112.2311999999999
 40
1.1619999999999999
  0
CIRCLE
  8
_0-3_LAYER005
  6
CONTINUOUS
 62
    2
 10
1832.8438999999998
 20
1113.0454999999999
 40
1.1619999999999999
  0
CIRCLE
  8
_0-3_LAYER005
  6
CONTINUOUS
 62
    2
 10
1834.4879000000001
 20
1107.2935
 40
1.1619999999999999
  0
CIRCLE
  8
_0-3_LAYER005
  6
CONTINUOUS
 62
    2
 10
1832.8438999999998
 20
1100.7184999999999
 40
1.1619999999999999
  0
CIRCLE
  8
_0-3_LAYER005
  6
CONTINUOUS
 62
    2
 10
1814.7649000000001
 20
1068.6695
 40
1.1619999999999999
  0
CIRCLE
  8
_0-3_LAYER005
  6
CONTINUOUS
 62
    2
 10
1801.6169
 20
1068.6695
 40
1.1619999999999999
  0
CIRCLE
  8
_0-3_LAYER005
  6
CONTINUOUS
 62
    2
 10
1809.8348999999998
 20
1069.7607
 40
1.1619999999999999
  0
CIRCLE
  8
_0-3_LAYER005
  6
CONTINUOUS
 62
    2
 10
1826.7060000000001
 20
1052.5486000000001
 40
1.1619999999999999
  0
CIRCLE
  8
_0-3_LAYER005
  6
CONTINUOUS
 62
    2
 10
1807.3688999999999
 20
1079.3525
 40
1.1619999999999999
  0
CIRCLE
  8
_0-3_LAYER005
  6
CONTINUOUS
 62
    2
 10
1795.8649
 20
1075.2445
 40
1.1619999999999999
  0
CIRCLE
  8
_0-3_LAYER005
  6
CONTINUOUS
 62
    2
 10
1786.1635000000001
 20
1079.2788
 40
1.1619999999999999
  0
CIRCLE
  8
_0-3_LAYER005
  6
CONTINUOUS
 62
    2
 10
1790.2725
 20
1082.5658000000001
 40
1.1619999999999999
  0
CIRCLE
  8
_0-3_LAYER005
  6
CONTINUOUS
 62
    2
 10
1820.7494999999999
 20
1089.5899999999999
 40
1.1619999999999999
  0
CIRCLE
  8
_0-3_LAYER005
  6
CONTINUOUS
 62
    2
 10
1810.6559000000002
 20
1064.0077000000001
 40
1.1619999999999999
  0
CIRCLE
  8
_0-3_LAYER005
  6
CONTINUOUS
 62
    2
 10
1818.8739
 20
1068.1167
 40
1.1619999999999999
  0
CIRCLE
  8
_0-3_LAYER005
  6
CONTINUOUS
 62
    2
 10
1827.9128999999998
 20
1073.8697
 40
1.1619999999999999
  0
CIRCLE
  8
_0-3_LAYER005
  6
CONTINUOUS
 62
    2
 10
1827.9128999999998
 20
1057.9875
 40
1.1619999999999999
  0
CIRCLE
  8
_0-3_LAYER005
  6
CONTINUOUS
 62
    2
 10
1810.4427000000001
 20
1084.021
 40
1.1619999999999999
  0
CIRCLE
  8
_0-3_LAYER005
  6
CONTINUOUS
 62
    2
 10
1827.9128999999998
 20
1069.4915000000001
 40
1.1619999999999999
  0
CIRCLE
  8
_0-3_LAYER005
  6
CONTINUOUS
 62
    2
 10
1826.2698999999998
 20
1075.2445
 40
1.1619999999999999
  0
CIRCLE
  8
_0-3_LAYER005
  6
CONTINUOUS
 62
    2
 10
1824.6259
 20
1076.8875
 40
1.1619999999999999
  0
CIRCLE
  8
_0-3_LAYER005
  6
CONTINUOUS
 62
    2
 10
1819.6959000000002
 20
1076.8875
 40
1.1619999999999999
  0
CIRCLE
  8
_0-3_LAYER005
  6
CONTINUOUS
 62
    2
 10
1813.1219000000001
 20
1068.6695
 40
1.1619999999999999
  0
CIRCLE
  8
_0-3_LAYER005
  6
CONTINUOUS
 62
    2
 10
1804.9038999999998
 20
1072.7784999999999
 40
1.1619999999999999
  0
CIRCLE
  8
_0-3_LAYER005
  6
CONTINUOUS
 62
    2
 10
1799.9729000000002
 20
1073.8697
 40
1.1619999999999999
  0
CIRCLE
  8
_0-3_LAYER005
  6
CONTINUOUS
 62
    2
 10
1825.7165
 20
1083.672
 40
1.1619999999999999
  0
CIRCLE
  8
_0-3_LAYER005
  6
CONTINUOUS
 62
    2
 10
1816.6415000000002
 20
1089.5899999999999
 40
1.1619999999999999
  0
ARC
  8
_0-0_LAYER001
  6
CONTINUOUS
 62
    4
 10
895.83600000000001
 20
1195.6932999999999
 40
214.38050999999999
 50
258.13177999999999
 51
268.38173
  0
ARC
  8
_0-0_LAYER001
  6
CONTINUOUS
 62
    4
 10
950.30520000000001
 20
1012.1908000000001
 40
52.178303999999997
 50
215.53766999999999
 51
234.46232000000001
  0
ARC
  8
_0-0_LAYER001
  6
CONTINUOUS
 62
    4
 10
923.97649999999999
 20
974.48700000000008
 40
6.2695089999999993
 50
234.10575000000003
 51
303.29033000000004
  0
ARC
  8
_0-0_LAYER001
  6
CONTINUOUS
 62
    4
 10
892.51569999999992
 20
1018.4929999999999
 40
58.841383
 50
226.14218000000002
 51
234.31144000000003
  0
ARC
  8
_0-0_LAYER001
  6
CONTINUOUS
 62
    4
 10
862.64010000000007
 20
977.33570000000009
 40
7.947610000000001
 50
234.52014000000003
 51
301.23766000000001
  0
ARC
  8
_0-0_LAYER001
  6
CONTINUOUS
 62
    4
 10
846.1386
 20
1009.8050000000001
 40
44.132803000000003
 50
297.62160999999998
 51
318.23129999999998
  0
ARC
  8
_0-0_LAYER001
  6
CONTINUOUS
 62
    4
 10
895.83600000000001
 20
1195.6932999999999
 40
199.38050999999999
 50
257.22435000000002
 51
268.38173
  0
ARC
  8
_0-0_LAYER001
  6
CONTINUOUS
 62
    4
 10
895.83600000000001
 20
1195.6932999999999
 40
199.38050999999999
 50
257.22435000000002
 51
268.38173
  0
ARC
  8
_0-0_LAYER001
  6
CONTINUOUS
 62
    4
 10
895.83600000000001
 20
1195.6932999999999
 40
197.38050999999999
 50
257.09267999999997
 51
268.38172999999995
  0
ARC
  8
_0-0_LAYER001
  6
CONTINUOUS
 62
    4
 10
895.83600000000001
 20
1195.6932999999999
 40
182.38050999999999
 50
256.01037000000002
 51
268.38173
  0
ARC
  8
_0-0_LAYER001
  6
CONTINUOUS
 62
    4
 10
895.83600000000001
 20
1195.6932999999999
 40
214.38050999999999
 50
258.13177999999999
 51
268.38173
  0
ARC
  8
_0-0_LAYER001
  6
CONTINUOUS
 62
    4
 10
872.44749999999999
 20
1012.3081
 40
69.674484000000007
 50
321.65733
 51
337.34946000000002
  0
ARC
  8
_0-0_LAYER001
  6
CONTINUOUS
 62
    4
 10
886.29240000000004
 20
1288.5805
 40
307.27562
 50
270.90795000000003
 51
293.21983
  0
ARC
  8
_0-0_LAYER001
  6
CONTINUOUS
 62
    4
 10
886.29240000000004
 20
1288.5805
 40
275.27562
 50
270.90795000000003
 51
287.11988000000002
  0
ARC
  8
_0-0_LAYER001
  6
CONTINUOUS
 62
    4
 10
886.29240000000004
 20
1288.5805
 40
292.27562
 50
270.90795000000003
 51
292.69346000000002
  0
LINE
  8
_0-0_LAYER001
  6
CONTINUOUS
 62
    4
 10
999.05259999999998
 20
1021.357
 11
999.05259999999998
 21
1018.9322999999999
  0
LINE
  8
_0-0_LAYER001
  6
CONTINUOUS
 62
    4
 10
1007.4389000000001
 20
1006.1946
 11
1007.4389000000001
 21
1024.5019
  0
LINE
  8
_0-0_LAYER001
  6
CONTINUOUS
 62
    4
 10
999.05259999999998
 20
1021.357
 11
1007.4389000000001
 21
1024.5019
  0
ARC
  8
_0-0_LAYER001
  6
CONTINUOUS
 62
    4
 10
886.29240000000004
 20
1288.5805
 40
290.27562
 50
270.90795000000003
 51
286.23334
  0
LINE
  8
_0-0_LAYER001
  6
CONTINUOUS
 62
    4
 10
967.4389000000001
 20
1009.8779
 11
967.4389000000001
 21
1025.537
  0
ARC
  8
_0-0_LAYER001
  6
CONTINUOUS
 62
    4
 10
1150.7229
 20
1195.2969000000001
 40
214.38050999999999
 50
231.7756
 51
268.38173
  0
LINE
  8
_0-0_LAYER001
  6
CONTINUOUS
 62
    4
 10
971.33130000000006
 20
1010.8916999999999
 11
1007.5213000000001
 21
1027.0479
  0
ARC
  8
_0-0_LAYER001
  6
CONTINUOUS
 62
    4
 10
1205.1921
 20
1011.7944
 40
52.178303999999997
 50
215.53766999999999
 51
234.46232000000001
  0
ARC
  8
_0-0_LAYER001
  6
CONTINUOUS
 62
    4
 10
1178.8634
 20
974.09059999999999
 40
6.2695089999999993
 50
234.10575000000003
 51
303.29033000000004
  0
ARC
  8
_0-0_LAYER001
  6
CONTINUOUS
 62
    4
 10
1147.4027000000001
 20
1018.0967000000001
 40
58.841383
 50
213.2508
 51
234.31144
  0
ARC
  8
_0-0_LAYER001
  6
CONTINUOUS
 62
    4
 10
1117.527
 20
976.9393
 40
7.947610000000001
 50
234.52014000000003
 51
301.23766000000001
  0
ARC
  8
_0-0_LAYER001
  6
CONTINUOUS
 62
    4
 10
1101.0255
 20
1009.4086
 40
44.132803000000003
 50
297.62160999999998
 51
318.23129999999998
  0
LINE
  8
_0-0_LAYER001
  6
CONTINUOUS
 62
    4
 10
971.33130000000006
 20
1009.4718
 11
967.32590000000005
 21
1007.5898
  0
LINE
  8
_0-0_LAYER001
  6
CONTINUOUS
 62
    4
 10
971.33130000000006
 20
1010.8916999999999
 11
971.33130000000006
 21
1009.4718
  0
LINE
  8
_0-0_LAYER001
  6
CONTINUOUS
 62
    4
 10
970.80569999999989
 20
1027.6356000000001
 11
967.44280000000003
 21
1026.3094000000001
  0
LINE
  8
_0-0_LAYER001
  6
CONTINUOUS
 62
    4
 10
970.80569999999989
 20
1029.1242999999999
 11
970.80569999999989
 21
1027.6356000000001
  0
ARC
  8
_0-0_LAYER001
  6
CONTINUOUS
 62
    4
 10
1150.7229
 20
1195.2969000000001
 40
199.38050999999999
 50
231.7756
 51
268.38173
  0
ARC
  8
_0-0_LAYER001
  6
CONTINUOUS
 62
    4
 10
1150.7229
 20
1195.2969000000001
 40
199.38050999999999
 50
231.7756
 51
268.38173
  0
ARC
  8
_0-0_LAYER001
  6
CONTINUOUS
 62
    4
 10
1150.7229
 20
1195.2969000000001
 40
197.38050999999999
 50
231.7756
 51
268.38173
  0
LINE
  8
_0-0_LAYER001
  6
CONTINUOUS
 62
    4
 10
971.0607
 20
1029.3487
 11
1001.3407
 21
1043.3960999999999
  0
LINE
  8
_0-0_LAYER001
  6
CONTINUOUS
 62
    4
 10
1002.5893000000001
 20
1041.8353
 11
967.93910000000005
 21
1026.2271000000001
  0
ARC
  8
_0-0_LAYER001
  6
CONTINUOUS
 62
    4
 10
1150.7229
 20
1195.2969000000001
 40
182.38050999999999
 50
231.7756
 51
268.38173
  0
LINE
  8
_0-0_LAYER001
  6
CONTINUOUS
 62
    4
 10
967.32590000000005
 20
1007.5898
 11
967.32590000000005
 21
1044.1515999999999
  0
LINE
  8
_0-0_LAYER001
  6
CONTINUOUS
 62
    4
 10
967.32590000000005
 20
1044.1515999999999
 11
995.02809999999999
 21
1057.0032000000001
  0
ARC
  8
_0-0_LAYER001
  6
CONTINUOUS
 62
    4
 10
1150.7229
 20
1195.2969000000001
 40
214.38050999999999
 50
231.7756
 51
268.38173
  0
ARC
  8
_0-0_LAYER001
  6
CONTINUOUS
 62
    4
 10
1012.1369999999999
 20
1017.9039
 40
27.732966999999999
 50
54.176177000000003
 51
112.93031000000001
  0
ARC
  8
_0-0_LAYER001
  6
CONTINUOUS
 62
    4
 10
1012.4848999999999
 20
1020.1773000000001
 40
40.679594999999999
 50
51.535313000000002
 51
115.27963000000001
  0
ARC
  8
_0-0_LAYER001
  6
CONTINUOUS
 62
    4
 10
1012.1234999999999
 20
1017.4059999999999
 40
26.213477999999995
 50
54.56426900000001
 51
111.2666
  0
ARC
  8
_0-0_LAYER001
  6
CONTINUOUS
 62
    4
 10
1012.6342999999999
 20
1014.9446
 40
13.076713
 50
65.553432000000001
 51
112.83269999999999
  0
ARC
  8
_0-0_LAYER001
  6
CONTINUOUS
 62
    4
 10
1127.3344
 20
1011.9117000000001
 40
69.674484000000007
 50
321.65733
 51
337.34946000000002
  0
ARC
  8
_0-0_LAYER001
  6
CONTINUOUS
 62
    4
 10
1141.1793
 20
1288.1842000000001
 40
307.27562
 50
270.90795000000003
 51
293.21983
  0
ARC
  8
_0-0_LAYER001
  6
CONTINUOUS
 62
    4
 10
1141.1793
 20
1288.1842000000001
 40
275.27562
 50
270.90795000000003
 51
287.11988000000002
  0
ARC
  8
_0-0_LAYER001
  6
CONTINUOUS
 62
    4
 10
1141.1793
 20
1288.1842000000001
 40
292.27562
 50
270.90795000000003
 51
292.69346000000002
  0
ARC
  8
_0-0_LAYER001
  6
CONTINUOUS
 62
    4
 10
1141.1793
 20
1288.1842000000001
 40
290.27562
 50
270.90795000000003
 51
286.23334
  0
ARC
  8
_0-0_LAYER001
  6
CONTINUOUS
 62
    4
 10
1405.3588
 20
1197.7331999999999
 40
214.38050999999999
 50
231.7756
 51
268.38173
  0
LINE
  8
_0-0_LAYER001
  6
CONTINUOUS
 62
    4
 10
1225.9671000000001
 20
1013.328
 11
1262.1570999999999
 21
1029.4842000000001
  0
ARC
  8
_0-0_LAYER001
  6
CONTINUOUS
 62
    4
 10
1459.828
 20
1014.2307000000001
 40
52.178303999999997
 50
215.53766999999999
 51
234.46232000000001
  0
ARC
  8
_0-0_LAYER001
  6
CONTINUOUS
 62
    4
 10
1433.4992000000002
 20
976.52690000000007
 40
6.2695089999999993
 50
234.10575000000003
 51
303.29033000000004
  0
ARC
  8
_0-0_LAYER001
  6
CONTINUOUS
 62
    4
 10
1402.0385000000001
 20
1020.5329999999999
 40
58.841383
 50
213.2508
 51
234.31144
  0
ARC
  8
_0-0_LAYER001
  6
CONTINUOUS
 62
    4
 10
1372.1628000000001
 20
979.37560000000008
 40
7.947610000000001
 50
234.52014000000003
 51
301.23766000000001
  0
ARC
  8
_0-0_LAYER001
  6
CONTINUOUS
 62
    4
 10
1355.6612999999998
 20
1011.8449000000001
 40
44.132803000000003
 50
297.62160999999998
 51
318.23129999999998
  0
LINE
  8
_0-0_LAYER001
  6
CONTINUOUS
 62
    4
 10
1225.9671000000001
 20
1011.9081000000001
 11
1221.9617000000001
 21
1010.0261
  0
LINE
  8
_0-0_LAYER001
  6
CONTINUOUS
 62
    4
 10
1225.9671000000001
 20
1013.328
 11
1225.9671000000001
 21
1011.9081000000001
  0
LINE
  8
_0-0_LAYER001
  6
CONTINUOUS
 62
    4
 10
1225.4416000000001
 20
1030.0718999999999
 11
1222.0786000000001
 21
1028.7456999999999
  0
LINE
  8
_0-0_LAYER001
  6
CONTINUOUS
 62
    4
 10
1225.4416000000001
 20
1031.5606
 11
1225.4416000000001
 21
1030.0718999999999
  0
ARC
  8
_0-0_LAYER001
  6
CONTINUOUS
 62
    4
 10
1405.3588
 20
1197.7331999999999
 40
199.38050999999999
 50
231.7756
 51
268.38173
  0
ARC
  8
_0-0_LAYER001
  6
CONTINUOUS
 62
    4
 10
1405.3588
 20
1197.7331999999999
 40
199.38050999999999
 50
231.7756
 51
268.38173
  0
ARC
  8
_0-0_LAYER001
  6
CONTINUOUS
 62
    4
 10
1405.3588
 20
1197.7331999999999
 40
197.38050999999999
 50
231.7756
 51
268.38173
  0
LINE
  8
_0-0_LAYER001
  6
CONTINUOUS
 62
    4
 10
1225.6966
 20
1031.7850000000001
 11
1255.9765
 21
1045.8324
  0
LINE
  8
_0-0_LAYER001
  6
CONTINUOUS
 62
    4
 10
1257.2252000000001
 20
1044.2716
 11
1222.5749000000001
 21
1028.6633999999999
  0
ARC
  8
_0-0_LAYER001
  6
CONTINUOUS
 62
    4
 10
1405.3588
 20
1197.7331999999999
 40
182.38050999999999
 50
231.7756
 51
268.38173
  0
LINE
  8
_0-0_LAYER001
  6
CONTINUOUS
 62
    4
 10
1221.9617000000001
 20
1010.0261
 11
1221.9617000000001
 21
1046.5879
  0
LINE
  8
_0-0_LAYER001
  6
CONTINUOUS
 62
    4
 10
1221.9617000000001
 20
1046.5879
 11
1249.664
 21
1059.4395
  0
ARC
  8
_0-0_LAYER001
  6
CONTINUOUS
 62
    4
 10
1405.3588
 20
1197.7331999999999
 40
214.38050999999999
 50
231.7756
 51
268.38173
  0
ARC
  8
_0-0_LAYER001
  6
CONTINUOUS
 62
    4
 10
1266.7728
 20
1020.3402000000001
 40
27.732966999999999
 50
54.176177000000003
 51
112.93031000000001
  0
ARC
  8
_0-0_LAYER001
  6
CONTINUOUS
 62
    4
 10
1267.1206999999999
 20
1022.6135999999999
 40
40.679594999999999
 50
51.535313000000002
 51
115.27963000000001
  0
ARC
  8
_0-0_LAYER001
  6
CONTINUOUS
 62
    4
 10
1266.7592999999999
 20
1019.8423
 40
26.213477999999995
 50
54.56426900000001
 51
111.2666
  0
ARC
  8
_0-0_LAYER001
  6
CONTINUOUS
 62
    4
 10
1267.2701
 20
1017.3809000000001
 40
13.076713
 50
65.553432000000001
 51
112.83269999999999
  0
ARC
  8
_0-0_LAYER001
  6
CONTINUOUS
 62
    4
 10
1381.9702000000002
 20
1014.348
 40
69.674484000000007
 50
321.65733
 51
337.34946000000002
  0
ARC
  8
_0-0_LAYER001
  6
CONTINUOUS
 62
    4
 10
1395.8152
 20
1290.6205
 40
307.27562
 50
270.90795000000003
 51
293.21983
  0
ARC
  8
_0-0_LAYER001
  6
CONTINUOUS
 62
    4
 10
1660.2456999999999
 20
1197.7449999999999
 40
214.38050999999999
 50
231.7756
 51
268.38173
  0
LINE
  8
_0-0_LAYER001
  6
CONTINUOUS
 62
    4
 10
1480.8539999999998
 20
1013.3397
 11
1517.0441000000001
 21
1029.4960000000001
  0
ARC
  8
_0-0_LAYER001
  6
CONTINUOUS
 62
    4
 10
1714.7148999999999
 20
1014.2425000000001
 40
52.178303999999997
 50
215.53766999999999
 51
234.46232000000001
  0
ARC
  8
_0-0_LAYER001
  6
CONTINUOUS
 62
    4
 10
1688.3861000000002
 20
976.53870000000006
 40
6.2695089999999993
 50
234.10575000000003
 51
303.29033000000004
  0
ARC
  8
_0-0_LAYER001
  6
CONTINUOUS
 62
    4
 10
1656.9254000000001
 20
1020.5446999999999
 40
58.841383
 50
213.2508
 51
234.31144
  0
ARC
  8
_0-0_LAYER001
  6
CONTINUOUS
 62
    4
 10
1627.0497999999998
 20
979.38740000000007
 40
7.947610000000001
 50
234.52014000000003
 51
301.23766000000001
  0
ARC
  8
_0-0_LAYER001
  6
CONTINUOUS
 62
    4
 10
1610.5482000000002
 20
1011.8567
 40
44.132803000000003
 50
297.62160999999998
 51
318.23129999999998
  0
LINE
  8
_0-0_LAYER001
  6
CONTINUOUS
 62
    4
 10
1480.8539999999998
 20
1013.3397
 11
1480.8539999999998
 21
1011.9199000000001
  0
LINE
  8
_0-0_LAYER001
  6
CONTINUOUS
 62
    4
 10
1480.3285000000001
 20
1030.0836999999999
 11
1476.9654999999998
 21
1028.7574
  0
LINE
  8
_0-0_LAYER001
  6
CONTINUOUS
 62
    4
 10
1480.3285000000001
 20
1031.5723
 11
1480.3285000000001
 21
1030.0836999999999
  0
ARC
  8
_0-0_LAYER001
  6
CONTINUOUS
 62
    4
 10
1660.2456999999999
 20
1197.7449999999999
 40
199.38050999999999
 50
231.7756
 51
268.38173
  0
ARC
  8
_0-0_LAYER001
  6
CONTINUOUS
 62
    4
 10
1660.2456999999999
 20
1197.7449999999999
 40
199.38050999999999
 50
231.7756
 51
268.38173
  0
ARC
  8
_0-0_LAYER001
  6
CONTINUOUS
 62
    4
 10
1660.2456999999999
 20
1197.7449999999999
 40
197.38050999999999
 50
231.7756
 51
268.38173
  0
LINE
  8
_0-0_LAYER001
  6
CONTINUOUS
 62
    4
 10
1480.5835000000002
 20
1031.7968000000001
 11
1510.8634000000002
 21
1045.8442
  0
ARC
  8
_0-0_LAYER001
  6
CONTINUOUS
 62
    4
 10
1660.2456999999999
 20
1197.7449999999999
 40
182.38050999999999
 50
231.7756
 51
268.38173
  0
LINE
  8
_0-0_LAYER001
  6
CONTINUOUS
 62
    4
 10
1476.8485999999998
 20
1046.5996
 11
1504.5509000000002
 21
1059.4512
  0
ARC
  8
_0-0_LAYER001
  6
CONTINUOUS
 62
    4
 10
1660.2456999999999
 20
1197.7449999999999
 40
214.38050999999999
 50
231.7756
 51
268.38173
  0
ARC
  8
_0-0_LAYER001
  6
CONTINUOUS
 62
    4
 10
1521.6597000000002
 20
1020.3520000000001
 40
27.732966999999999
 50
54.176177000000003
 51
112.93031000000001
  0
ARC
  8
_0-0_LAYER001
  6
CONTINUOUS
 62
    4
 10
1522.0075999999999
 20
1022.6253999999999
 40
40.679594999999999
 50
51.535313000000002
 51
115.27963000000001
  0
ARC
  8
_0-0_LAYER001
  6
CONTINUOUS
 62
    4
 10
1521.6462000000001
 20
1019.8541
 40
26.213477999999995
 50
54.56426900000001
 51
111.2666
  0
ARC
  8
_0-0_LAYER001
  6
CONTINUOUS
 62
    4
 10
1522.1570000000002
 20
1017.3927000000001
 40
13.076713
 50
65.553432000000001
 51
112.83269999999999
  0
LINE
  8
_0-0_LAYER001
  6
CONTINUOUS
 62
    4
 10
1731.8485999999998
 20
1011.9295999999999
 11
1731.8485999999998
 21
1027.5887
  0
ARC
  8
_0-0_LAYER001
  6
CONTINUOUS
 62
    4
 10
1650.7021
 20
1290.6322
 40
290.27562
 50
270.90795000000003
 51
294.66737999999998
  0
ARC
  8
_0-0_LAYER001
  6
CONTINUOUS
 62
    4
 10
1650.7021
 20
1290.6322
 40
275.27562
 50
270.90795000000003
 51
296.10971999999998
  0
ARC
  8
_0-0_LAYER001
  6
CONTINUOUS
 62
    4
 10
1650.7021
 20
1290.6322
 40
292.27562
 50
270.90795000000003
 51
294.48746
  0
ARC
  8
_0-0_LAYER001
  6
CONTINUOUS
 62
    4
 10
1636.8571000000002
 20
1014.3597
 40
69.674484000000007
 50
321.65733
 51
337.34946000000002
  0
ARC
  8
_0-0_LAYER001
  6
CONTINUOUS
 62
    4
 10
1650.7021
 20
1290.6322
 40
307.27562
 50
270.90795000000003
 51
293.21983
  0
LINE
  8
_0-0_LAYER001
  6
CONTINUOUS
 62
    4
 10
1771.8485999999998
 20
1008.2463
 11
1771.8485999999998
 21
1043.4476999999999
  0
ARC
  8
_0-0_LAYER001
  6
CONTINUOUS
 62
    4
 10
1395.8152
 20
1290.6205
 40
275.27562
 50
270.90795000000003
 51
287.11988000000002
  0
ARC
  8
_0-0_LAYER001
  6
CONTINUOUS
 62
    4
 10
1395.8152
 20
1290.6205
 40
290.27562
 50
270.90795000000003
 51
286.21008999999998
  0
LINE
  8
_0-0_LAYER001
  6
CONTINUOUS
 62
    4
 10
1476.8485999999998
 20
1011.8849
 11
1476.8485999999998
 21
1046.5996
  0
LINE
  8
_0-0_LAYER001
  6
CONTINUOUS
 62
    4
 10
1480.8539999999998
 20
1011.9199000000001
 11
1476.9616999999998
 21
1010.0908999999999
  0
LINE
  8
_0-0_LAYER001
  6
CONTINUOUS
 62
    4
 10
1476.9616999999998
 20
1010.0908999999999
 11
1476.9616999999998
 21
1027.577
  0
ARC
  8
_0-0_LAYER001
  6
CONTINUOUS
 62
    4
 10
1395.8152
 20
1290.6205
 40
292.27562
 50
270.90795000000003
 51
292.69346000000002
  0
LINE
  8
_0-0_LAYER001
  6
CONTINUOUS
 62
    4
 10
1508.5753
 20
1023.3969999999999
 11
1508.5753
 21
1020.9722999999999
  0
LINE
  8
_0-0_LAYER001
  6
CONTINUOUS
 62
    4
 10
1516.9616999999998
 20
1008.2346
 11
1516.9616999999998
 21
1026.5418999999999
  0
LINE
  8
_0-0_LAYER001
  6
CONTINUOUS
 62
    4
 10
1508.5753
 20
1023.3969999999999
 11
1516.9616999999998
 21
1026.5418999999999
  0
LINE
  8
_0-0_LAYER001
  6
CONTINUOUS
 62
    4
 10
1477.2539000000002
 20
1028.0338999999999
 11
1512.3000000000002
 21
1044.4164000000001
  0
LINE
  8
_0-0_LAYER001
  6
CONTINUOUS
 62
    4
 10
1254.0764999999999
 20
1021.0213000000001
 11
1254.0764999999999
 21
1018.8362
  0
LINE
  8
_0-0_LAYER001
  6
CONTINUOUS
 62
    4
 10
1254.0764999999999
 20
1021.6456000000001
 11
1254.0764999999999
 21
1018.8362
  0
LINE
  8
_0-0_LAYER001
  6
CONTINUOUS
 62
    4
 10
1254.0764999999999
 20
1021.9577999999999
 11
1262.1928
 21
1025.0794000000001
  0
LINE
  8
_0-0_LAYER001
  6
CONTINUOUS
 62
    4
 10
1262.1928
 20
1006.3496
 11
1262.1928
 21
1025.0794000000001
  0
LINE
  8
_0-0_LAYER001
  6
CONTINUOUS
 62
    2
 10
966.76129999999989
 20
1167.8614
 11
966.76129999999989
 21
1115.3614
  0
CIRCLE
  8
_0-0_LAYER001
  6
CONTINUOUS
 62
    2
 10
966.76129999999989
 20
1165.3614
 40
1.6999999999999997
  0
LINE
  8
_0-0_LAYER001
  6
CONTINUOUS
 62
    2
 10
966.76129999999989
 20
1165.3614
 11
1221.7612999999999
 21
1165.3614
  0
CIRCLE
  8
_0-0_LAYER001
  6
CONTINUOUS
 62
    2
 10
1221.7612999999999
 20
1165.3614
 40
1.6999999999999997
  0
LINE
  8
_0-0_LAYER001
  6
CONTINUOUS
 62
    2
 10
1221.7612999999999
 20
1167.8614
 11
1221.7612999999999
 21
1115.3614
  0
CIRCLE
  8
_0-0_LAYER001
  6
CONTINUOUS
 62
    2
 10
1221.7612999999999
 20
1165.3614
 40
1.6999999999999997
  0
LINE
  8
_0-0_LAYER001
  6
CONTINUOUS
 62
    2
 10
1221.7612999999999
 20
1165.3614
 11
1476.7613000000001
 21
1165.3614
  0
CIRCLE
  8
_0-0_LAYER001
  6
CONTINUOUS
 62
    2
 10
1476.7613000000001
 20
1165.3614
 40
1.6999999999999997
  0
LINE
  8
_0-0_LAYER001
  6
CONTINUOUS
 62
    2
 10
1476.7613000000001
 20
1167.8614
 11
1476.7613000000001
 21
1115.3614
  0
LINE
  8
_0-0_LAYER001
  6
CONTINUOUS
 62
    2
 10
1851.8809000000001
 20
1090.5065
 11
1845.3272999999999
 21
1081.5618999999999
  0
LINE
  8
_0-0_LAYER001
  6
CONTINUOUS
 62
    1
 10
1869.4119000000001
 20
1092.9655
 11
1854.4119000000001
 21
1092.9655
  0
LINE
  8
_0-0_LAYER001
  6
CONTINUOUS
 62
    2
 10
1812.3193000000001
 20
1155.7208000000001
 11
1814.2604000000001
 21
1148.4763
  0
LINE
  8
_0-0_LAYER001
  6
CONTINUOUS
 62
    2
 10
1814.2604000000001
 20
1148.4763
 11
1808.9571000000001
 21
1153.7796000000001
  0
LINE
  8
_0-0_LAYER001
  6
CONTINUOUS
 62
    2
 10
1814.2604000000001
 20
1148.4763
 11
1714.5907999999999
 21
1321.1093000000001
  0
LINE
  8
_0-0_LAYER001
  6
CONTINUOUS
 62
    2
 10
1714.5907999999999
 20
1321.1093000000001
 11
1567.5907999999999
 21
1321.1093000000001
  0
LINE
  8
_0-0_LAYER001
  6
CONTINUOUS
 62
    2
 10
1773.8782000000001
 20
1157.4363000000001
 11
1775.8193999999999
 21
1150.1918000000001
  0
LINE
  8
_0-0_LAYER001
  6
CONTINUOUS
 62
    2
 10
1775.8193999999999
 20
1150.1918000000001
 11
1770.5160999999998
 21
1155.4951000000001
  0
LINE
  8
_0-0_LAYER001
  6
CONTINUOUS
 62
    2
 10
1775.8193999999999
 20
1150.1918000000001
 11
1695.6743000000001
 21
1289.0072
  0
LINE
  8
_0-0_LAYER001
  6
CONTINUOUS
 62
    2
 10
1695.6743000000001
 20
1289.0072
 11
1461.6743000000001
 21
1289.0072
  0
LINE
  8
_0-0_LAYER001
  6
CONTINUOUS
 62
    2
 10
1742.5376999999999
 20
1084.8913
 11
1744.4787999999999
 21
1077.6468
  0
LINE
  8
_0-0_LAYER001
  6
CONTINUOUS
 62
    2
 10
1744.4787999999999
 20
1077.6468
 11
1739.1754999999998
 21
1082.9501
  0
LINE
  8
_0-0_LAYER001
  6
CONTINUOUS
 62
    2
 10
1744.4787999999999
 20
1077.6468
 11
1663.2732000000001
 21
1218.2991999999999
  0
LINE
  8
_0-0_LAYER001
  6
CONTINUOUS
 62
    2
 10
1663.2732000000001
 20
1218.2991999999999
 11
1549.2732000000001
 21
1218.2991999999999
  0
LINE
  8
_0-0_LAYER001
  6
CONTINUOUS
 62
    2
 10
1785.9825000000001
 20
1083.3579999999999
 11
1787.9236999999998
 21
1076.1135999999999
  0
LINE
  8
_0-0_LAYER001
  6
CONTINUOUS
 62
    2
 10
1787.9236999999998
 20
1076.1135999999999
 11
1782.6203999999998
 21
1081.4168999999999
  0
LINE
  8
_0-0_LAYER001
  6
CONTINUOUS
 62
    2
 10
1787.9236999999998
 20
1076.1135999999999
 11
1686.5554000000002
 21
1251.6885
  0
LINE
  8
_0-0_LAYER001
  6
CONTINUOUS
 62
    2
 10
1686.5554000000002
 20
1251.6885
 11
1613.7203
 21
1251.6885
  0
LINE
  8
_0-1_LAYER003
  6
CONTINUOUS
 62
    7
 10
966.76129999999989
 20
1167.0614
 11
966.76129999999989
 21
1115.3614
  0
LINE
  8
_0-1_LAYER003
  6
CONTINUOUS
 62
    7
 10
966.76129999999989
 20
1165.3614
 11
1476.7613000000001
 21
1165.3614
  0
LINE
  8
_0-1_LAYER003
  6
CONTINUOUS
 62
    7
 10
1476.7613000000001
 20
1115.3614
 11
1476.7613000000001
 21
1167.8614
  0
LINE
  8
_0-1_LAYER003
  6
CONTINUOUS
 62
    7
 10
1221.7612999999999
 20
1115.3614
 11
1221.7612999999999
 21
1167.8614
  0
LINE
  8
_0-1_LAYER003
  6
CONTINUOUS
 62
    7
 10
1345.6116999999999
 20
1086.7361000000001
 11
1386.1116999999999
 21
1086.7361000000001
  0
LINE
  8
_0-1_LAYER003
  6
CONTINUOUS
 62
    7
 10
1549.2732000000001
 20
1218.2991999999999
 11
1663.2732000000001
 21
1218.2991999999999
  0
LINE
  8
_0-1_LAYER003
  6
CONTINUOUS
 62
    7
 10
1613.7203
 20
1251.6885
 11
1686.5554000000002
 21
1251.6885
  0
LINE
  8
_0-1_LAYER003
  6
CONTINUOUS
 62
    7
 10
1461.6743000000001
 20
1289.0072
 11
1695.6743000000001
 21
1289.0072
  0
LINE
  8
_0-1_LAYER003
  6
CONTINUOUS
 62
    7
 10
1567.5907999999999
 20
1321.1093000000001
 11
1714.5907999999999
 21
1321.1093000000001
  0
LINE
  8
_0-1_LAYER003
  6
CONTINUOUS
 62
    7
 10
1728.9834999999998
 20
1341.4378999999999
 11
1769.4834999999998
 21
1341.4378999999999
  0
LINE
  8
_0-1_LAYER003
  6
CONTINUOUS
 62
    7
 10
1622.6334000000002
 20
1419.9187999999999
 11
1795.1334000000002
 21
1419.9187999999999
  0
LINE
  8
_0-1_LAYER003
  6
CONTINUOUS
 62
    7
 10
1937.1133
 20
1258.9137000000001
 11
2014.6133
 21
1258.9137000000001
  0
LINE
  8
_0-1_LAYER003
  6
CONTINUOUS
 62
    7
 10
2049.0617000000002
 20
1317.5585000000001
 11
2101.5617000000002
 21
1317.5585000000001
  0
LINE
  8
_0-1_LAYER003
  6
CONTINUOUS
 62
    7
 10
2049.0617000000002
 20
1167.5585000000001
 11
2100.7617
 21
1167.5585000000001
  0
LINE
  8
_0-1_LAYER003
  6
CONTINUOUS
 62
    7
 10
2099.0617000000002
 20
1167.5585000000001
 11
2099.0617000000002
 21
1317.5585000000001
  0
LINE
  8
_0-1_LAYER003
  6
CONTINUOUS
 62
    7
 10
2012.1133
 20
1258.9137000000001
 11
2012.1133
 21
958.91270000000009
  0
LINE
  8
_0-1_LAYER003
  6
CONTINUOUS
 62
    7
 10
1937.1133
 20
958.91270000000009
 11
2013.8132999999998
 21
958.91270000000009
  0
LINE
  8
_0-1_LAYER003
  6
CONTINUOUS
 62
    7
 10
1905.4245999999998
 20
963.78469999999993
 11
1957.1245999999999
 21
963.78469999999993
  0
LINE
  8
_0-1_LAYER003
  6
CONTINUOUS
 62
    7
 10
1955.4245999999998
 20
963.78469999999993
 11
1955.4245999999998
 21
1090.5065
  0
LINE
  8
_0-1_LAYER003
  6
CONTINUOUS
 62
    7
 10
1905.4245999999998
 20
1090.5065
 11
1957.1245999999999
 21
1090.5065
  0
LINE
  8
_0-1_LAYER003
  6
CONTINUOUS
 62
    7
 10
1923.8613999999998
 20
894.62220000000002
 11
2087.3613999999998
 21
894.62220000000002
  0
LINE
  8
_0-1_LAYER003
  6
CONTINUOUS
 62
    7
 10
1874.2179000000001
 20
946.91270000000009
 11
851.18090000000007
 21
946.91270000000009
  0
LINE
  8
_0-1_LAYER003
  6
CONTINUOUS
 62
    7
 10
851.18090000000007
 20
958.91270000000009
 11
1874.2179000000001
 21
958.91270000000009
  0
LINE
  8
_0-1_LAYER003
  6
CONTINUOUS
 62
    7
 10
1871.8948999999998
 20
961.40969999999993
 11
851.18090000000007
 21
961.40969999999993
  0
LINE
  8
_0-1_LAYER003
  6
CONTINUOUS
 62
    7
 10
851.18090000000007
 20
968.04870000000005
 11
1727.0319
 21
968.04870000000005
  0
LINE
  8
_0-1_LAYER003
  6
CONTINUOUS
 62
    7
 10
1727.0319
 20
968.04870000000005
 11
1727.0319
 21
983.04870000000005
  0
LINE
  8
_0-1_LAYER003
  6
CONTINUOUS
 62
    7
 10
1727.0319
 20
983.04870000000005
 11
854.36059999999998
 21
983.04870000000005
  0
LINE
  8
_0-1_LAYER003
  6
CONTINUOUS
 62
    7
 10
905.2179000000001
 20
946.91270000000009
 11
905.2179000000001
 21
886.91270000000009
  0
LINE
  8
_0-1_LAYER003
  6
CONTINUOUS
 62
    7
 10
905.2179000000001
 20
886.91270000000009
 11
965.2179000000001
 21
886.91270000000009
  0
LINE
  8
_0-1_LAYER003
  6
CONTINUOUS
 62
    7
 10
965.2179000000001
 20
886.91270000000009
 11
965.2179000000001
 21
946.91270000000009
  0
LINE
  8
_0-1_LAYER003
  6
CONTINUOUS
 62
    7
 10
1208.2179000000001
 20
946.91270000000009
 11
1208.2179000000001
 21
886.91270000000009
  0
LINE
  8
_0-1_LAYER003
  6
CONTINUOUS
 62
    7
 10
1208.2179000000001
 20
886.91270000000009
 11
1268.2179000000001
 21
886.91270000000009
  0
LINE
  8
_0-1_LAYER003
  6
CONTINUOUS
 62
    7
 10
1268.2179000000001
 20
886.91270000000009
 11
1268.2179000000001
 21
946.91270000000009
  0
LINE
  8
_0-1_LAYER003
  6
CONTINUOUS
 62
    7
 10
1511.2179000000001
 20
946.91270000000009
 11
1511.2179000000001
 21
886.91270000000009
  0
LINE
  8
_0-1_LAYER003
  6
CONTINUOUS
 62
    7
 10
1511.2179000000001
 20
886.91270000000009
 11
1571.2179000000001
 21
886.91270000000009
  0
LINE
  8
_0-1_LAYER003
  6
CONTINUOUS
 62
    7
 10
1571.2179000000001
 20
886.91270000000009
 11
1571.2179000000001
 21
946.91270000000009
  0
LINE
  8
_0-1_LAYER003
  6
CONTINUOUS
 62
    7
 10
1814.2179000000001
 20
946.91270000000009
 11
1814.2179000000001
 21
886.91270000000009
  0
LINE
  8
_0-1_LAYER003
  6
CONTINUOUS
 62
    7
 10
1814.2179000000001
 20
886.91270000000009
 11
1874.2179000000001
 21
886.91270000000009
  0
LINE
  8
_0-1_LAYER003
  6
CONTINUOUS
 62
    7
 10
1210.7487000000001
 20
752.52399999999989
 11
1028.7631390384743
 21
752.52399999999989
  0
LINE
  8
_0-1_LAYER003
  6
CONTINUOUS
 62
    7
 10
1193.4391000000001
 20
722.54299999999989
 11
953.14640456496909
 21
722.54299999999989
  0
LINE
  8
_0-1_LAYER003
  6
CONTINUOUS
 62
    7
 10
1176.0636
 20
692.44769999999994
 11
1004.3922
 21
692.44769999999994
  0
LINE
  8
_0-1_LAYER003
  6
CONTINUOUS
 62
    7
 10
1158.8200999999999
 20
662.58110000000011
 11
1099.741
 21
662.58110000000011
  0
LINE
  8
_0-1_LAYER003
  6
CONTINUOUS
 62
    7
 10
1491.4380999999998
 20
795.45810000000006
 11
1692.4380999999998
 21
795.45810000000006
  0
LINE
  8
_0-1_LAYER003
  6
CONTINUOUS
 62
    7
 10
1732.3069
 20
823.66460000000006
 11
1732.3069
 21
771.16460000000006
  0
LINE
  8
_0-1_LAYER003
  6
CONTINUOUS
 62
    7
 10
1732.3069
 20
773.66460000000006
 11
1851.8809000000001
 21
773.66460000000006
  0
LINE
  8
_0-1_LAYER003
  6
CONTINUOUS
 62
    7
 10
1851.8809000000001
 20
771.96460000000002
 11
1851.8809000000001
 21
823.66460000000006
  0
LINE
  8
_0-1_LAYER003
  6
CONTINUOUS
 62
    7
 10
1732.3069
 20
983.04870000000005
 11
1732.3069
 21
963.78469999999993
  0
LINE
  8
_0-1_LAYER003
  6
CONTINUOUS
 62
    7
 10
1732.3069
 20
963.78469999999993
 11
1851.8809000000001
 21
963.78469999999993
  0
LINE
  8
_0-1_LAYER003
  6
CONTINUOUS
 62
    7
 10
1851.8809000000001
 20
963.78469999999993
 11
1851.8809000000001
 21
1090.5065
  0
LINE
  8
_0-1_LAYER003
  6
CONTINUOUS
 62
    7
 10
1732.3069
 20
983.04870000000005
 11
1752.8508999999999
 21
983.04870000000005
  0
LINE
  8
_0-1_LAYER003
  6
CONTINUOUS
 62
    7
 10
1869.4119000000001
 20
963.15869999999995
 11
1854.4119000000001
 21
963.15869999999995
  0
LINE
  8
_0-1_LAYER003
  6
CONTINUOUS
 62
    7
 10
1854.4119000000001
 20
963.15869999999995
 11
1854.4119000000001
 21
1092.9655
  0
LINE
  8
_0-1_LAYER003
  6
CONTINUOUS
 62
    7
 10
1854.4119000000001
 20
1092.9655
 11
1869.4119000000001
 21
1092.9655
  0
LINE
  8
_0-1_LAYER003
  6
CONTINUOUS
 62
    7
 10
1869.4119000000001
 20
1092.9655
 11
1869.4119000000001
 21
963.15869999999995
  0
LINE
  8
_0-1_LAYER003
  6
CONTINUOUS
 62
    7
 10
1871.8948999999998
 20
961.40969999999993
 11
1871.8948999999998
 21
1258.9127000000001
  0
LINE
  8
_0-1_LAYER003
  6
CONTINUOUS
 62
    7
 10
1870.6329000000001
 20
1317.5585000000001
 11
1870.6329000000001
 21
1167.5585000000001
  0
LINE
  8
_0-1_LAYER003
  6
CONTINUOUS
 62
    7
 10
1851.2179000000001
 20
1174.8444999999999
 11
1869.2179000000001
 21
1174.8444999999999
  0
LINE
  8
_0-1_LAYER003
  6
CONTINUOUS
 62
    7
 10
1869.2179000000001
 20
1174.8444999999999
 11
1869.2179000000001
 21
1214.8444999999999
  0
LINE
  8
_0-1_LAYER003
  6
CONTINUOUS
 62
    7
 10
1851.2179000000001
 20
1214.8444999999999
 11
1869.2179000000001
 21
1214.8444999999999
  0
LINE
  8
_0-1_LAYER003
  6
CONTINUOUS
 62
    7
 10
1851.2179000000001
 20
1214.8444999999999
 11
1851.2179000000001
 21
1167.0355
  0
LINE
  8
_0-1_LAYER003
  6
CONTINUOUS
 62
    7
 10
1851.2179000000001
 20
1167.0355
 11
1839.2179000000001
 21
1167.0355
  0
LINE
  8
_0-1_LAYER003
  6
CONTINUOUS
 62
    7
 10
1839.2179000000001
 20
1167.0355
 11
1839.2179000000001
 21
1375.7407000000001
  0
LINE
  8
_0-1_LAYER003
  6
CONTINUOUS
 62
    7
 10
1851.2179000000001
 20
1375.7407000000001
 11
1851.2179000000001
 21
1214.8444999999999
  0
LINE
  8
_0-1_LAYER003
  6
CONTINUOUS
 62
    7
 10
1764.2179000000001
 20
1229.7997
 11
1764.2179000000001
 21
1183.1102000000001
  0
LINE
  8
_0-1_LAYER003
  6
CONTINUOUS
 62
    7
 10
1764.2179000000001
 20
1227.2997
 11
1839.2179000000001
 21
1227.2997
  0
LINE
  8
_0-1_LAYER003
  6
CONTINUOUS
 62
    7
 10
1844.2179000000001
 20
1145.4613999999999
 11
1844.2179000000001
 21
1117.9655
  0
LINE
  8
_0-1_LAYER003
  6
CONTINUOUS
 62
    7
 10
1844.2179000000001
 20
1117.9655
 11
1874.2179000000001
 21
1117.9655
  0
LINE
  8
_0-1_LAYER003
  6
CONTINUOUS
 62
    7
 10
1857.8881999999999
 20
1147.9655
 11
1874.2179000000001
 21
1147.9655
  0
LINE
  8
_0-1_LAYER003
  6
CONTINUOUS
 62
    7
 10
1832.3294999999998
 20
1141.6008999999999
 11
1832.3294999999998
 21
1123.6338000000001
  0
LINE
  8
_0-1_LAYER003
  6
CONTINUOUS
 62
    7
 10
1847.1988000000001
 20
1142.7515000000001
 11
1847.1988000000001
 21
1124.8729000000001
  0
LINE
  8
_0-1_LAYER003
  6
CONTINUOUS
 62
    7
 10
1826.3108999999999
 20
1109.8266000000001
 11
1826.3108999999999
 21
1093.4186
  0
LINE
  8
_0-1_LAYER003
  6
CONTINUOUS
 62
    7
 10
1795.1334000000002
 20
1419.9187999999999
 11
1845.2892000000002
 21
1333.0464999999999
  0
LINE
  8
_0-1_LAYER003
  6
CONTINUOUS
 62
    7
 10
1845.2892000000002
 20
1333.0464999999999
 11
1843.348
 21
1340.2909
  0
LINE
  8
_0-1_LAYER003
  6
CONTINUOUS
 62
    7
 10
1839.9859000000001
 20
1338.3498
 11
1845.2892000000002
 21
1333.0464999999999
  0
LINE
  8
_0-1_LAYER003
  6
CONTINUOUS
 62
    7
 10
1769.4834999999998
 20
1341.4378999999999
 11
1862.3701000000001
 21
1180.5535
  0
LINE
  8
_0-1_LAYER003
  6
CONTINUOUS
 62
    7
 10
1862.3701000000001
 20
1180.5535
 11
1860.4290000000001
 21
1187.798
  0
LINE
  8
_0-1_LAYER003
  6
CONTINUOUS
 62
    7
 10
1862.3701000000001
 20
1180.5535
 11
1857.0668000000001
 21
1185.8568
  0
LINE
  8
_0-1_LAYER003
  6
CONTINUOUS
 62
    7
 10
1869.2179000000001
 20
1214.8444999999999
 11
1851.2179000000001
 21
1174.8444999999999
  0
LINE
  8
_0-1_LAYER003
  6
CONTINUOUS
 62
    7
 10
1768.7399999999998
 20
1136.0775000000001
 11
1763.6698999999999
 21
1129.9878000000001
  0
LINE
  8
_0-1_LAYER003
  6
CONTINUOUS
 62
    7
 10
1763.6698999999999
 20
1129.9878000000001
 11
1764.2179000000001
 21
1148.0668000000001
  0
LINE
  8
_0-1_LAYER003
  6
CONTINUOUS
 62
    7
 10
1764.2179000000001
 20
1148.0668000000001
 11
1870.6329000000001
 21
1167.5585000000001
  0
LINE
  8
_0-1_LAYER003
  6
CONTINUOUS
 62
    7
 10
1862.0219000000002
 20
1164.0395000000001
 11
1864.7239
 21
1149.2845
  0
LINE
  8
_0-1_LAYER003
  6
CONTINUOUS
 62
    7
 10
1864.7239
 20
1149.2845
 11
1776.1968999999999
 21
1133.0695000000001
  0
LINE
  8
_0-1_LAYER003
  6
CONTINUOUS
 62
    7
 10
1776.1968999999999
 20
1133.0695000000001
 11
1773.4938999999999
 21
1147.8235
  0
LINE
  8
_0-1_LAYER003
  6
CONTINUOUS
 62
    7
 10
1773.4938999999999
 20
1147.8235
 11
1862.0219000000002
 21
1164.0395000000001
  0
LINE
  8
_0-1_LAYER003
  6
CONTINUOUS
 62
    7
 10
1864.7239
 20
1149.2845
 11
1773.4938999999999
 21
1147.8235
  0
LINE
  8
_0-1_LAYER003
  6
CONTINUOUS
 62
    7
 10
1770.5160999999998
 20
1155.4951000000001
 11
1775.8193946883807
 21
1150.1918091999955
  0
LINE
  8
_0-1_LAYER003
  6
CONTINUOUS
 62
    7
 10
1775.8193946883807
 20
1150.1918091999955
 11
1773.8782000000001
 21
1157.4363000000001
  0
LINE
  8
_0-1_LAYER003
  6
CONTINUOUS
 62
    7
 10
1808.9571000000001
 20
1153.7796000000001
 11
1814.2603856337032
 21
1148.47635361735
  0
LINE
  8
_0-1_LAYER003
  6
CONTINUOUS
 62
    7
 10
1814.2603856337032
 20
1148.47635361735
 11
1812.3193000000001
 21
1155.7208000000001
  0
LINE
  8
_0-1_LAYER003
  6
CONTINUOUS
 62
    7
 10
1814.2603470013273
 20
1148.4763529986731
 11
1714.5907999999999
 21
1321.1093000000001
  0
LINE
  8
_0-1_LAYER003
  6
CONTINUOUS
 62
    7
 10
1695.6743000000001
 20
1289.0072
 11
1775.8193946883807
 21
1150.1918091999955
  0
LINE
  8
_0-1_LAYER003
  6
CONTINUOUS
 62
    7
 10
1686.5554000000002
 20
1251.6885
 11
1787.9236999999998
 21
1076.1135999999999
  0
LINE
  8
_0-1_LAYER003
  6
CONTINUOUS
 62
    7
 10
1787.9236999999998
 20
1076.1135999999999
 11
1785.9825000000001
 21
1083.3579999999999
  0
LINE
  8
_0-1_LAYER003
  6
CONTINUOUS
 62
    7
 10
1782.6203999999998
 20
1081.4168999999999
 11
1787.9236999999998
 21
1076.1135999999999
  0
LINE
  8
_0-1_LAYER003
  6
CONTINUOUS
 62
    7
 10
1744.4787999999999
 20
1077.6468
 11
1742.5376999999999
 21
1084.8913
  0
LINE
  8
_0-1_LAYER003
  6
CONTINUOUS
 62
    7
 10
1744.4787999999999
 20
1077.6468
 11
1739.1754999999998
 21
1082.9501
  0
LINE
  8
_0-1_LAYER003
  6
CONTINUOUS
 62
    7
 10
1744.4787999999999
 20
1077.6468
 11
1663.2732000000001
 21
1218.2991999999999
  0
LINE
  8
_0-4_LAYER006
  6
CONTINUOUS
 62
    2
 10
1896.0774000000001
 20
1197.0535
 11
1977.0774000000001
 21
1197.0535
  0
LINE
  8
_0-1_LAYER003
  6
CONTINUOUS
 62
    7
 10
1977.0774000000001
 20
1197.0535
 11
1896.0774000000001
 21
1197.0535
  0
LINE
  8
_0-1_LAYER003
  6
CONTINUOUS
 62
    7
 10
1896.0774000000001
 20
1197.0535
 11
1857.7795999999998
 21
1130.7197000000001
  0
LINE
  8
_0-1_LAYER003
  6
CONTINUOUS
 62
    7
 10
1857.7795999999998
 20
1130.7197000000001
 11
1859.7206999999999
 21
1137.9640999999999
  0
LINE
  8
_0-1_LAYER003
  6
CONTINUOUS
 62
    7
 10
1863.0828999999999
 20
1136.0229999999999
 11
1857.7795999999998
 21
1130.7197000000001
  0
LINE
  8
_0-1_LAYER003
  6
CONTINUOUS
 62
    7
 10
1844.2179000000001
 20
1117.9655
 11
1874.2179000000001
 21
1147.9655
  0
LINE
  8
_0-1_LAYER003
  6
CONTINUOUS
 62
    7
 10
1847.1988000000001
 20
1142.7515000000001
 11
1832.3294999999998
 21
1141.6008999999999
  0
LINE
  8
_0-1_LAYER003
  6
CONTINUOUS
 62
    7
 10
1832.3294999999998
 20
1123.6338000000001
 11
1847.1988000000001
 21
1124.8729000000001
  0
LINE
  8
_0-1_LAYER003
  6
CONTINUOUS
 62
    7
 10
1826.3108999999999
 20
1109.8266000000001
 11
1847.1988000000001
 21
1123.8108
  0
LINE
  8
_0-1_LAYER003
  6
CONTINUOUS
 62
    7
 10
1847.1988000000001
 20
1123.8108
 11
1850.2080999999998
 21
1119.2527
  0
LINE
  8
_0-1_LAYER003
  6
CONTINUOUS
 62
    7
 10
1826.3108999999999
 20
1093.4186
 11
1832.3294999999998
 21
1093.4084
  0
LINE
  8
_0-1_LAYER003
  6
CONTINUOUS
 62
    7
 10
1832.3294999999998
 20
1093.4084
 11
1850.2080999999998
 21
1119.2527
  0
LINE
  8
_0-1_LAYER003
  6
CONTINUOUS
 62
    7
 10
1851.8809000000001
 20
1090.5065
 11
1845.3272999999999
 21
1081.5618999999999
  0
LINE
  8
_0-1_LAYER003
  6
CONTINUOUS
 62
    7
 10
1854.4119000000001
 20
1092.9655
 11
1869.4119000000001
 21
963.15869999999995
  0
LINE
  8
_0-1_LAYER003
  6
CONTINUOUS
 62
    7
 10
1923.8613999999998
 20
894.62220000000002
 11
1863.0165000000002
 21
1000.0087000000001
  0
LINE
  8
_0-1_LAYER003
  6
CONTINUOUS
 62
    7
 10
1863.0165000000002
 20
1000.0087000000001
 11
1864.9576000000002
 21
992.76420000000007
  0
LINE
  8
_0-1_LAYER003
  6
CONTINUOUS
 62
    7
 10
1868.3198000000002
 20
994.70540000000005
 11
1863.0165000000002
 21
1000.0087000000001
  0
LINE
  8
_0-1_LAYER003
  6
CONTINUOUS
 62
    7
 10
1874.2179000000001
 20
946.91270000000009
 11
1814.2179000000001
 21
886.91270000000009
  0
LINE
  8
_0-1_LAYER003
  6
CONTINUOUS
 62
    7
 10
1790.2080999999998
 20
964.80079999999998
 11
1784.9047999999998
 21
959.49749999999995
  0
LINE
  8
_0-1_LAYER003
  6
CONTINUOUS
 62
    7
 10
1790.2080999999998
 20
964.80079999999998
 11
1788.2669999999998
 21
957.55639999999994
  0
LINE
  8
_0-1_LAYER003
  6
CONTINUOUS
 62
    7
 10
1790.2080999999998
 20
964.80079999999998
 11
1692.4380999999998
 21
795.45810000000006
  0
LINE
  8
_0-1_LAYER003
  6
CONTINUOUS
 62
    7
 10
1571.2179000000001
 20
946.91270000000009
 11
1511.2179000000001
 21
886.91270000000009
  0
LINE
  8
_0-1_LAYER003
  6
CONTINUOUS
 62
    7
 10
1268.2179000000001
 20
946.91270000000009
 11
1208.2179000000001
 21
886.91270000000009
  0
LINE
  8
_0-1_LAYER003
  6
CONTINUOUS
 62
    7
 10
1334.7570000000001
 20
971.19509999999991
 11
1340.0603000000001
 21
976.49839999999995
  0
LINE
  8
_0-1_LAYER003
  6
CONTINUOUS
 62
    7
 10
1340.0603000000001
 20
976.49839999999995
 11
1338.1192000000001
 21
969.25389999999993
  0
LINE
  8
_0-1_LAYER003
  6
CONTINUOUS
 62
    7
 10
1340.0603000000001
 20
976.49839999999995
 11
1158.8200999999999
 21
662.58110000000011
  0
LINE
  8
_0-1_LAYER003
  6
CONTINUOUS
 62
    7
 10
1435.5823
 20
1004.9328
 11
1437.5234999999998
 21
997.6884
  0
LINE
  8
_0-1_LAYER003
  6
CONTINUOUS
 62
    7
 10
1437.5234999999998
 20
997.6884
 11
1432.5351156172173
 21
1002.6767843827828
  0
LINE
  8
_0-1_LAYER003
  6
CONTINUOUS
 62
    7
 10
1437.5234999999998
 20
997.6884
 11
1386.1116999999999
 21
1086.7361000000001
  0
LINE
  8
_0-1_LAYER003
  6
CONTINUOUS
 62
    7
 10
965.2179000000001
 20
946.91270000000009
 11
905.2179000000001
 21
886.91270000000009
  0
TEXT
  8
_0-0_LAYER001
 62
    7
 10
1923.8614000000002
 20
897.12220000000025
 40
20
 41
1
 50
0
  1
下地材：１５ｘ１２５
  0
TEXT
  8
_0-0_LAYER001
 62
    7
 10
1728.9834999999998
 20
1343.9379000000004
 40
20
 41
1
 50
0
  1
胴　縁
  0
TEXT
  8
_0-0_LAYER001
 62
    7
 10
1622.6334000000002
 20
1422.4188000000004
 40
20
 41
1
 50
0
  1
外壁　防火サイディング
  0
TEXT
  8
_0-0_LAYER001
 62
    7
 10
1549.2732000000001
 20
1220.7992000000004
 40
20
 41
1
 50
0
  1
熨斗瓦２段積み
  0
TEXT
  8
_0-0_LAYER001
 62
    7
 10
1622.0554000000002
 20
1254.1885000000002
 40
20
 41
1
 50
0
  1
葺　土　
  0
TEXT
  8
_0-0_LAYER001
 62
    7
 10
1345.7563954482989
 20
1091.2417439763312
 40
20
 41
1
 50
0
  1
桟　瓦
  0
TEXT
  8
_0-0_LAYER001
 62
    7
 10
1094.3200999999999
 20
665.08110000000011
 40
20
 41
1
 50
0
  1
　垂木　
  0
TEXT
  8
_0-0_LAYER001
 62
    7
 10
1090.31164384249
 20
1183.7703847026162
 40
20
 41
1
 50
0
  1
255
  0
TEXT
  8
_0-0_LAYER001
 62
    7
 10
1339.3193089924509
 20
1180.9567387687182
 40
20
 41
1
 50
0
  1
255
  0
TEXT
  8
_0-0_LAYER001
 62
    7
 10
1793.7231273169571
 20
1238.6364804136251
 40
20
 41
1
 50
0
  1
75
  0
TEXT
  8
_0-4_LAYER006
 62
    7
 10
1896.0774000000001
 20
1199.5535000000004
 40
20
 41
1
 50
0
  1
30x30
  0
TEXT
  8
_0-0_LAYER001
 62
    7
 10
1996.3056345576028
 20
1093.7337148178849
 40
20
 41
1
 50
90
  1
300
  0
TEXT
  8
_0-0_LAYER001
 62
    7
 10
1937.2190699457478
 20
1013.5448057017958
 40
20
 41
1
 50
90
  1
125
  0
TEXT
  8
_0-0_LAYER001
 62
    7
 10
2080.7150125745393
 20
1228.7887196449824
 40
20
 41
1
 50
90
  1
150
  0
TEXT
  8
_0-2_LAYER004
 62
    7
 10
2134.3441024568765
 20
1163.1748638951101
 40
20
 41
1
 50
90
  1
水切り立上がり寸法
  0
TEXT
  8
_0-1_LAYER003
 62
    7
 10
2042.5157181720294
 20
1025.4322874678396
 40
20
 41
1
 50
90
  1
下葺き材立上がり寸法
  0
TEXT
  8
_0-0_LAYER001
 62
    7
 10
1781.0617206144161
 20
788.45313098996621
 40
20
 41
1
 50
0
  1
120
  0
TEXT
  8
_0-0_LAYER001
 62
    7
 10
1426.6724381028839
 20
800.20500991226015
 40
20
 41
1
 50
0
  1
捨谷カラー鋼板0.35mm以上
  0
TEXT
  8
_0-0_LAYER001
 62
    7
 10
1417.536755867689
 20
1293.5318506127933
 40
20
 41
1
 50
0
  1
雨押水切カラー鋼板0.35mm以上
  0
TEXT
  8
_0-0_LAYER001
 62
    7
 10
983.52709295161719
 20
760.31485541965253
 40
20
 41
1
 50
0
  1
　瓦桟：１５ｘ３０以上　
  0
TEXT
  8
_0-0_LAYER001
 62
    7
 10
956.86723944956486
 20
693.66522166452171
 40
20
 41
1
 50
0
  1
　野地板：杉ｔ＝１２　
  0
TEXT
  8
_0-0_LAYER001
 62
    7
 10
947.43910000000005
 20
725.04300000000035
 40
20
 41
1
 50
0
  1
　下葺材：ルーフィング
  0
TEXT
  8
_0-0_LAYER001
 62
    7
 10
1543.3840164947162
 20
1324.6150878797605
 40
20
 41
1
 50
0
  1
笠木：１５ｘ９０
  0
ENDSEC
  0
EOF
