  0
SECTION
  2
HEADER
  9
$ACADVER
  1
AC1009
  9
$INSBASE
 10
0
 20
0
 30
0
  9
$EXTMIN
 10
0
 20
0
  9
$EXTMAX
 10
2970
 20
2100
  9
$LIMMIN
 10
0
 20
0
  9
$LIMMAX
 10
2970
 20
2100
  9
$LTSCALE
 40
10
  0
ENDSEC
  0
SECTION
  2
TABLES
  0
TABLE
  2
LTYPE
 70
     9
  0
LTYPE
  2
CONTINUOUS
 70
    64
  3
実線
 72
    65
 73
     0
 40
0.0
  0
LTYPE
  2
DASHED1
 70
    64
  3
--  --  --  --  --  --  --  --  
 72
    65
 73
     2
 40
2.5
 49
1.25
 49
-1.25
  0
LTYPE
  2
DASHED2
 70
    64
  3
----    ----    ----    ----    
 72
    65
 73
     2
 40
5.0
 49
2.5
 49
-2.5
  0
LTYPE
  2
DASHED3
 70
    64
  3
------  ------  ------  ------  
 72
    65
 73
     2
 40
5.0
 49
3.75
 49
-1.25
  0
LTYPE
  2
CENTER1
 70
    64
  3
----- - ----- - ----- - ----- - 
 72
    65
 73
     4
 40
10.0
 49
6.25
 49
-1.25
 49
1.25
 49
-1.25
  0
LTYPE
  2
CENTER2
 70
    64
  3
----------  --  ----------  --  
 72
    65
 73
     4
 40
20.0
 49
12.5
 49
-2.5
 49
2.5
 49
-2.5
  0
LTYPE
  2
PHANTOM1
 70
    64
  3
--- - - --- - - --- - - --- - - 
 72
    65
 73
     6
 40
10.0
 49
3.25
 49
-1.25
 49
1.25
 49
-1.25
 49
1.25
 49
-1.25
  0
LTYPE
  2
PHANTOM2
 70
    64
  3
--------  -  -  --------  -  -  
 72
    65
 73
     6
 40
20.0
 49
10.0
 49
-2.5
 49
1.25
 49
-2.5
 49
1.25
 49
-2.5
  0
LTYPE
  2
DOT
 70
    64
  3
-   -   -   -   -   -   -   -   
 72
    65
 73
     2
 40
2.5
 49
0.625
 49
-1.875
  0
LTYPE
  2
DUMMY
 70
    64
  3
ダミー
 72
    65
 73
     0
 40
0.0
  0
LTYPE
  2
RAND1
 70
    64
  3
ランダム線1
 72
    65
 73
     4
 40
10.0
 49
1.0
 49
-2.0
 49
3.0
 49
-4.0
  0
LTYPE
  2
RAND2
 70
    64
  3
ランダム線2
 72
    65
 73
     4
 40
14.0
 49
2.0
 49
-3.0
 49
4.0
 49
-5.0
  0
LTYPE
  2
RAND3
 70
    64
  3
ランダム線3
 72
    65
 73
     4
 40
18.0
 49
3.0
 49
-4.0
 49
5.0
 49
-6.0
  0
LTYPE
  2
RAND4
 70
    64
  3
ランダム線4
 72
    65
 73
     4
 40
22.0
 49
4.0
 49
-5.0
 49
6.0
 49
-7.0
  0
LTYPE
  2
RAND5
 70
    64
  3
ランダム線5
 72
    65
 73
     4
 40
26.0
 49
5.0
 49
-6.0
 49
7.0
 49
-8.0
  0
LTYPE
  2
LONG1
 70
    64
  3
----------  --  ----------  --  
 72
    65
 73
     4
 40
40.0
 49
32.5
 49
-2.5
 49
2.5
 49
-2.5
  0
LTYPE
  2
LONG2
 70
    64
  3
--------  -  -  --------  -  -  
 72
    65
 73
     6
 40
40.0
 49
30.0
 49
-2.5
 49
1.25
 49
-2.5
 49
1.25
 49
-2.5
  0
LTYPE
  2
LONG3
 70
    64
  3
+++++++++++++++..+++++++++++++++
 72
    65
 73
     2
 40
40.0
 49
37.5
 49
-2.5
  0
LTYPE
  2
LONG4
 70
    64
  3
+++++++++++++++..+++++++++++++++
 72
    65
 73
     2
 40
80.0
 49
75.0
 49
-5.0
  0
LTYPE
  2
LONG5
 70
    64
  3
----------  --  ----------  --  
 72
    65
 73
     4
 40
60.0
 49
37.5
 49
-7.5
 49
7.5
 49
-7.5
  0
LTYPE
  2
dashed
 70
   64
  3
-------   -------------   ------
 72
   65
 73
    2
 40
7.5
 49
6
 49
-1.5
  0
LTYPE
  2
dashed_spaced
 70
   64
  3
----        --------        ----
 72
   65
 73
    2
 40
12
 49
6
 49
-6
  0
LTYPE
  2
long_dashed_dotted
 70
   64
  3
------------- --- --------------
 72
   65
 73
    4
 40
15.25
 49
12
 49
-1.5
 49
0.25
 49
-1.5
  0
LTYPE
  2
long_dashed_double-dotted
 70
   64
  3
----------- --- --- ------------
 72
   65
 73
    6
 40
17
 49
12
 49
-1.5
 49
0.25
 49
-1.5
 49
0.25
 49
-1.5
  0
LTYPE
  2
long_dashed_triplicate-dotted
 70
   64
  3
--------- --- --- --- ----------
 72
   65
 73
    8
 40
18.75
 49
12
 49
-1.5
 49
0.25
 49
-1.5
 49
0.25
 49
-1.5
 49
0.25
 49
-1.5
  0
LTYPE
  2
dotted
 70
   64
  3
   -       -       -       -    
 72
   65
 73
    2
 40
1.75
 49
0.25
 49
-1.5
  0
LTYPE
  2
chain
 70
   64
  3
-------------- -- --------------
 72
   65
 73
    4
 40
18.5
 49
12
 49
-1.5
 49
3.5
 49
-1.5
  0
LTYPE
  2
chain_double_dash
 70
   64
  3
------------ -- -- -------------
 72
   65
 73
    6
 40
23.5
 49
12
 49
-1.5
 49
3.5
 49
-1.5
 49
3.5
 49
-1.5
  0
LTYPE
  2
dashed_dotted
 70
   64
  3
-----------     -     ----------
 72
   65
 73
    4
 40
9.25
 49
6
 49
-1.5
 49
0.25
 49
-1.5
  0
LTYPE
  2
double-dashed_dotted
 70
   64
  3
------   -----------   -   -----
 72
   65
 73
    6
 40
16.75
 49
6
 49
-1.5
 49
6
 49
-1.5
 49
0.25
 49
-1.5
  0
LTYPE
  2
dashed_double-dotted
 70
   64
  3
---------    -    -    ---------
 72
   65
 73
    6
 40
11
 49
6
 49
-1.5
 49
0.25
 49
-1.5
 49
0.25
 49
-1.5
  0
LTYPE
  2
double-dashed_double-dotted
 70
   64
  3
-----   ---------   -   -   ----
 72
   65
 73
    8
 40
18.5
 49
6
 49
-1.5
 49
6
 49
-1.5
 49
0.25
 49
-1.5
 49
0.25
 49
-1.5
  0
LTYPE
  2
dashed_triplicate-dotted
 70
   64
  3
-------    -    -    -    ------
 72
   65
 73
    8
 40
12.75
 49
6
 49
-1.5
 49
0.25
 49
-1.5
 49
0.25
 49
-1.5
 49
0.25
 49
-1.5
  0
LTYPE
  2
double-dashed_triplicate-dotted
 70
   64
  3
-----  ---------  -  -  -  -----
 72
   65
 73
   10
 40
20.25
 49
6
 49
-1.5
 49
6
 49
-1.5
 49
0.25
 49
-1.5
 49
0.25
 49
-1.5
 49
0.25
 49
-1.5
  0
LTYPE
  2
undefined
 70
   64
  3
--------------------------------
 72
   65
 73
    0
 40
0
  0
ENDTAB
  0
TABLE
  2
STYLE
  5
3
100
AcDbSymbolTable
 70
     1
  0
STYLE
  5
10
100
AcDbSymbolTableRecord
100
AcDbTextStyleTableRecord
  2
STANDARD
 70
     0
 40
0.0
 41
1.0
 50
0.0
 71
     0
 42
0.2
  3
txt
  4
bigfont.shx
  0
STYLE
  5
26
100
AcDbSymbolTableRecord
100
AcDbTextStyleTableRecord
  2
TATEGAKI
 70
    68
 40
0.0
 41
1.0
 50
0.0
 71
     0
 42
1.0
  3
txt
  4
bigfont.shx
  0
ENDTAB
  0
TABLE
  2
LAYER
 70
    7
  0
LAYER
  2
_0-0_LAYER001
 70
   64
 62
    7
  6
CONTINUOUS
  0
LAYER
  2
_0-1_LAYER003
 70
   64
 62
    7
  6
CONTINUOUS
  0
LAYER
  2
_0-2_LAYER004
 70
   64
 62
    7
  6
CONTINUOUS
  0
LAYER
  2
_0-3_LAYER005
 70
   64
 62
    7
  6
CONTINUOUS
  0
LAYER
  2
_0-4_LAYER006
 70
   64
 62
    7
  6
CONTINUOUS
  0
LAYER
  2
_0-5_LAYER007
 70
   64
 62
    7
  6
CONTINUOUS
  0
LAYER
  2
ADD_LINE
 70
   64
 62
    7
  6
CONTINUOUS
  0
ENDTAB
  0
ENDSEC
  0
SECTION
  2
BLOCKS
  0
ENDSEC
  0
SECTION
  2
ENTITIES
  0
LINE
  8
_0-0_LAYER001
  6
CONTINUOUS
 62
    2
 10
1496.5011
 20
1002.3227999999999
 11
1498.4422
 21
995.0784000000001
  0
LINE
  8
_0-0_LAYER001
  6
CONTINUOUS
 62
    2
 10
1498.4422
 20
995.0784000000001
 11
1493.1388999999999
 21
1000.3816999999999
  0
LINE
  8
_0-0_LAYER001
  6
CONTINUOUS
 62
    2
 10
1498.4422
 20
995.0784000000001
 11
1447.0304999999998
 21
1084.1261
  0
LINE
  8
_0-0_LAYER001
  6
CONTINUOUS
 62
    2
 10
1447.0304999999998
 20
1084.1261
 11
1406.5305000000001
 21
1084.1261
  0
LINE
  8
_0-0_LAYER001
  6
CONTINUOUS
 62
    2
 10
1786.3789000000002
 20
961.77340000000004
 11
1791.6822000000002
 21
967.07670000000007
  0
LINE
  8
_0-0_LAYER001
  6
CONTINUOUS
 62
    2
 10
1791.6822000000002
 20
967.07670000000007
 11
1789.7411000000002
 21
959.83220000000006
  0
LINE
  8
_0-0_LAYER001
  6
CONTINUOUS
 62
    2
 10
1791.6822000000002
 20
967.07670000000007
 11
1693.9122000000002
 21
797.73399999999992
  0
LINE
  8
_0-0_LAYER001
  6
CONTINUOUS
 62
    2
 10
1693.9122000000002
 20
797.73399999999992
 11
1492.9122000000002
 21
797.73399999999992
  0
LINE
  8
_0-0_LAYER001
  6
CONTINUOUS
 62
    2
 10
2016.0873999999999
 20
1261.1895999999999
 11
1938.5873999999999
 21
1261.1895999999999
  0
CIRCLE
  8
_0-0_LAYER001
  6
CONTINUOUS
 62
    2
 10
2013.5873999999999
 20
1261.1895999999999
 40
1.6999999999999997
  0
LINE
  8
_0-0_LAYER001
  6
CONTINUOUS
 62
    2
 10
2013.5873999999999
 20
1261.1895999999999
 11
2013.5873999999999
 21
961.18859999999995
  0
CIRCLE
  8
_0-0_LAYER001
  6
CONTINUOUS
 62
    2
 10
2013.5873999999999
 20
961.18859999999995
 40
1.6999999999999997
  0
LINE
  8
_0-0_LAYER001
  6
CONTINUOUS
 62
    2
 10
2016.0873999999999
 20
961.18859999999995
 11
1938.5873999999999
 21
961.18859999999995
  0
LINE
  8
_0-0_LAYER001
  6
CONTINUOUS
 62
    4
 10
1827.3364999999999
 20
1068.4931999999999
 11
1827.3364999999999
 21
1068.0274999999999
  0
LINE
  8
_0-0_LAYER001
  6
CONTINUOUS
 62
    4
 10
1827.3364999999999
 20
1068.0274999999999
 11
1827.3364999999999
 21
1066.7632000000001
  0
LINE
  8
_0-0_LAYER001
  6
CONTINUOUS
 62
    4
 10
1827.3364999999999
 20
1066.7632000000001
 11
1827.3364999999999
 21
1064.9001000000001
  0
LINE
  8
_0-0_LAYER001
  6
CONTINUOUS
 62
    4
 10
1827.3364999999999
 20
1064.9001000000001
 11
1827.3364999999999
 21
1062.6377
  0
LINE
  8
_0-0_LAYER001
  6
CONTINUOUS
 62
    4
 10
1827.3364999999999
 20
1062.6377
 11
1827.3364999999999
 21
1060.1757
  0
LINE
  8
_0-0_LAYER001
  6
CONTINUOUS
 62
    4
 10
1827.3364999999999
 20
1060.1757
 11
1827.3364999999999
 21
1057.7138
  0
LINE
  8
_0-0_LAYER001
  6
CONTINUOUS
 62
    4
 10
1827.3364999999999
 20
1057.7138
 11
1827.3364999999999
 21
1055.4513999999999
  0
LINE
  8
_0-0_LAYER001
  6
CONTINUOUS
 62
    4
 10
1827.3364999999999
 20
1055.4513999999999
 11
1827.3364999999999
 21
1053.5882999999999
  0
LINE
  8
_0-0_LAYER001
  6
CONTINUOUS
 62
    4
 10
1827.3364999999999
 20
1053.5882999999999
 11
1827.3364999999999
 21
1052.3240000000001
  0
LINE
  8
_0-0_LAYER001
  6
CONTINUOUS
 62
    4
 10
1827.3364999999999
 20
1052.3240000000001
 11
1827.3364999999999
 21
1051.8581999999999
  0
LINE
  8
_0-0_LAYER001
  6
CONTINUOUS
 62
    4
 10
1827.3364999999999
 20
1051.8581999999999
 11
1826.1889999999999
 21
1051.8780999999999
  0
LINE
  8
_0-0_LAYER001
  6
CONTINUOUS
 62
    4
 10
1826.1889999999999
 20
1051.8780999999999
 11
1822.8144000000002
 21
1051.7826
  0
LINE
  8
_0-0_LAYER001
  6
CONTINUOUS
 62
    4
 10
1822.8144000000002
 20
1051.7826
 11
1817.3145
 21
1051.3387
  0
LINE
  8
_0-0_LAYER001
  6
CONTINUOUS
 62
    4
 10
1817.3145
 20
1051.3387
 11
1809.7909
 21
1050.3135
  0
LINE
  8
_0-0_LAYER001
  6
CONTINUOUS
 62
    4
 10
1809.7909
 20
1050.3135
 11
1800.3454999999999
 21
1048.4742000000001
  0
LINE
  8
_0-0_LAYER001
  6
CONTINUOUS
 62
    4
 10
1800.3454999999999
 20
1048.4742000000001
 11
1789.0801000000001
 21
1045.5879
  0
LINE
  8
_0-0_LAYER001
  6
CONTINUOUS
 62
    4
 10
1789.0801000000001
 20
1045.5879
 11
1776.0963999999999
 21
1041.4217000000001
  0
LINE
  8
_0-0_LAYER001
  6
CONTINUOUS
 62
    4
 10
1776.0963999999999
 20
1041.4217000000001
 11
1761.4962
 21
1035.7426
  0
LINE
  8
_0-0_LAYER001
  6
CONTINUOUS
 62
    4
 10
1761.4962
 20
1035.7426
 11
1745.3811999999998
 21
1028.3179
  0
LINE
  8
_0-0_LAYER001
  6
CONTINUOUS
 62
    4
 10
1745.3811999999998
 20
1028.3179
 11
1727.8532
 21
1018.9145000000001
  0
LINE
  8
_0-0_LAYER001
  6
CONTINUOUS
 62
    4
 10
1727.8532
 20
1018.9145000000001
 11
1727.8532
 21
1019.6726000000001
  0
LINE
  8
_0-0_LAYER001
  6
CONTINUOUS
 62
    4
 10
1727.8532
 20
1019.6726000000001
 11
1727.8532
 21
1021.7301
  0
LINE
  8
_0-0_LAYER001
  6
CONTINUOUS
 62
    4
 10
1727.8532
 20
1021.7301
 11
1727.8532
 21
1024.7623000000001
  0
LINE
  8
_0-0_LAYER001
  6
CONTINUOUS
 62
    4
 10
1727.8532
 20
1024.7623000000001
 11
1727.8532
 21
1028.4441999999999
  0
LINE
  8
_0-0_LAYER001
  6
CONTINUOUS
 62
    4
 10
1727.8532
 20
1028.4441999999999
 11
1727.8532
 21
1032.451
  0
LINE
  8
_0-0_LAYER001
  6
CONTINUOUS
 62
    4
 10
1727.8532
 20
1032.451
 11
1727.8532
 21
1036.4577999999999
  0
LINE
  8
_0-0_LAYER001
  6
CONTINUOUS
 62
    4
 10
1727.8532
 20
1036.4577999999999
 11
1727.8532
 21
1040.1396999999999
  0
LINE
  8
_0-0_LAYER001
  6
CONTINUOUS
 62
    4
 10
1727.8532
 20
1040.1396999999999
 11
1727.8532
 21
1043.1719000000001
  0
LINE
  8
_0-0_LAYER001
  6
CONTINUOUS
 62
    4
 10
1727.8532
 20
1043.1719000000001
 11
1727.8532
 21
1045.2293999999999
  0
LINE
  8
_0-0_LAYER001
  6
CONTINUOUS
 62
    4
 10
1727.8532
 20
1045.2293999999999
 11
1727.8532
 21
1045.9875
  0
LINE
  8
_0-0_LAYER001
  6
CONTINUOUS
 62
    4
 10
1727.8532
 20
1045.9875
 11
1729.5201999999999
 21
1046.5735999999999
  0
LINE
  8
_0-0_LAYER001
  6
CONTINUOUS
 62
    4
 10
1729.5201999999999
 20
1046.5735999999999
 11
1734.2226999999998
 21
1048.1714999999999
  0
LINE
  8
_0-0_LAYER001
  6
CONTINUOUS
 62
    4
 10
1734.2226999999998
 20
1048.1714999999999
 11
1741.5124000000001
 21
1050.5405000000001
  0
LINE
  8
_0-0_LAYER001
  6
CONTINUOUS
 62
    4
 10
1741.5124000000001
 20
1050.5405000000001
 11
1750.9411
 21
1053.4399000000001
  0
LINE
  8
_0-0_LAYER001
  6
CONTINUOUS
 62
    4
 10
1750.9411
 20
1053.4399000000001
 11
1762.0608000000002
 21
1056.6288
  0
LINE
  8
_0-0_LAYER001
  6
CONTINUOUS
 62
    4
 10
1762.0608000000002
 20
1056.6288
 11
1774.4231
 21
1059.8668
  0
LINE
  8
_0-0_LAYER001
  6
CONTINUOUS
 62
    4
 10
1774.4231
 20
1059.8668
 11
1787.5799999999999
 21
1062.9129
  0
LINE
  8
_0-0_LAYER001
  6
CONTINUOUS
 62
    4
 10
1787.5799999999999
 20
1062.9129
 11
1801.0832999999998
 21
1065.5264999999999
  0
LINE
  8
_0-0_LAYER001
  6
CONTINUOUS
 62
    4
 10
1801.0832999999998
 20
1065.5264999999999
 11
1814.4848999999999
 21
1067.4667999999999
  0
LINE
  8
_0-0_LAYER001
  6
CONTINUOUS
 62
    4
 10
1827.3364999999999
 20
1068.4931999999999
 11
1814.3724999999999
 21
1067.4505999999999
  0
LINE
  8
_0-0_LAYER001
  6
CONTINUOUS
 62
    4
 10
1838.9803999999999
 20
1100.806
 11
1838.9803999999999
 21
1100.3403000000001
  0
LINE
  8
_0-0_LAYER001
  6
CONTINUOUS
 62
    4
 10
1838.9803999999999
 20
1100.3403000000001
 11
1838.9803999999999
 21
1099.076
  0
LINE
  8
_0-0_LAYER001
  6
CONTINUOUS
 62
    4
 10
1838.9803999999999
 20
1099.076
 11
1838.9803999999999
 21
1097.2129
  0
LINE
  8
_0-0_LAYER001
  6
CONTINUOUS
 62
    4
 10
1838.9803999999999
 20
1097.2129
 11
1838.9803999999999
 21
1094.9504999999999
  0
LINE
  8
_0-0_LAYER001
  6
CONTINUOUS
 62
    4
 10
1838.9803999999999
 20
1094.9504999999999
 11
1838.9803999999999
 21
1092.4884999999999
  0
LINE
  8
_0-0_LAYER001
  6
CONTINUOUS
 62
    4
 10
1838.9803999999999
 20
1092.4884999999999
 11
1838.9803999999999
 21
1090.0265999999999
  0
LINE
  8
_0-0_LAYER001
  6
CONTINUOUS
 62
    4
 10
1838.9803999999999
 20
1090.0265999999999
 11
1838.9803999999999
 21
1087.7642000000001
  0
LINE
  8
_0-0_LAYER001
  6
CONTINUOUS
 62
    4
 10
1838.9803999999999
 20
1087.7642000000001
 11
1838.9803999999999
 21
1085.9011
  0
LINE
  8
_0-0_LAYER001
  6
CONTINUOUS
 62
    4
 10
1838.9803999999999
 20
1085.9011
 11
1838.9803999999999
 21
1084.6368
  0
LINE
  8
_0-0_LAYER001
  6
CONTINUOUS
 62
    4
 10
1838.9803999999999
 20
1084.6368
 11
1838.9803999999999
 21
1084.1711
  0
LINE
  8
_0-0_LAYER001
  6
CONTINUOUS
 62
    4
 10
1838.9803999999999
 20
1084.1711
 11
1837.8328999999999
 21
1084.191
  0
LINE
  8
_0-0_LAYER001
  6
CONTINUOUS
 62
    4
 10
1837.8328999999999
 20
1084.191
 11
1834.4582999999998
 21
1084.0953999999999
  0
LINE
  8
_0-0_LAYER001
  6
CONTINUOUS
 62
    4
 10
1834.4582999999998
 20
1084.0953999999999
 11
1828.9582999999998
 21
1083.6514999999999
  0
LINE
  8
_0-0_LAYER001
  6
CONTINUOUS
 62
    4
 10
1828.9582999999998
 20
1083.6514999999999
 11
1821.4348
 21
1082.6262999999999
  0
LINE
  8
_0-0_LAYER001
  6
CONTINUOUS
 62
    4
 10
1821.4348
 20
1082.6262999999999
 11
1811.9893999999999
 21
1080.787
  0
LINE
  8
_0-0_LAYER001
  6
CONTINUOUS
 62
    4
 10
1811.9893999999999
 20
1080.787
 11
1800.7240000000002
 21
1077.9006999999999
  0
LINE
  8
_0-0_LAYER001
  6
CONTINUOUS
 62
    4
 10
1800.7240000000002
 20
1077.9006999999999
 11
1787.7402999999999
 21
1073.7345
  0
LINE
  8
_0-0_LAYER001
  6
CONTINUOUS
 62
    4
 10
1787.7402999999999
 20
1073.7345
 11
1773.1399999999999
 21
1068.0554
  0
LINE
  8
_0-0_LAYER001
  6
CONTINUOUS
 62
    4
 10
1773.1399999999999
 20
1068.0554
 11
1757.0250000000001
 21
1060.6306999999999
  0
LINE
  8
_0-0_LAYER001
  6
CONTINUOUS
 62
    4
 10
1757.0250000000001
 20
1060.6306999999999
 11
1739.4969999999998
 21
1051.2273
  0
LINE
  8
_0-0_LAYER001
  6
CONTINUOUS
 62
    4
 10
1739.4969999999998
 20
1051.2273
 11
1739.4969999999998
 21
1051.9854
  0
LINE
  8
_0-0_LAYER001
  6
CONTINUOUS
 62
    4
 10
1739.4969999999998
 20
1051.9854
 11
1739.4969999999998
 21
1054.0428999999999
  0
LINE
  8
_0-0_LAYER001
  6
CONTINUOUS
 62
    4
 10
1739.4969999999998
 20
1054.0428999999999
 11
1739.4969999999998
 21
1057.0751
  0
LINE
  8
_0-0_LAYER001
  6
CONTINUOUS
 62
    4
 10
1739.4969999999998
 20
1057.0751
 11
1739.4969999999998
 21
1060.7570000000001
  0
LINE
  8
_0-0_LAYER001
  6
CONTINUOUS
 62
    4
 10
1739.4969999999998
 20
1060.7570000000001
 11
1739.4969999999998
 21
1064.7637999999999
  0
LINE
  8
_0-0_LAYER001
  6
CONTINUOUS
 62
    4
 10
1739.4969999999998
 20
1064.7637999999999
 11
1739.4969999999998
 21
1068.7706000000001
  0
LINE
  8
_0-0_LAYER001
  6
CONTINUOUS
 62
    4
 10
1739.4969999999998
 20
1068.7706000000001
 11
1739.4969999999998
 21
1072.4525000000001
  0
LINE
  8
_0-0_LAYER001
  6
CONTINUOUS
 62
    4
 10
1739.4969999999998
 20
1072.4525000000001
 11
1739.4969999999998
 21
1075.4847
  0
LINE
  8
_0-0_LAYER001
  6
CONTINUOUS
 62
    4
 10
1739.4969999999998
 20
1075.4847
 11
1739.4969999999998
 21
1077.5422000000001
  0
LINE
  8
_0-0_LAYER001
  6
CONTINUOUS
 62
    4
 10
1739.4969999999998
 20
1077.5422000000001
 11
1739.4969999999998
 21
1078.3003000000001
  0
LINE
  8
_0-0_LAYER001
  6
CONTINUOUS
 62
    4
 10
1739.4969999999998
 20
1078.3003000000001
 11
1741.1641
 21
1078.8864000000001
  0
LINE
  8
_0-0_LAYER001
  6
CONTINUOUS
 62
    4
 10
1741.1641
 20
1078.8864000000001
 11
1745.8665999999998
 21
1080.4843000000001
  0
LINE
  8
_0-0_LAYER001
  6
CONTINUOUS
 62
    4
 10
1745.8665999999998
 20
1080.4843000000001
 11
1753.1563000000001
 21
1082.8533
  0
LINE
  8
_0-0_LAYER001
  6
CONTINUOUS
 62
    4
 10
1753.1563000000001
 20
1082.8533
 11
1762.585
 21
1085.7527
  0
LINE
  8
_0-0_LAYER001
  6
CONTINUOUS
 62
    4
 10
1762.585
 20
1085.7527
 11
1773.7046
 21
1088.9417000000001
  0
LINE
  8
_0-0_LAYER001
  6
CONTINUOUS
 62
    4
 10
1773.7046
 20
1088.9417000000001
 11
1786.067
 21
1092.1795999999999
  0
LINE
  8
_0-0_LAYER001
  6
CONTINUOUS
 62
    4
 10
1786.067
 20
1092.1795999999999
 11
1799.2239
 21
1095.2257
  0
LINE
  8
_0-0_LAYER001
  6
CONTINUOUS
 62
    4
 10
1799.2239
 20
1095.2257
 11
1812.7271999999998
 21
1097.8393000000001
  0
LINE
  8
_0-0_LAYER001
  6
CONTINUOUS
 62
    4
 10
1812.7271999999998
 20
1097.8393000000001
 11
1826.1288
 21
1099.7796000000001
  0
LINE
  8
_0-0_LAYER001
  6
CONTINUOUS
 62
    4
 10
1838.9803999999999
 20
1100.806
 11
1826.0164
 21
1099.7634
  0
LINE
  8
_0-1_LAYER003
  6
CONTINUOUS
 62
    2
 10
1765.1439999999998
 20
1090.4093
 11
1770.2141000000001
 21
1096.499
  0
LINE
  8
_0-0_LAYER001
  6
CONTINUOUS
 62
    2
 10
1765.692
 20
1190.2212
 11
1765.692
 21
1143.5317
  0
CIRCLE
  8
_0-0_LAYER001
  6
CONTINUOUS
 62
    2
 10
1765.692
 20
1187.7212
 40
1.6999999999999997
  0
LINE
  8
_0-0_LAYER001
  6
CONTINUOUS
 62
    2
 10
1765.692
 20
1187.7212
 11
1840.692
 21
1187.7212
  0
CIRCLE
  8
_0-0_LAYER001
  6
CONTINUOUS
 62
    2
 10
1840.692
 20
1187.7212
 40
1.6999999999999997
  0
LINE
  8
_0-0_LAYER001
  6
CONTINUOUS
 62
    2
 10
1840.692
 20
1190.2212
 11
1840.692
 21
1172.7212
  0
LINE
  8
_0-0_LAYER001
  6
CONTINUOUS
 62
    2
 10
1853.355
 20
1078.1990000000001
 11
1846.8013000000001
 21
1069.2545
  0
LINE
  8
_0-4_LAYER006
  6
CONTINUOUS
 62
    2
 10
1845.692
 20
1105.6949999999999
 11
1845.692
 21
1078.1990000000001
  0
LINE
  8
_0-4_LAYER006
  6
CONTINUOUS
 62
    2
 10
1845.692
 20
1078.1990000000001
 11
1875.692
 21
1078.1990000000001
  0
LINE
  8
_0-4_LAYER006
  6
CONTINUOUS
 62
    2
 10
1875.692
 20
1078.1990000000001
 11
1875.692
 21
1108.1990000000001
  0
LINE
  8
_0-4_LAYER006
  6
CONTINUOUS
 62
    2
 10
1875.692
 20
1108.1990000000001
 11
1845.692
 21
1078.1990000000001
  0
LINE
  8
_0-0_LAYER001
  6
CONTINUOUS
 62
    2
 10
1855.886
 20
1078.1990000000001
 11
1870.886
 21
965.43460000000005
  0
LINE
  8
_0-0_LAYER001
  6
CONTINUOUS
 62
    2
 10
1772.837
 20
1068.3443
 11
1771.8193000000001
 21
1059.1848
  0
ARC
  8
_0-0_LAYER001
  6
CONTINUOUS
 62
    2
 10
1655.2944000000002
 20
1036.0612000000001
 40
115.76602
 50
343.66350999999992
 51
1.6742919999999397
  0
LINE
  8
_0-0_LAYER001
  6
CONTINUOUS
 62
    2
 10
2103.5515
 20
961.18859999999995
 11
2051.0515
 21
961.18859999999995
  0
CIRCLE
  8
_0-0_LAYER001
  6
CONTINUOUS
 62
    2
 10
2101.0515
 20
961.18859999999995
 40
1.6999999999999997
  0
LINE
  8
_0-0_LAYER001
  6
CONTINUOUS
 62
    2
 10
2101.0515
 20
961.18859999999995
 11
2101.0515
 21
1127.98
  0
CIRCLE
  8
_0-0_LAYER001
  6
CONTINUOUS
 62
    2
 10
2101.0515
 20
1127.98
 40
1.6999999999999997
  0
LINE
  8
_0-0_LAYER001
  6
CONTINUOUS
 62
    2
 10
2103.5515
 20
1127.98
 11
2051.0515
 21
1127.98
  0
CIRCLE
  8
_0-0_LAYER001
  6
CONTINUOUS
 62
    2
 10
2101.0515
 20
1127.98
 40
1.6999999999999997
  0
LINE
  8
_0-0_LAYER001
  6
CONTINUOUS
 62
    2
 10
2101.0515
 20
1127.98
 11
2101.0515
 21
1277.98
  0
CIRCLE
  8
_0-0_LAYER001
  6
CONTINUOUS
 62
    2
 10
2101.0515
 20
1277.98
 40
1.6999999999999997
  0
LINE
  8
_0-0_LAYER001
  6
CONTINUOUS
 62
    2
 10
2103.5515
 20
1277.98
 11
2051.0515
 21
1277.98
  0
LINE
  8
_0-0_LAYER001
  6
CONTINUOUS
 62
    2
 10
1959.7763
 20
961.18859999999995
 11
1932.2763
 21
961.18859999999995
  0
CIRCLE
  8
_0-0_LAYER001
  6
CONTINUOUS
 62
    2
 10
1957.2763
 20
961.18859999999995
 40
1.6999999999999997
  0
LINE
  8
_0-0_LAYER001
  6
CONTINUOUS
 62
    2
 10
1957.2763
 20
961.18859999999995
 11
1957.2763
 21
1078.1990000000001
  0
CIRCLE
  8
_0-0_LAYER001
  6
CONTINUOUS
 62
    2
 10
1957.2763
 20
1078.1990000000001
 40
1.6999999999999997
  0
LINE
  8
_0-0_LAYER001
  6
CONTINUOUS
 62
    2
 10
1959.7763
 20
1078.1990000000001
 11
1932.2763
 21
1078.1990000000001
  0
LINE
  8
_0-0_LAYER001
  6
CONTINUOUS
 62
    2
 10
1843.4908999999998
 20
1338.0150000000001
 11
1845.4319999999998
 21
1330.7706000000003
  0
LINE
  8
_0-0_LAYER001
  6
CONTINUOUS
 62
    2
 10
1845.4319999999998
 20
1330.7706000000003
 11
1840.1287000000002
 21
1336.0739000000001
  0
LINE
  8
_0-0_LAYER001
  6
CONTINUOUS
 62
    2
 10
1845.4319999999998
 20
1330.7706000000003
 11
1795.2763
 21
1417.6429000000003
  0
LINE
  8
_0-0_LAYER001
  6
CONTINUOUS
 62
    2
 10
1795.2763
 20
1417.6429000000003
 11
1622.7763
 21
1417.6429000000003
  0
LINE
  8
_0-0_LAYER001
  6
CONTINUOUS
 62
    2
 10
1860.9063000000001
 20
1173.6193000000001
 11
1862.8474999999999
 21
1166.3748000000001
  0
LINE
  8
_0-0_LAYER001
  6
CONTINUOUS
 62
    2
 10
1862.8474999999999
 20
1166.3748000000001
 11
1857.5441999999998
 21
1171.6781000000001
  0
LINE
  8
_0-0_LAYER001
  6
CONTINUOUS
 62
    2
 10
1862.8474999999999
 20
1166.3748000000001
 11
1761.6388000000002
 21
1341.6732999999999
  0
LINE
  8
_0-0_LAYER001
  6
CONTINUOUS
 62
    2
 10
1761.6388000000002
 20
1341.6732999999999
 11
1721.1388000000002
 21
1341.6732999999999
  0
LINE
  8
_0-0_LAYER001
  6
CONTINUOUS
 62
    2
 10
1807.6372000000001
 20
1123.7723000000001
 11
1809.5783999999999
 21
1116.5279
  0
LINE
  8
_0-0_LAYER001
  6
CONTINUOUS
 62
    2
 10
1809.5783999999999
 20
1116.5279
 11
1804.2750999999998
 21
1121.8312000000001
  0
LINE
  8
_0-0_LAYER001
  6
CONTINUOUS
 62
    2
 10
1809.5783999999999
 20
1116.5279
 11
1726.3825999999999
 21
1260.6270999999999
  0
LINE
  8
_0-0_LAYER001
  6
CONTINUOUS
 62
    2
 10
1726.3825999999999
 20
1260.6270999999999
 11
1492.3825999999999
 21
1260.6270999999999
  0
LINE
  8
_0-0_LAYER001
  6
CONTINUOUS
 62
    2
 10
1762.9911999999999
 20
1085.4888000000001
 11
1764.9324000000001
 21
1078.2444
  0
LINE
  8
_0-0_LAYER001
  6
CONTINUOUS
 62
    2
 10
1764.9324000000001
 20
1078.2444
 11
1759.6291000000001
 21
1083.5477000000001
  0
LINE
  8
_0-0_LAYER001
  6
CONTINUOUS
 62
    2
 10
1764.9324000000001
 20
1078.2444
 11
1677.9661000000001
 21
1228.8742999999999
  0
LINE
  8
_0-0_LAYER001
  6
CONTINUOUS
 62
    2
 10
1677.9661000000001
 20
1228.8742999999999
 11
1563.9661000000001
 21
1228.8742999999999
  0
LINE
  8
_0-0_LAYER001
  6
CONTINUOUS
 62
    2
 10
1866.4317000000001
 20
995.04009999999994
 11
1864.4906000000001
 21
1002.2846
  0
LINE
  8
_0-0_LAYER001
  6
CONTINUOUS
 62
    2
 10
1864.4906000000001
 20
1002.2846
 11
1869.7939000000001
 21
996.98129999999992
  0
LINE
  8
_0-0_LAYER001
  6
CONTINUOUS
 62
    2
 10
1864.4906000000001
 20
1002.2846
 11
1925.3355000000001
 21
896.89810000000011
  0
LINE
  8
_0-0_LAYER001
  6
CONTINUOUS
 62
    2
 10
1925.3355000000001
 20
896.89810000000011
 11
2088.8355000000001
 21
896.89810000000011
  0
LINE
  8
_0-0_LAYER001
  6
CONTINUOUS
 62
    2
 10
1875.692
 20
1108.1990000000001
 11
1859.2537000000002
 21
1108.1990000000001
  0
LINE
  8
_0-4_LAYER006
  6
CONTINUOUS
 62
    2
 10
1864.5569999999998
 20
1101.7443000000001
 11
1859.2537000000002
 21
1096.441
  0
LINE
  8
_0-4_LAYER006
  6
CONTINUOUS
 62
    2
 10
1859.2537000000002
 20
1096.441
 11
1861.1948000000002
 21
1103.6855
  0
LINE
  8
_0-4_LAYER006
  6
CONTINUOUS
 62
    2
 10
1859.2537000000002
 20
1096.441
 11
1897.5515
 21
1162.7747999999999
  0
LINE
  8
_0-4_LAYER006
  6
CONTINUOUS
 62
    2
 10
1897.5515
 20
1162.7747999999999
 11
1978.5515
 21
1162.7747999999999
  0
LINE
  8
_0-0_LAYER001
  6
CONTINUOUS
 62
    2
 10
1830.6266999999998
 20
1099.8400999999999
 11
1848.5938000000001
 21
1103.7704000000001
  0
LINE
  8
_0-0_LAYER001
  6
CONTINUOUS
 62
    2
 10
1830.6266999999998
 20
1099.8400999999999
 11
1830.6266999999998
 21
1082.9960000000001
  0
LINE
  8
_0-0_LAYER001
  6
CONTINUOUS
 62
    2
 10
1830.6266999999998
 20
1082.9960000000001
 11
1848.2195000000002
 21
1083.5573999999999
  0
LINE
  8
_0-0_LAYER001
  6
CONTINUOUS
 62
    2
 10
1820.5201999999999
 20
1068.3977
 11
1848.2195000000002
 21
1083.5573999999999
  0
LINE
  8
_0-0_LAYER001
  6
CONTINUOUS
 62
    2
 10
1820.5201999999999
 20
1068.3977
 11
1820.5201999999999
 21
1050.4305999999999
  0
LINE
  8
_0-0_LAYER001
  6
CONTINUOUS
 62
    2
 10
1820.5201999999999
 20
1050.4305999999999
 11
1827.3364999999999
 21
1051.8581999999999
  0
LINE
  8
_0-0_LAYER001
  6
CONTINUOUS
 62
    2
 10
1827.3364999999999
 20
1051.8581999999999
 11
1851.0268999999998
 21
1079.4400000000001
  0
LINE
  8
_0-0_LAYER001
  6
CONTINUOUS
 62
    2
 10
1848.5938000000001
 20
1103.7704000000001
 11
1848.5938000000001
 21
1083.5573999999999
  0
LINE
  8
_0-0_LAYER001
  6
CONTINUOUS
 62
    2
 10
1848.2195000000002
 20
1083.5573999999999
 11
1851.0268999999998
 21
1079.4400000000001
  0
LINE
  8
_0-0_LAYER001
  6
CONTINUOUS
 62
    2
 10
1177.5377000000001
 20
694.72360000000003
 11
1005.8662999999999
 21
694.72360000000003
  0
LINE
  8
_0-0_LAYER001
  6
CONTINUOUS
 62
    2
 10
1194.9132
 20
724.81889999999999
 11
958.72489999999993
 21
724.81889999999999
  0
LINE
  8
_0-0_LAYER001
  6
CONTINUOUS
 62
    2
 10
1160.2942
 20
664.85699999999997
 11
1097.7192
 21
664.85699999999997
  0
LINE
  8
_0-0_LAYER001
  6
CONTINUOUS
 62
    2
 10
1839.0942
 20
1121.2637999999999
 11
1841.0354000000002
 21
1114.0193999999999
  0
LINE
  8
_0-0_LAYER001
  6
CONTINUOUS
 62
    2
 10
1841.0354000000002
 20
1114.0193999999999
 11
1835.7321000000002
 21
1119.3226999999999
  0
LINE
  8
_0-0_LAYER001
  6
CONTINUOUS
 62
    2
 10
1841.0354000000002
 20
1114.0193999999999
 11
1737.2923999999998
 21
1293.7074000000002
  0
LINE
  8
_0-0_LAYER001
  6
CONTINUOUS
 62
    2
 10
1737.2923999999998
 20
1293.7074000000002
 11
1590.2923999999998
 21
1293.7074000000002
  0
LINE
  8
_0-0_LAYER001
  6
CONTINUOUS
 62
    2
 10
1774.7456000000002
 20
1032.2822000000001
 11
1776.6867999999999
 21
1025.0378000000001
  0
LINE
  8
_0-0_LAYER001
  6
CONTINUOUS
 62
    2
 10
1776.6867999999999
 20
1025.0378000000001
 11
1771.3834999999999
 21
1030.3411000000001
  0
LINE
  8
_0-0_LAYER001
  6
CONTINUOUS
 62
    2
 10
1776.6867999999999
 20
1025.0378000000001
 11
1680.5453000000002
 21
1191.5598
  0
LINE
  8
_0-0_LAYER001
  6
CONTINUOUS
 62
    2
 10
1680.5453000000002
 20
1191.5598
 11
1603.2957000000001
 21
1191.5598
  0
LINE
  8
_0-0_LAYER001
  6
CONTINUOUS
 62
    2
 10
1336.2311
 20
973.47090000000003
 11
1341.5344
 21
978.77420000000006
  0
LINE
  8
_0-0_LAYER001
  6
CONTINUOUS
 62
    2
 10
1341.5344
 20
978.77420000000006
 11
1339.5933
 21
971.52980000000002
  0
LINE
  8
_0-0_LAYER001
  6
CONTINUOUS
 62
    2
 10
1341.5344
 20
978.77420000000006
 11
1160.2942
 21
664.85699999999997
  0
LINE
  8
_0-0_LAYER001
  6
CONTINUOUS
 62
    2
 10
1212.2227
 20
754.79989999999998
 11
1007.6116
 21
754.79989999999998
  0
ARC
  8
_0-0_LAYER001
  6
CONTINUOUS
 62
    4
 10
974.81050000000005
 20
1193.9074000000001
 40
214.38050999999999
 50
233.32691000000005
 51
268.38173000000006
  0
ARC
  8
_0-0_LAYER001
  6
CONTINUOUS
 62
    4
 10
1029.2797
 20
1010.4049
 40
52.178303999999997
 50
215.53766999999999
 51
234.46232000000001
  0
ARC
  8
_0-0_LAYER001
  6
CONTINUOUS
 62
    4
 10
1002.951
 20
972.7011
 40
6.2695089999999993
 50
234.10575000000003
 51
303.29033000000004
  0
ARC
  8
_0-0_LAYER001
  6
CONTINUOUS
 62
    4
 10
971.49019999999996
 20
1016.7071000000001
 40
58.841383
 50
213.2508
 51
234.31144
  0
ARC
  8
_0-0_LAYER001
  6
CONTINUOUS
 62
    4
 10
941.61460000000011
 20
975.5498
 40
7.947610000000001
 50
234.52014000000003
 51
301.23766000000001
  0
ARC
  8
_0-0_LAYER001
  6
CONTINUOUS
 62
    4
 10
925.11310000000003
 20
1008.0191
 40
44.132803000000003
 50
297.62160999999998
 51
318.23129999999998
  0
ARC
  8
_0-0_LAYER001
  6
CONTINUOUS
 62
    4
 10
974.81050000000005
 20
1193.9074000000001
 40
199.38050999999999
 50
231.7756
 51
268.38173
  0
ARC
  8
_0-0_LAYER001
  6
CONTINUOUS
 62
    4
 10
974.81050000000005
 20
1193.9074000000001
 40
199.38050999999999
 50
231.7756
 51
268.38173
  0
ARC
  8
_0-0_LAYER001
  6
CONTINUOUS
 62
    4
 10
974.81050000000005
 20
1193.9074000000001
 40
197.38050999999999
 50
231.7756
 51
268.38173
  0
ARC
  8
_0-0_LAYER001
  6
CONTINUOUS
 62
    4
 10
974.81050000000005
 20
1193.9074000000001
 40
182.38050999999999
 50
231.7756
 51
268.38173
  0
ARC
  8
_0-0_LAYER001
  6
CONTINUOUS
 62
    4
 10
974.81050000000005
 20
1193.9074000000001
 40
214.38050999999999
 50
233.32691000000005
 51
268.38173000000006
  0
ARC
  8
_0-0_LAYER001
  6
CONTINUOUS
 62
    4
 10
836.22460000000001
 20
1016.5144
 40
27.732966999999999
 50
54.176177000000003
 51
67.646315000000001
  0
ARC
  8
_0-0_LAYER001
  6
CONTINUOUS
 62
    4
 10
836.57249999999999
 20
1018.7878000000001
 40
40.679594999999999
 50
51.535313000000002
 51
75.479304000000013
  0
ARC
  8
_0-0_LAYER001
  6
CONTINUOUS
 62
    4
 10
836.21100000000001
 20
1016.0165
 40
26.213477999999995
 50
54.56426900000001
 51
66.241185999999999
  0
ARC
  8
_0-0_LAYER001
  6
CONTINUOUS
 62
    4
 10
951.42200000000003
 20
1010.5220999999999
 40
69.674484000000007
 50
321.65733
 51
337.34946000000002
  0
ARC
  8
_0-0_LAYER001
  6
CONTINUOUS
 62
    4
 10
965.26690000000008
 20
1286.7946000000002
 40
307.27562
 50
270.90795000000003
 51
293.21983
  0
ARC
  8
_0-0_LAYER001
  6
CONTINUOUS
 62
    4
 10
965.26690000000008
 20
1286.7946000000002
 40
275.27562
 50
270.90795000000003
 51
287.11988000000002
  0
ARC
  8
_0-0_LAYER001
  6
CONTINUOUS
 62
    4
 10
965.26690000000008
 20
1286.7946000000002
 40
292.27562
 50
270.90795000000003
 51
292.69346000000002
  0
LINE
  8
_0-0_LAYER001
  6
CONTINUOUS
 62
    4
 10
1078.0271
 20
1019.5710999999999
 11
1078.0271
 21
1017.1464000000001
  0
LINE
  8
_0-0_LAYER001
  6
CONTINUOUS
 62
    4
 10
1086.4133999999999
 20
1004.4087
 11
1086.4133999999999
 21
1022.7159999999999
  0
LINE
  8
_0-0_LAYER001
  6
CONTINUOUS
 62
    4
 10
1078.0271
 20
1019.5710999999999
 11
1086.4133999999999
 21
1022.7159999999999
  0
ARC
  8
_0-0_LAYER001
  6
CONTINUOUS
 62
    4
 10
965.26690000000008
 20
1286.7946000000002
 40
290.27562
 50
270.90795000000003
 51
286.23334
  0
LINE
  8
_0-0_LAYER001
  6
CONTINUOUS
 62
    4
 10
1046.4133999999999
 20
1008.0920000000001
 11
1046.4133999999999
 21
1023.7511
  0
ARC
  8
_0-0_LAYER001
  6
CONTINUOUS
 62
    4
 10
1229.6974
 20
1193.511
 40
214.38050999999999
 50
231.7756
 51
268.38173
  0
LINE
  8
_0-0_LAYER001
  6
CONTINUOUS
 62
    4
 10
1050.3058000000001
 20
1009.1058
 11
1086.4957999999999
 21
1025.2619999999999
  0
ARC
  8
_0-0_LAYER001
  6
CONTINUOUS
 62
    4
 10
1284.1666
 20
1010.0084999999999
 40
52.178303999999997
 50
215.53766999999999
 51
234.46232000000001
  0
ARC
  8
_0-0_LAYER001
  6
CONTINUOUS
 62
    4
 10
1257.8379
 20
972.30469999999991
 40
6.2695089999999993
 50
234.10575000000003
 51
303.29033000000004
  0
ARC
  8
_0-0_LAYER001
  6
CONTINUOUS
 62
    4
 10
1226.3771999999999
 20
1016.3108
 40
58.841383
 50
213.2508
 51
234.31144
  0
ARC
  8
_0-0_LAYER001
  6
CONTINUOUS
 62
    4
 10
1196.5015000000001
 20
975.15339999999992
 40
7.947610000000001
 50
234.52014000000003
 51
301.23766000000001
  0
ARC
  8
_0-0_LAYER001
  6
CONTINUOUS
 62
    4
 10
1180
 20
1007.6226999999999
 40
44.132803000000003
 50
297.62160999999998
 51
318.23129999999998
  0
LINE
  8
_0-0_LAYER001
  6
CONTINUOUS
 62
    4
 10
1050.3058000000001
 20
1007.6858999999999
 11
1046.3004000000001
 21
1005.8039000000001
  0
LINE
  8
_0-0_LAYER001
  6
CONTINUOUS
 62
    4
 10
1050.3058000000001
 20
1009.1058
 11
1050.3058000000001
 21
1007.6858999999999
  0
LINE
  8
_0-0_LAYER001
  6
CONTINUOUS
 62
    4
 10
1049.7801999999999
 20
1025.8497
 11
1046.4173000000001
 21
1024.5235
  0
LINE
  8
_0-0_LAYER001
  6
CONTINUOUS
 62
    4
 10
1049.7801999999999
 20
1027.3384000000001
 11
1049.7801999999999
 21
1025.8497
  0
ARC
  8
_0-0_LAYER001
  6
CONTINUOUS
 62
    4
 10
1229.6974
 20
1193.511
 40
199.38050999999999
 50
231.7756
 51
268.38173
  0
ARC
  8
_0-0_LAYER001
  6
CONTINUOUS
 62
    4
 10
1229.6974
 20
1193.511
 40
199.38050999999999
 50
231.7756
 51
268.38173
  0
ARC
  8
_0-0_LAYER001
  6
CONTINUOUS
 62
    4
 10
1229.6974
 20
1193.511
 40
197.38050999999999
 50
231.7756
 51
268.38173
  0
LINE
  8
_0-0_LAYER001
  6
CONTINUOUS
 62
    4
 10
1050.0352
 20
1027.5627999999999
 11
1080.3152
 21
1041.6102000000001
  0
LINE
  8
_0-0_LAYER001
  6
CONTINUOUS
 62
    4
 10
1081.5637999999999
 20
1040.0494000000001
 11
1046.9136000000001
 21
1024.4412
  0
ARC
  8
_0-0_LAYER001
  6
CONTINUOUS
 62
    4
 10
1229.6974
 20
1193.511
 40
182.38050999999999
 50
231.7756
 51
268.38173
  0
LINE
  8
_0-0_LAYER001
  6
CONTINUOUS
 62
    4
 10
1046.3004000000001
 20
1005.8039000000001
 11
1046.3004000000001
 21
1042.3657000000001
  0
LINE
  8
_0-0_LAYER001
  6
CONTINUOUS
 62
    4
 10
1046.3004000000001
 20
1042.3657000000001
 11
1074.0026
 21
1055.2173
  0
ARC
  8
_0-0_LAYER001
  6
CONTINUOUS
 62
    4
 10
1229.6974
 20
1193.511
 40
214.38050999999999
 50
231.7756
 51
268.38173
  0
ARC
  8
_0-0_LAYER001
  6
CONTINUOUS
 62
    4
 10
1091.1115
 20
1016.1179999999999
 40
27.732966999999999
 50
54.176177000000003
 51
112.93031000000001
  0
ARC
  8
_0-0_LAYER001
  6
CONTINUOUS
 62
    4
 10
1091.4594
 20
1018.3914
 40
40.679594999999999
 50
51.535313000000002
 51
115.27963000000001
  0
ARC
  8
_0-0_LAYER001
  6
CONTINUOUS
 62
    4
 10
1091.098
 20
1015.6201000000001
 40
26.213477999999995
 50
54.56426900000001
 51
111.2666
  0
ARC
  8
_0-0_LAYER001
  6
CONTINUOUS
 62
    4
 10
1091.6088
 20
1013.1587
 40
13.076713
 50
65.553432000000001
 51
112.83269999999999
  0
ARC
  8
_0-0_LAYER001
  6
CONTINUOUS
 62
    4
 10
1206.3089
 20
1010.1258
 40
69.674484000000007
 50
321.65733
 51
337.34946000000002
  0
ARC
  8
_0-0_LAYER001
  6
CONTINUOUS
 62
    4
 10
1220.1538
 20
1286.3983000000003
 40
307.27562
 50
270.90795000000003
 51
293.21983
  0
ARC
  8
_0-0_LAYER001
  6
CONTINUOUS
 62
    4
 10
1220.1538
 20
1286.3983000000003
 40
275.27562
 50
270.90795000000003
 51
287.11988000000002
  0
ARC
  8
_0-0_LAYER001
  6
CONTINUOUS
 62
    4
 10
1220.1538
 20
1286.3983000000003
 40
292.27562
 50
270.90795000000003
 51
292.69346000000002
  0
ARC
  8
_0-0_LAYER001
  6
CONTINUOUS
 62
    4
 10
1220.1538
 20
1286.3983000000003
 40
290.27562
 50
270.90795000000003
 51
286.23334
  0
ARC
  8
_0-0_LAYER001
  6
CONTINUOUS
 62
    4
 10
1484.3332999999998
 20
1195.9473
 40
214.38050999999999
 50
231.7756
 51
268.38173
  0
LINE
  8
_0-0_LAYER001
  6
CONTINUOUS
 62
    4
 10
1304.9416000000001
 20
1011.5419999999999
 11
1341.1315999999999
 21
1027.6983
  0
ARC
  8
_0-0_LAYER001
  6
CONTINUOUS
 62
    4
 10
1538.8024999999998
 20
1012.4448
 40
52.178303999999997
 50
215.53766999999999
 51
234.46232000000001
  0
ARC
  8
_0-0_LAYER001
  6
CONTINUOUS
 62
    4
 10
1512.4737
 20
974.74099999999999
 40
6.2695089999999993
 50
234.10575000000003
 51
303.29033000000004
  0
ARC
  8
_0-0_LAYER001
  6
CONTINUOUS
 62
    4
 10
1481.0129999999999
 20
1018.7470000000001
 40
58.841383
 50
213.2508
 51
234.31144
  0
ARC
  8
_0-0_LAYER001
  6
CONTINUOUS
 62
    4
 10
1451.1372999999999
 20
977.58969999999999
 40
7.947610000000001
 50
234.52014000000003
 51
301.23766000000001
  0
ARC
  8
_0-0_LAYER001
  6
CONTINUOUS
 62
    4
 10
1434.6358
 20
1010.059
 40
44.132803000000003
 50
297.62160999999998
 51
318.23129999999998
  0
LINE
  8
_0-0_LAYER001
  6
CONTINUOUS
 62
    4
 10
1304.9416000000001
 20
1010.1222
 11
1300.9362000000001
 21
1008.2401
  0
LINE
  8
_0-0_LAYER001
  6
CONTINUOUS
 62
    4
 10
1304.9416000000001
 20
1011.5419999999999
 11
1304.9416000000001
 21
1010.1222
  0
LINE
  8
_0-0_LAYER001
  6
CONTINUOUS
 62
    4
 10
1304.4160999999999
 20
1028.2860000000001
 11
1301.0531000000001
 21
1026.9598000000001
  0
LINE
  8
_0-0_LAYER001
  6
CONTINUOUS
 62
    4
 10
1304.4160999999999
 20
1029.7746999999999
 11
1304.4160999999999
 21
1028.2860000000001
  0
ARC
  8
_0-0_LAYER001
  6
CONTINUOUS
 62
    4
 10
1484.3332999999998
 20
1195.9473
 40
199.38050999999999
 50
231.7756
 51
268.38173
  0
ARC
  8
_0-0_LAYER001
  6
CONTINUOUS
 62
    4
 10
1484.3332999999998
 20
1195.9473
 40
199.38050999999999
 50
231.7756
 51
268.38173
  0
ARC
  8
_0-0_LAYER001
  6
CONTINUOUS
 62
    4
 10
1484.3332999999998
 20
1195.9473
 40
197.38050999999999
 50
231.7756
 51
268.38173
  0
LINE
  8
_0-0_LAYER001
  6
CONTINUOUS
 62
    4
 10
1304.6711
 20
1029.9991
 11
1334.951
 21
1044.0464999999999
  0
LINE
  8
_0-0_LAYER001
  6
CONTINUOUS
 62
    4
 10
1336.1996999999999
 20
1042.4857
 11
1301.5494000000001
 21
1026.8775000000001
  0
ARC
  8
_0-0_LAYER001
  6
CONTINUOUS
 62
    4
 10
1484.3332999999998
 20
1195.9473
 40
182.38050999999999
 50
231.7756
 51
268.38173
  0
LINE
  8
_0-0_LAYER001
  6
CONTINUOUS
 62
    4
 10
1300.9362000000001
 20
1008.2401
 11
1300.9362000000001
 21
1044.8019999999999
  0
LINE
  8
_0-0_LAYER001
  6
CONTINUOUS
 62
    4
 10
1300.9362000000001
 20
1044.8019999999999
 11
1328.6385
 21
1057.6536000000001
  0
ARC
  8
_0-0_LAYER001
  6
CONTINUOUS
 62
    4
 10
1484.3332999999998
 20
1195.9473
 40
214.38050999999999
 50
231.7756
 51
268.38173
  0
ARC
  8
_0-0_LAYER001
  6
CONTINUOUS
 62
    4
 10
1345.7473
 20
1018.5543
 40
27.732966999999999
 50
54.176177000000003
 51
112.93031000000001
  0
ARC
  8
_0-0_LAYER001
  6
CONTINUOUS
 62
    4
 10
1346.0952
 20
1020.8277
 40
40.679594999999999
 50
51.535313000000002
 51
115.27963000000001
  0
ARC
  8
_0-0_LAYER001
  6
CONTINUOUS
 62
    4
 10
1345.7338
 20
1018.0563999999999
 40
26.213477999999995
 50
54.56426900000001
 51
111.2666
  0
ARC
  8
_0-0_LAYER001
  6
CONTINUOUS
 62
    4
 10
1346.2446
 20
1015.595
 40
13.076713
 50
65.553432000000001
 51
112.83269999999999
  0
ARC
  8
_0-0_LAYER001
  6
CONTINUOUS
 62
    4
 10
1460.9447
 20
1012.5621000000001
 40
69.674484000000007
 50
321.65733
 51
337.34946000000002
  0
ARC
  8
_0-0_LAYER001
  6
CONTINUOUS
 62
    4
 10
1474.7896999999998
 20
1288.8345999999999
 40
307.27562
 50
270.90795000000003
 51
293.21983
  0
ARC
  8
_0-0_LAYER001
  6
CONTINUOUS
 62
    4
 10
1739.2202000000002
 20
1195.9590000000001
 40
214.38050999999999
 50
231.7756
 51
268.38173
  0
LINE
  8
_0-0_LAYER001
  6
CONTINUOUS
 62
    4
 10
1559.8285000000001
 20
1011.5537999999999
 11
1596.0185999999999
 21
1027.7101
  0
ARC
  8
_0-0_LAYER001
  6
CONTINUOUS
 62
    4
 10
1793.6894000000002
 20
1012.4566
 40
52.178303999999997
 50
215.53766999999999
 51
234.46232000000001
  0
ARC
  8
_0-0_LAYER001
  6
CONTINUOUS
 62
    4
 10
1767.3606
 20
974.75279999999998
 40
6.2695089999999993
 50
234.10575000000003
 51
303.29033000000004
  0
ARC
  8
_0-0_LAYER001
  6
CONTINUOUS
 62
    4
 10
1735.8998999999999
 20
1018.7588000000001
 40
58.841383
 50
213.2508
 51
234.31144
  0
ARC
  8
_0-0_LAYER001
  6
CONTINUOUS
 62
    4
 10
1706.0243
 20
977.60149999999999
 40
7.947610000000001
 50
234.52014000000003
 51
301.23766000000001
  0
ARC
  8
_0-0_LAYER001
  6
CONTINUOUS
 62
    4
 10
1689.5227
 20
1010.0707
 40
44.132803000000003
 50
297.62160999999998
 51
318.23129999999998
  0
LINE
  8
_0-0_LAYER001
  6
CONTINUOUS
 62
    4
 10
1850.1577000000002
 20
1044.4117000000001
 11
1842.4367999999999
 21
1041.4091000000001
  0
LINE
  8
_0-0_LAYER001
  6
CONTINUOUS
 62
    4
 10
1559.8285000000001
 20
1011.5537999999999
 11
1559.8285000000001
 21
1010.134
  0
LINE
  8
_0-0_LAYER001
  6
CONTINUOUS
 62
    4
 10
1559.3029999999999
 20
1028.2977000000001
 11
1555.9400000000001
 21
1026.9715000000001
  0
LINE
  8
_0-0_LAYER001
  6
CONTINUOUS
 62
    4
 10
1559.3029999999999
 20
1029.7864
 11
1559.3029999999999
 21
1028.2977000000001
  0
ARC
  8
_0-0_LAYER001
  6
CONTINUOUS
 62
    4
 10
1739.2202000000002
 20
1195.9590000000001
 40
199.38050999999999
 50
231.7756
 51
268.38173
  0
ARC
  8
_0-0_LAYER001
  6
CONTINUOUS
 62
    4
 10
1739.2202000000002
 20
1195.9590000000001
 40
199.38050999999999
 50
231.7756
 51
268.38173
  0
ARC
  8
_0-0_LAYER001
  6
CONTINUOUS
 62
    4
 10
1739.2202000000002
 20
1195.9590000000001
 40
197.38050999999999
 50
231.7756
 51
268.38173
  0
LINE
  8
_0-0_LAYER001
  6
CONTINUOUS
 62
    4
 10
1559.558
 20
1030.0109
 11
1589.8379
 21
1044.0582999999999
  0
ARC
  8
_0-0_LAYER001
  6
CONTINUOUS
 62
    4
 10
1739.2202000000002
 20
1195.9590000000001
 40
182.38050999999999
 50
231.7756
 51
268.38173
  0
LINE
  8
_0-0_LAYER001
  6
CONTINUOUS
 62
    4
 10
1555.8231000000001
 20
1044.8136999999999
 11
1583.5254
 21
1057.6652999999999
  0
ARC
  8
_0-0_LAYER001
  6
CONTINUOUS
 62
    4
 10
1739.2202000000002
 20
1195.9590000000001
 40
214.38050999999999
 50
231.7756
 51
268.38173
  0
ARC
  8
_0-0_LAYER001
  6
CONTINUOUS
 62
    4
 10
1600.6342
 20
1018.5661
 40
27.732966999999999
 50
54.176177000000003
 51
112.93031000000001
  0
ARC
  8
_0-0_LAYER001
  6
CONTINUOUS
 62
    4
 10
1600.9821000000002
 20
1020.8394000000001
 40
40.679594999999999
 50
51.535313000000002
 51
115.27963000000001
  0
ARC
  8
_0-0_LAYER001
  6
CONTINUOUS
 62
    4
 10
1600.6206999999999
 20
1018.0681999999999
 40
26.213477999999995
 50
54.56426900000001
 51
111.2666
  0
ARC
  8
_0-0_LAYER001
  6
CONTINUOUS
 62
    4
 10
1601.1315
 20
1015.6068
 40
13.076713
 50
65.553432000000001
 51
112.83269999999999
  0
LINE
  8
_0-0_LAYER001
  6
CONTINUOUS
 62
    4
 10
1810.8231000000001
 20
1010.1437000000001
 11
1810.8231000000001
 21
1025.8027999999999
  0
ARC
  8
_0-0_LAYER001
  6
CONTINUOUS
 62
    4
 10
1729.6765999999998
 20
1288.8462999999999
 40
290.27562
 50
270.90795000000003
 51
294.66739000000001
  0
ARC
  8
_0-0_LAYER001
  6
CONTINUOUS
 62
    4
 10
1729.6765999999998
 20
1288.8462999999999
 40
275.27562
 50
270.90795000000003
 51
294.18137000000002
  0
LINE
  8
_0-0_LAYER001
  6
CONTINUOUS
 62
    4
 10
1842.4367999999999
 20
1041.4091000000001
 11
1842.4367999999999
 21
1037.7252000000001
  0
ARC
  8
_0-0_LAYER001
  6
CONTINUOUS
 62
    4
 10
1729.6765999999998
 20
1288.8462999999999
 40
292.27562
 50
270.90795000000003
 51
294.48746
  0
ARC
  8
_0-0_LAYER001
  6
CONTINUOUS
 62
    4
 10
1715.8316
 20
1012.5737999999999
 40
69.674484000000007
 50
321.65733
 51
337.34946000000002
  0
ARC
  8
_0-0_LAYER001
  6
CONTINUOUS
 62
    4
 10
1729.6765999999998
 20
1288.8462999999999
 40
307.27562
 50
270.90795000000003
 51
293.21983
  0
LINE
  8
_0-0_LAYER001
  6
CONTINUOUS
 62
    4
 10
1850.8231000000001
 20
1006.4603999999999
 11
1850.8231000000001
 21
1044.8136999999999
  0
ARC
  8
_0-0_LAYER001
  6
CONTINUOUS
 62
    4
 10
1474.7896999999998
 20
1288.8345999999999
 40
275.27562
 50
270.90795000000003
 51
287.11988000000002
  0
ARC
  8
_0-0_LAYER001
  6
CONTINUOUS
 62
    4
 10
1474.7896999999998
 20
1288.8345999999999
 40
290.27562
 50
270.90795000000003
 51
286.21008999999998
  0
LINE
  8
_0-0_LAYER001
  6
CONTINUOUS
 62
    4
 10
1555.8231000000001
 20
1010.0989999999999
 11
1555.8231000000001
 21
1044.8136999999999
  0
LINE
  8
_0-0_LAYER001
  6
CONTINUOUS
 62
    4
 10
1559.8285000000001
 20
1010.134
 11
1555.9362000000001
 21
1008.3050000000001
  0
LINE
  8
_0-0_LAYER001
  6
CONTINUOUS
 62
    4
 10
1555.9362000000001
 20
1008.3050000000001
 11
1555.9362000000001
 21
1025.7910999999999
  0
ARC
  8
_0-0_LAYER001
  6
CONTINUOUS
 62
    4
 10
1474.7896999999998
 20
1288.8345999999999
 40
292.27562
 50
270.90795000000003
 51
292.69346000000002
  0
LINE
  8
_0-0_LAYER001
  6
CONTINUOUS
 62
    4
 10
1587.5497999999998
 20
1021.6111000000001
 11
1587.5497999999998
 21
1019.1864
  0
LINE
  8
_0-0_LAYER001
  6
CONTINUOUS
 62
    4
 10
1595.9362000000001
 20
1006.4486999999999
 11
1595.9362000000001
 21
1024.7559000000001
  0
LINE
  8
_0-0_LAYER001
  6
CONTINUOUS
 62
    4
 10
1587.5497999999998
 20
1021.6111000000001
 11
1595.9362000000001
 21
1024.7559000000001
  0
LINE
  8
_0-0_LAYER001
  6
CONTINUOUS
 62
    4
 10
1556.2284
 20
1026.248
 11
1591.2745
 21
1042.6305
  0
LINE
  8
_0-0_LAYER001
  6
CONTINUOUS
 62
    4
 10
1333.0509999999999
 20
1019.2354
 11
1333.0509999999999
 21
1017.0503000000001
  0
LINE
  8
_0-0_LAYER001
  6
CONTINUOUS
 62
    4
 10
1333.0509999999999
 20
1019.8597
 11
1333.0509999999999
 21
1017.0503000000001
  0
LINE
  8
_0-0_LAYER001
  6
CONTINUOUS
 62
    4
 10
1333.0509999999999
 20
1020.1719000000001
 11
1341.1673000000001
 21
1023.2935
  0
LINE
  8
_0-0_LAYER001
  6
CONTINUOUS
 62
    4
 10
1341.1673000000001
 20
1004.5636999999999
 11
1341.1673000000001
 21
1023.2935
  0
LINE
  8
_0-0_LAYER001
  6
CONTINUOUS
 62
    2
 10
1046.3010999999999
 20
1175.8330000000001
 11
1046.3010999999999
 21
1123.3330000000001
  0
CIRCLE
  8
_0-0_LAYER001
  6
CONTINUOUS
 62
    2
 10
1046.3010999999999
 20
1173.3330000000001
 40
1.6999999999999997
  0
LINE
  8
_0-0_LAYER001
  6
CONTINUOUS
 62
    2
 10
1046.3010999999999
 20
1173.3330000000001
 11
1301.3011000000001
 21
1173.3330000000001
  0
CIRCLE
  8
_0-0_LAYER001
  6
CONTINUOUS
 62
    2
 10
1301.3011000000001
 20
1173.3330000000001
 40
1.6999999999999997
  0
LINE
  8
_0-0_LAYER001
  6
CONTINUOUS
 62
    2
 10
1301.3011000000001
 20
1175.8330000000001
 11
1301.3011000000001
 21
1123.3330000000001
  0
CIRCLE
  8
_0-0_LAYER001
  6
CONTINUOUS
 62
    2
 10
1301.3011000000001
 20
1173.3330000000001
 40
1.6999999999999997
  0
LINE
  8
_0-0_LAYER001
  6
CONTINUOUS
 62
    2
 10
1301.3011000000001
 20
1173.3330000000001
 11
1556.3011000000001
 21
1173.3330000000001
  0
CIRCLE
  8
_0-0_LAYER001
  6
CONTINUOUS
 62
    2
 10
1556.3011000000001
 20
1173.3330000000001
 40
1.6999999999999997
  0
LINE
  8
_0-0_LAYER001
  6
CONTINUOUS
 62
    2
 10
1556.3011000000001
 20
1175.8330000000001
 11
1556.3011000000001
 21
1123.3330000000001
  0
LINE
  8
_0-2_LAYER004
  6
CONTINUOUS
 62
    2
 10
1875.692
 20
1300.1446000000001
 11
1875.692
 21
883.4226000000001
  0
LINE
  8
_0-2_LAYER004
  6
CONTINUOUS
 62
    2
 10
1855.886
 20
965.43460000000005
 11
1855.886
 21
1078.1990000000001
  0
LINE
  8
_0-2_LAYER004
  6
CONTINUOUS
 62
    2
 10
1870.886
 20
1078.1990000000001
 11
1870.886
 21
965.43460000000005
  0
LINE
  8
_0-2_LAYER004
  6
CONTINUOUS
 62
    2
 10
846.77199999999993
 20
981.2043000000001
 11
1774.6617000000001
 21
981.2043000000001
  0
LINE
  8
_0-2_LAYER004
  6
CONTINUOUS
 62
    2
 10
846.77199999999993
 20
966.2043000000001
 11
1774.6617000000001
 21
966.2043000000001
  0
LINE
  8
_0-2_LAYER004
  6
CONTINUOUS
 62
    2
 10
1774.6617000000001
 20
981.2043000000001
 11
1774.6617000000001
 21
966.2043000000001
  0
LINE
  8
_0-2_LAYER004
  6
CONTINUOUS
 62
    2
 10
1780.9733999999999
 20
966.06060000000002
 11
1780.9733999999999
 21
981.2043000000001
  0
LINE
  8
_0-2_LAYER004
  6
CONTINUOUS
 62
    2
 10
1780.9733999999999
 20
981.2043000000001
 11
1801.5174000000002
 21
981.2043000000001
  0
LINE
  8
_0-2_LAYER004
  6
CONTINUOUS
 62
    2
 10
1853.355
 20
966.06060000000002
 11
1853.355
 21
1078.1990000000001
  0
LINE
  8
_0-2_LAYER004
  6
CONTINUOUS
 62
    2
 10
1875.692
 20
949.18859999999995
 11
846.77199999999993
 21
949.18859999999995
  0
LINE
  8
_0-2_LAYER004
  6
CONTINUOUS
 62
    2
 10
1875.692
 20
961.18859999999995
 11
846.77199999999993
 21
961.18859999999995
  0
LINE
  8
_0-2_LAYER004
  6
CONTINUOUS
 62
    2
 10
1780.9733999999999
 20
966.06060000000002
 11
1853.355
 21
966.06060000000002
  0
LINE
  8
_0-2_LAYER004
  6
DASHED3
 62
    2
 10
1873.3690000000001
 20
963.68560000000002
 11
846.77199999999993
 21
963.68560000000002
  0
LINE
  8
_0-2_LAYER004
  6
DASHED3
 62
    2
 10
1873.3690000000001
 20
963.68560000000002
 11
1873.3690000000001
 21
1261.1886
  0
LINE
  8
_0-2_LAYER004
  6
CONTINUOUS
 62
    2
 10
1870.886
 20
965.43460000000005
 11
1855.886
 21
965.43460000000005
  0
LINE
  8
_0-2_LAYER004
  6
CONTINUOUS
 62
    3
 10
1875.692
 20
883.4226000000001
 11
1875.692
 21
729.33259999999996
  0
LINE
  8
_0-2_LAYER004
  6
CONTINUOUS
 62
    2
 10
1815.692
 20
889.18859999999995
 11
1815.692
 21
949.18859999999995
  0
LINE
  8
_0-2_LAYER004
  6
CONTINUOUS
 62
    2
 10
1815.692
 20
949.18859999999995
 11
1875.692
 21
949.18859999999995
  0
LINE
  8
_0-2_LAYER004
  6
CONTINUOUS
 62
    2
 10
1875.692
 20
949.18859999999995
 11
1875.692
 21
889.18859999999995
  0
LINE
  8
_0-2_LAYER004
  6
CONTINUOUS
 62
    2
 10
1875.692
 20
889.18859999999995
 11
1815.692
 21
889.18859999999995
  0
LINE
  8
_0-2_LAYER004
  6
CONTINUOUS
 62
    2
 10
1875.692
 20
949.18859999999995
 11
1815.692
 21
889.18859999999995
  0
LINE
  8
_0-2_LAYER004
  6
CONTINUOUS
 62
    2
 10
1777.6709999999998
 20
1093.491
 11
1774.9679999999998
 21
1108.2449999999999
  0
LINE
  8
_0-2_LAYER004
  6
CONTINUOUS
 62
    2
 10
1774.9679999999998
 20
1108.2449999999999
 11
1863.4960000000001
 21
1124.461
  0
LINE
  8
_0-2_LAYER004
  6
CONTINUOUS
 62
    2
 10
1863.4960000000001
 20
1124.461
 11
1866.1979999999999
 21
1109.7059999999999
  0
LINE
  8
_0-2_LAYER004
  6
CONTINUOUS
 62
    2
 10
1866.1979999999999
 20
1109.7059999999999
 11
1777.6709999999998
 21
1093.491
  0
LINE
  8
_0-2_LAYER004
  6
CONTINUOUS
 62
    2
 10
1774.9679999999998
 20
1108.2449999999999
 11
1866.1979999999999
 21
1109.7059999999999
  0
LINE
  8
_0-2_LAYER004
  6
CONTINUOUS
 62
    2
 10
1765.692
 20
1108.4883
 11
1765.1439999999998
 21
1090.4093
  0
LINE
  8
_0-2_LAYER004
  6
CONTINUOUS
 62
    2
 10
1840.692
 20
1127.4570000000001
 11
1852.692
 21
1127.4570000000001
  0
LINE
  8
_0-2_LAYER004
  6
CONTINUOUS
 62
    2
 10
1852.692
 20
1135.2660000000001
 11
1852.692
 21
1175.2660000000001
  0
LINE
  8
_0-2_LAYER004
  6
CONTINUOUS
 62
    2
 10
1852.692
 20
1175.2660000000001
 11
1870.692
 21
1175.2660000000001
  0
LINE
  8
_0-2_LAYER004
  6
CONTINUOUS
 62
    2
 10
1870.692
 20
1175.2660000000001
 11
1870.692
 21
1135.2660000000001
  0
LINE
  8
_0-2_LAYER004
  6
CONTINUOUS
 62
    2
 10
1870.692
 20
1135.2660000000001
 11
1852.692
 21
1135.2660000000001
  0
LINE
  8
_0-2_LAYER004
  6
CONTINUOUS
 62
    2
 10
1870.692
 20
1175.2660000000001
 11
1852.692
 21
1135.2660000000001
  0
LINE
  8
_0-2_LAYER004
  6
CONTINUOUS
 62
    2
 10
1765.692
 20
1108.4883
 11
1872.107
 21
1127.98
  0
LINE
  8
_0-2_LAYER004
  6
CONTINUOUS
 62
    2
 10
1872.107
 20
1127.98
 11
1872.107
 21
1277.98
  0
LINE
  8
_0-5_LAYER007
  6
CONTINUOUS
 62
    3
 10
1875.692
 20
1378.0165999999999
 11
1875.692
 21
866.68959999999993
  0
LINE
  8
_0-2_LAYER004
  6
CONTINUOUS
 62
    3
 10
1875.692
 20
1300.1446000000001
 11
1875.692
 21
1378.0165999999999
  0
LINE
  8
_0-2_LAYER004
  6
CONTINUOUS
 62
    2
 10
1852.692
 20
1127.4570000000001
 11
1852.692
 21
1378.0165999999999
  0
LINE
  8
_0-2_LAYER004
  6
CONTINUOUS
 62
    2
 10
1840.692
 20
1127.4570000000001
 11
1840.692
 21
1378.0165999999999
  0
LINE
  8
_0-2_LAYER004
  6
CONTINUOUS
 62
    2
 10
1512.692
 20
889.18859999999995
 11
1512.692
 21
949.18859999999995
  0
LINE
  8
_0-2_LAYER004
  6
CONTINUOUS
 62
    2
 10
1512.692
 20
949.18859999999995
 11
1572.692
 21
949.18859999999995
  0
LINE
  8
_0-2_LAYER004
  6
CONTINUOUS
 62
    2
 10
1572.692
 20
949.18859999999995
 11
1572.692
 21
889.18859999999995
  0
LINE
  8
_0-2_LAYER004
  6
CONTINUOUS
 62
    2
 10
1572.692
 20
889.18859999999995
 11
1512.692
 21
889.18859999999995
  0
LINE
  8
_0-2_LAYER004
  6
CONTINUOUS
 62
    2
 10
1572.692
 20
949.18859999999995
 11
1512.692
 21
889.18859999999995
  0
LINE
  8
_0-2_LAYER004
  6
CONTINUOUS
 62
    2
 10
1209.692
 20
889.18859999999995
 11
1209.692
 21
949.18859999999995
  0
LINE
  8
_0-2_LAYER004
  6
CONTINUOUS
 62
    2
 10
1209.692
 20
949.18859999999995
 11
1269.692
 21
949.18859999999995
  0
LINE
  8
_0-2_LAYER004
  6
CONTINUOUS
 62
    2
 10
1269.692
 20
949.18859999999995
 11
1269.692
 21
889.18859999999995
  0
LINE
  8
_0-2_LAYER004
  6
CONTINUOUS
 62
    2
 10
1269.692
 20
889.18859999999995
 11
1209.692
 21
889.18859999999995
  0
LINE
  8
_0-2_LAYER004
  6
CONTINUOUS
 62
    2
 10
1269.692
 20
949.18859999999995
 11
1209.692
 21
889.18859999999995
  0
LINE
  8
_0-2_LAYER004
  6
CONTINUOUS
 62
    2
 10
906.69200000000001
 20
889.18859999999995
 11
906.69200000000001
 21
949.18859999999995
  0
LINE
  8
_0-2_LAYER004
  6
CONTINUOUS
 62
    2
 10
906.69200000000001
 20
949.18859999999995
 11
966.69200000000001
 21
949.18859999999995
  0
LINE
  8
_0-2_LAYER004
  6
CONTINUOUS
 62
    2
 10
966.69200000000001
 20
949.18859999999995
 11
966.69200000000001
 21
889.18859999999995
  0
LINE
  8
_0-2_LAYER004
  6
CONTINUOUS
 62
    2
 10
966.69200000000001
 20
889.18859999999995
 11
906.69200000000001
 21
889.18859999999995
  0
LINE
  8
_0-2_LAYER004
  6
CONTINUOUS
 62
    2
 10
966.69200000000001
 20
949.18859999999995
 11
906.69200000000001
 21
889.18859999999995
  0
CIRCLE
  8
_0-3_LAYER005
  6
CONTINUOUS
 62
    2
 10
1776.7939999999999
 20
1036.0843
 40
1.1619999999999999
  0
CIRCLE
  8
_0-3_LAYER005
  6
CONTINUOUS
 62
    2
 10
1798.982
 20
1039.3713
 40
1.1619999999999999
  0
CIRCLE
  8
_0-3_LAYER005
  6
CONTINUOUS
 62
    2
 10
1807.1999999999998
 20
1039.3713
 40
1.1619999999999999
  0
CIRCLE
  8
_0-3_LAYER005
  6
CONTINUOUS
 62
    2
 10
1794.0520000000001
 20
1040.4626000000001
 40
1.1619999999999999
  0
CIRCLE
  8
_0-3_LAYER005
  6
CONTINUOUS
 62
    2
 10
1803.913
 20
1044.5706
 40
1.1619999999999999
  0
CIRCLE
  8
_0-3_LAYER005
  6
CONTINUOUS
 62
    2
 10
1781.7249999999999
 20
1037.1746000000001
 40
1.1619999999999999
  0
CIRCLE
  8
_0-3_LAYER005
  6
CONTINUOUS
 62
    2
 10
1780.9029999999998
 20
1028.9576
 40
1.1619999999999999
  0
CIRCLE
  8
_0-3_LAYER005
  6
CONTINUOUS
 62
    2
 10
1786.6559999999999
 20
1024.8486
 40
1.1619999999999999
  0
CIRCLE
  8
_0-3_LAYER005
  6
CONTINUOUS
 62
    2
 10
1795.6950000000002
 20
1027.3136
 40
1.1619999999999999
  0
CIRCLE
  8
_0-3_LAYER005
  6
CONTINUOUS
 62
    2
 10
1817.8829999999998
 20
1033.8876
 40
1.1619999999999999
  0
CIRCLE
  8
_0-3_LAYER005
  6
CONTINUOUS
 62
    2
 10
1821.1700000000001
 20
1041.2836
 40
1.1619999999999999
  0
CIRCLE
  8
_0-3_LAYER005
  6
CONTINUOUS
 62
    2
 10
1830.2089999999998
 20
1046.2146
 40
1.1619999999999999
  0
CIRCLE
  8
_0-3_LAYER005
  6
CONTINUOUS
 62
    2
 10
1818.7049999999999
 20
1030.3323
 40
1.1619999999999999
  0
CIRCLE
  8
_0-3_LAYER005
  6
CONTINUOUS
 62
    2
 10
1821.9920000000002
 20
1038.5503000000001
 40
1.1619999999999999
  0
CIRCLE
  8
_0-3_LAYER005
  6
CONTINUOUS
 62
    2
 10
1833.4960000000001
 20
1046.7673
 40
1.1619999999999999
  0
CIRCLE
  8
_0-3_LAYER005
  6
CONTINUOUS
 62
    2
 10
1831.8530000000001
 20
1049.2333000000001
 40
1.1619999999999999
  0
CIRCLE
  8
_0-3_LAYER005
  6
CONTINUOUS
 62
    2
 10
1839.2489999999998
 20
1053.3413
 40
1.1619999999999999
  0
CIRCLE
  8
_0-3_LAYER005
  6
CONTINUOUS
 62
    2
 10
1841.7139999999999
 20
1061.5592999999999
 40
1.1619999999999999
  0
CIRCLE
  8
_0-3_LAYER005
  6
CONTINUOUS
 62
    2
 10
1780.4861000000001
 20
1070.4549
 40
1.1619999999999999
  0
CIRCLE
  8
_0-3_LAYER005
  6
CONTINUOUS
 62
    2
 10
1787.8820999999998
 20
1066.3459
 40
1.1619999999999999
  0
CIRCLE
  8
_0-3_LAYER005
  6
CONTINUOUS
 62
    2
 10
1818.9607999999998
 20
1070.4549
 40
1.1619999999999999
  0
CIRCLE
  8
_0-3_LAYER005
  6
CONTINUOUS
 62
    2
 10
1809.9218000000001
 20
1075.3859
 40
1.1619999999999999
  0
CIRCLE
  8
_0-3_LAYER005
  6
CONTINUOUS
 62
    2
 10
1790.317
 20
1071.0904
 40
1.1619999999999999
  0
CIRCLE
  8
_0-3_LAYER005
  6
CONTINUOUS
 62
    2
 10
1796.8910000000001
 20
1068.6243999999999
 40
1.1619999999999999
  0
CIRCLE
  8
_0-3_LAYER005
  6
CONTINUOUS
 62
    2
 10
1802.9333999999999
 20
1072.23
 40
1.1619999999999999
  0
CIRCLE
  8
_0-3_LAYER005
  6
CONTINUOUS
 62
    2
 10
1809.5074
 20
1071.4090000000001
 40
1.1619999999999999
  0
CIRCLE
  8
_0-3_LAYER005
  6
CONTINUOUS
 62
    2
 10
1819.3496
 20
1077.0699999999999
 40
1.1619999999999999
  0
CIRCLE
  8
_0-3_LAYER005
  6
CONTINUOUS
 62
    2
 10
1827.5675999999999
 20
1077.8920000000001
 40
1.1619999999999999
  0
CIRCLE
  8
_0-3_LAYER005
  6
CONTINUOUS
 62
    2
 10
1835.3164999999999
 20
1072.0165999999999
 40
1.1619999999999999
  0
CIRCLE
  8
_0-3_LAYER005
  6
CONTINUOUS
 62
    2
 10
1836.9605000000001
 20
1066.2646
 40
1.1619999999999999
  0
CIRCLE
  8
_0-3_LAYER005
  6
CONTINUOUS
 62
    2
 10
1834.3180000000002
 20
1077.9943000000001
 40
1.1619999999999999
  0
CIRCLE
  8
_0-3_LAYER005
  6
CONTINUOUS
 62
    2
 10
1816.239
 20
1045.9453000000001
 40
1.1619999999999999
  0
CIRCLE
  8
_0-3_LAYER005
  6
CONTINUOUS
 62
    2
 10
1803.0909999999999
 20
1045.9453000000001
 40
1.1619999999999999
  0
CIRCLE
  8
_0-3_LAYER005
  6
CONTINUOUS
 62
    2
 10
1779.2600000000002
 20
1041.0153
 40
1.1619999999999999
  0
CIRCLE
  8
_0-3_LAYER005
  6
CONTINUOUS
 62
    2
 10
1797.3389999999999
 20
1031.9753000000001
 40
1.1619999999999999
  0
CIRCLE
  8
_0-3_LAYER005
  6
CONTINUOUS
 62
    2
 10
1811.3090000000002
 20
1047.0365999999999
 40
1.1619999999999999
  0
CIRCLE
  8
_0-3_LAYER005
  6
CONTINUOUS
 62
    2
 10
1777.616
 20
1028.6883
 40
1.1619999999999999
  0
CIRCLE
  8
_0-3_LAYER005
  6
CONTINUOUS
 62
    2
 10
1787.4769999999999
 20
1033.6193000000001
 40
1.1619999999999999
  0
CIRCLE
  8
_0-3_LAYER005
  6
CONTINUOUS
 62
    2
 10
1776.7939999999999
 20
1014.9875999999999
 40
1.1619999999999999
  0
CIRCLE
  8
_0-3_LAYER005
  6
CONTINUOUS
 62
    2
 10
1780.9029999999998
 20
1018.2746
 40
1.1619999999999999
  0
CIRCLE
  8
_0-3_LAYER005
  6
CONTINUOUS
 62
    2
 10
1806.3780000000002
 20
1028.9576
 40
1.1619999999999999
  0
CIRCLE
  8
_0-3_LAYER005
  6
CONTINUOUS
 62
    2
 10
1796.5169999999998
 20
1024.0265999999999
 40
1.1619999999999999
  0
CIRCLE
  8
_0-3_LAYER005
  6
CONTINUOUS
 62
    2
 10
1802.2689999999998
 20
1039.6405999999999
 40
1.1619999999999999
  0
CIRCLE
  8
_0-3_LAYER005
  6
CONTINUOUS
 62
    2
 10
1812.1300000000001
 20
1041.2836
 40
1.1619999999999999
  0
CIRCLE
  8
_0-3_LAYER005
  6
CONTINUOUS
 62
    2
 10
1820.348
 20
1045.3925999999999
 40
1.1619999999999999
  0
CIRCLE
  8
_0-3_LAYER005
  6
CONTINUOUS
 62
    2
 10
1829.3870000000002
 20
1035.2633000000001
 40
1.1619999999999999
  0
CIRCLE
  8
_0-3_LAYER005
  6
CONTINUOUS
 62
    2
 10
1829.3870000000002
 20
1041.0153
 40
1.1619999999999999
  0
CIRCLE
  8
_0-3_LAYER005
  6
CONTINUOUS
 62
    2
 10
1829.3870000000002
 20
1046.7673
 40
1.1619999999999999
  0
CIRCLE
  8
_0-3_LAYER005
  6
CONTINUOUS
 62
    2
 10
1814.596
 20
1045.9453000000001
 40
1.1619999999999999
  0
CIRCLE
  8
_0-3_LAYER005
  6
CONTINUOUS
 62
    2
 10
1800.6260000000002
 20
1030.3323
 40
1.1619999999999999
  0
CIRCLE
  8
_0-3_LAYER005
  6
CONTINUOUS
 62
    2
 10
1812.1300000000001
 20
1034.4413
 40
1.1619999999999999
  0
CIRCLE
  8
_0-3_LAYER005
  6
CONTINUOUS
 62
    2
 10
1789.9430000000002
 20
1034.4413
 40
1.1619999999999999
  0
LINE
  8
_0-1_LAYER003
  6
CONTINUOUS
 62
    7
 10
1622.7763
 20
1417.6429000000003
 11
1795.2763
 21
1417.6429000000003
  0
LINE
  8
_0-1_LAYER003
  6
CONTINUOUS
 62
    7
 10
1721.1388000000002
 20
1341.6732999999999
 11
1761.6388000000002
 21
1341.6732999999999
  0
LINE
  8
_0-1_LAYER003
  6
CONTINUOUS
 62
    7
 10
1590.2923999999998
 20
1293.7074000000002
 11
1737.2923999999998
 21
1293.7074000000002
  0
LINE
  8
_0-1_LAYER003
  6
CONTINUOUS
 62
    7
 10
1492.3825999999999
 20
1260.6270999999999
 11
1726.3825999999999
 21
1260.6270999999999
  0
LINE
  8
_0-1_LAYER003
  6
CONTINUOUS
 62
    7
 10
1563.9661000000001
 20
1228.8742999999999
 11
1677.9661000000001
 21
1228.8742999999999
  0
LINE
  8
_0-1_LAYER003
  6
CONTINUOUS
 62
    7
 10
1603.2957000000001
 20
1191.5598
 11
1680.5453000000002
 21
1191.5598
  0
LINE
  8
_0-1_LAYER003
  6
CONTINUOUS
 62
    7
 10
1406.5305000000001
 20
1084.1261
 11
1447.0304999999998
 21
1084.1261
  0
LINE
  8
_0-1_LAYER003
  6
CONTINUOUS
 62
    7
 10
1007.6116
 20
754.79989999999998
 11
1212.2227
 21
754.79989999999998
  0
LINE
  8
_0-1_LAYER003
  6
CONTINUOUS
 62
    7
 10
958.72489999999993
 20
724.81889999999999
 11
1194.9132
 21
724.81889999999999
  0
LINE
  8
_0-1_LAYER003
  6
CONTINUOUS
 62
    7
 10
1005.8662999999999
 20
694.72360000000003
 11
1177.5376914599137
 21
694.72360000000003
  0
LINE
  8
_0-1_LAYER003
  6
CONTINUOUS
 62
    7
 10
1097.7192
 20
664.85699999999997
 11
1160.2942
 21
664.85699999999997
  0
LINE
  8
_0-1_LAYER003
  6
CONTINUOUS
 62
    7
 10
1492.9122000000002
 20
797.73399999999992
 11
1693.9122000000002
 21
797.73399999999992
  0
LINE
  8
_0-1_LAYER003
  6
CONTINUOUS
 62
    7
 10
1875.692
 20
889.18859999999995
 11
1815.692
 21
889.18859999999995
  0
LINE
  8
_0-1_LAYER003
  6
CONTINUOUS
 62
    7
 10
1815.692
 20
889.18859999999995
 11
1815.692
 21
949.18859999999995
  0
LINE
  8
_0-1_LAYER003
  6
CONTINUOUS
 62
    7
 10
1925.3355000000001
 20
896.89810000000011
 11
2088.8355000000001
 21
896.89810000000011
  0
LINE
  8
_0-1_LAYER003
  6
CONTINUOUS
 62
    7
 10
1046.3010999999999
 20
1123.3330000000001
 11
1046.3010999999999
 21
1175.8330000000001
  0
LINE
  8
_0-1_LAYER003
  6
CONTINUOUS
 62
    7
 10
1048.0011
 20
1173.3330000000001
 11
1556.3011000000001
 21
1173.3330000000001
  0
LINE
  8
_0-1_LAYER003
  6
CONTINUOUS
 62
    7
 10
1556.3011000000001
 20
1123.3330000000001
 11
1556.3011000000001
 21
1175.8330000000001
  0
LINE
  8
_0-1_LAYER003
  6
CONTINUOUS
 62
    7
 10
1301.3011000000001
 20
1123.3330000000001
 11
1301.3011000000001
 21
1175.8330000000001
  0
LINE
  8
_0-1_LAYER003
  6
CONTINUOUS
 62
    7
 10
1048.0011
 20
1173.3330000000001
 11
1046.3010999999999
 21
1173.3330000000001
  0
LINE
  8
_0-1_LAYER003
  6
CONTINUOUS
 62
    7
 10
846.77199999999993
 20
981.2043000000001
 11
1774.6617000000001
 21
981.2043000000001
  0
LINE
  8
_0-1_LAYER003
  6
CONTINUOUS
 62
    7
 10
1774.6617000000001
 20
981.2043000000001
 11
1774.6617000000001
 21
966.2043000000001
  0
LINE
  8
_0-1_LAYER003
  6
CONTINUOUS
 62
    7
 10
1774.6617000000001
 20
966.2043000000001
 11
846.77199999999993
 21
966.2043000000001
  0
LINE
  8
_0-1_LAYER003
  6
CONTINUOUS
 62
    7
 10
846.77199999999993
 20
963.68560000000002
 11
1873.3690000000001
 21
963.68560000000002
  0
LINE
  8
_0-1_LAYER003
  6
CONTINUOUS
 62
    7
 10
1873.3690000000001
 20
963.68560000000002
 11
1873.3690000000001
 21
1261.1886
  0
LINE
  8
_0-1_LAYER003
  6
CONTINUOUS
 62
    7
 10
1872.107
 20
1277.98
 11
1872.107
 21
1127.98
  0
LINE
  8
_0-1_LAYER003
  6
CONTINUOUS
 62
    7
 10
1875.692
 20
1108.1990000000001
 11
1859.2537000000002
 21
1108.1990000000001
  0
LINE
  8
_0-1_LAYER003
  6
CONTINUOUS
 62
    7
 10
1845.692
 20
1105.6949999999999
 11
1845.692
 21
1078.1990000000001
  0
LINE
  8
_0-1_LAYER003
  6
CONTINUOUS
 62
    7
 10
1845.692
 20
1078.1990000000001
 11
1875.692
 21
1078.1990000000001
  0
LINE
  8
_0-1_LAYER003
  6
CONTINUOUS
 62
    7
 10
1848.5938000000001
 20
1103.7704000000001
 11
1848.5938000000001
 21
1083.5573999999999
  0
LINE
  8
_0-1_LAYER003
  6
CONTINUOUS
 62
    7
 10
1830.6266999999998
 20
1099.8400999999999
 11
1830.6266999999998
 21
1082.9960000000001
  0
LINE
  8
_0-1_LAYER003
  6
CONTINUOUS
 62
    7
 10
1820.5201999999999
 20
1067.9450146883678
 11
1820.5201999999999
 21
1050.4305999999999
  0
LINE
  8
_0-1_LAYER003
  6
CONTINUOUS
 62
    7
 10
1870.886
 20
1078.1990000000001
 11
1870.886
 21
965.43460000000005
  0
LINE
  8
_0-1_LAYER003
  6
CONTINUOUS
 62
    7
 10
1870.886
 20
965.43460000000005
 11
1855.886
 21
965.43460000000005
  0
LINE
  8
_0-1_LAYER003
  6
CONTINUOUS
 62
    7
 10
1855.886
 20
965.43460000000005
 11
1855.886
 21
1078.1990000000001
  0
LINE
  8
_0-1_LAYER003
  6
CONTINUOUS
 62
    7
 10
1853.355
 20
1078.1990000000001
 11
1853.355
 21
966.06060000000002
  0
LINE
  8
_0-1_LAYER003
  6
CONTINUOUS
 62
    7
 10
1853.355
 20
966.06060000000002
 11
1780.9733999999999
 21
966.06060000000002
  0
LINE
  8
_0-1_LAYER003
  6
CONTINUOUS
 62
    7
 10
1780.9733999999999
 20
966.06060000000002
 11
1780.9733999999999
 21
981.2043000000001
  0
LINE
  8
_0-1_LAYER003
  6
CONTINUOUS
 62
    7
 10
1780.9733999999999
 20
981.2043000000001
 11
1793.1595689302558
 21
981.2043000000001
  0
LINE
  8
_0-1_LAYER003
  6
CONTINUOUS
 62
    7
 10
1875.692
 20
961.18859999999995
 11
846.77199999999993
 21
961.18859999999995
  0
LINE
  8
_0-1_LAYER003
  6
CONTINUOUS
 62
    7
 10
846.77199999999993
 20
949.18859999999995
 11
1875.692
 21
949.18859999999995
  0
LINE
  8
_0-1_LAYER003
  6
CONTINUOUS
 62
    7
 10
1932.2763
 20
961.18859999999995
 11
2016.0873999999999
 21
961.18859999999995
  0
LINE
  8
_0-1_LAYER003
  6
CONTINUOUS
 62
    7
 10
2013.5873999999999
 20
961.18859999999995
 11
2013.5873999999999
 21
1261.1895999999999
  0
LINE
  8
_0-1_LAYER003
  6
CONTINUOUS
 62
    7
 10
1938.5873999999999
 20
1261.1895999999999
 11
2015.2873999999999
 21
1261.1895999999999
  0
LINE
  8
_0-1_LAYER003
  6
CONTINUOUS
 62
    7
 10
2051.0515
 20
1277.98
 11
2103.5515
 21
1277.98
  0
LINE
  8
_0-1_LAYER003
  6
CONTINUOUS
 62
    7
 10
2101.0515
 20
1277.98
 11
2101.0515
 21
961.18859999999995
  0
LINE
  8
_0-1_LAYER003
  6
CONTINUOUS
 62
    7
 10
2051.0515
 20
961.18859999999995
 11
2101.0515
 21
961.18859999999995
  0
LINE
  8
_0-1_LAYER003
  6
CONTINUOUS
 62
    7
 10
2101.0515
 20
962.8886
 11
2101.0515
 21
961.18859999999995
  0
LINE
  8
_0-1_LAYER003
  6
CONTINUOUS
 62
    7
 10
2101.0515
 20
961.18859999999995
 11
2103.5515
 21
961.18859999999995
  0
LINE
  8
_0-1_LAYER003
  6
CONTINUOUS
 62
    7
 10
1932.2763
 20
1078.1990000000001
 11
1959.7763
 21
1078.1990000000001
  0
LINE
  8
_0-1_LAYER003
  6
CONTINUOUS
 62
    7
 10
1957.2763
 20
1078.1990000000001
 11
1957.2763
 21
961.18859999999995
  0
LINE
  8
_0-1_LAYER003
  6
CONTINUOUS
 62
    7
 10
2051.0515
 20
1127.98
 11
2103.5515
 21
1127.98
  0
LINE
  8
_0-1_LAYER003
  6
CONTINUOUS
 62
    7
 10
1897.5515
 20
1162.7747999999999
 11
1978.5515
 21
1162.7747999999999
  0
LINE
  8
_0-1_LAYER003
  6
CONTINUOUS
 62
    7
 10
1765.692
 20
1143.5317
 11
1765.692
 21
1190.2212
  0
LINE
  8
_0-1_LAYER003
  6
CONTINUOUS
 62
    7
 10
1765.692
 20
1187.7212
 11
1840.692
 21
1187.7212
  0
LINE
  8
_0-1_LAYER003
  6
CONTINUOUS
 62
    7
 10
1840.692
 20
1127.4570000000001
 11
1840.692
 21
1378.0165999999999
  0
LINE
  8
_0-1_LAYER003
  6
CONTINUOUS
 62
    7
 10
1852.692
 20
1378.0165999999999
 11
1852.692
 21
1127.4570000000001
  0
LINE
  8
_0-1_LAYER003
  6
CONTINUOUS
 62
    7
 10
1852.692
 20
1127.4570000000001
 11
1840.692
 21
1127.4570000000001
  0
LINE
  8
_0-1_LAYER003
  6
CONTINUOUS
 62
    7
 10
1852.692
 20
1135.2660000000001
 11
1870.692
 21
1135.2660000000001
  0
LINE
  8
_0-1_LAYER003
  6
CONTINUOUS
 62
    7
 10
1870.692
 20
1135.2660000000001
 11
1870.692
 21
1175.2660000000001
  0
LINE
  8
_0-1_LAYER003
  6
CONTINUOUS
 62
    7
 10
1870.692
 20
1175.2660000000001
 11
1870.692
 21
1135.2660000000001
  0
LINE
  8
_0-1_LAYER003
  6
CONTINUOUS
 62
    7
 10
1852.692
 20
1175.2660000000001
 11
1870.692
 21
1175.2660000000001
  0
LINE
  8
_0-1_LAYER003
  6
CONTINUOUS
 62
    7
 10
1770.2141000000001
 20
1096.499
 11
1765.1439999999998
 21
1090.4093
  0
LINE
  8
_0-1_LAYER003
  6
CONTINUOUS
 62
    7
 10
1765.1439999999998
 20
1090.4093
 11
1765.692
 21
1108.4883
  0
LINE
  8
_0-1_LAYER003
  6
CONTINUOUS
 62
    7
 10
1765.692
 20
1108.4883
 11
1872.107
 21
1127.98
  0
LINE
  8
_0-1_LAYER003
  6
CONTINUOUS
 62
    7
 10
1861.1948000000002
 20
1103.6855
 11
1859.2537000000002
 21
1096.441
  0
LINE
  8
_0-1_LAYER003
  6
CONTINUOUS
 62
    7
 10
1859.2537000000002
 20
1096.441
 11
1864.5569999999998
 21
1101.7443000000001
  0
LINE
  8
_0-1_LAYER003
  6
CONTINUOUS
 62
    7
 10
1859.2537000000002
 20
1096.441
 11
1897.5515
 21
1162.7747999999999
  0
LINE
  8
_0-1_LAYER003
  6
CONTINUOUS
 62
    7
 10
1866.1979999999999
 20
1109.7059999999999
 11
1863.4960000000001
 21
1124.461
  0
LINE
  8
_0-1_LAYER003
  6
CONTINUOUS
 62
    7
 10
1863.4960000000001
 20
1124.461
 11
1774.9679999999998
 21
1108.2449999999999
  0
LINE
  8
_0-1_LAYER003
  6
CONTINUOUS
 62
    7
 10
1774.9679999999998
 20
1108.2449999999999
 11
1777.6709999999998
 21
1093.491
  0
LINE
  8
_0-1_LAYER003
  6
CONTINUOUS
 62
    7
 10
1777.6709999999998
 20
1093.491
 11
1866.1979999999999
 21
1109.7059999999999
  0
LINE
  8
_0-1_LAYER003
  6
CONTINUOUS
 62
    7
 10
1866.1979999999999
 20
1109.7059999999999
 11
1774.9679999999998
 21
1108.2449999999999
  0
LINE
  8
_0-1_LAYER003
  6
CONTINUOUS
 62
    7
 10
1845.692
 20
1078.1990000000001
 11
1875.692
 21
1108.1990000000001
  0
LINE
  8
_0-1_LAYER003
  6
CONTINUOUS
 62
    7
 10
1830.6266999999998
 20
1099.8400999999999
 11
1848.5938000000001
 21
1103.7704000000001
  0
LINE
  8
_0-1_LAYER003
  6
CONTINUOUS
 62
    7
 10
1848.5938000000001
 20
1083.5573999999999
 11
1830.6266999999998
 21
1082.9960000000001
  0
LINE
  8
_0-1_LAYER003
  6
CONTINUOUS
 62
    7
 10
1848.196836709968
 20
1083.5449964851855
 11
1851.0268999999998
 21
1079.4400000000001
  0
LINE
  8
_0-1_LAYER003
  6
CONTINUOUS
 62
    7
 10
1851.0268999999998
 20
1079.4400000000001
 11
1827.3364999999999
 21
1051.8581999999999
  0
LINE
  8
_0-1_LAYER003
  6
CONTINUOUS
 62
    7
 10
1827.3364999999999
 20
1051.8581999999999
 11
1820.5201999999999
 21
1050.4305999999999
  0
LINE
  8
_0-1_LAYER003
  6
CONTINUOUS
 62
    7
 10
1820.5201999999999
 20
1068.3977
 11
1848.196836709968
 21
1083.5449964851855
  0
LINE
  8
_0-1_LAYER003
  6
CONTINUOUS
 62
    7
 10
1853.355
 20
1078.1990000000001
 11
1846.8013000000001
 21
1069.2545
  0
LINE
  8
_0-1_LAYER003
  6
CONTINUOUS
 62
    7
 10
1855.886
 20
1078.1990000000001
 11
1870.886
 21
965.43460000000005
  0
LINE
  8
_0-1_LAYER003
  6
CONTINUOUS
 62
    7
 10
1864.4906000000001
 20
1002.2846
 11
1866.4317000000001
 21
995.04009999999994
  0
LINE
  8
_0-1_LAYER003
  6
CONTINUOUS
 62
    7
 10
1864.4906000000001
 20
1002.2846
 11
1869.7939000000001
 21
996.98129999999992
  0
LINE
  8
_0-1_LAYER003
  6
CONTINUOUS
 62
    7
 10
1864.4906000000001
 20
1002.2846
 11
1925.3355000000001
 21
896.89810000000011
  0
LINE
  8
_0-1_LAYER003
  6
CONTINUOUS
 62
    7
 10
1875.692
 20
949.18859999999995
 11
1815.692
 21
889.18859999999995
  0
LINE
  8
_0-1_LAYER003
  6
CONTINUOUS
 62
    7
 10
1774.7456000000002
 20
1032.2822000000001
 11
1776.6867999999999
 21
1025.0378000000001
  0
LINE
  8
_0-1_LAYER003
  6
CONTINUOUS
 62
    7
 10
1776.6867999999999
 20
1025.0378000000001
 11
1771.3834999999999
 21
1030.3411000000001
  0
LINE
  8
_0-1_LAYER003
  6
CONTINUOUS
 62
    7
 10
1776.6867999999999
 20
1025.0378000000001
 11
1680.5453000000002
 21
1191.5598
  0
LINE
  8
_0-1_LAYER003
  6
CONTINUOUS
 62
    7
 10
1762.9911999999999
 20
1085.4888000000001
 11
1764.9324000000001
 21
1078.2444
  0
LINE
  8
_0-1_LAYER003
  6
CONTINUOUS
 62
    7
 10
1764.9324000000001
 20
1078.2444
 11
1759.6291000000001
 21
1083.5477000000001
  0
LINE
  8
_0-1_LAYER003
  6
CONTINUOUS
 62
    7
 10
1764.9324000000001
 20
1078.2444
 11
1677.9661000000001
 21
1228.8742999999999
  0
LINE
  8
_0-1_LAYER003
  6
CONTINUOUS
 62
    7
 10
1839.0942
 20
1121.2637999999999
 11
1841.0354000000002
 21
1114.0193999999999
  0
LINE
  8
_0-1_LAYER003
  6
CONTINUOUS
 62
    7
 10
1841.0354000000002
 20
1114.0193999999999
 11
1835.7321000000002
 21
1119.3226999999999
  0
LINE
  8
_0-1_LAYER003
  6
CONTINUOUS
 62
    7
 10
1835.7321000000002
 20
1119.3226999999999
 11
1841.0354000000002
 21
1114.0193999999999
  0
LINE
  8
_0-1_LAYER003
  6
CONTINUOUS
 62
    7
 10
1841.0354000000002
 20
1114.0193999999999
 11
1737.2923999999998
 21
1293.7074000000002
  0
LINE
  8
_0-1_LAYER003
  6
CONTINUOUS
 62
    7
 10
1726.3825999999999
 20
1260.6270999999999
 11
1809.5783999999999
 21
1116.5279
  0
LINE
  8
_0-1_LAYER003
  6
CONTINUOUS
 62
    7
 10
1809.5783999999999
 20
1116.5279
 11
1807.6372000000001
 21
1123.7723000000001
  0
LINE
  8
_0-1_LAYER003
  6
CONTINUOUS
 62
    7
 10
1809.5783999999999
 20
1116.5279
 11
1804.2750999999998
 21
1121.8312000000001
  0
LINE
  8
_0-1_LAYER003
  6
CONTINUOUS
 62
    7
 10
1852.692
 20
1135.2660000000001
 11
1870.692
 21
1175.2660000000001
  0
LINE
  8
_0-1_LAYER003
  6
CONTINUOUS
 62
    7
 10
1860.9063000000001
 20
1173.6193000000001
 11
1862.8474999999999
 21
1166.3748000000001
  0
LINE
  8
_0-1_LAYER003
  6
CONTINUOUS
 62
    7
 10
1862.8474999999999
 20
1166.3748000000001
 11
1857.5441999999998
 21
1171.6781000000001
  0
LINE
  8
_0-1_LAYER003
  6
CONTINUOUS
 62
    7
 10
1862.8474999999999
 20
1166.3748000000001
 11
1761.6388000000002
 21
1341.6732999999999
  0
LINE
  8
_0-1_LAYER003
  6
CONTINUOUS
 62
    7
 10
1845.4319999999998
 20
1330.7706000000003
 11
1843.4908999999998
 21
1338.0150000000001
  0
LINE
  8
_0-1_LAYER003
  6
CONTINUOUS
 62
    7
 10
1845.4319999999998
 20
1330.7706000000003
 11
1840.1287000000002
 21
1336.0739000000001
  0
LINE
  8
_0-1_LAYER003
  6
CONTINUOUS
 62
    7
 10
1845.4319999999998
 20
1330.7706000000003
 11
1795.2763
 21
1417.6429000000003
  0
LINE
  8
_0-1_LAYER003
  6
CONTINUOUS
 62
    7
 10
906.69200000000001
 20
949.18859999999995
 11
906.69200000000001
 21
889.18859999999995
  0
LINE
  8
_0-1_LAYER003
  6
CONTINUOUS
 62
    7
 10
906.69200000000001
 20
889.18859999999995
 11
966.69200000000001
 21
889.18859999999995
  0
LINE
  8
_0-1_LAYER003
  6
CONTINUOUS
 62
    7
 10
966.69200000000001
 20
889.18859999999995
 11
966.69200000000001
 21
949.18859999999995
  0
LINE
  8
_0-1_LAYER003
  6
CONTINUOUS
 62
    7
 10
966.69200000000001
 20
949.18859999999995
 11
906.69200000000001
 21
889.18859999999995
  0
LINE
  8
_0-1_LAYER003
  6
CONTINUOUS
 62
    7
 10
1209.692
 20
949.18859999999995
 11
1209.692
 21
889.18859999999995
  0
LINE
  8
_0-1_LAYER003
  6
CONTINUOUS
 62
    7
 10
1209.692
 20
889.18859999999995
 11
1269.692
 21
889.18859999999995
  0
LINE
  8
_0-1_LAYER003
  6
CONTINUOUS
 62
    7
 10
1269.692
 20
889.18859999999995
 11
1269.692
 21
949.18859999999995
  0
LINE
  8
_0-1_LAYER003
  6
CONTINUOUS
 62
    7
 10
1269.692
 20
949.18859999999995
 11
1209.692
 21
889.18859999999995
  0
LINE
  8
_0-1_LAYER003
  6
CONTINUOUS
 62
    7
 10
1160.2942
 20
664.85699999999997
 11
1341.5344
 21
978.77420000000006
  0
LINE
  8
_0-1_LAYER003
  6
CONTINUOUS
 62
    7
 10
1341.5344
 20
978.77420000000006
 11
1336.2311
 21
973.47090000000003
  0
LINE
  8
_0-1_LAYER003
  6
CONTINUOUS
 62
    7
 10
1341.5344
 20
978.77420000000006
 11
1339.5933
 21
971.52980000000002
  0
LINE
  8
_0-1_LAYER003
  6
CONTINUOUS
 62
    7
 10
1496.5011
 20
1002.3227999999999
 11
1498.4422
 21
995.0784000000001
  0
LINE
  8
_0-1_LAYER003
  6
CONTINUOUS
 62
    7
 10
1498.4422
 20
995.0784000000001
 11
1493.1388999999999
 21
1000.3816999999999
  0
LINE
  8
_0-1_LAYER003
  6
CONTINUOUS
 62
    7
 10
1498.4422
 20
995.0784000000001
 11
1447.0304999999998
 21
1084.1261
  0
LINE
  8
_0-1_LAYER003
  6
CONTINUOUS
 62
    7
 10
1512.692
 20
949.18859999999995
 11
1512.692
 21
889.18859999999995
  0
LINE
  8
_0-1_LAYER003
  6
CONTINUOUS
 62
    7
 10
1512.692
 20
889.18859999999995
 11
1572.692
 21
889.18859999999995
  0
LINE
  8
_0-1_LAYER003
  6
CONTINUOUS
 62
    7
 10
1572.692
 20
889.18859999999995
 11
1572.692
 21
949.18859999999995
  0
LINE
  8
_0-1_LAYER003
  6
CONTINUOUS
 62
    7
 10
1572.692
 20
949.18859999999995
 11
1512.692
 21
889.18859999999995
  0
LINE
  8
_0-1_LAYER003
  6
CONTINUOUS
 62
    7
 10
1791.6822000000002
 20
967.07670000000007
 11
1786.3789000000002
 21
961.77340000000004
  0
LINE
  8
_0-1_LAYER003
  6
CONTINUOUS
 62
    7
 10
1791.6822000000002
 20
967.07670000000007
 11
1789.7411000000002
 21
959.83220000000006
  0
LINE
  8
_0-1_LAYER003
  6
CONTINUOUS
 62
    7
 10
1791.6822000000002
 20
967.07670000000007
 11
1693.9122000000002
 21
797.73399999999992
  0
ARC
  8
_0-1_LAYER003
  6
CONTINUOUS
 62
    7
 10
1764.6995835955329
 20
1064.612149981421
 40
8.9524571767125032
 50
322.68177644825033
 51
24.638114684652802
  0
ARC
  8
_0-1_LAYER003
  6
CONTINUOUS
 62
    7
 10
1706.9408132279093
 20
1029.1239479052369
 40
64.895947588127768
 50
334.37907509669634
 51
9.1499475169640672
  0
TEXT
  8
_0-0_LAYER001
 62
    7
 10
1622.7763
 20
1420.1429000000005
 40
20
 41
1
 50
0
  1
外壁　防火サイディング
  0
TEXT
  8
_0-0_LAYER001
 62
    7
 10
1721.1388000000002
 20
1344.1733000000004
 40
20
 41
1
 50
0
  1
胴　縁
  0
TEXT
  8
_0-0_LAYER001
 62
    7
 10
1925.3355000000001
 20
899.39810000000034
 40
20
 41
1
 50
0
  1
下地材：１５ｘ１０５
  0
TEXT
  8
_0-0_LAYER001
 62
    7
 10
1616.0453000000002
 20
1194.0598000000002
 40
20
 41
1
 50
0
  1
葺　土　
  0
TEXT
  8
_0-0_LAYER001
 62
    7
 10
1406.4111192412761
 20
1093.8809413543929
 40
20
 41
1
 50
0
  1
桟　瓦
  0
TEXT
  8
_0-0_LAYER001
 62
    7
 10
1599.1756946979281
 20
1301.4735610769403
 40
20
 41
1
 50
0
  1
笠木：１５ｘ９０
  0
TEXT
  8
_0-0_LAYER001
 62
    7
 10
1164.7651684712991
 20
1184.2054075102931
 40
20
 41
1
 50
0
  1
255
  0
TEXT
  8
_0-0_LAYER001
 62
    7
 10
1419.6972341550932
 20
1180.4004513060572
 40
20
 41
1
 50
0
  1
255
  0
TEXT
  8
_0-0_LAYER001
 62
    7
 10
1795.1195796396842
 20
1193.0836386535098
 40
20
 41
1
 50
0
  1
75
  0
TEXT
  8
_0-0_LAYER001
 62
    7
 10
1551.6463128964485
 20
1231.0200067758935
 40
20
 41
1
 50
0
  1
熨斗瓦２段積み
  0
TEXT
  8
_0-0_LAYER001
 62
    7
 10
1426.1818449291382
 20
1265.2272306491943
 40
20
 41
1
 50
0
  1
雨押水切カラー鋼板0.35mm以上
  0
TEXT
  8
_0-4_LAYER006
 62
    7
 10
1897.5515
 20
1165.2748000000001
 40
20
 41
1
 50
0
  1
30x30
  0
TEXT
  8
_0-0_LAYER001
 62
    7
 10
1998.0505771989233
 20
1099.2280522823619
 40
20
 41
1
 50
90
  1
300
  0
TEXT
  8
_0-0_LAYER001
 62
    7
 10
1938.4395966658972
 20
1005.372465911214
 40
20
 41
1
 50
90
  1
115
  0
TEXT
  8
_0-0_LAYER001
 62
    7
 10
2086.8328886310901
 20
1032.0071593408641
 40
20
 41
1
 50
90
  1
165
  0
TEXT
  8
_0-0_LAYER001
 62
    7
 10
2090.6378448353253
 20
1189.2786824492739
 40
20
 41
1
 50
90
  1
150
  0
TEXT
  8
_0-2_LAYER004
 62
    7
 10
2144.2535447650635
 20
1112.4985604021706
 40
20
 41
1
 50
90
  1
水切り立上がり寸法
  0
TEXT
  8
_0-1_LAYER003
 62
    7
 10
2044.2956984257787
 20
1039.6721294978347
 40
20
 41
1
 50
90
  1
下葺き材立上がり寸法
  0
TEXT
  8
_0-0_LAYER001
 62
    7
 10
1429.4769658771152
 20
808.85297935438734
 40
20
 41
1
 50
0
  1
捨谷カラー鋼板0.35ｍｍ以上
  0
TEXT
  8
_0-0_LAYER001
 62
    7
 10
948.91320000000019
 20
727.31890000000033
 40
20
 41
1
 50
0
  1
　下葺材：ルーフィング
  0
TEXT
  8
_0-0_LAYER001
 62
    7
 10
1088.9842812689035
 20
669.82809804248234
 40
20
 41
1
 50
0
  1
　垂木　
  0
TEXT
  8
_0-0_LAYER001
 62
    7
 10
964.75095796150708
 20
698.38748271084933
 40
20
 41
1
 50
0
  1
　野地板：杉ｔ＝１２　
  0
TEXT
  8
_0-0_LAYER001
 62
    7
 10
979.03065029569063
 20
756.93422128100167
 40
20
 41
1
 50
0
  1
　瓦桟：１５ｘ３０以上　　
  0
ENDSEC
  0
EOF
