  0
SECTION
  2
HEADER
  9
$ACADVER
  1
AC1009
  9
$INSBASE
 10
0
 20
0
 30
0
  9
$EXTMIN
 10
0
 20
0
  9
$EXTMAX
 10
2970
 20
2100
  9
$LIMMIN
 10
0
 20
0
  9
$LIMMAX
 10
2970
 20
2100
  9
$LTSCALE
 40
10
  0
ENDSEC
  0
SECTION
  2
TABLES
  0
TABLE
  2
LTYPE
 70
     9
  0
LTYPE
  2
CONTINUOUS
 70
    64
  3
実線
 72
    65
 73
     0
 40
0.0
  0
LTYPE
  2
DASHED1
 70
    64
  3
--  --  --  --  --  --  --  --  
 72
    65
 73
     2
 40
2.5
 49
1.25
 49
-1.25
  0
LTYPE
  2
DASHED2
 70
    64
  3
----    ----    ----    ----    
 72
    65
 73
     2
 40
5.0
 49
2.5
 49
-2.5
  0
LTYPE
  2
DASHED3
 70
    64
  3
------  ------  ------  ------  
 72
    65
 73
     2
 40
5.0
 49
3.75
 49
-1.25
  0
LTYPE
  2
CENTER1
 70
    64
  3
----- - ----- - ----- - ----- - 
 72
    65
 73
     4
 40
10.0
 49
6.25
 49
-1.25
 49
1.25
 49
-1.25
  0
LTYPE
  2
CENTER2
 70
    64
  3
----------  --  ----------  --  
 72
    65
 73
     4
 40
20.0
 49
12.5
 49
-2.5
 49
2.5
 49
-2.5
  0
LTYPE
  2
PHANTOM1
 70
    64
  3
--- - - --- - - --- - - --- - - 
 72
    65
 73
     6
 40
10.0
 49
3.25
 49
-1.25
 49
1.25
 49
-1.25
 49
1.25
 49
-1.25
  0
LTYPE
  2
PHANTOM2
 70
    64
  3
--------  -  -  --------  -  -  
 72
    65
 73
     6
 40
20.0
 49
10.0
 49
-2.5
 49
1.25
 49
-2.5
 49
1.25
 49
-2.5
  0
LTYPE
  2
DOT
 70
    64
  3
-   -   -   -   -   -   -   -   
 72
    65
 73
     2
 40
2.5
 49
0.625
 49
-1.875
  0
LTYPE
  2
DUMMY
 70
    64
  3
ダミー
 72
    65
 73
     0
 40
0.0
  0
LTYPE
  2
RAND1
 70
    64
  3
ランダム線1
 72
    65
 73
     4
 40
10.0
 49
1.0
 49
-2.0
 49
3.0
 49
-4.0
  0
LTYPE
  2
RAND2
 70
    64
  3
ランダム線2
 72
    65
 73
     4
 40
14.0
 49
2.0
 49
-3.0
 49
4.0
 49
-5.0
  0
LTYPE
  2
RAND3
 70
    64
  3
ランダム線3
 72
    65
 73
     4
 40
18.0
 49
3.0
 49
-4.0
 49
5.0
 49
-6.0
  0
LTYPE
  2
RAND4
 70
    64
  3
ランダム線4
 72
    65
 73
     4
 40
22.0
 49
4.0
 49
-5.0
 49
6.0
 49
-7.0
  0
LTYPE
  2
RAND5
 70
    64
  3
ランダム線5
 72
    65
 73
     4
 40
26.0
 49
5.0
 49
-6.0
 49
7.0
 49
-8.0
  0
LTYPE
  2
LONG1
 70
    64
  3
----------  --  ----------  --  
 72
    65
 73
     4
 40
40.0
 49
32.5
 49
-2.5
 49
2.5
 49
-2.5
  0
LTYPE
  2
LONG2
 70
    64
  3
--------  -  -  --------  -  -  
 72
    65
 73
     6
 40
40.0
 49
30.0
 49
-2.5
 49
1.25
 49
-2.5
 49
1.25
 49
-2.5
  0
LTYPE
  2
LONG3
 70
    64
  3
+++++++++++++++..+++++++++++++++
 72
    65
 73
     2
 40
40.0
 49
37.5
 49
-2.5
  0
LTYPE
  2
LONG4
 70
    64
  3
+++++++++++++++..+++++++++++++++
 72
    65
 73
     2
 40
80.0
 49
75.0
 49
-5.0
  0
LTYPE
  2
LONG5
 70
    64
  3
----------  --  ----------  --  
 72
    65
 73
     4
 40
60.0
 49
37.5
 49
-7.5
 49
7.5
 49
-7.5
  0
LTYPE
  2
dashed
 70
   64
  3
-------   -------------   ------
 72
   65
 73
    2
 40
7.5
 49
6
 49
-1.5
  0
LTYPE
  2
dashed_spaced
 70
   64
  3
----        --------        ----
 72
   65
 73
    2
 40
12
 49
6
 49
-6
  0
LTYPE
  2
long_dashed_dotted
 70
   64
  3
------------- --- --------------
 72
   65
 73
    4
 40
15.25
 49
12
 49
-1.5
 49
0.25
 49
-1.5
  0
LTYPE
  2
long_dashed_double-dotted
 70
   64
  3
----------- --- --- ------------
 72
   65
 73
    6
 40
17
 49
12
 49
-1.5
 49
0.25
 49
-1.5
 49
0.25
 49
-1.5
  0
LTYPE
  2
long_dashed_triplicate-dotted
 70
   64
  3
--------- --- --- --- ----------
 72
   65
 73
    8
 40
18.75
 49
12
 49
-1.5
 49
0.25
 49
-1.5
 49
0.25
 49
-1.5
 49
0.25
 49
-1.5
  0
LTYPE
  2
dotted
 70
   64
  3
   -       -       -       -    
 72
   65
 73
    2
 40
1.75
 49
0.25
 49
-1.5
  0
LTYPE
  2
chain
 70
   64
  3
-------------- -- --------------
 72
   65
 73
    4
 40
18.5
 49
12
 49
-1.5
 49
3.5
 49
-1.5
  0
LTYPE
  2
chain_double_dash
 70
   64
  3
------------ -- -- -------------
 72
   65
 73
    6
 40
23.5
 49
12
 49
-1.5
 49
3.5
 49
-1.5
 49
3.5
 49
-1.5
  0
LTYPE
  2
dashed_dotted
 70
   64
  3
-----------     -     ----------
 72
   65
 73
    4
 40
9.25
 49
6
 49
-1.5
 49
0.25
 49
-1.5
  0
LTYPE
  2
double-dashed_dotted
 70
   64
  3
------   -----------   -   -----
 72
   65
 73
    6
 40
16.75
 49
6
 49
-1.5
 49
6
 49
-1.5
 49
0.25
 49
-1.5
  0
LTYPE
  2
dashed_double-dotted
 70
   64
  3
---------    -    -    ---------
 72
   65
 73
    6
 40
11
 49
6
 49
-1.5
 49
0.25
 49
-1.5
 49
0.25
 49
-1.5
  0
LTYPE
  2
double-dashed_double-dotted
 70
   64
  3
-----   ---------   -   -   ----
 72
   65
 73
    8
 40
18.5
 49
6
 49
-1.5
 49
6
 49
-1.5
 49
0.25
 49
-1.5
 49
0.25
 49
-1.5
  0
LTYPE
  2
dashed_triplicate-dotted
 70
   64
  3
-------    -    -    -    ------
 72
   65
 73
    8
 40
12.75
 49
6
 49
-1.5
 49
0.25
 49
-1.5
 49
0.25
 49
-1.5
 49
0.25
 49
-1.5
  0
LTYPE
  2
double-dashed_triplicate-dotted
 70
   64
  3
-----  ---------  -  -  -  -----
 72
   65
 73
   10
 40
20.25
 49
6
 49
-1.5
 49
6
 49
-1.5
 49
0.25
 49
-1.5
 49
0.25
 49
-1.5
 49
0.25
 49
-1.5
  0
LTYPE
  2
undefined
 70
   64
  3
--------------------------------
 72
   65
 73
    0
 40
0
  0
ENDTAB
  0
TABLE
  2
STYLE
  5
3
100
AcDbSymbolTable
 70
     1
  0
STYLE
  5
10
100
AcDbSymbolTableRecord
100
AcDbTextStyleTableRecord
  2
STANDARD
 70
     0
 40
0.0
 41
1.0
 50
0.0
 71
     0
 42
0.2
  3
txt
  4
bigfont.shx
  0
STYLE
  5
26
100
AcDbSymbolTableRecord
100
AcDbTextStyleTableRecord
  2
TATEGAKI
 70
    68
 40
0.0
 41
1.0
 50
0.0
 71
     0
 42
1.0
  3
txt
  4
bigfont.shx
  0
ENDTAB
  0
TABLE
  2
LAYER
 70
    8
  0
LAYER
  2
_0-0_LAYER001
 70
   64
 62
    7
  6
CONTINUOUS
  0
LAYER
  2
_0-1_LAYER002
 70
   64
 62
    7
  6
CONTINUOUS
  0
LAYER
  2
_0-2_LAYER003
 70
   64
 62
    7
  6
CONTINUOUS
  0
LAYER
  2
_0-3_LAYER004
 70
   64
 62
    7
  6
CONTINUOUS
  0
LAYER
  2
_0-4_LAYER005
 70
   64
 62
    7
  6
CONTINUOUS
  0
LAYER
  2
_0-5_LAYER006
 70
   64
 62
    7
  6
CONTINUOUS
  0
LAYER
  2
_0-6_LAYER007
 70
   64
 62
    7
  6
CONTINUOUS
  0
LAYER
  2
ADD_LINE
 70
   64
 62
    7
  6
CONTINUOUS
  0
ENDTAB
  0
ENDSEC
  0
SECTION
  2
BLOCKS
  0
ENDSEC
  0
SECTION
  2
ENTITIES
  0
LINE
  8
_0-6_LAYER007
  6
CONTINUOUS
 62
    2
 10
1484.1707999999999
 20
992.9507000000001
 11
1484.1707999999999
 21
927.15570000000002
  0
LINE
  8
_0-2_LAYER003
  6
CONTINUOUS
 62
    2
 10
1484.1707999999999
 20
927.15570000000002
 11
2333.8069999999998
 21
1309.4920999999999
  0
LINE
  8
_0-2_LAYER003
  6
CONTINUOUS
 62
    2
 10
1484.1707999999999
 20
992.9507000000001
 11
2309.1851999999999
 21
1364.2072000000003
  0
LINE
  8
_0-2_LAYER003
  6
CONTINUOUS
 62
    2
 10
1484.1707999999999
 20
1009.3996999999999
 11
2303.0297999999998
 21
1377.886
  0
LINE
  8
_0-3_LAYER004
  6
DASHED3
 62
    2
 10
1484.1707999999999
 20
1013.7856999999999
 11
2301.3885
 21
1381.5333000000001
  0
LINE
  8
_0-3_LAYER004
  6
CONTINUOUS
 62
    2
 10
1304.5300999999999
 20
1099.0105000000001
 11
1345.5666000000001
 21
1080.5435
  0
LINE
  8
_0-2_LAYER003
  6
CONTINUOUS
 62
    2
 10
1484.1707999999999
 20
927.15570000000002
 11
636.19290000000001
 21
1308.7457999999997
  0
LINE
  8
_0-2_LAYER003
  6
CONTINUOUS
 62
    2
 10
1484.1707999999999
 20
992.9507000000001
 11
660.8146999999999
 21
1363.4609
  0
LINE
  8
_0-2_LAYER003
  6
CONTINUOUS
 62
    2
 10
1484.1707999999999
 20
1009.3996999999999
 11
666.9701
 21
1377.1396999999999
  0
LINE
  8
_0-3_LAYER004
  6
DASHED3
 62
    2
 10
1484.1707999999999
 20
1013.7856999999999
 11
668.6114
 21
1380.7871
  0
LINE
  8
_0-4_LAYER005
  6
CONTINUOUS
 62
    2
 10
1611.3847999999998
 20
1105.8547000000001
 11
1653.1718000000001
 21
1122.6547
  0
LINE
  8
_0-4_LAYER005
  6
CONTINUOUS
 62
    2
 10
1611.3847999999998
 20
1105.8547000000001
 11
1622.7748000000001
 21
1080.5436999999999
  0
LINE
  8
_0-4_LAYER005
  6
CONTINUOUS
 62
    2
 10
1653.1718000000001
 20
1122.6547
 11
1663.8117999999999
 21
1099.0097000000001
  0
LINE
  8
_0-4_LAYER005
  6
CONTINUOUS
 62
    2
 10
1611.3847999999998
 20
1105.8547000000001
 11
1663.8117999999999
 21
1099.0097000000001
  0
LINE
  8
_0-4_LAYER005
  6
CONTINUOUS
 62
    2
 10
1356.9567999999999
 20
1105.8547000000001
 11
1315.1708000000003
 21
1122.6547
  0
LINE
  8
_0-4_LAYER005
  6
CONTINUOUS
 62
    2
 10
1356.9567999999999
 20
1105.8547000000001
 11
1345.5666000000001
 21
1080.5435
  0
LINE
  8
_0-4_LAYER005
  6
CONTINUOUS
 62
    2
 10
1315.1708000000003
 20
1122.6547
 11
1304.5300999999999
 21
1099.0105000000001
  0
LINE
  8
_0-4_LAYER005
  6
CONTINUOUS
 62
    2
 10
1356.9567999999999
 20
1105.8547000000001
 11
1304.5298
 21
1099.0097000000001
  0
LINE
  8
_0-4_LAYER005
  6
CONTINUOUS
 62
    3
 10
1347.8598
 20
1080.9057
 11
1483.5277999999998
 21
1019.8547000000001
  0
LINE
  8
_0-4_LAYER005
  6
CONTINUOUS
 62
    3
 10
1347.8598
 20
1080.9057
 11
1359.171
 21
1106.0416
  0
LINE
  8
_0-4_LAYER005
  6
CONTINUOUS
 62
    3
 10
1359.1707999999999
 20
1106.0417
 11
1338.7547999999997
 21
1114.2497000000001
  0
LINE
  8
_0-4_LAYER005
  6
CONTINUOUS
 62
    3
 10
1338.7547999999997
 20
1114.2497000000001
 11
1345.8543
 21
1112.9466
  0
LINE
  8
_0-4_LAYER005
  6
CONTINUOUS
 62
    3
 10
1483.5277999999998
 20
1019.8547000000001
 11
1619.7498000000001
 21
1081.1547
  0
LINE
  8
_0-4_LAYER005
  6
CONTINUOUS
 62
    3
 10
1619.7498000000001
 20
1081.1547
 11
1608.8047999999999
 21
1105.4757
  0
LINE
  8
_0-4_LAYER005
  6
CONTINUOUS
 62
    2
 10
1608.8047999999999
 20
1105.4757
 11
1608.5308
 21
1106.0847000000001
  0
LINE
  8
_0-4_LAYER005
  6
CONTINUOUS
 62
    3
 10
1608.5308
 20
1106.0847000000001
 11
1630.9987999999998
 21
1115.1177
  0
LINE
  8
_0-4_LAYER005
  6
CONTINUOUS
 62
    3
 10
1630.9987999999998
 20
1115.1177
 11
1624.8694999999998
 21
1114.5516
  0
LINE
  8
_0-0_LAYER001
  6
CONTINUOUS
 62
    2
 10
1663.8117999999999
 20
1099.0097000000001
 11
1622.7748000000001
 21
1080.5436999999999
  0
LINE
  8
_0-0_LAYER001
  6
CONTINUOUS
 62
    2
 10
1284.0250000000001
 20
943.78520000000003
 11
1295.3100999999997
 21
968.86300000000006
  0
CIRCLE
  8
_0-0_LAYER001
  6
CONTINUOUS
 62
    2
 10
1285.0509999999999
 20
946.06500000000005
 40
1.6999999999999997
  0
LINE
  8
_0-0_LAYER001
  6
CONTINUOUS
 62
    2
 10
1285.0509999999999
 20
946.06500000000005
 11
1353.4449999999997
 21
915.28749999999991
  0
CIRCLE
  8
_0-0_LAYER001
  6
CONTINUOUS
 62
    2
 10
1353.4449999999997
 20
915.28749999999991
 40
1.6999999999999997
  0
LINE
  8
_0-0_LAYER001
  6
CONTINUOUS
 62
    2
 10
1352.4191000000001
 20
913.00770000000011
 11
1363.7041999999999
 21
938.08549999999991
  0
LINE
  8
_0-0_LAYER001
  6
CONTINUOUS
 62
    2
 10
1616.9432000000002
 20
910.73350000000005
 11
1605.6585
 21
935.81150000000002
  0
CIRCLE
  8
_0-0_LAYER001
  6
CONTINUOUS
 62
    2
 10
1615.9173999999998
 20
913.01330000000007
 40
1.6999999999999997
  0
LINE
  8
_0-0_LAYER001
  6
CONTINUOUS
 62
    2
 10
1615.9173999999998
 20
913.01330000000007
 11
1684.3119000000002
 21
943.78980000000001
  0
CIRCLE
  8
_0-0_LAYER001
  6
CONTINUOUS
 62
    2
 10
1684.3119000000002
 20
943.78980000000001
 40
1.6999999999999997
  0
LINE
  8
_0-0_LAYER001
  6
CONTINUOUS
 62
    2
 10
1685.3377999999998
 20
941.50999999999999
 11
1674.0531000000001
 21
966.58799999999997
  0
CIRCLE
  8
_0-1_LAYER002
  6
CONTINUOUS
 62
    2
 10
1396.9489000000001
 20
831.05099999999993
 40
1.6999999999999997
  0
LINE
  8
_0-1_LAYER002
  6
CONTINUOUS
 62
    2
 10
1396.9489000000001
 20
831.05099999999993
 11
1260.8539000000001
 21
892.2940000000001
  0
CIRCLE
  8
_0-1_LAYER002
  6
CONTINUOUS
 62
    2
 10
1260.8539000000001
 20
892.2940000000001
 40
1.6999999999999997
  0
LINE
  8
_0-1_LAYER002
  6
CONTINUOUS
 62
    2
 10
1395.923
 20
828.77119999999991
 11
1427.7262999999998
 21
899.44499999999994
  0
LINE
  8
_0-1_LAYER002
  6
CONTINUOUS
 62
    2
 10
1259.828
 20
890.01420000000007
 11
1291.6313
 21
960.6880000000001
  0
CIRCLE
  8
_0-1_LAYER002
  6
CONTINUOUS
 62
    2
 10
1572.2420999999999
 20
830.53659999999991
 40
1.6999999999999997
  0
LINE
  8
_0-1_LAYER002
  6
CONTINUOUS
 62
    2
 10
1572.2420999999999
 20
830.53659999999991
 11
1707.8211000000001
 21
891.5465999999999
  0
CIRCLE
  8
_0-1_LAYER002
  6
CONTINUOUS
 62
    2
 10
1707.8211000000001
 20
891.5465999999999
 40
1.6999999999999997
  0
LINE
  8
_0-1_LAYER002
  6
CONTINUOUS
 62
    2
 10
1573.268
 20
828.25669999999991
 11
1541.4650000000001
 21
898.93080000000009
  0
LINE
  8
_0-1_LAYER002
  6
CONTINUOUS
 62
    2
 10
1708.8470000000002
 20
889.2666999999999
 11
1677.0439999999999
 21
959.94080000000008
  0
LINE
  8
_0-0_LAYER001
  6
CONTINUOUS
 62
    2
 10
2197.5372000000002
 20
1338.3322000000001
 11
2224.8843999999999
 21
1350.6662000000001
  0
LINE
  8
_0-0_LAYER001
  6
CONTINUOUS
 62
    2
 10
2218.7174
 20
1364.3398
 11
2191.3701999999998
 21
1352.0057999999999
  0
LINE
  8
_0-0_LAYER001
  6
CONTINUOUS
 62
    2
 10
2224.8843999999999
 20
1350.6662000000001
 11
2218.7174
 21
1364.3398
  0
LINE
  8
_0-0_LAYER001
  6
CONTINUOUS
 62
    2
 10
2191.3701999999998
 20
1352.0057999999999
 11
2197.5372000000002
 21
1338.3322000000001
  0
LINE
  8
_0-0_LAYER001
  6
CONTINUOUS
 62
    2
 10
2218.7174
 20
1364.3398
 11
2197.5372000000002
 21
1338.3322000000001
  0
LINE
  8
_0-0_LAYER001
  6
CONTINUOUS
 62
    2
 10
1991.7696999999998
 20
1245.7366999999999
 11
2019.1273000000001
 21
1258.0477000000001
  0
LINE
  8
_0-0_LAYER001
  6
CONTINUOUS
 62
    2
 10
2012.9717999999998
 20
1271.7265
 11
1985.6142
 21
1259.4155000000001
  0
LINE
  8
_0-0_LAYER001
  6
CONTINUOUS
 62
    2
 10
2019.1273000000001
 20
1258.0477000000001
 11
2012.9717999999998
 21
1271.7265
  0
LINE
  8
_0-0_LAYER001
  6
CONTINUOUS
 62
    2
 10
1985.6142
 20
1259.4155000000001
 11
1991.7696999999998
 21
1245.7366999999999
  0
LINE
  8
_0-0_LAYER001
  6
CONTINUOUS
 62
    2
 10
2012.9717999999998
 20
1271.7265
 11
1991.7696999999998
 21
1245.7366999999999
  0
LINE
  8
_0-0_LAYER001
  6
CONTINUOUS
 62
    2
 10
1786.0021999999999
 20
1153.1412
 11
1813.3598000000002
 21
1165.4521999999999
  0
LINE
  8
_0-0_LAYER001
  6
CONTINUOUS
 62
    2
 10
1807.2042999999999
 20
1179.1310000000001
 11
1779.8467000000001
 21
1166.8199999999999
  0
LINE
  8
_0-0_LAYER001
  6
CONTINUOUS
 62
    2
 10
1813.3598000000002
 20
1165.4521999999999
 11
1807.2042999999999
 21
1179.1310000000001
  0
LINE
  8
_0-0_LAYER001
  6
CONTINUOUS
 62
    2
 10
1779.8467000000001
 20
1166.8199999999999
 11
1786.0021999999999
 21
1153.1412
  0
LINE
  8
_0-0_LAYER001
  6
CONTINUOUS
 62
    2
 10
1807.2042999999999
 20
1179.1310000000001
 11
1786.0021999999999
 21
1153.1412
  0
LINE
  8
_0-0_LAYER001
  6
CONTINUOUS
 62
    4
 10
2160.3715000000002
 20
1380.0847000000001
 11
2259.8497000000002
 21
1416.1757
  0
LINE
  8
_0-0_LAYER001
  6
CONTINUOUS
 62
    4
 10
2143.7177999999999
 20
1425.9878000000001
 11
2239.7550999999999
 21
1460.8304000000001
  0
ARC
  8
_0-0_LAYER001
  6
CONTINUOUS
 62
    4
 10
1752.3575999999998
 20
1185.2498000000001
 40
10
 50
109.94091000000002
 51
199.94091
  0
ARC
  8
_0-0_LAYER001
  6
CONTINUOUS
 62
    4
 10
1958.0698000000002
 20
1277.9671000000001
 40
10
 50
109.94091000000002
 51
199.94091
  0
ARC
  8
_0-0_LAYER001
  6
CONTINUOUS
 62
    4
 10
2163.7820000000002
 20
1370.6842999999999
 40
10
 50
109.94091000000002
 51
199.94091
  0
ARC
  8
_0-0_LAYER001
  6
CONTINUOUS
 62
    4
 10
1546.6453999999999
 20
1092.5326
 40
10
 50
109.94091000000002
 51
199.94091
  0
LINE
  8
_0-0_LAYER001
  6
CONTINUOUS
 62
    4
 10
1524.0016999999998
 20
1125.6247000000001
 11
1539.6323000000002
 21
1082.5418
  0
ARC
  8
_0-0_LAYER001
  6
CONTINUOUS
 62
    4
 10
1542.8026
 20
1132.4457
 40
20
 50
109.94091000000002
 51
199.94091
  0
LINE
  8
_0-0_LAYER001
  6
CONTINUOUS
 62
    4
 10
1960.4571999999998
 20
1271.3867
 11
2219.9095000000002
 21
1365.5168000000001
  0
LINE
  8
_0-0_LAYER001
  6
CONTINUOUS
 62
    4
 10
2219.9095000000002
 20
1365.5168000000001
 11
2224.0021000000002
 21
1354.2363
  0
LINE
  8
_0-0_LAYER001
  6
CONTINUOUS
 62
    4
 10
2224.0021000000002
 20
1354.2363
 11
2232.4625000000001
 21
1357.3056999999999
  0
LINE
  8
_0-0_LAYER001
  6
CONTINUOUS
 62
    4
 10
2026.7503000000002
 20
1264.5885000000001
 11
2018.2899000000002
 21
1261.519
  0
LINE
  8
_0-0_LAYER001
  6
CONTINUOUS
 62
    4
 10
1808.4850999999999
 20
1180.0824
 11
1812.5776999999998
 21
1168.8018
  0
LINE
  8
_0-0_LAYER001
  6
CONTINUOUS
 62
    4
 10
1821.0381000000002
 20
1171.8713
 11
1812.5776999999998
 21
1168.8018
  0
LINE
  8
_0-0_LAYER001
  6
CONTINUOUS
 62
    4
 10
1535.9816000000001
 20
1151.2465999999999
 11
1728.6907000000001
 21
1221.162
  0
ARC
  8
_0-0_LAYER001
  6
CONTINUOUS
 62
    4
 10
1735.7037999999998
 20
1231.1529
 40
10
 50
109.94091000000002
 51
199.94091
  0
LINE
  8
_0-0_LAYER001
  6
CONTINUOUS
 62
    4
 10
1726.3033999999998
 20
1227.7422999999999
 11
1745.3445000000002
 21
1175.259
  0
LINE
  8
_0-0_LAYER001
  6
CONTINUOUS
 62
    4
 10
1735.5118000000002
 20
1202.3611000000001
 11
1745.3445000000002
 21
1175.259
  0
LINE
  8
_0-0_LAYER001
  6
CONTINUOUS
 62
    4
 10
1811.1475999999998
 20
1199.1325999999999
 11
1821.0381000000002
 21
1171.8713
  0
LINE
  8
_0-0_LAYER001
  6
CONTINUOUS
 62
    4
 10
1543.2348999999999
 20
1101.9331
 11
2014.1972999999998
 21
1272.7996000000001
  0
LINE
  8
_0-0_LAYER001
  6
CONTINUOUS
 62
    4
 10
2014.1972999999998
 20
1272.7996000000001
 11
2018.2899000000002
 21
1261.519
  0
LINE
  8
_0-0_LAYER001
  6
CONTINUOUS
 62
    4
 10
1732.2932999999998
 20
1240.5533
 11
1934.4029999999998
 21
1313.8793000000001
  0
ARC
  8
_0-0_LAYER001
  6
CONTINUOUS
 62
    4
 10
1941.4160999999999
 20
1323.8701000000001
 40
10
 50
109.94091000000002
 51
199.94091
  0
LINE
  8
_0-0_LAYER001
  6
CONTINUOUS
 62
    4
 10
1932.0156000000002
 20
1320.4595999999997
 11
1951.0567000000001
 21
1267.9762000000001
  0
LINE
  8
_0-0_LAYER001
  6
CONTINUOUS
 62
    4
 10
1932.0156000000002
 20
1320.4595999999997
 11
1951.0567000000001
 21
1267.9762000000001
  0
LINE
  8
_0-0_LAYER001
  6
CONTINUOUS
 62
    4
 10
1748.9470999999999
 20
1194.6503
 11
2016.8598000000002
 21
1291.8498
  0
LINE
  8
_0-0_LAYER001
  6
CONTINUOUS
 62
    4
 10
2016.8598000000002
 20
1291.8498
 11
2026.7503000000002
 21
1264.5885000000001
  0
LINE
  8
_0-0_LAYER001
  6
CONTINUOUS
 62
    4
 10
1938.0055000000002
 20
1333.2705000000001
 11
2140.1152000000002
 21
1406.5965000000001
  0
LINE
  8
_0-0_LAYER001
  6
CONTINUOUS
 62
    4
 10
2143.5257000000001
 20
1397.1959999999999
 11
2156.7689
 21
1360.6935000000001
  0
LINE
  8
_0-0_LAYER001
  6
CONTINUOUS
 62
    4
 10
2222.5720999999999
 20
1384.567
 11
2232.4625000000001
 21
1357.3056999999999
  0
LINE
  8
_0-0_LAYER001
  6
CONTINUOUS
 62
    4
 10
1954.6592999999998
 20
1287.3675000000001
 11
2266.8454999999999
 21
1400.6296
  0
LINE
  8
_0-0_LAYER001
  6
CONTINUOUS
 62
    4
 10
2137.7278000000001
 20
1413.1768
 11
2156.7689
 21
1360.6935000000001
  0
ARC
  8
_0-0_LAYER001
  6
CONTINUOUS
 62
    4
 10
2147.1282999999999
 20
1416.5872999999999
 40
10
 50
109.94091000000002
 51
199.94091
  0
LINE
  8
_0-0_LAYER001
  6
CONTINUOUS
 62
    4
 10
1808.4850999999999
 20
1180.0824
 11
1539.6323000000002
 21
1082.5418
  0
LINE
  8
_0-0_LAYER001
  6
CONTINUOUS
 62
    2
 10
1465.0556999999999
 20
1036.4416000000001
 11
1461.3056999999999
 21
1029.9464
  0
LINE
  8
_0-0_LAYER001
  6
CONTINUOUS
 62
    2
 10
1461.3056999999999
 20
1029.9464
 11
1461.3056999999999
 21
1037.4464
  0
LINE
  8
_0-0_LAYER001
  6
CONTINUOUS
 62
    2
 10
1461.3056999999999
 20
1029.9464
 11
1554.9070999999999
 21
1379.2714000000001
  0
LINE
  8
_0-0_LAYER001
  6
CONTINUOUS
 62
    2
 10
1554.9070999999999
 20
1379.2714000000001
 11
1755.9070999999999
 21
1379.2714000000001
  0
LINE
  8
_0-0_LAYER001
  6
CONTINUOUS
 62
    2
 10
1864.5709000000002
 20
1239.7108000000001
 11
1860.8209000000002
 21
1233.2156
  0
LINE
  8
_0-0_LAYER001
  6
CONTINUOUS
 62
    2
 10
1860.8209000000002
 20
1233.2156
 11
1860.8209000000002
 21
1240.7156
  0
LINE
  8
_0-0_LAYER001
  6
CONTINUOUS
 62
    2
 10
1860.8209000000002
 20
1233.2156
 11
1904.3204000000001
 21
1395.558
  0
LINE
  8
_0-0_LAYER001
  6
CONTINUOUS
 62
    2
 10
1904.3204000000001
 20
1395.558
 11
1944.8204000000001
 21
1395.558
  0
LINE
  8
_0-0_LAYER001
  6
CONTINUOUS
 62
    2
 10
794.2351000000001
 20
1400.8634000000002
 11
788.43720000000008
 21
1384.8825999999999
  0
LINE
  8
_0-0_LAYER001
  6
CONTINUOUS
 62
    2
 10
999.94730000000004
 20
1308.1461999999999
 11
994.14940000000001
 21
1292.1654000000001
  0
LINE
  8
_0-0_LAYER001
  6
CONTINUOUS
 62
    2
 10
1205.6595
 20
1215.4289000000001
 11
1199.8616
 21
1199.4482
  0
LINE
  8
_0-0_LAYER001
  6
CONTINUOUS
 62
    2
 10
1439.5731000000001
 20
1112.4802
 11
1199.8616
 21
1199.4482
  0
LINE
  8
_0-0_LAYER001
  6
CONTINUOUS
 62
    2
 10
1168.0577000000001
 20
1229.0709999999999
 11
994.14940000000001
 21
1292.1654000000001
  0
ARC
  8
_0-0_LAYER001
  6
CONTINUOUS
 62
    4
 10
1422.9818
 20
1118.4236000000001
 40
17.623681999999999
 50
340.29127000000005
 51
57.209820000000029
  0
ARC
  8
_0-0_LAYER001
  6
CONTINUOUS
 62
    4
 10
805.8451
 20
1396.5752
 40
17.623681999999999
 50
340.29127000000005
 51
57.209820000000029
  0
LINE
  8
_0-0_LAYER001
  6
CONTINUOUS
 62
    4
 10
745.77739999999994
 20
1384.5832
 11
703.2183
 21
1400.0236999999997
  0
LINE
  8
_0-0_LAYER001
  6
CONTINUOUS
 62
    2
 10
749.63210000000004
 20
1364.3559
 11
776.97929999999997
 21
1352.0219
  0
LINE
  8
_0-0_LAYER001
  6
CONTINUOUS
 62
    2
 10
743.46499999999992
 20
1350.6822999999999
 11
749.63210000000004
 21
1364.3559
  0
LINE
  8
_0-0_LAYER001
  6
CONTINUOUS
 62
    2
 10
749.63210000000004
 20
1364.3559
 11
770.81230000000005
 21
1338.3483000000001
  0
LINE
  8
_0-0_LAYER001
  6
CONTINUOUS
 62
    4
 10
824.63169999999991
 20
1426.0039000000002
 11
730.30860000000007
 21
1460.2246
  0
LINE
  8
_0-0_LAYER001
  6
CONTINUOUS
 62
    4
 10
748.43990000000008
 20
1365.5329000000002
 11
744.3472999999999
 21
1354.2524000000001
  0
LINE
  8
_0-0_LAYER001
  6
CONTINUOUS
 62
    4
 10
815.7822000000001
 20
1411.1303
 11
724.51080000000002
 21
1444.2437999999997
  0
LINE
  8
_0-0_LAYER001
  6
CONTINUOUS
 62
    4
 10
756.63329999999996
 20
1414.5054
 11
735.88689999999997
 21
1357.3218999999999
  0
LINE
  8
_0-0_LAYER001
  6
CONTINUOUS
 62
    4
 10
830.62159999999994
 20
1413.1929
 11
822.43640000000005
 21
1390.6319000000003
  0
ARC
  8
_0-0_LAYER001
  6
CONTINUOUS
 62
    4
 10
821.22119999999995
 20
1416.6034
 40
10
 50
340.05907999999999
 51
70.059082999999987
  0
ARC
  8
_0-0_LAYER001
  6
CONTINUOUS
 62
    4
 10
1217.2696000000001
 20
1211.1407999999999
 40
17.623681999999999
 50
340.29127000000005
 51
57.209820000000029
  0
LINE
  8
_0-0_LAYER001
  6
CONTINUOUS
 62
    4
 10
1168.0577000000001
 20
1229.0709999999999
 11
1432.9189000000001
 21
1132.9785999999999
  0
LINE
  8
_0-0_LAYER001
  6
CONTINUOUS
 62
    2
 10
770.81230000000005
 20
1338.3483000000001
 11
743.46499999999992
 21
1350.6822999999999
  0
LINE
  8
_0-0_LAYER001
  6
CONTINUOUS
 62
    2
 10
776.97929999999997
 20
1352.0219
 11
770.81230000000005
 21
1338.3483000000001
  0
LINE
  8
_0-0_LAYER001
  6
CONTINUOUS
 62
    2
 10
976.5797
 20
1245.7529
 11
949.22209999999995
 21
1258.0637999999999
  0
LINE
  8
_0-0_LAYER001
  6
CONTINUOUS
 62
    2
 10
982.73520000000008
 20
1259.4317000000001
 11
976.5797
 21
1245.7529
  0
LINE
  8
_0-0_LAYER001
  6
CONTINUOUS
 62
    2
 10
1182.3472999999999
 20
1153.1574000000001
 11
1154.9897000000001
 21
1165.4683
  0
LINE
  8
_0-0_LAYER001
  6
CONTINUOUS
 62
    2
 10
1161.1451
 20
1179.1470999999999
 11
1188.5028
 21
1166.8362
  0
LINE
  8
_0-0_LAYER001
  6
CONTINUOUS
 62
    2
 10
1154.9897000000001
 20
1165.4683
 11
1161.1451
 21
1179.1470999999999
  0
LINE
  8
_0-0_LAYER001
  6
CONTINUOUS
 62
    2
 10
1188.5028
 20
1166.8362
 11
1182.3472999999999
 21
1153.1574000000001
  0
LINE
  8
_0-0_LAYER001
  6
CONTINUOUS
 62
    2
 10
1161.1451
 20
1179.1470999999999
 11
1182.3472999999999
 21
1153.1574000000001
  0
LINE
  8
_0-0_LAYER001
  6
CONTINUOUS
 62
    4
 10
1444.3478
 20
1125.6407999999999
 11
1428.7172
 21
1082.5579
  0
ARC
  8
_0-0_LAYER001
  6
CONTINUOUS
 62
    4
 10
1425.5468999999998
 20
1132.4618
 40
20
 50
340.05907999999999
 51
70.059082999999987
  0
LINE
  8
_0-0_LAYER001
  6
CONTINUOUS
 62
    4
 10
744.3472999999999
 20
1354.2524000000001
 11
735.88689999999997
 21
1357.3218999999999
  0
LINE
  8
_0-0_LAYER001
  6
CONTINUOUS
 62
    4
 10
941.59909999999991
 20
1264.6045999999999
 11
950.05950000000007
 21
1261.5352
  0
LINE
  8
_0-0_LAYER001
  6
CONTINUOUS
 62
    4
 10
1159.8643999999999
 20
1180.0985000000001
 11
1155.7717
 21
1168.818
  0
LINE
  8
_0-0_LAYER001
  6
CONTINUOUS
 62
    4
 10
1147.3113000000001
 20
1171.8874000000001
 11
1155.7717
 21
1168.818
  0
LINE
  8
_0-0_LAYER001
  6
CONTINUOUS
 62
    4
 10
1432.3679000000002
 20
1151.2627
 11
1239.6587
 21
1221.1782000000001
  0
ARC
  8
_0-0_LAYER001
  6
CONTINUOUS
 62
    4
 10
1232.6456000000001
 20
1231.1690000000001
 40
10
 50
340.05907999999999
 51
70.059082999999987
  0
LINE
  8
_0-0_LAYER001
  6
CONTINUOUS
 62
    4
 10
1233.8607999999999
 20
1205.1974
 11
1242.0461
 21
1227.7584999999999
  0
LINE
  8
_0-0_LAYER001
  6
CONTINUOUS
 62
    4
 10
1168.0577000000001
 20
1229.0709999999999
 11
1147.3113000000001
 21
1171.8874000000001
  0
LINE
  8
_0-0_LAYER001
  6
CONTINUOUS
 62
    4
 10
1159.8643999999999
 20
1180.0985000000001
 11
1428.7172
 21
1082.5579
  0
ARC
  8
_0-0_LAYER001
  6
CONTINUOUS
 62
    4
 10
1011.5572999999999
 20
1303.8579999999999
 40
17.623681999999999
 50
340.29127000000005
 51
57.209820000000029
  0
LINE
  8
_0-0_LAYER001
  6
CONTINUOUS
 62
    4
 10
1157.2018
 20
1199.1487
 11
954.15210000000002
 21
1272.8157000000001
  0
LINE
  8
_0-0_LAYER001
  6
CONTINUOUS
 62
    2
 10
955.37760000000003
 20
1271.7426
 11
982.73520000000008
 21
1259.4317000000001
  0
LINE
  8
_0-0_LAYER001
  6
CONTINUOUS
 62
    2
 10
949.22209999999995
 20
1258.0637999999999
 11
955.37760000000003
 21
1271.7426
  0
LINE
  8
_0-0_LAYER001
  6
CONTINUOUS
 62
    2
 10
955.37760000000003
 20
1271.7426
 11
976.5797
 21
1245.7529
  0
LINE
  8
_0-0_LAYER001
  6
CONTINUOUS
 62
    4
 10
1227.2067
 20
1225.6958
 11
962.3454999999999
 21
1321.7882
  0
LINE
  8
_0-0_LAYER001
  6
CONTINUOUS
 62
    4
 10
954.15210000000002
 20
1272.8157000000001
 11
950.05950000000007
 21
1261.5352
  0
LINE
  8
_0-0_LAYER001
  6
CONTINUOUS
 62
    4
 10
1236.0561
 20
1240.5694000000001
 11
1033.9465
 21
1313.8954000000001
  0
ARC
  8
_0-0_LAYER001
  6
CONTINUOUS
 62
    4
 10
1026.9333999999999
 20
1323.8861999999999
 40
10
 50
340.05907999999999
 51
70.059082999999987
  0
LINE
  8
_0-0_LAYER001
  6
CONTINUOUS
 62
    4
 10
1028.1486
 20
1297.9146000000001
 11
1036.3338000000001
 21
1320.4757
  0
LINE
  8
_0-0_LAYER001
  6
CONTINUOUS
 62
    4
 10
962.3454999999999
 20
1321.7882
 11
941.59909999999991
 21
1264.6045999999999
  0
LINE
  8
_0-0_LAYER001
  6
CONTINUOUS
 62
    4
 10
951.48960000000011
 20
1291.8659
 11
748.43990000000008
 21
1365.5329000000002
  0
LINE
  8
_0-0_LAYER001
  6
CONTINUOUS
 62
    4
 10
1021.4944
 20
1318.413
 11
756.63329999999996
 21
1414.5054
  0
LINE
  8
_0-0_LAYER001
  6
CONTINUOUS
 62
    4
 10
1030.3439000000001
 20
1333.2867000000001
 11
828.23430000000008
 21
1406.6125999999999
  0
LINE
  8
_0-0_LAYER001
  6
CONTINUOUS
 62
    2
 10
962.3454999999999
 20
1321.7882
 11
788.43720000000008
 21
1384.8825999999999
  0
LINE
  8
_0-0_LAYER001
  6
CONTINUOUS
 62
    2
 10
864.3411000000001
 20
1479.9222
 11
846.43589999999995
 21
1430.5698000000002
  0
CIRCLE
  8
_0-0_LAYER001
  6
CONTINUOUS
 62
    2
 10
863.48849999999993
 20
1477.5721000000001
 40
1.6999999999999997
  0
LINE
  8
_0-0_LAYER001
  6
CONTINUOUS
 62
    2
 10
863.48849999999993
 20
1477.5721000000001
 11
1074.9985999999999
 21
1400.8356000000001
  0
CIRCLE
  8
_0-0_LAYER001
  6
CONTINUOUS
 62
    2
 10
1074.9985999999999
 20
1400.8356000000001
 40
1.6999999999999997
  0
LINE
  8
_0-0_LAYER001
  6
CONTINUOUS
 62
    2
 10
1075.8512000000001
 20
1403.1857
 11
1057.9459999999999
 21
1353.8334
  0
CIRCLE
  8
_0-0_LAYER001
  6
CONTINUOUS
 62
    2
 10
1074.9985999999999
 20
1400.8356000000001
 40
1.6999999999999997
  0
LINE
  8
_0-0_LAYER001
  6
CONTINUOUS
 62
    2
 10
1074.9985999999999
 20
1400.8356000000001
 11
1286.5085999999999
 21
1324.0990999999999
  0
CIRCLE
  8
_0-0_LAYER001
  6
CONTINUOUS
 62
    2
 10
1286.5085999999999
 20
1324.0990999999999
 40
1.6999999999999997
  0
LINE
  8
_0-0_LAYER001
  6
CONTINUOUS
 62
    2
 10
1287.3613
 20
1326.4492
 11
1269.4561000000001
 21
1277.0969
  0
CIRCLE
  8
_0-0_LAYER001
  6
CONTINUOUS
 62
    2
 10
1286.5085999999999
 20
1324.0990999999999
 40
1.6999999999999997
  0
LINE
  8
_0-0_LAYER001
  6
CONTINUOUS
 62
    2
 10
1286.5085999999999
 20
1324.0990999999999
 11
1498.0187000000001
 21
1247.3626999999999
  0
CIRCLE
  8
_0-0_LAYER001
  6
CONTINUOUS
 62
    2
 10
1498.0187000000001
 20
1247.3626999999999
 40
1.6999999999999997
  0
LINE
  8
_0-0_LAYER001
  6
CONTINUOUS
 62
    2
 10
1498.8714
 20
1249.7128
 11
1480.9661999999998
 21
1200.3604
  0
LINE
  8
_0-0_LAYER001
  6
CONTINUOUS
 62
    2
 10
1629.0704000000001
 20
1107.6077
 11
1625.3204000000001
 21
1101.1125
  0
LINE
  8
_0-0_LAYER001
  6
CONTINUOUS
 62
    2
 10
1625.3204000000001
 20
1101.1125
 11
1625.3204000000001
 21
1108.6125
  0
LINE
  8
_0-0_LAYER001
  6
CONTINUOUS
 62
    2
 10
1625.3204000000001
 20
1101.1125
 11
1682.4499000000001
 21
1314.3226999999999
  0
LINE
  8
_0-0_LAYER001
  6
CONTINUOUS
 62
    2
 10
1682.4499000000001
 20
1314.3226999999999
 11
1812.9499000000001
 21
1314.3226999999999
  0
LINE
  8
_0-0_LAYER001
  6
CONTINUOUS
 62
    2
 10
1934.7667999999999
 20
931.5938000000001
 11
2106.4382000000001
 21
931.5938000000001
  0
LINE
  8
_0-0_LAYER001
  6
CONTINUOUS
 62
    2
 10
1917.3912999999998
 20
961.68910000000005
 11
2157.9306000000001
 21
961.68910000000005
  0
LINE
  8
_0-0_LAYER001
  6
CONTINUOUS
 62
    2
 10
1952.0102999999999
 20
901.72720000000004
 11
2017.7148000000002
 21
901.72720000000004
  0
LINE
  8
_0-0_LAYER001
  6
CONTINUOUS
 62
    2
 10
1802.7013999999999
 20
1156.4555
 11
1800.7602999999999
 21
1163.7
  0
LINE
  8
_0-0_LAYER001
  6
CONTINUOUS
 62
    2
 10
1800.7602999999999
 20
1163.7
 11
1806.0636
 21
1158.3967
  0
LINE
  8
_0-0_LAYER001
  6
CONTINUOUS
 62
    2
 10
1800.7602999999999
 20
1163.7
 11
1952.0102999999999
 21
901.72720000000004
  0
LINE
  8
_0-0_LAYER001
  6
CONTINUOUS
 62
    2
 10
1900.0817999999999
 20
991.67010000000005
 11
2104.9045000000001
 21
991.67010000000005
  0
LINE
  8
_0-1_LAYER002
  6
CONTINUOUS
 62
    7
 10
1900.0817999999999
 20
991.67010000000005
 11
2104.9045000000001
 21
991.67010000000005
  0
LINE
  8
_0-1_LAYER002
  6
CONTINUOUS
 62
    7
 10
1917.3912999999998
 20
961.68910000000005
 11
2157.9306000000001
 21
961.68910000000005
  0
LINE
  8
_0-1_LAYER002
  6
CONTINUOUS
 62
    7
 10
1934.7667999999999
 20
931.5938000000001
 11
2106.4382000000001
 21
931.5938000000001
  0
LINE
  8
_0-1_LAYER002
  6
CONTINUOUS
 62
    7
 10
1952.0102999999999
 20
901.72720000000004
 11
2017.7148000000002
 21
901.72720000000004
  0
LINE
  8
_0-1_LAYER002
  6
CONTINUOUS
 62
    7
 10
1554.9070999999999
 20
1379.2714000000001
 11
1755.9070999999999
 21
1379.2714000000001
  0
LINE
  8
_0-1_LAYER002
  6
CONTINUOUS
 62
    7
 10
1682.4499000000001
 20
1314.3226999999999
 11
1812.9499000000001
 21
1314.3226999999999
  0
LINE
  8
_0-1_LAYER002
  6
CONTINUOUS
 62
    7
 10
1904.3204000000001
 20
1395.558
 11
1944.8204000000001
 21
1395.558
  0
LINE
  8
_0-1_LAYER002
  6
CONTINUOUS
 62
    7
 10
1904.3204000000001
 20
1395.558
 11
1860.8209000000002
 21
1233.2156
  0
LINE
  8
_0-1_LAYER002
  6
CONTINUOUS
 62
    7
 10
1860.8209000000002
 20
1233.2156
 11
1864.5709000000002
 21
1239.7108000000001
  0
LINE
  8
_0-1_LAYER002
  6
CONTINUOUS
 62
    7
 10
1860.8209000000002
 20
1233.2156
 11
1860.8209000000002
 21
1240.7156
  0
LINE
  8
_0-1_LAYER002
  6
CONTINUOUS
 62
    7
 10
1779.8467000000001
 20
1166.8199999999999
 11
1786.0021999999999
 21
1153.1412
  0
LINE
  8
_0-1_LAYER002
  6
CONTINUOUS
 62
    7
 10
1786.0021999999999
 20
1153.1412
 11
1813.3598000000002
 21
1165.4521999999999
  0
LINE
  8
_0-1_LAYER002
  6
CONTINUOUS
 62
    7
 10
1813.3598000000002
 20
1165.4521999999999
 11
1807.2042999999999
 21
1179.1310000000001
  0
LINE
  8
_0-1_LAYER002
  6
CONTINUOUS
 62
    7
 10
1807.2042999999999
 20
1179.1310000000001
 11
1779.8467000000001
 21
1166.8199999999999
  0
LINE
  8
_0-1_LAYER002
  6
CONTINUOUS
 62
    7
 10
1786.0021999999999
 20
1153.1412
 11
1807.2042999999999
 21
1179.1310000000001
  0
LINE
  8
_0-1_LAYER002
  6
CONTINUOUS
 62
    7
 10
1800.7602999999999
 20
1163.7
 11
1802.7013999999999
 21
1156.4555
  0
LINE
  8
_0-1_LAYER002
  6
CONTINUOUS
 62
    7
 10
1800.7602999999999
 20
1163.7
 11
1806.0636
 21
1158.3967
  0
LINE
  8
_0-1_LAYER002
  6
CONTINUOUS
 62
    7
 10
1800.7602999999999
 20
1163.7
 11
1952.0102999999999
 21
901.72720000000004
  0
LINE
  8
_0-1_LAYER002
  6
CONTINUOUS
 62
    7
 10
1674.0531000000001
 20
966.58799999999997
 11
1708.8470000000002
 21
889.2666999999999
  0
LINE
  8
_0-1_LAYER002
  6
CONTINUOUS
 62
    7
 10
1684.3118760147011
 20
943.78978920697477
 11
1615.9173999999998
 21
913.01330000000007
  0
LINE
  8
_0-1_LAYER002
  6
CONTINUOUS
 62
    7
 10
1616.9432000000002
 20
910.73350000000005
 11
1605.6585
 21
935.81150000000002
  0
LINE
  8
_0-1_LAYER002
  6
CONTINUOUS
 62
    7
 10
1707.8210710584437
 20
891.54658697641707
 11
1572.2420999999999
 21
830.53659999999991
  0
LINE
  8
_0-1_LAYER002
  6
CONTINUOUS
 62
    7
 10
1572.9396771750246
 20
828.98631419251637
 11
1541.4650000000001
 21
898.93080000000009
  0
LINE
  8
_0-1_LAYER002
  6
CONTINUOUS
 62
    7
 10
1484.1707999999999
 20
927.15570000000002
 11
1484.1707999999999
 21
992.9507000000001
  0
LINE
  8
_0-1_LAYER002
  6
CONTINUOUS
 62
    7
 10
1484.1707999999999
 20
992.9507000000001
 11
2309.1851999999999
 21
1364.2072000000003
  0
LINE
  8
_0-1_LAYER002
  6
CONTINUOUS
 62
    7
 10
2333.8069999999998
 20
1309.4920999999999
 11
1484.1707999999999
 21
927.15570000000002
  0
LINE
  8
_0-1_LAYER002
  6
CONTINUOUS
 62
    7
 10
1484.1707999999999
 20
927.15570000000002
 11
636.19290000000001
 21
1308.7457999999997
  0
LINE
  8
_0-1_LAYER002
  6
CONTINUOUS
 62
    7
 10
1484.1707999999999
 20
992.9507000000001
 11
660.8146999999999
 21
1363.4609
  0
LINE
  8
_0-1_LAYER002
  6
CONTINUOUS
 62
    7
 10
1295.3100999999997
 20
968.86300000000006
 11
1260.1562891371382
 21
890.74372935136569
  0
LINE
  8
_0-1_LAYER002
  6
CONTINUOUS
 62
    7
 10
1260.8539113836653
 20
892.29399487732974
 11
1396.9489000000001
 21
831.05099999999993
  0
LINE
  8
_0-1_LAYER002
  6
CONTINUOUS
 62
    7
 10
1396.2512891371384
 20
829.50072935136541
 11
1427.7262999999998
 21
899.44499999999994
  0
LINE
  8
_0-1_LAYER002
  6
CONTINUOUS
 62
    7
 10
1363.7041999999999
 20
938.08549999999991
 11
1352.747390541826
 21
913.7372287192668
  0
LINE
  8
_0-1_LAYER002
  6
CONTINUOUS
 62
    7
 10
1353.4449999999997
 20
915.28749999999991
 11
1285.0509999999999
 21
946.06500000000005
  0
LINE
  8
_0-1_LAYER002
  6
CONTINUOUS
 62
    7
 10
1484.1707999999999
 20
1009.3996999999999
 11
2303.0297999999998
 21
1377.886
  0
LINE
  8
_0-1_LAYER002
  6
CONTINUOUS
 62
    7
 10
2301.3885
 20
1381.5333000000001
 11
1484.1707999999999
 21
1013.7856999999999
  0
LINE
  8
_0-1_LAYER002
  6
CONTINUOUS
 62
    7
 10
1484.1707999999999
 20
1009.3996999999999
 11
666.9701
 21
1377.1396999999999
  0
LINE
  8
_0-1_LAYER002
  6
CONTINUOUS
 62
    7
 10
668.6114
 20
1380.7871
 11
1484.1707999999999
 21
1013.7856999999999
  0
LINE
  8
_0-1_LAYER002
  6
CONTINUOUS
 62
    7
 10
1461.3056999999999
 20
1037.4464
 11
1461.3056999999999
 21
1029.9464
  0
LINE
  8
_0-1_LAYER002
  6
CONTINUOUS
 62
    7
 10
1461.3056999999999
 20
1029.9464
 11
1465.0556999999999
 21
1036.4416000000001
  0
LINE
  8
_0-1_LAYER002
  6
CONTINUOUS
 62
    7
 10
1461.3056999999999
 20
1029.9464
 11
1554.9070999999999
 21
1379.2714000000001
  0
LINE
  8
_0-1_LAYER002
  6
CONTINUOUS
 62
    7
 10
1611.3847999999998
 20
1105.8547000000001
 11
1622.7748000000001
 21
1080.5436999999999
  0
LINE
  8
_0-1_LAYER002
  6
CONTINUOUS
 62
    7
 10
1622.7748000000001
 20
1080.5436999999999
 11
1663.8117999999999
 21
1099.0097000000001
  0
LINE
  8
_0-1_LAYER002
  6
CONTINUOUS
 62
    7
 10
1663.8117999999999
 20
1099.0097000000001
 11
1653.1718000000001
 21
1122.6547
  0
LINE
  8
_0-1_LAYER002
  6
CONTINUOUS
 62
    7
 10
1653.1718000000001
 20
1122.6547
 11
1611.3847999999998
 21
1105.8547000000001
  0
LINE
  8
_0-1_LAYER002
  6
CONTINUOUS
 62
    7
 10
1611.3847999999998
 20
1105.8547000000001
 11
1663.8117999999999
 21
1099.0097000000001
  0
LINE
  8
_0-1_LAYER002
  6
CONTINUOUS
 62
    7
 10
1625.3204000000001
 20
1108.6125
 11
1625.3204000000001
 21
1101.1125
  0
LINE
  8
_0-1_LAYER002
  6
CONTINUOUS
 62
    7
 10
1625.3204000000001
 20
1101.1125
 11
1629.0704000000001
 21
1107.6077
  0
LINE
  8
_0-1_LAYER002
  6
CONTINUOUS
 62
    7
 10
1625.3204000000001
 20
1101.1125
 11
1682.4499000000001
 21
1314.3226999999999
  0
LINE
  8
_0-1_LAYER002
  6
CONTINUOUS
 62
    7
 10
1985.6142
 20
1259.4155000000001
 11
2012.9717999999998
 21
1271.7265
  0
LINE
  8
_0-1_LAYER002
  6
CONTINUOUS
 62
    7
 10
2012.9717999999998
 20
1271.7265
 11
2019.1273000000001
 21
1258.0477000000001
  0
LINE
  8
_0-1_LAYER002
  6
CONTINUOUS
 62
    7
 10
2019.1273000000001
 20
1258.0477000000001
 11
1991.7696999999998
 21
1245.7366999999999
  0
LINE
  8
_0-1_LAYER002
  6
CONTINUOUS
 62
    7
 10
1991.7696999999998
 20
1245.7366999999999
 11
1985.6142
 21
1259.4155000000001
  0
LINE
  8
_0-1_LAYER002
  6
CONTINUOUS
 62
    7
 10
1991.7696999999998
 20
1245.7366999999999
 11
2012.9717999999998
 21
1271.7265
  0
LINE
  8
_0-1_LAYER002
  6
CONTINUOUS
 62
    7
 10
2191.3701999999998
 20
1352.0057999999999
 11
2218.7174
 21
1364.3398
  0
LINE
  8
_0-1_LAYER002
  6
CONTINUOUS
 62
    7
 10
2218.7174
 20
1364.3398
 11
2224.8843999999999
 21
1350.6662000000001
  0
LINE
  8
_0-1_LAYER002
  6
CONTINUOUS
 62
    7
 10
2224.8843999999999
 20
1350.6662000000001
 11
2197.5372000000002
 21
1338.3322000000001
  0
LINE
  8
_0-1_LAYER002
  6
CONTINUOUS
 62
    7
 10
2197.5372000000002
 20
1338.3322000000001
 11
2191.3701999999998
 21
1352.0057999999999
  0
LINE
  8
_0-1_LAYER002
  6
CONTINUOUS
 62
    7
 10
2197.5372000000002
 20
1338.3322000000001
 11
2218.7174
 21
1364.3398
  0
LINE
  8
_0-1_LAYER002
  6
CONTINUOUS
 62
    7
 10
749.63210000000004
 20
1364.3559
 11
743.46499999999992
 21
1350.6822999999999
  0
LINE
  8
_0-1_LAYER002
  6
CONTINUOUS
 62
    7
 10
743.46499999999992
 20
1350.6822999999999
 11
770.81230000000005
 21
1338.3483000000001
  0
LINE
  8
_0-1_LAYER002
  6
CONTINUOUS
 62
    7
 10
770.81230000000005
 20
1338.3483000000001
 11
749.63210000000004
 21
1364.3559
  0
LINE
  8
_0-1_LAYER002
  6
CONTINUOUS
 62
    7
 10
749.63210000000004
 20
1364.3559
 11
776.97929999999997
 21
1352.0219
  0
LINE
  8
_0-1_LAYER002
  6
CONTINUOUS
 62
    7
 10
776.97929999999997
 20
1352.0219
 11
770.81230000000005
 21
1338.3483000000001
  0
LINE
  8
_0-1_LAYER002
  6
CONTINUOUS
 62
    7
 10
955.37760000000003
 20
1271.7426
 11
949.22209999999995
 21
1258.0637999999999
  0
LINE
  8
_0-1_LAYER002
  6
CONTINUOUS
 62
    7
 10
949.22209999999995
 20
1258.0637999999999
 11
976.5797
 21
1245.7529
  0
LINE
  8
_0-1_LAYER002
  6
CONTINUOUS
 62
    7
 10
976.5797
 20
1245.7529
 11
955.37760000000003
 21
1271.7426
  0
LINE
  8
_0-1_LAYER002
  6
CONTINUOUS
 62
    7
 10
955.37760000000003
 20
1271.7426
 11
982.73520000000008
 21
1259.4317000000001
  0
LINE
  8
_0-1_LAYER002
  6
CONTINUOUS
 62
    7
 10
982.73520000000008
 20
1259.4317000000001
 11
976.5797
 21
1245.7529
  0
LINE
  8
_0-1_LAYER002
  6
CONTINUOUS
 62
    7
 10
1161.1451
 20
1179.1470999999999
 11
1154.9897000000001
 21
1165.4683
  0
LINE
  8
_0-1_LAYER002
  6
CONTINUOUS
 62
    7
 10
1154.9897000000001
 20
1165.4683
 11
1182.3472999999999
 21
1153.1574000000001
  0
LINE
  8
_0-1_LAYER002
  6
CONTINUOUS
 62
    7
 10
1182.3472999999999
 20
1153.1574000000001
 11
1161.1451
 21
1179.1470999999999
  0
LINE
  8
_0-1_LAYER002
  6
CONTINUOUS
 62
    7
 10
1161.1451
 20
1179.1470999999999
 11
1188.5028
 21
1166.8362
  0
LINE
  8
_0-1_LAYER002
  6
CONTINUOUS
 62
    7
 10
1188.5028
 20
1166.8362
 11
1182.3472999999999
 21
1153.1574000000001
  0
LINE
  8
_0-1_LAYER002
  6
CONTINUOUS
 62
    7
 10
1315.1708000000003
 20
1122.6547
 11
1304.5300999999999
 21
1099.0105000000001
  0
LINE
  8
_0-1_LAYER002
  6
CONTINUOUS
 62
    7
 10
1304.5314104754329
 20
1099.0099102676932
 11
1345.5666000000001
 21
1080.5435
  0
LINE
  8
_0-1_LAYER002
  6
CONTINUOUS
 62
    7
 10
1345.5666000000001
 20
1080.5435
 11
1356.9567999999999
 21
1105.8547000000001
  0
LINE
  8
_0-1_LAYER002
  6
CONTINUOUS
 62
    7
 10
1356.9567999999999
 20
1105.8547000000001
 11
1315.1708000000003
 21
1122.6547
  0
LINE
  8
_0-1_LAYER002
  6
CONTINUOUS
 62
    7
 10
1356.9567999999999
 20
1105.8547000000001
 11
1304.5300999999999
 21
1099.0105000000001
  0
LINE
  8
_0-1_LAYER002
  6
CONTINUOUS
 62
    7
 10
1480.9661999999998
 20
1200.3604
 11
1498.8714
 21
1249.7128
  0
LINE
  8
_0-1_LAYER002
  6
CONTINUOUS
 62
    7
 10
1498.0187000000001
 20
1247.3626999999999
 11
865.08657610854186
 21
1476.992313184604
  0
LINE
  8
_0-1_LAYER002
  6
CONTINUOUS
 62
    7
 10
865.08657610854186
 20
1476.992313184604
 11
863.48849999999993
 21
1477.5721000000001
  0
LINE
  8
_0-1_LAYER002
  6
CONTINUOUS
 62
    7
 10
864.06826617432239
 20
1479.1701835970348
 11
846.43589999999995
 21
1430.5698000000002
  0
LINE
  8
_0-1_LAYER002
  6
CONTINUOUS
 62
    7
 10
1075.5783656857941
 20
1402.4336837742671
 11
1057.9459999999999
 21
1353.8334
  0
LINE
  8
_0-1_LAYER002
  6
CONTINUOUS
 62
    7
 10
1287.3613
 20
1326.4492
 11
1269.4561000000001
 21
1277.0969
  0
TEXT
  8
_0-0_LAYER001
 62
    7
 10
1682.4499000000003
 20
1316.8227000000002
 40
20
 41
1
 50
0
  1
桟木：４０ｘ３０
  0
TEXT
  8
_0-0_LAYER001
 62
    7
 10
1934.7667999999999
 20
934.0938000000001
 40
20
 41
1
 50
0
  1
　野地板：杉ｔ＝１２
  0
TEXT
  8
_0-0_LAYER001
 62
    7
 10
1952.0102999999999
 20
904.22720000000015
 40
20
 41
1
 50
0
  1
　垂木
  0
TEXT
  8
_0-0_LAYER001
 62
    7
 10
1901.5851174096861
 20
1405.574301697216
 40
20
 41
1
 50
0
  1
桟　瓦
  0
TEXT
  8
_0-0_LAYER001
 62
    7
 10
962.51648176999095
 20
1458.6326591173222
 40
20
 41
1
 50
-19.940900000000045
  1
235
  0
TEXT
  8
_0-0_LAYER001
 62
    7
 10
1178.292807188782
 20
1382.3916908026831
 40
20
 41
1
 50
-19.94090000000007
  1
235
  0
TEXT
  8
_0-0_LAYER001
 62
    7
 10
1385.438079590821
 20
1301.8351959796673
 40
20
 41
1
 50
-19.940899999999996
  1
235
  0
TEXT
  8
_0-0_LAYER001
 62
    7
 10
1319.3600206242479
 20
942.2606445097382
 40
20
 41
1
 50
-24.227885999999994
  1
75
  0
TEXT
  8
_0-1_LAYER002
 62
    7
 10
1327.900119671328
 20
877.14238927575423
 40
20
 41
1
 50
-24.227800000000023
  1
150
  0
TEXT
  8
_0-0_LAYER001
 62
    7
 10
1638.0124663184138
 20
936.38932641487122
 40
20
 41
1
 50
24.226991000000002
  1
75
  0
TEXT
  8
_0-1_LAYER002
 62
    7
 10
1624.6685615573515
 20
870.73731499044516
 40
20
 41
1
 50
24.227599999999981
  1
150
  0
TEXT
  8
_0-0_LAYER001
 62
    7
 10
1898.7059329320723
 20
996.37145313843507
 40
20
 41
1
 50
0
  1
　瓦桟：１５ｘ３０以上
  0
TEXT
  8
_0-0_LAYER001
 62
    7
 10
1917.3912999999998
 20
964.18910000000005
 40
20
 41
1
 50
0
  1
　下葺材：ルーフィング
  0
TEXT
  8
_0-0_LAYER001
 62
    7
 10
1543.2378987126922
 20
1386.980813934636
 40
20
 41
1
 50
0
  1
谷樋カラー鋼板0.35ｍｍ以上
  0
TEXT
  8
_0-5_LAYER006
 62
    7
 10
1239.840928632846
 20
695.03009458297493
 40
20
 41
1
 50
0
  1
谷樋巾寸法については現場にあわせて調整
  0
TEXT
  8
_0-5_LAYER006
 62
    7
 10
1247.5021496130696
 20
733.33619948409273
 40
20
 41
1
 50
0
  1
谷樋部分の下葺き材（ルーフィング９４０）は、２枚重ねとする
  0
ENDSEC
  0
EOF
