  0
SECTION
  2
HEADER
  9
$ACADVER
  1
AC1009
  9
$INSBASE
 10
0
 20
0
 30
0
  9
$EXTMIN
 10
0
 20
0
  9
$EXTMAX
 10
2970
 20
2100
  9
$LIMMIN
 10
0
 20
0
  9
$LIMMAX
 10
2970
 20
2100
  9
$LTSCALE
 40
10
  0
ENDSEC
  0
SECTION
  2
TABLES
  0
TABLE
  2
LTYPE
 70
     9
  0
LTYPE
  2
CONTINUOUS
 70
    64
  3
実線
 72
    65
 73
     0
 40
0.0
  0
LTYPE
  2
DASHED1
 70
    64
  3
--  --  --  --  --  --  --  --  
 72
    65
 73
     2
 40
2.5
 49
1.25
 49
-1.25
  0
LTYPE
  2
DASHED2
 70
    64
  3
----    ----    ----    ----    
 72
    65
 73
     2
 40
5.0
 49
2.5
 49
-2.5
  0
LTYPE
  2
DASHED3
 70
    64
  3
------  ------  ------  ------  
 72
    65
 73
     2
 40
5.0
 49
3.75
 49
-1.25
  0
LTYPE
  2
CENTER1
 70
    64
  3
----- - ----- - ----- - ----- - 
 72
    65
 73
     4
 40
10.0
 49
6.25
 49
-1.25
 49
1.25
 49
-1.25
  0
LTYPE
  2
CENTER2
 70
    64
  3
----------  --  ----------  --  
 72
    65
 73
     4
 40
20.0
 49
12.5
 49
-2.5
 49
2.5
 49
-2.5
  0
LTYPE
  2
PHANTOM1
 70
    64
  3
--- - - --- - - --- - - --- - - 
 72
    65
 73
     6
 40
10.0
 49
3.25
 49
-1.25
 49
1.25
 49
-1.25
 49
1.25
 49
-1.25
  0
LTYPE
  2
PHANTOM2
 70
    64
  3
--------  -  -  --------  -  -  
 72
    65
 73
     6
 40
20.0
 49
10.0
 49
-2.5
 49
1.25
 49
-2.5
 49
1.25
 49
-2.5
  0
LTYPE
  2
DOT
 70
    64
  3
-   -   -   -   -   -   -   -   
 72
    65
 73
     2
 40
2.5
 49
0.625
 49
-1.875
  0
LTYPE
  2
DUMMY
 70
    64
  3
ダミー
 72
    65
 73
     0
 40
0.0
  0
LTYPE
  2
RAND1
 70
    64
  3
ランダム線1
 72
    65
 73
     4
 40
10.0
 49
1.0
 49
-2.0
 49
3.0
 49
-4.0
  0
LTYPE
  2
RAND2
 70
    64
  3
ランダム線2
 72
    65
 73
     4
 40
14.0
 49
2.0
 49
-3.0
 49
4.0
 49
-5.0
  0
LTYPE
  2
RAND3
 70
    64
  3
ランダム線3
 72
    65
 73
     4
 40
18.0
 49
3.0
 49
-4.0
 49
5.0
 49
-6.0
  0
LTYPE
  2
RAND4
 70
    64
  3
ランダム線4
 72
    65
 73
     4
 40
22.0
 49
4.0
 49
-5.0
 49
6.0
 49
-7.0
  0
LTYPE
  2
RAND5
 70
    64
  3
ランダム線5
 72
    65
 73
     4
 40
26.0
 49
5.0
 49
-6.0
 49
7.0
 49
-8.0
  0
LTYPE
  2
LONG1
 70
    64
  3
----------  --  ----------  --  
 72
    65
 73
     4
 40
40.0
 49
32.5
 49
-2.5
 49
2.5
 49
-2.5
  0
LTYPE
  2
LONG2
 70
    64
  3
--------  -  -  --------  -  -  
 72
    65
 73
     6
 40
40.0
 49
30.0
 49
-2.5
 49
1.25
 49
-2.5
 49
1.25
 49
-2.5
  0
LTYPE
  2
LONG3
 70
    64
  3
+++++++++++++++..+++++++++++++++
 72
    65
 73
     2
 40
40.0
 49
37.5
 49
-2.5
  0
LTYPE
  2
LONG4
 70
    64
  3
+++++++++++++++..+++++++++++++++
 72
    65
 73
     2
 40
80.0
 49
75.0
 49
-5.0
  0
LTYPE
  2
LONG5
 70
    64
  3
----------  --  ----------  --  
 72
    65
 73
     4
 40
60.0
 49
37.5
 49
-7.5
 49
7.5
 49
-7.5
  0
LTYPE
  2
dashed
 70
   64
  3
-------   -------------   ------
 72
   65
 73
    2
 40
7.5
 49
6
 49
-1.5
  0
LTYPE
  2
dashed_spaced
 70
   64
  3
----        --------        ----
 72
   65
 73
    2
 40
12
 49
6
 49
-6
  0
LTYPE
  2
long_dashed_dotted
 70
   64
  3
------------- --- --------------
 72
   65
 73
    4
 40
15.25
 49
12
 49
-1.5
 49
0.25
 49
-1.5
  0
LTYPE
  2
long_dashed_double-dotted
 70
   64
  3
----------- --- --- ------------
 72
   65
 73
    6
 40
17
 49
12
 49
-1.5
 49
0.25
 49
-1.5
 49
0.25
 49
-1.5
  0
LTYPE
  2
long_dashed_triplicate-dotted
 70
   64
  3
--------- --- --- --- ----------
 72
   65
 73
    8
 40
18.75
 49
12
 49
-1.5
 49
0.25
 49
-1.5
 49
0.25
 49
-1.5
 49
0.25
 49
-1.5
  0
LTYPE
  2
dotted
 70
   64
  3
   -       -       -       -    
 72
   65
 73
    2
 40
1.75
 49
0.25
 49
-1.5
  0
LTYPE
  2
chain
 70
   64
  3
-------------- -- --------------
 72
   65
 73
    4
 40
18.5
 49
12
 49
-1.5
 49
3.5
 49
-1.5
  0
LTYPE
  2
chain_double_dash
 70
   64
  3
------------ -- -- -------------
 72
   65
 73
    6
 40
23.5
 49
12
 49
-1.5
 49
3.5
 49
-1.5
 49
3.5
 49
-1.5
  0
LTYPE
  2
dashed_dotted
 70
   64
  3
-----------     -     ----------
 72
   65
 73
    4
 40
9.25
 49
6
 49
-1.5
 49
0.25
 49
-1.5
  0
LTYPE
  2
double-dashed_dotted
 70
   64
  3
------   -----------   -   -----
 72
   65
 73
    6
 40
16.75
 49
6
 49
-1.5
 49
6
 49
-1.5
 49
0.25
 49
-1.5
  0
LTYPE
  2
dashed_double-dotted
 70
   64
  3
---------    -    -    ---------
 72
   65
 73
    6
 40
11
 49
6
 49
-1.5
 49
0.25
 49
-1.5
 49
0.25
 49
-1.5
  0
LTYPE
  2
double-dashed_double-dotted
 70
   64
  3
-----   ---------   -   -   ----
 72
   65
 73
    8
 40
18.5
 49
6
 49
-1.5
 49
6
 49
-1.5
 49
0.25
 49
-1.5
 49
0.25
 49
-1.5
  0
LTYPE
  2
dashed_triplicate-dotted
 70
   64
  3
-------    -    -    -    ------
 72
   65
 73
    8
 40
12.75
 49
6
 49
-1.5
 49
0.25
 49
-1.5
 49
0.25
 49
-1.5
 49
0.25
 49
-1.5
  0
LTYPE
  2
double-dashed_triplicate-dotted
 70
   64
  3
-----  ---------  -  -  -  -----
 72
   65
 73
   10
 40
20.25
 49
6
 49
-1.5
 49
6
 49
-1.5
 49
0.25
 49
-1.5
 49
0.25
 49
-1.5
 49
0.25
 49
-1.5
  0
LTYPE
  2
undefined
 70
   64
  3
--------------------------------
 72
   65
 73
    0
 40
0
  0
ENDTAB
  0
TABLE
  2
STYLE
  5
3
100
AcDbSymbolTable
 70
     1
  0
STYLE
  5
10
100
AcDbSymbolTableRecord
100
AcDbTextStyleTableRecord
  2
STANDARD
 70
     0
 40
0.0
 41
1.0
 50
0.0
 71
     0
 42
0.2
  3
txt
  4
bigfont.shx
  0
STYLE
  5
26
100
AcDbSymbolTableRecord
100
AcDbTextStyleTableRecord
  2
TATEGAKI
 70
    68
 40
0.0
 41
1.0
 50
0.0
 71
     0
 42
1.0
  3
txt
  4
bigfont.shx
  0
ENDTAB
  0
TABLE
  2
LAYER
 70
    3
  0
LAYER
  2
_0-0_LAYER001
 70
   64
 62
    7
  6
CONTINUOUS
  0
LAYER
  2
_0-1_LAYER003
 70
   64
 62
    7
  6
CONTINUOUS
  0
LAYER
  2
ADD_LINE
 70
   64
 62
    7
  6
CONTINUOUS
  0
ENDTAB
  0
ENDSEC
  0
SECTION
  2
BLOCKS
  0
ENDSEC
  0
SECTION
  2
ENTITIES
  0
LINE
  8
_0-0_LAYER001
  6
CONTINUOUS
 62
    2
 10
1771.8804
 20
1325.2916
 11
1773.8216000000002
 21
1318.0472
  0
LINE
  8
_0-0_LAYER001
  6
CONTINUOUS
 62
    2
 10
1773.8216000000002
 20
1318.0472
 11
1768.5183000000002
 21
1323.3505
  0
LINE
  8
_0-0_LAYER001
  6
CONTINUOUS
 62
    2
 10
1773.8216000000002
 20
1318.0472
 11
1712.1884
 21
1424.799
  0
LINE
  8
_0-0_LAYER001
  6
CONTINUOUS
 62
    2
 10
1712.1884
 20
1424.799
 11
1671.6884
 21
1424.799
  0
LINE
  8
_0-1_LAYER003
  6
CONTINUOUS
 62
    3
 10
1167.0618999999999
 20
955.35840000000007
 11
1084.9889000000001
 21
918.42540000000008
  0
LINE
  8
_0-0_LAYER001
  6
CONTINUOUS
 62
    2
 10
1058.1918000000001
 20
790.89290000000005
 11
1036.6477
 21
838.76870000000008
  0
CIRCLE
  8
_0-0_LAYER001
  6
CONTINUOUS
 62
    2
 10
1057.1659
 20
793.17270000000008
 40
1.6999999999999997
  0
LINE
  8
_0-0_LAYER001
  6
CONTINUOUS
 62
    2
 10
1057.1659
 20
793.17270000000008
 11
1126.7741000000001
 21
824.49639999999999
  0
CIRCLE
  8
_0-0_LAYER001
  6
CONTINUOUS
 62
    2
 10
1126.7741000000001
 20
824.49639999999999
 40
1.6999999999999997
  0
LINE
  8
_0-0_LAYER001
  6
CONTINUOUS
 62
    2
 10
1127.8
 20
822.21659999999997
 11
1106.2559000000001
 21
870.09249999999997
  0
LINE
  8
_0-0_LAYER001
  6
CONTINUOUS
 62
    2
 10
1590.8060999999998
 20
541.10257999999999
 11
1616.6377000000002
 21
550.53542000000004
  0
CIRCLE
  8
_0-0_LAYER001
  6
CONTINUOUS
 62
    2
 10
1593.1545000000001
 20
541.96010999999999
 40
1.6999999999999997
  0
LINE
  8
_0-0_LAYER001
  6
CONTINUOUS
 62
    2
 10
1593.1545000000001
 20
541.96010999999999
 11
1586.2941999999998
 21
560.74672999999996
  0
CIRCLE
  8
_0-0_LAYER001
  6
CONTINUOUS
 62
    2
 10
1586.2941999999998
 20
560.74672999999996
 40
1.6999999999999997
  0
LINE
  8
_0-0_LAYER001
  6
CONTINUOUS
 62
    2
 10
1583.9459000000002
 20
559.88919999999996
 11
1609.7775000000001
 21
569.322
  0
CIRCLE
  8
_0-0_LAYER001
  6
CONTINUOUS
 62
    2
 10
1586.2941999999998
 20
560.74672999999996
 40
1.6999999999999997
  0
LINE
  8
_0-0_LAYER001
  6
CONTINUOUS
 62
    2
 10
1586.2941999999998
 20
560.74672999999996
 11
1575.6608000000001
 21
589.86590000000001
  0
CIRCLE
  8
_0-0_LAYER001
  6
CONTINUOUS
 62
    2
 10
1575.6608000000001
 20
589.86590000000001
 40
1.6999999999999997
  0
LINE
  8
_0-0_LAYER001
  6
CONTINUOUS
 62
    2
 10
1573.3125
 20
589.00839999999994
 11
1599.1441
 21
598.44129999999996
  0
LINE
  8
_0-0_LAYER001
  6
CONTINUOUS
 62
    2
 10
1553.8762999999999
 20
527.61703999999997
 11
1579.7078999999999
 21
537.04988000000003
  0
CIRCLE
  8
_0-0_LAYER001
  6
CONTINUOUS
 62
    2
 10
1556.2246
 20
528.47456999999997
 40
1.6999999999999997
  0
LINE
  8
_0-0_LAYER001
  6
CONTINUOUS
 62
    2
 10
1556.2246
 20
528.47456999999997
 11
1551.0794999999998
 21
542.56453999999997
  0
CIRCLE
  8
_0-0_LAYER001
  6
CONTINUOUS
 62
    2
 10
1551.0794999999998
 20
542.56453999999997
 40
1.6999999999999997
  0
LINE
  8
_0-0_LAYER001
  6
CONTINUOUS
 62
    2
 10
1548.7311
 20
541.70699999999999
 11
1574.5626999999999
 21
551.13984000000005
  0
CIRCLE
  8
_0-0_LAYER001
  6
CONTINUOUS
 62
    2
 10
1551.0794999999998
 20
542.56453999999997
 40
1.6999999999999997
  0
LINE
  8
_0-0_LAYER001
  6
CONTINUOUS
 62
    2
 10
1551.0794999999998
 20
542.56453999999997
 11
1538.7310000000002
 21
576.38040000000001
  0
CIRCLE
  8
_0-0_LAYER001
  6
CONTINUOUS
 62
    2
 10
1538.7310000000002
 20
576.38040000000001
 40
1.6999999999999997
  0
LINE
  8
_0-0_LAYER001
  6
CONTINUOUS
 62
    2
 10
1536.3827000000001
 20
575.52290000000005
 11
1562.2143000000001
 21
584.95569999999998
  0
LINE
  8
_0-0_LAYER001
  6
CONTINUOUS
 62
    2
 10
1626.8128000000002
 20
554.21916999999996
 11
1646.9436000000001
 21
499.09154000000001
  0
LINE
  8
_0-0_LAYER001
  6
CONTINUOUS
 62
    2
 10
1647.3798999999999
 20
497.89676999999995
 11
1962.0106999999998
 21
612.78939999999989
  0
LINE
  8
_0-0_LAYER001
  6
CONTINUOUS
 62
    2
 10
1626.7991000000002
 20
554.25662
 11
1941.4299999999998
 21
669.14930000000004
  0
LINE
  8
_0-0_LAYER001
  6
CONTINUOUS
 62
    2
 10
1720.2837
 20
604.36280000000011
 11
1936.2847999999999
 21
683.23919999999998
  0
LINE
  8
_0-0_LAYER001
  6
CONTINUOUS
 62
    2
 10
1718.5686000000001
 20
609.05950000000007
 11
1725.4288999999999
 21
590.27289999999994
  0
LINE
  8
_0-0_LAYER001
  6
CONTINUOUS
 62
    2
 10
1631.8494999999998
 20
610.39480000000003
 11
1640.8044
 21
613.66480000000001
  0
LINE
  8
_0-0_LAYER001
  6
CONTINUOUS
 62
    2
 10
1640.8044
 20
613.66480000000001
 11
1699.0228999999999
 21
601.9221
  0
LINE
  8
_0-0_LAYER001
  6
CONTINUOUS
 62
    2
 10
1634.0288999999998
 20
578.1884
 11
1640.8890999999999
 21
559.40180999999995
  0
LINE
  8
_0-0_LAYER001
  6
CONTINUOUS
 62
    2
 10
1634.0288999999998
 20
578.1884
 11
1718.5686000000001
 21
609.05950000000007
  0
LINE
  8
_0-0_LAYER001
  6
CONTINUOUS
 62
    2
 10
1631.8528999999999
 20
610.38539999999989
 11
1642.4828000000002
 21
581.27549999999997
  0
LINE
  8
_0-0_LAYER001
  6
CONTINUOUS
 62
    2
 10
1871.2276999999999
 20
659.66399999999999
 11
1899.4076
 21
669.9543000000001
  0
LINE
  8
_0-0_LAYER001
  6
CONTINUOUS
 62
    2
 10
1899.4076
 20
669.9543000000001
 11
1894.2624000000001
 21
684.04430000000002
  0
LINE
  8
_0-0_LAYER001
  6
CONTINUOUS
 62
    2
 10
1894.2624000000001
 20
684.04430000000002
 11
1866.0825
 21
673.75389999999993
  0
LINE
  8
_0-0_LAYER001
  6
CONTINUOUS
 62
    2
 10
1866.0825
 20
673.75389999999993
 11
1871.2276999999999
 21
659.66399999999999
  0
LINE
  8
_0-0_LAYER001
  6
CONTINUOUS
 62
    2
 10
1865.5699
 20
674.05109999999991
 11
1899.2401
 21
669.97340000000008
  0
LINE
  8
_0-0_LAYER001
  6
CONTINUOUS
 62
    2
 10
1870.8453
 20
659.60459999999989
 11
1893.8303999999998
 21
683.24170000000004
  0
LINE
  8
_0-0_LAYER001
  6
CONTINUOUS
 62
    3
 10
1082.5918999999999
 20
971.41619999999989
 11
1073.4726000000001
 21
967.31259999999997
  0
LINE
  8
_0-0_LAYER001
  6
CONTINUOUS
 62
    3
 10
1140.2145
 20
965.20869999999991
 11
1082.5918999999999
 21
971.41619999999989
  0
LINE
  8
_0-0_LAYER001
  6
CONTINUOUS
 62
    3
 10
1076.3801000000001
 20
936.48309999999992
 11
1084.5873999999999
 21
918.24469999999997
  0
LINE
  8
_0-0_LAYER001
  6
CONTINUOUS
 62
    3
 10
1158.453
 20
973.41609999999991
 11
1166.6603
 21
955.17750000000001
  0
LINE
  8
_0-0_LAYER001
  6
CONTINUOUS
 62
    3
 10
1158.453
 20
973.41609999999991
 11
1076.3801000000001
 21
936.48309999999992
  0
LINE
  8
_0-0_LAYER001
  6
CONTINUOUS
 62
    2
 10
1164.9066
 20
954.38840000000005
 11
1166.6822
 21
956.16399999999999
  0
LINE
  8
_0-0_LAYER001
  6
CONTINUOUS
 62
    2
 10
1139.1936000000001
 20
942.81750000000011
 11
1162.1516999999999
 21
965.77559999999994
  0
LINE
  8
_0-0_LAYER001
  6
CONTINUOUS
 62
    2
 10
1113.4806000000001
 20
931.24669999999992
 11
1153.3567
 21
971.1226999999999
  0
LINE
  8
_0-0_LAYER001
  6
CONTINUOUS
 62
    2
 10
1087.7675999999999
 20
919.67579999999998
 11
1127.6436000000001
 21
959.55179999999996
  0
LINE
  8
_0-0_LAYER001
  6
CONTINUOUS
 62
    2
 10
1080.9480000000001
 20
926.99839999999995
 11
1101.9304999999999
 21
947.98090000000002
  0
LINE
  8
_0-0_LAYER001
  6
CONTINUOUS
 62
    3
 10
1085.4992999999999
 20
940.58680000000004
 11
1073.4726000000001
 21
967.31259999999997
  0
LINE
  8
_0-0_LAYER001
  6
CONTINUOUS
 62
    2
 10
1079.0261
 20
954.97150000000011
 11
1090.9555
 21
943.04209999999989
  0
LINE
  8
_0-0_LAYER001
  6
CONTINUOUS
 62
    2
 10
1078.5446999999999
 20
969.59500000000003
 11
1100.7086999999999
 21
947.43110000000001
  0
LINE
  8
_0-0_LAYER001
  6
CONTINUOUS
 62
    2
 10
1091.8646000000001
 20
970.41730000000007
 11
1110.4619
 21
951.81999999999994
  0
LINE
  8
_0-0_LAYER001
  6
CONTINUOUS
 62
    2
 10
1107.7141999999999
 20
968.70990000000006
 11
1120.2150999999999
 21
956.20900000000006
  0
LINE
  8
_0-0_LAYER001
  6
CONTINUOUS
 62
    2
 10
1123.5636999999999
 20
967.00250000000005
 11
1129.9683
 21
960.59789999999998
  0
LINE
  8
_0-0_LAYER001
  6
CONTINUOUS
 62
    2
 10
913.45389999999998
 20
841.23479999999995
 11
961.32979999999998
 21
862.77890000000002
  0
CIRCLE
  8
_0-0_LAYER001
  6
CONTINUOUS
 62
    2
 10
915.7337
 20
842.26070000000004
 40
1.6999999999999997
  0
LINE
  8
_0-0_LAYER001
  6
CONTINUOUS
 62
    2
 10
915.7337
 20
842.26070000000004
 11
907.52639999999997
 21
860.4991
  0
CIRCLE
  8
_0-0_LAYER001
  6
CONTINUOUS
 62
    2
 10
907.52639999999997
 20
860.4991
 40
1.6999999999999997
  0
LINE
  8
_0-0_LAYER001
  6
CONTINUOUS
 62
    2
 10
905.24659999999994
 20
859.47319999999991
 11
953.12249999999995
 21
881.01729999999998
  0
CIRCLE
  8
_0-0_LAYER001
  6
CONTINUOUS
 62
    2
 10
907.52639999999997
 20
860.4991
 40
1.6999999999999997
  0
LINE
  8
_0-0_LAYER001
  6
CONTINUOUS
 62
    2
 10
907.52639999999997
 20
860.4991
 11
894.80490000000009
 21
888.76919999999996
  0
CIRCLE
  8
_0-0_LAYER001
  6
CONTINUOUS
 62
    2
 10
894.80490000000009
 20
888.76919999999996
 40
1.6999999999999997
  0
LINE
  8
_0-0_LAYER001
  6
CONTINUOUS
 62
    2
 10
892.52510000000007
 20
887.74330000000009
 11
940.40100000000007
 21
909.28739999999993
  0
LINE
  8
_0-1_LAYER003
  6
CONTINUOUS
 62
    3
 10
1134.2329
 20
940.58539999999994
 11
1158.8539000000001
 21
885.87040000000002
  0
LINE
  8
_0-1_LAYER003
  6
CONTINUOUS
 62
    3
 10
1149.2789
 20
848.66339999999991
 11
1171.1649
 21
858.51240000000007
  0
LINE
  8
_0-1_LAYER003
  6
CONTINUOUS
 62
    3
 10
1158.8539000000001
 20
885.87040000000002
 11
1171.1649
 21
858.51240000000007
  0
LINE
  8
_0-1_LAYER003
  6
CONTINUOUS
 62
    3
 10
1112.3459
 20
930.7364
 11
1149.2789
 21
848.66339999999991
  0
LINE
  8
_0-1_LAYER003
  6
CONTINUOUS
 62
    2
 10
1158.8539000000001
 20
885.87040000000002
 11
2086.0466999999999
 21
1303.1063999999997
  0
LINE
  8
_0-1_LAYER003
  6
CONTINUOUS
 62
    2
 10
1167.0619999999999
 20
955.3583000000001
 11
2061.2471
 21
1357.7420999999999
  0
LINE
  8
_0-1_LAYER003
  6
CONTINUOUS
 62
    2
 10
1160.9059
 20
969.03739999999993
 11
2055.047
 21
1371.4013
  0
LINE
  8
_0-1_LAYER003
  6
CONTINUOUS
 62
    3
 10
1164.5908999999999
 20
954.24639999999999
 11
1166.6398999999999
 21
956.29539999999997
  0
LINE
  8
_0-1_LAYER003
  6
CONTINUOUS
 62
    3
 10
1148.6569
 20
850.04739999999993
 11
1149.8039000000001
 21
848.90039999999999
  0
LINE
  8
_0-1_LAYER003
  6
CONTINUOUS
 62
    2
 10
1139.3998999999999
 20
870.61740000000009
 11
1157.6069
 21
852.41139999999996
  0
LINE
  8
_0-1_LAYER003
  6
CONTINUOUS
 62
    2
 10
1130.1439
 20
891.18740000000003
 11
1165.4088999999999
 21
855.92239999999993
  0
LINE
  8
_0-1_LAYER003
  6
CONTINUOUS
 62
    2
 10
1120.8869
 20
911.75839999999994
 11
1168.7379000000001
 21
863.90740000000005
  0
LINE
  8
_0-1_LAYER003
  6
CONTINUOUS
 62
    2
 10
1112.9499000000001
 20
931.00839999999994
 11
1159.4809
 21
884.47739999999999
  0
LINE
  8
_0-1_LAYER003
  6
CONTINUOUS
 62
    2
 10
1120.7529
 20
934.51939999999991
 11
1150.2248999999999
 21
905.04739999999993
  0
LINE
  8
_0-1_LAYER003
  6
CONTINUOUS
 62
    2
 10
1128.5549000000001
 20
938.0304000000001
 11
1140.9679000000001
 21
925.61840000000007
  0
LINE
  8
_0-0_LAYER001
  6
CONTINUOUS
 62
    2
 10
911.40830000000005
 20
1166.9519
 11
929.41640000000007
 21
1117.6369999999999
  0
CIRCLE
  8
_0-0_LAYER001
  6
CONTINUOUS
 62
    2
 10
912.2657999999999
 20
1164.6035999999999
 40
1.6999999999999997
  0
LINE
  8
_0-0_LAYER001
  6
CONTINUOUS
 62
    2
 10
912.2657999999999
 20
1164.6035999999999
 11
1133.0085999999999
 21
1245.2114999999999
  0
CIRCLE
  8
_0-0_LAYER001
  6
CONTINUOUS
 62
    2
 10
1133.0085999999999
 20
1245.2114999999999
 40
1.6999999999999997
  0
LINE
  8
_0-0_LAYER001
  6
CONTINUOUS
 62
    2
 10
1132.1510000000001
 20
1247.5598
 11
1150.1592000000001
 21
1198.2448999999999
  0
LINE
  8
_0-0_LAYER001
  6
CONTINUOUS
 62
    2
 10
1118.4304999999999
 20
1285.1330000000003
 11
1136.4386999999999
 21
1235.8181
  0
CIRCLE
  8
_0-0_LAYER001
  6
CONTINUOUS
 62
    2
 10
1119.2881
 20
1282.7846999999999
 40
1.6999999999999997
  0
LINE
  8
_0-0_LAYER001
  6
CONTINUOUS
 62
    2
 10
1119.2881
 20
1282.7846999999999
 11
1340.0308
 21
1363.3925999999999
  0
CIRCLE
  8
_0-0_LAYER001
  6
CONTINUOUS
 62
    2
 10
1340.0308
 20
1363.3925999999999
 40
1.6999999999999997
  0
LINE
  8
_0-0_LAYER001
  6
CONTINUOUS
 62
    2
 10
1339.1732999999999
 20
1365.7409000000002
 11
1357.1813999999999
 21
1316.4259999999999
  0
LINE
  8
_0-0_LAYER001
  6
CONTINUOUS
 62
    2
 10
1325.4528
 20
1403.3142
 11
1343.4609
 21
1353.9992999999999
  0
CIRCLE
  8
_0-0_LAYER001
  6
CONTINUOUS
 62
    2
 10
1326.3103000000001
 20
1400.9657999999999
 40
1.6999999999999997
  0
LINE
  8
_0-0_LAYER001
  6
CONTINUOUS
 62
    2
 10
1326.3103000000001
 20
1400.9657999999999
 11
1547.0531000000001
 21
1481.5736999999999
  0
CIRCLE
  8
_0-0_LAYER001
  6
CONTINUOUS
 62
    2
 10
1547.0531000000001
 20
1481.5736999999999
 40
1.6999999999999997
  0
LINE
  8
_0-0_LAYER001
  6
CONTINUOUS
 62
    2
 10
1546.1956
 20
1483.922
 11
1564.2037
 21
1434.6071999999999
  0
LINE
  8
_0-0_LAYER001
  6
CONTINUOUS
 62
    2
 10
1532.4751000000001
 20
1521.4953
 11
1550.4832000000001
 21
1472.1804
  0
CIRCLE
  8
_0-0_LAYER001
  6
CONTINUOUS
 62
    2
 10
1533.3326000000002
 20
1519.1469999999999
 40
1.6999999999999997
  0
LINE
  8
_0-0_LAYER001
  6
CONTINUOUS
 62
    2
 10
1533.3326000000002
 20
1519.1469999999999
 11
1754.0754000000002
 21
1599.7548000000002
  0
CIRCLE
  8
_0-0_LAYER001
  6
CONTINUOUS
 62
    2
 10
1754.0754000000002
 20
1599.7548000000002
 40
1.6999999999999997
  0
LINE
  8
_0-0_LAYER001
  6
CONTINUOUS
 62
    2
 10
1753.2177999999999
 20
1602.1032
 11
1771.2260000000001
 21
1552.7882999999999
  0
LINE
  8
_0-0_LAYER001
  6
CONTINUOUS
 62
    2
 10
1249.7098000000001
 20
1013.7121
 11
1277.0668000000001
 21
1026.0245
  0
LINE
  8
_0-0_LAYER001
  6
CONTINUOUS
 62
    2
 10
1277.0668000000001
 20
1026.0245
 11
1270.9105999999999
 21
1039.703
  0
LINE
  8
_0-0_LAYER001
  6
CONTINUOUS
 62
    2
 10
1270.9105999999999
 20
1039.703
 11
1243.5536
 21
1027.3905999999999
  0
LINE
  8
_0-0_LAYER001
  6
CONTINUOUS
 62
    2
 10
1243.5536
 20
1027.3905999999999
 11
1249.7098000000001
 21
1013.7121
  0
LINE
  8
_0-0_LAYER001
  6
CONTINUOUS
 62
    2
 10
1270.9105999999999
 20
1039.703
 11
1249.7098000000001
 21
1013.7121
  0
LINE
  8
_0-0_LAYER001
  6
CONTINUOUS
 62
    4
 10
1285.4998000000001
 20
1032.0844
 11
1275.1546000000001
 21
1060.4147
  0
LINE
  8
_0-0_LAYER001
  6
CONTINUOUS
 62
    2
 10
1464.9182000000001
 20
1110.5695000000001
 11
1492.2752
 21
1122.8819000000001
  0
LINE
  8
_0-0_LAYER001
  6
CONTINUOUS
 62
    2
 10
1492.2752
 20
1122.8819000000001
 11
1486.1190000000001
 21
1136.5604000000001
  0
LINE
  8
_0-0_LAYER001
  6
CONTINUOUS
 62
    2
 10
1486.1190000000001
 20
1136.5604000000001
 11
1458.7620000000002
 21
1124.248
  0
LINE
  8
_0-0_LAYER001
  6
CONTINUOUS
 62
    2
 10
1458.7620000000002
 20
1124.248
 11
1464.9182000000001
 21
1110.5695000000001
  0
LINE
  8
_0-0_LAYER001
  6
CONTINUOUS
 62
    2
 10
1486.1190000000001
 20
1136.5604000000001
 11
1464.9182000000001
 21
1110.5695000000001
  0
LINE
  8
_0-0_LAYER001
  6
CONTINUOUS
 62
    4
 10
1500.3463999999999
 20
1128.8389999999999
 11
1490.0011
 21
1157.1692
  0
LINE
  8
_0-0_LAYER001
  6
CONTINUOUS
 62
    2
 10
1680.1266000000001
 20
1207.4268999999999
 11
1707.4836
 21
1219.7393
  0
LINE
  8
_0-0_LAYER001
  6
CONTINUOUS
 62
    2
 10
1707.4836
 20
1219.7393
 11
1701.3274000000001
 21
1233.4177999999999
  0
LINE
  8
_0-0_LAYER001
  6
CONTINUOUS
 62
    2
 10
1701.3274000000001
 20
1233.4177999999999
 11
1673.9704000000002
 21
1221.1053999999999
  0
LINE
  8
_0-0_LAYER001
  6
CONTINUOUS
 62
    2
 10
1673.9704000000002
 20
1221.1053999999999
 11
1680.1266000000001
 21
1207.4268999999999
  0
LINE
  8
_0-0_LAYER001
  6
CONTINUOUS
 62
    2
 10
1701.3274000000001
 20
1233.4177999999999
 11
1680.1266000000001
 21
1207.4268999999999
  0
LINE
  8
_0-0_LAYER001
  6
CONTINUOUS
 62
    4
 10
1715.1929
 20
1225.5934999999999
 11
1704.8476000000001
 21
1253.9238
  0
LINE
  8
_0-0_LAYER001
  6
CONTINUOUS
 62
    2
 10
1895.335
 20
1304.2842999999998
 11
1922.692
 21
1316.5967000000001
  0
LINE
  8
_0-0_LAYER001
  6
CONTINUOUS
 62
    2
 10
1922.692
 20
1316.5967000000001
 11
1916.5358000000001
 21
1330.2752
  0
LINE
  8
_0-0_LAYER001
  6
CONTINUOUS
 62
    2
 10
1916.5358000000001
 20
1330.2752
 11
1889.1788000000001
 21
1317.9628
  0
LINE
  8
_0-0_LAYER001
  6
CONTINUOUS
 62
    2
 10
1889.1788000000001
 20
1317.9628
 11
1895.335
 21
1304.2842999999998
  0
LINE
  8
_0-0_LAYER001
  6
CONTINUOUS
 62
    2
 10
1916.5358000000001
 20
1330.2752
 11
1895.335
 21
1304.2842999999998
  0
LINE
  8
_0-0_LAYER001
  6
CONTINUOUS
 62
    4
 10
1930.0394999999999
 20
1322.3480999999997
 11
1919.6941999999999
 21
1350.6783999999998
  0
LINE
  8
_0-0_LAYER001
  6
CONTINUOUS
 62
    4
 10
1930.0394999999999
 20
1322.3480999999997
 11
1922.2395999999999
 21
1319.5183
  0
LINE
  8
_0-0_LAYER001
  6
CONTINUOUS
 62
    4
 10
1917.9832999999999
 20
1331.25
 11
1922.2395999999999
 21
1319.5183
  0
LINE
  8
_0-0_LAYER001
  6
CONTINUOUS
 62
    4
 10
1715.1929
 20
1225.5934999999999
 11
1707.0403999999999
 21
1222.6357
  0
LINE
  8
_0-0_LAYER001
  6
CONTINUOUS
 62
    4
 10
1702.7840000000001
 20
1234.3675000000001
 11
1707.0403999999999
 21
1222.6357
  0
LINE
  8
_0-0_LAYER001
  6
CONTINUOUS
 62
    4
 10
1500.3463999999999
 20
1128.8389999999999
 11
1491.8411000000001
 21
1125.7532000000001
  0
LINE
  8
_0-0_LAYER001
  6
CONTINUOUS
 62
    4
 10
1487.5848000000001
 20
1137.4849999999999
 11
1491.8411000000001
 21
1125.7532000000001
  0
LINE
  8
_0-0_LAYER001
  6
CONTINUOUS
 62
    4
 10
1857.6628999999998
 20
1346.9809
 11
2034.7512999999999
 21
1411.2290000000003
  0
LINE
  8
_0-0_LAYER001
  6
CONTINUOUS
 62
    4
 10
1840.3429999999998
 20
1394.72
 11
2015.5954000000002
 21
1458.3021000000003
  0
LINE
  8
_0-0_LAYER001
  6
CONTINUOUS
 62
    4
 10
1032.0117
 20
953.39419999999996
 11
1272.3855000000001
 21
1040.6025
  0
LINE
  8
_0-0_LAYER001
  6
CONTINUOUS
 62
    4
 10
1285.4998000000001
 20
1032.0844
 11
1276.6418000000001
 21
1028.8706999999999
  0
LINE
  8
_0-0_LAYER001
  6
CONTINUOUS
 62
    4
 10
1272.3855000000001
 20
1040.6025
 11
1276.6418000000001
 21
1028.8706999999999
  0
ARC
  8
_0-0_LAYER001
  6
CONTINUOUS
 62
    4
 10
1431.4913999999999
 20
1143.6860999999999
 40
10.4
 50
109.94091000000002
 51
199.94091
  0
ARC
  8
_0-0_LAYER001
  6
CONTINUOUS
 62
    4
 10
1646.3380000000002
 20
1240.4405999999999
 40
10.4
 50
109.94091000000002
 51
199.94091
  0
ARC
  8
_0-0_LAYER001
  6
CONTINUOUS
 62
    4
 10
1861.1844999999998
 20
1337.1952000000001
 40
10.4
 50
109.94091000000002
 51
199.94091
  0
ARC
  8
_0-0_LAYER001
  6
CONTINUOUS
 62
    4
 10
1216.6449
 20
1046.9314999999999
 40
10.4
 50
109.94091000000002
 51
199.94091
  0
ARC
  8
_0-0_LAYER001
  6
CONTINUOUS
 62
    4
 10
965.91399999999999
 20
1117.6978999999999
 40
108.38132
 50
268.69240000000002
 51
288.42793999999998
  0
LINE
  8
_0-0_LAYER001
  6
CONTINUOUS
 62
    4
 10
1018.8973000000001
 20
928.91529999999989
 11
1024.3913
 21
906.37619999999993
  0
ARC
  8
_0-0_LAYER001
  6
CONTINUOUS
 62
    4
 10
1039.1056000000001
 20
933.84120000000007
 40
20.800000000000001
 50
109.94091000000002
 51
193.69899000000001
  0
LINE
  8
_0-0_LAYER001
  6
CONTINUOUS
 62
    4
 10
1193.0954999999999
 20
1081.3472999999999
 11
1209.3513
 21
1036.5410999999999
  0
ARC
  8
_0-0_LAYER001
  6
CONTINUOUS
 62
    4
 10
1212.6484
 20
1088.4411
 40
20.800000000000001
 50
109.94091000000002
 51
199.94091
  0
LINE
  8
_0-0_LAYER001
  6
CONTINUOUS
 62
    4
 10
1704.8476000000001
 20
1253.9238
 11
1917.9832999999999
 21
1331.25
  0
LINE
  8
_0-0_LAYER001
  6
CONTINUOUS
 62
    4
 10
1000.2420999999999
 20
1014.6884
 11
1191.9349999999999
 21
1084.2351000000001
  0
LINE
  8
_0-0_LAYER001
  6
CONTINUOUS
 62
    4
 10
1205.5545
 20
1107.9940999999999
 11
1406.7782999999999
 21
1180.9985999999999
  0
ARC
  8
_0-0_LAYER001
  6
CONTINUOUS
 62
    4
 10
1414.1714999999999
 20
1191.4251999999999
 40
10.4
 50
109.94091000000002
 51
199.94091
  0
LINE
  8
_0-0_LAYER001
  6
CONTINUOUS
 62
    4
 10
1404.3950999999997
 20
1187.8783000000001
 11
1424.1977999999999
 21
1133.2955999999999
  0
LINE
  8
_0-0_LAYER001
  6
CONTINUOUS
 62
    4
 10
1413.9717999999998
 20
1161.4818
 11
1424.1977999999999
 21
1133.2955999999999
  0
LINE
  8
_0-0_LAYER001
  6
CONTINUOUS
 62
    4
 10
1213.098
 20
1056.7080000000001
 11
1702.7840000000001
 21
1234.3675000000001
  0
LINE
  8
_0-0_LAYER001
  6
CONTINUOUS
 62
    4
 10
1410.6246000000001
 20
1201.2017000000001
 11
1621.6248000000001
 21
1277.7532000000001
  0
ARC
  8
_0-0_LAYER001
  6
CONTINUOUS
 62
    4
 10
1629.0180999999998
 20
1288.1797999999999
 40
10.4
 50
109.94091000000002
 51
199.94091
  0
LINE
  8
_0-0_LAYER001
  6
CONTINUOUS
 62
    4
 10
1619.2415999999998
 20
1284.6327999999999
 11
1639.0444000000002
 21
1230.0501999999999
  0
LINE
  8
_0-0_LAYER001
  6
CONTINUOUS
 62
    4
 10
1619.2415999999998
 20
1284.6327999999999
 11
1639.0444000000002
 21
1230.0501999999999
  0
LINE
  8
_0-0_LAYER001
  6
CONTINUOUS
 62
    4
 10
1427.9445000000001
 20
1153.4625000000001
 11
1704.8476000000001
 21
1253.9238
  0
LINE
  8
_0-0_LAYER001
  6
CONTINUOUS
 62
    4
 10
1626.4023000000002
 20
1298.2941000000001
 11
1836.4713999999999
 21
1374.5077000000001
  0
LINE
  8
_0-0_LAYER001
  6
CONTINUOUS
 62
    4
 10
1840.1179000000002
 20
1364.7674000000002
 11
1853.8908999999999
 21
1326.8046999999999
  0
LINE
  8
_0-0_LAYER001
  6
CONTINUOUS
 62
    4
 10
1642.7910000000002
 20
1250.2171000000001
 11
2041.4203000000002
 21
1394.8408999999997
  0
LINE
  8
_0-0_LAYER001
  6
CONTINUOUS
 62
    4
 10
1834.0882000000001
 20
1381.3874000000001
 11
1853.8908999999999
 21
1326.8046999999999
  0
ARC
  8
_0-0_LAYER001
  6
CONTINUOUS
 62
    4
 10
1843.8645999999999
 20
1384.9342999999999
 40
10.4
 50
109.94091000000002
 51
199.94091
  0
LINE
  8
_0-0_LAYER001
  6
CONTINUOUS
 62
    4
 10
963.62619999999993
 20
1009.1661999999999
 11
993.69669999999996
 21
912.75410000000011
  0
ARC
  8
_0-0_LAYER001
  6
CONTINUOUS
 62
    4
 10
1151.3064999999999
 20
1015.585
 40
188.27051
 50
181.81043
 51
212.85045999999997
  0
LINE
  8
_0-0_LAYER001
  6
CONTINUOUS
 62
    4
 10
992.27179999999998
 20
957.84909999999991
 11
992.19360000000006
 21
957.17530000000011
  0
LINE
  8
_0-0_LAYER001
  6
CONTINUOUS
 62
    4
 10
1487.5848000000001
 20
1137.4849999999999
 11
992.05770000000007
 21
957.70630000000006
  0
LINE
  8
_0-0_LAYER001
  6
CONTINUOUS
 62
    4
 10
993.69669999999996
 20
912.75410000000011
 11
1004.1314
 21
916.53980000000001
  0
LINE
  8
_0-0_LAYER001
  6
CONTINUOUS
 62
    4
 10
992.05770000000007
 20
957.70630000000006
 11
1008.7741000000001
 21
900.71029999999996
  0
LINE
  8
_0-0_LAYER001
  6
CONTINUOUS
 62
    4
 10
1024.3913
 20
906.37619999999993
 11
1008.7741000000001
 21
900.71029999999996
  0
LINE
  8
_0-0_LAYER001
  6
CONTINUOUS
 62
    2
 10
1150.0880999999999
 20
772.7011
 11
1128.5415
 21
820.57590000000005
  0
CIRCLE
  8
_0-0_LAYER001
  6
CONTINUOUS
 62
    2
 10
1149.0621000000001
 20
774.98090000000002
 40
1.6999999999999997
  0
LINE
  8
_0-0_LAYER001
  6
CONTINUOUS
 62
    2
 10
1149.0621000000001
 20
774.98090000000002
 11
1349.4603000000002
 21
865.17270000000008
  0
CIRCLE
  8
_0-0_LAYER001
  6
CONTINUOUS
 62
    2
 10
1349.4603000000002
 20
865.17270000000008
 40
1.6999999999999997
  0
LINE
  8
_0-0_LAYER001
  6
CONTINUOUS
 62
    2
 10
1350.4863
 20
862.89300000000003
 11
1328.9396999999999
 21
910.7677000000001
  0
CIRCLE
  8
_0-0_LAYER001
  6
CONTINUOUS
 62
    2
 10
1349.4603000000002
 20
865.17270000000008
 40
1.6999999999999997
  0
LINE
  8
_0-0_LAYER001
  6
CONTINUOUS
 62
    2
 10
1349.4603000000002
 20
865.17270000000008
 11
1564.6687000000002
 21
962.03009999999995
  0
CIRCLE
  8
_0-0_LAYER001
  6
CONTINUOUS
 62
    2
 10
1564.6687000000002
 20
962.03009999999995
 40
1.6999999999999997
  0
LINE
  8
_0-0_LAYER001
  6
CONTINUOUS
 62
    2
 10
1565.6947
 20
959.7503999999999
 11
1544.1480999999999
 21
1007.6251
  0
CIRCLE
  8
_0-0_LAYER001
  6
CONTINUOUS
 62
    2
 10
1564.6687000000002
 20
962.03009999999995
 40
1.6999999999999997
  0
LINE
  8
_0-0_LAYER001
  6
CONTINUOUS
 62
    2
 10
1564.6687000000002
 20
962.03009999999995
 11
1779.8771000000002
 21
1058.8875
  0
CIRCLE
  8
_0-0_LAYER001
  6
CONTINUOUS
 62
    2
 10
1779.8771000000002
 20
1058.8875
 40
1.6999999999999997
  0
LINE
  8
_0-0_LAYER001
  6
CONTINUOUS
 62
    2
 10
1780.9031
 20
1056.6077
 11
1759.3564000000001
 21
1104.4825000000001
  0
CIRCLE
  8
_0-0_LAYER001
  6
CONTINUOUS
 62
    2
 10
1779.8771000000002
 20
1058.8875
 40
1.6999999999999997
  0
LINE
  8
_0-0_LAYER001
  6
CONTINUOUS
 62
    2
 10
1779.8771000000002
 20
1058.8875
 11
1995.0853999999999
 21
1155.7448999999999
  0
CIRCLE
  8
_0-0_LAYER001
  6
CONTINUOUS
 62
    2
 10
1995.0853999999999
 20
1155.7448999999999
 40
1.6999999999999997
  0
LINE
  8
_0-0_LAYER001
  6
CONTINUOUS
 62
    2
 10
1996.1115
 20
1153.4650999999999
 11
1974.5648000000001
 21
1201.3398999999999
  0
LINE
  8
_0-0_LAYER001
  6
CONTINUOUS
 62
    2
 10
1158.7563
 20
1021.4978000000001
 11
1160.6975
 21
1014.2534000000001
  0
LINE
  8
_0-0_LAYER001
  6
CONTINUOUS
 62
    2
 10
1160.6975
 20
1014.2534000000001
 11
1155.3942
 21
1019.5567000000001
  0
LINE
  8
_0-0_LAYER001
  6
CONTINUOUS
 62
    2
 10
1160.6975
 20
1014.2534000000001
 11
1073.8793000000001
 21
1164.6269
  0
LINE
  8
_0-0_LAYER001
  6
CONTINUOUS
 62
    2
 10
1073.8793000000001
 20
1164.6269
 11
1009.3793000000001
 21
1164.6269
  0
LINE
  8
_0-0_LAYER001
  6
DASHED3
 62
    2
 10
1158.7279000000001
 20
974.63640000000009
 11
1092.9305999999999
 21
945.02749999999992
  0
LINE
  8
_0-0_LAYER001
  6
DASHED3
 62
    2
 10
1161.4408000000001
 20
971.47129999999993
 11
2054.2204000000002
 21
1373.2224999999999
  0
LINE
  8
_0-0_LAYER001
  6
DASHED3
 62
    2
 10
1158.7279000000001
 20
974.63640000000009
 11
1161.4408000000001
 21
971.47129999999993
  0
LINE
  8
_0-0_LAYER001
  6
CONTINUOUS
 62
    2
 10
1088.3896
 20
973.46100000000001
 11
1090.3307
 21
966.21659999999997
  0
LINE
  8
_0-0_LAYER001
  6
CONTINUOUS
 62
    2
 10
1090.3307
 20
966.21659999999997
 11
1085.0273999999999
 21
971.51990000000001
  0
LINE
  8
_0-0_LAYER001
  6
CONTINUOUS
 62
    2
 10
1090.3307
 20
966.21659999999997
 11
1021.7923000000001
 21
1084.9285
  0
LINE
  8
_0-0_LAYER001
  6
CONTINUOUS
 62
    2
 10
1021.7923000000001
 20
1084.9285
 11
967.95129999999995
 21
1084.9285
  0
LINE
  8
_0-0_LAYER001
  6
CONTINUOUS
 62
    2
 10
1084.5163
 20
941.36999999999989
 11
1086.4574
 21
934.12560000000008
  0
LINE
  8
_0-0_LAYER001
  6
CONTINUOUS
 62
    2
 10
1086.4574
 20
934.12560000000008
 11
1081.1541
 21
939.42890000000011
  0
LINE
  8
_0-0_LAYER001
  6
CONTINUOUS
 62
    2
 10
1086.4574
 20
934.12560000000008
 11
1022.9246000000001
 21
1044.1677
  0
LINE
  8
_0-0_LAYER001
  6
CONTINUOUS
 62
    2
 10
1022.9246000000001
 20
1044.1677
 11
943.0030999999999
 21
1044.1677
  0
LINE
  8
_0-0_LAYER001
  6
CONTINUOUS
 62
    2
 10
1154.4326000000001
 20
850.24060000000009
 11
1152.4915000000001
 21
857.4849999999999
  0
LINE
  8
_0-0_LAYER001
  6
CONTINUOUS
 62
    2
 10
1152.4915000000001
 20
857.4849999999999
 11
1157.7947999999999
 21
852.18170000000009
  0
LINE
  8
_0-0_LAYER001
  6
CONTINUOUS
 62
    2
 10
1152.4915000000001
 20
857.4849999999999
 11
1225.4385
 21
731.13699999999994
  0
LINE
  8
_0-0_LAYER001
  6
CONTINUOUS
 62
    2
 10
1225.4385
 20
731.13699999999994
 11
1303.6175000000001
 21
731.13699999999994
  0
LINE
  8
_0-0_LAYER001
  6
CONTINUOUS
 62
    2
 10
1832.7002000000002
 20
957.96460000000002
 11
2074.1423
 21
957.96460000000002
  0
LINE
  8
_0-0_LAYER001
  6
CONTINUOUS
 62
    2
 10
1850.0758000000001
 20
927.86920000000009
 11
2021.7471
 21
927.86920000000009
  0
LINE
  8
_0-0_LAYER001
  6
CONTINUOUS
 62
    2
 10
1688.0201999999999
 20
1204.6755000000001
 11
1686.0790999999999
 21
1211.9199000000001
  0
LINE
  8
_0-0_LAYER001
  6
CONTINUOUS
 62
    2
 10
1686.0790999999999
 20
1211.9199000000001
 11
1691.3824
 21
1206.6166000000001
  0
LINE
  8
_0-0_LAYER001
  6
CONTINUOUS
 62
    2
 10
1686.0790999999999
 20
1211.9199000000001
 11
1867.3193000000001
 21
898.0027
  0
LINE
  8
_0-0_LAYER001
  6
CONTINUOUS
 62
    2
 10
1815.3906999999999
 20
987.94550000000004
 11
2020.2134000000001
 21
987.94550000000004
  0
LINE
  8
_0-0_LAYER001
  6
CONTINUOUS
 62
    2
 10
1867.3193000000001
 20
898.0027
 11
1931.7242999999999
 21
898.0027
  0
LINE
  8
_0-1_LAYER003
  6
CONTINUOUS
 62
    7
 10
967.95129999999995
 20
1084.9285
 11
1021.7923000000001
 21
1084.9285
  0
LINE
  8
_0-1_LAYER003
  6
CONTINUOUS
 62
    7
 10
943.0030999999999
 20
1044.1677
 11
1022.9246000000001
 21
1044.1677
  0
LINE
  8
_0-1_LAYER003
  6
CONTINUOUS
 62
    7
 10
1009.3793000000001
 20
1164.6269
 11
1073.8793000000001
 21
1164.6269
  0
LINE
  8
_0-1_LAYER003
  6
CONTINUOUS
 62
    7
 10
1225.4385
 20
731.13699999999994
 11
1282.4385000000002
 21
731.13699999999994
  0
LINE
  8
_0-1_LAYER003
  6
CONTINUOUS
 62
    7
 10
1815.3906999999999
 20
987.94550000000004
 11
1995.3906999999999
 21
987.94550000000004
  0
LINE
  8
_0-1_LAYER003
  6
CONTINUOUS
 62
    7
 10
1832.7002000000002
 20
957.96460000000002
 11
2074.1423
 21
957.96460000000002
  0
LINE
  8
_0-1_LAYER003
  6
CONTINUOUS
 62
    7
 10
1850.0758662751198
 20
927.86920000000009
 11
2021.7471
 21
927.86920000000009
  0
LINE
  8
_0-1_LAYER003
  6
CONTINUOUS
 62
    7
 10
1867.3193000000001
 20
898.0027
 11
1931.7242999999999
 21
898.0027
  0
LINE
  8
_0-1_LAYER003
  6
CONTINUOUS
 62
    7
 10
1671.6884
 20
1424.799
 11
1712.1884
 21
1424.799
  0
LINE
  8
_0-1_LAYER003
  6
CONTINUOUS
 62
    7
 10
911.40830000000005
 20
1166.9519
 11
929.41640000000007
 21
1117.6369999999999
  0
LINE
  8
_0-1_LAYER003
  6
CONTINUOUS
 62
    7
 10
912.2657999999999
 20
1164.6035999999999
 11
1133.0085999999999
 21
1245.2114999999999
  0
LINE
  8
_0-1_LAYER003
  6
CONTINUOUS
 62
    7
 10
1150.1592000000001
 20
1198.2448999999999
 11
1118.4304999999999
 21
1285.1330000000003
  0
LINE
  8
_0-1_LAYER003
  6
CONTINUOUS
 62
    7
 10
1120.8849624733602
 20
1283.3678211205006
 11
1340.0308
 21
1363.3925999999999
  0
LINE
  8
_0-1_LAYER003
  6
CONTINUOUS
 62
    7
 10
1325.7272289045816
 20
1402.5626807399701
 11
1357.1813999999999
 21
1316.4259999999999
  0
LINE
  8
_0-1_LAYER003
  6
CONTINUOUS
 62
    7
 10
1326.3103000000001
 20
1400.9657999999999
 11
1547.0531000000001
 21
1481.5736999999999
  0
LINE
  8
_0-1_LAYER003
  6
CONTINUOUS
 62
    7
 10
1564.2037
 20
1434.6071999999999
 11
1532.7494966842155
 21
1520.7438689749383
  0
LINE
  8
_0-1_LAYER003
  6
CONTINUOUS
 62
    7
 10
1533.3326000000002
 20
1519.1469999999999
 11
1754.0754000000002
 21
1599.7548000000002
  0
LINE
  8
_0-1_LAYER003
  6
CONTINUOUS
 62
    7
 10
1771.2260000000001
 20
1552.7882999999999
 11
1753.4922420148428
 21
1601.3516490111301
  0
LINE
  8
_0-1_LAYER003
  6
CONTINUOUS
 62
    7
 10
1712.1884
 20
1424.799
 11
1773.8216000000002
 21
1318.0472
  0
LINE
  8
_0-1_LAYER003
  6
CONTINUOUS
 62
    7
 10
1773.8216000000002
 20
1318.0472
 11
1771.8804
 21
1325.2916
  0
LINE
  8
_0-1_LAYER003
  6
CONTINUOUS
 62
    7
 10
1773.8216000000002
 20
1318.0472
 11
1768.5183000000002
 21
1323.3505
  0
LINE
  8
_0-1_LAYER003
  6
CONTINUOUS
 62
    7
 10
1895.335
 20
1304.2842999999998
 11
1889.1788000000001
 21
1317.9628
  0
LINE
  8
_0-1_LAYER003
  6
CONTINUOUS
 62
    7
 10
1889.1788000000001
 20
1317.9628
 11
1916.5358000000001
 21
1330.2752
  0
LINE
  8
_0-1_LAYER003
  6
CONTINUOUS
 62
    7
 10
1916.5358000000001
 20
1330.2752
 11
1922.692
 21
1316.5967000000001
  0
LINE
  8
_0-1_LAYER003
  6
CONTINUOUS
 62
    7
 10
1922.692
 20
1316.5967000000001
 11
1895.335
 21
1304.2842999999998
  0
LINE
  8
_0-1_LAYER003
  6
CONTINUOUS
 62
    7
 10
1895.335
 20
1304.2842999999998
 11
1916.5358000000001
 21
1330.2752
  0
LINE
  8
_0-1_LAYER003
  6
CONTINUOUS
 62
    7
 10
1160.9059
 20
969.03739999999993
 11
2055.047
 21
1371.4013
  0
LINE
  8
_0-1_LAYER003
  6
CONTINUOUS
 62
    7
 10
2054.2204000000002
 20
1373.2224999999999
 11
1161.4408000000001
 21
971.47129999999993
  0
LINE
  8
_0-1_LAYER003
  6
CONTINUOUS
 62
    7
 10
1161.4408000000001
 20
971.47129999999993
 11
1158.7279000000001
 21
974.63640000000009
  0
LINE
  8
_0-1_LAYER003
  6
CONTINUOUS
 62
    7
 10
1158.7279000000001
 20
974.63640000000009
 11
1092.9305999999999
 21
945.02749999999992
  0
LINE
  8
_0-1_LAYER003
  6
CONTINUOUS
 62
    7
 10
1081.1541
 20
939.42890000000011
 11
1086.4574
 21
934.12560000000008
  0
LINE
  8
_0-1_LAYER003
  6
CONTINUOUS
 62
    7
 10
1086.4574
 20
934.12560000000008
 11
1084.5163
 21
941.36999999999989
  0
LINE
  8
_0-1_LAYER003
  6
CONTINUOUS
 62
    7
 10
1086.4574
 20
934.12560000000008
 11
1022.9246000000001
 21
1044.1677
  0
LINE
  8
_0-1_LAYER003
  6
CONTINUOUS
 62
    7
 10
1021.7923000000001
 20
1084.9285
 11
1090.3307
 21
966.21659999999997
  0
LINE
  8
_0-1_LAYER003
  6
CONTINUOUS
 62
    7
 10
1090.3307
 20
966.21659999999997
 11
1088.3896
 21
973.46100000000001
  0
LINE
  8
_0-1_LAYER003
  6
CONTINUOUS
 62
    7
 10
1090.3307
 20
966.21659999999997
 11
1085.0273999999999
 21
971.51990000000001
  0
LINE
  8
_0-1_LAYER003
  6
CONTINUOUS
 62
    7
 10
1155.3942
 20
1019.5567000000001
 11
1160.6975
 21
1014.2534000000001
  0
LINE
  8
_0-1_LAYER003
  6
CONTINUOUS
 62
    7
 10
1160.6975
 20
1014.2534000000001
 11
1158.7563
 21
1021.4978000000001
  0
LINE
  8
_0-1_LAYER003
  6
CONTINUOUS
 62
    7
 10
1160.6975
 20
1014.2534000000001
 11
1073.8793000000001
 21
1164.6269
  0
LINE
  8
_0-1_LAYER003
  6
CONTINUOUS
 62
    7
 10
1249.7098000000001
 20
1013.7121
 11
1243.5536
 21
1027.3905999999999
  0
LINE
  8
_0-1_LAYER003
  6
CONTINUOUS
 62
    7
 10
1243.5536
 20
1027.3905999999999
 11
1270.9105999999999
 21
1039.703
  0
LINE
  8
_0-1_LAYER003
  6
CONTINUOUS
 62
    7
 10
1270.9105999999999
 20
1039.703
 11
1277.0668000000001
 21
1026.0245
  0
LINE
  8
_0-1_LAYER003
  6
CONTINUOUS
 62
    7
 10
1277.0668000000001
 20
1026.0245
 11
1249.7098000000001
 21
1013.7121
  0
LINE
  8
_0-1_LAYER003
  6
CONTINUOUS
 62
    7
 10
1249.7098000000001
 20
1013.7121
 11
1270.9105999999999
 21
1039.703
  0
LINE
  8
_0-1_LAYER003
  6
CONTINUOUS
 62
    7
 10
1464.9182000000001
 20
1110.5695000000001
 11
1458.7620000000002
 21
1124.248
  0
LINE
  8
_0-1_LAYER003
  6
CONTINUOUS
 62
    7
 10
1458.7620000000002
 20
1124.248
 11
1486.1190000000001
 21
1136.5604000000001
  0
LINE
  8
_0-1_LAYER003
  6
CONTINUOUS
 62
    7
 10
1486.1190000000001
 20
1136.5604000000001
 11
1492.2752
 21
1122.8819000000001
  0
LINE
  8
_0-1_LAYER003
  6
CONTINUOUS
 62
    7
 10
1492.2752
 20
1122.8819000000001
 11
1464.9182000000001
 21
1110.5695000000001
  0
LINE
  8
_0-1_LAYER003
  6
CONTINUOUS
 62
    7
 10
1464.9182000000001
 20
1110.5695000000001
 11
1486.1190000000001
 21
1136.5604000000001
  0
LINE
  8
_0-1_LAYER003
  6
CONTINUOUS
 62
    7
 10
1680.1266000000001
 20
1207.4268999999999
 11
1673.9704000000002
 21
1221.1053999999999
  0
LINE
  8
_0-1_LAYER003
  6
CONTINUOUS
 62
    7
 10
1673.9704000000002
 20
1221.1053999999999
 11
1701.3274000000001
 21
1233.4177999999999
  0
LINE
  8
_0-1_LAYER003
  6
CONTINUOUS
 62
    7
 10
1701.3274000000001
 20
1233.4177999999999
 11
1707.4836
 21
1219.7393
  0
LINE
  8
_0-1_LAYER003
  6
CONTINUOUS
 62
    7
 10
1707.4836
 20
1219.7393
 11
1680.1266000000001
 21
1207.4268999999999
  0
LINE
  8
_0-1_LAYER003
  6
CONTINUOUS
 62
    7
 10
1680.1266000000001
 20
1207.4268999999999
 11
1701.3274000000001
 21
1233.4177999999999
  0
LINE
  8
_0-1_LAYER003
  6
CONTINUOUS
 62
    7
 10
1686.0790999999999
 20
1211.9199000000001
 11
1688.0201999999999
 21
1204.6755000000001
  0
LINE
  8
_0-1_LAYER003
  6
CONTINUOUS
 62
    7
 10
1686.0790999999999
 20
1211.9199000000001
 11
1691.3824
 21
1206.6166000000001
  0
LINE
  8
_0-1_LAYER003
  6
CONTINUOUS
 62
    7
 10
1686.0790999999999
 20
1211.9199000000001
 11
1867.3193000000001
 21
898.0027
  0
LINE
  8
_0-1_LAYER003
  6
CONTINUOUS
 62
    7
 10
1036.6477
 20
838.76870000000008
 11
1058.1918000000001
 21
790.89290000000005
  0
LINE
  8
_0-1_LAYER003
  6
CONTINUOUS
 62
    7
 10
1057.1659
 20
793.17270000000008
 11
1126.7741000000001
 21
824.49639999999999
  0
LINE
  8
_0-1_LAYER003
  6
CONTINUOUS
 62
    7
 10
1106.2559000000001
 20
870.09249999999997
 11
1150.0880999999999
 21
772.7011
  0
LINE
  8
_0-1_LAYER003
  6
CONTINUOUS
 62
    7
 10
1150.6123300523061
 20
775.67860107132469
 11
1149.0621000000001
 21
774.98090000000002
  0
LINE
  8
_0-1_LAYER003
  6
CONTINUOUS
 62
    7
 10
1150.6123300523061
 20
775.67860107132469
 11
1995.0853999999999
 21
1155.7448999999999
  0
LINE
  8
_0-1_LAYER003
  6
CONTINUOUS
 62
    7
 10
1996.1115
 20
1153.4650999999999
 11
1974.5648000000001
 21
1201.3398999999999
  0
LINE
  8
_0-1_LAYER003
  6
CONTINUOUS
 62
    7
 10
1780.9031
 20
1056.6077
 11
1759.3564000000001
 21
1104.4825000000001
  0
LINE
  8
_0-1_LAYER003
  6
CONTINUOUS
 62
    7
 10
1565.3663943935205
 20
960.47986694227927
 11
1544.1480999999999
 21
1007.6251
  0
LINE
  8
_0-1_LAYER003
  6
CONTINUOUS
 62
    7
 10
1350.1579943935208
 20
863.62246694227952
 11
1328.9396999999999
 21
910.7677000000001
  0
LINE
  8
_0-1_LAYER003
  6
CONTINUOUS
 62
    7
 10
1152.4915000000001
 20
857.4849999999999
 11
1154.4326000000001
 21
850.24060000000009
  0
LINE
  8
_0-1_LAYER003
  6
CONTINUOUS
 62
    7
 10
1152.4915000000001
 20
857.4849999999999
 11
1157.7947999999999
 21
852.18170000000009
  0
LINE
  8
_0-1_LAYER003
  6
CONTINUOUS
 62
    7
 10
1152.4915000000001
 20
857.4849999999999
 11
1225.4385
 21
731.13699999999994
  0
LINE
  8
_0-1_LAYER003
  6
CONTINUOUS
 62
    7
 10
1158.8539000000001
 20
885.87040000000002
 11
2086.0466999999999
 21
1303.1063999999997
  0
LINE
  8
_0-1_LAYER003
  6
CONTINUOUS
 62
    7
 10
2061.2471
 20
1357.7420999999999
 11
1166.3070365606766
 21
955.96253656067677
  0
LINE
  8
_0-1_LAYER003
  6
CONTINUOUS
 62
    7
 10
893.25463001264643
 20
888.07158766760438
 11
940.40100000000007
 21
909.28739999999993
  0
LINE
  8
_0-1_LAYER003
  6
CONTINUOUS
 62
    7
 10
894.80490000000009
 20
888.76919999999996
 11
915.7337
 21
842.26070000000004
  0
LINE
  8
_0-1_LAYER003
  6
CONTINUOUS
 62
    7
 10
914.18343001264645
 20
841.56308766760412
 11
961.32979999999998
 21
862.77890000000002
  0
LINE
  8
_0-1_LAYER003
  6
CONTINUOUS
 62
    7
 10
907.5263972379023
 20
860.49910613801694
 11
953.12249999999995
 21
881.01729999999998
  0
LINE
  8
_0-1_LAYER003
  6
CONTINUOUS
 62
    7
 10
1865.5699
 20
674.05109999999991
 11
1871.2276999999999
 21
659.66399999999999
  0
LINE
  8
_0-1_LAYER003
  6
CONTINUOUS
 62
    7
 10
1871.1342179705639
 20
659.90171347620935
 11
1893.8303999999998
 21
683.24170000000004
  0
LINE
  8
_0-1_LAYER003
  6
CONTINUOUS
 62
    7
 10
1893.8303999999998
 20
683.24170000000004
 11
1866.5660132823198
 21
673.93046361734366
  0
LINE
  8
_0-1_LAYER003
  6
CONTINUOUS
 62
    7
 10
1866.0825
 20
673.75389999999993
 11
1899.4076
 21
669.9543000000001
  0
LINE
  8
_0-1_LAYER003
  6
CONTINUOUS
 62
    7
 10
1899.4076
 20
669.9543000000001
 11
1894.2624000000001
 21
684.04430000000002
  0
LINE
  8
_0-1_LAYER003
  6
CONTINUOUS
 62
    7
 10
1936.2847999999999
 20
683.23919999999998
 11
1720.2837
 21
604.36280000000011
  0
LINE
  8
_0-1_LAYER003
  6
CONTINUOUS
 62
    7
 10
1720.2837
 20
604.36280000000011
 11
1725.4288923616423
 21
590.2729209172735
  0
LINE
  8
_0-1_LAYER003
  6
CONTINUOUS
 62
    7
 10
1725.4288923616423
 20
590.2729209172735
 11
1941.4299999999998
 21
669.14930000000004
  0
LINE
  8
_0-1_LAYER003
  6
CONTINUOUS
 62
    7
 10
1647.3798999999999
 20
497.89676999999995
 11
1626.7991000000002
 21
554.25662
  0
LINE
  8
_0-1_LAYER003
  6
CONTINUOUS
 62
    7
 10
1626.8128000000002
 20
554.21916999999996
 11
1725.4288923616423
 21
590.2729209172735
  0
LINE
  8
_0-1_LAYER003
  6
CONTINUOUS
 62
    7
 10
1720.2837
 20
604.36280000000011
 11
1718.5686000000001
 21
609.05950000000007
  0
LINE
  8
_0-1_LAYER003
  6
CONTINUOUS
 62
    7
 10
1718.5686000000001
 20
609.05950000000007
 11
1634.0288999999998
 21
578.1884
  0
LINE
  8
_0-1_LAYER003
  6
CONTINUOUS
 62
    7
 10
1634.0288999999998
 20
578.1884
 11
1640.8890999999999
 21
559.40180999999995
  0
LINE
  8
_0-1_LAYER003
  6
CONTINUOUS
 62
    7
 10
1642.4828000000002
 20
581.27549999999997
 11
1631.8528999999999
 21
610.38539999999989
  0
LINE
  8
_0-1_LAYER003
  6
CONTINUOUS
 62
    7
 10
1631.8528999999999
 20
610.38539999999989
 11
1640.8044
 21
613.66480000000001
  0
LINE
  8
_0-1_LAYER003
  6
CONTINUOUS
 62
    7
 10
1640.8044
 20
613.66480000000001
 11
1699.0228999999999
 21
601.9221
  0
LINE
  8
_0-1_LAYER003
  6
CONTINUOUS
 62
    7
 10
1538.7310000000002
 20
576.38040000000001
 11
1562.2143000000001
 21
584.95569999999998
  0
LINE
  8
_0-1_LAYER003
  6
CONTINUOUS
 62
    7
 10
1574.0639301728186
 20
589.28279901814756
 11
1599.1441
 21
598.44129999999996
  0
LINE
  8
_0-1_LAYER003
  6
CONTINUOUS
 62
    7
 10
1575.6608000000001
 20
589.86590000000001
 11
1593.1544911501223
 21
541.96013423498823
  0
LINE
  8
_0-1_LAYER003
  6
CONTINUOUS
 62
    7
 10
1591.5576286355556
 20
541.37701322808562
 11
1616.6377000000002
 21
550.53542000000004
  0
LINE
  8
_0-1_LAYER003
  6
CONTINUOUS
 62
    7
 10
1583.9459000000002
 20
559.88919999999996
 11
1609.7775000000001
 21
569.322
  0
LINE
  8
_0-1_LAYER003
  6
CONTINUOUS
 62
    7
 10
1538.7310000000002
 20
576.38040000000001
 11
1556.2246
 21
528.47456999999997
  0
LINE
  8
_0-1_LAYER003
  6
CONTINUOUS
 62
    7
 10
1554.6277404011391
 20
527.89144100781539
 11
1579.7078999999999
 21
537.04988000000003
  0
LINE
  8
_0-1_LAYER003
  6
CONTINUOUS
 62
    7
 10
1549.4826318574669
 20
541.98143440462013
 11
1574.5626999999999
 21
551.13984000000005
  0
LINE
  8
_0-1_LAYER003
  6
CONTINUOUS
 62
    7
 10
1536.3827000000001
 20
575.52290000000005
 11
1538.7310000000002
 21
576.38040000000001
  0
LINE
  8
_0-1_LAYER003
  6
CONTINUOUS
 62
    7
 10
1647.3798999999999
 20
497.89676999999995
 11
1962.0106999999998
 21
612.78939999999989
  0
TEXT
  8
_0-0_LAYER001
 62
    7
 10
1225.4384999999997
 20
733.63699999999972
 40
20
 41
1
 50
0
  1
　
  0
TEXT
  8
_0-0_LAYER001
 62
    7
 10
1654.8362999999997
 20
565.14129999999977
 40
20
 41
1
 50
20.060507000000037
  1
広小舞
  0
TEXT
  8
_0-0_LAYER001
 62
    7
 10
1731.9117999999999
 20
549.32992999999965
 40
20
 41
1
 50
20.060507000000037
  1
たる木
  0
TEXT
  8
_0-0_LAYER001
 62
    7
 10
1790.4571999999996
 20
613.14169999999967
 40
20
 41
1
 50
20.060507000000037
  1
野地板
  0
TEXT
  8
_0-0_LAYER001
 62
    7
 10
1653.3853186609758
 20
616.41095153422475
 40
20
 41
1
 50
20.060506999999998
  1
瓦座
  0
TEXT
  8
_0-0_LAYER001
 62
    7
 10
1782.6292511912218
 20
668.10852454632266
 40
20
 41
1
 50
20.060507000000051
  1
桟木の寸法
  0
TEXT
  8
_0-0_LAYER001
 62
    7
 10
1545.4286220768877
 20
631.61612006719463
 40
20
 41
1
 50
20.060507000000015
  1
瓦座の寸法
  0
TEXT
  8
_0-0_LAYER001
 62
    7
 10
1850.0757999999996
 20
930.36920000000009
 40
20
 41
1
 50
0
  1
　野地板：杉ｔ＝１２
  0
TEXT
  8
_0-0_LAYER001
 62
    7
 10
1867.3192999999997
 20
900.50269999999966
 40
20
 41
1
 50
0
  1
　垂木
  0
TEXT
  8
_0-0_LAYER001
 62
    7
 10
1665.5494534873517
 20
1432.9285017547227
 40
20
 41
1
 50
0
  1
桟　瓦
  0
TEXT
  8
_0-0_LAYER001
 62
    7
 10
1016.2887571295257
 20
1166.8380524277447
 40
20
 41
1
 50
0
  1
万十軒瓦
  0
TEXT
  8
_0-0_LAYER001
 62
    7
 10
981.31686950369476
 20
1086.2506592030027
 40
20
 41
1
 50
0
  1
瓦　座
  0
TEXT
  8
_0-0_LAYER001
 62
    7
 10
941.78343131797169
 20
1046.7172210172807
 40
20
 41
1
 50
0
  1
広小舞　
  0
TEXT
  8
_0-0_LAYER001
 62
    7
 10
1817.6011388170537
 20
995.01964800518169
 40
20
 41
1
 50
0
  1
　瓦桟：１５ｘ３０以上
  0
TEXT
  8
_0-0_LAYER001
 62
    7
 10
1236.7637008575928
 20
739.57281665128278
 40
20
 41
1
 50
0
  1
鼻隠
  0
TEXT
  8
_0-0_LAYER001
 62
    7
 10
1321.9126446422256
 20
757.81901889084679
 40
20
 41
1
 50
0
  1
　
  0
TEXT
  8
_0-0_LAYER001
 62
    7
 10
1008.8698422973488
 20
1212.8446974373069
 40
20
 41
1
 50
20.060506999999973
  1
235
  0
TEXT
  8
_0-0_LAYER001
 62
    7
 10
1217.4812651508469
 20
1333.8573842873875
 40
20
 41
1
 50
20.060506999999973
  1
235
  0
TEXT
  8
_0-0_LAYER001
 62
    7
 10
1421.5772892412815
 20
1446.7423533639558
 40
20
 41
1
 50
20.06050700000003
  1
235
  0
TEXT
  8
_0-0_LAYER001
 62
    7
 10
1628.382552589555
 20
1567.7550402140366
 40
20
 41
1
 50
20.060507000000037
  1
235
  0
TEXT
  8
_0-0_LAYER001
 62
    7
 10
889.66331495249278
 20
860.64359391841413
 40
20
 41
1
 50
114.22770000000007
  1
31
  0
TEXT
  8
_0-0_LAYER001
 62
    7
 10
903.20951124168073
 20
834.9058209689565
 40
20
 41
1
 50
114.22770000000007
  1
20
  0
TEXT
  8
_0-0_LAYER001
 62
    7
 10
1078.4069832485147
 20
818.65038542193076
 40
20
 41
1
 50
24.227799999999984
  1
75
  0
TEXT
  8
_0-0_LAYER001
 62
    7
 10
1231.0274614400348
 20
829.03580257697467
 40
20
 41
1
 50
24.230799999999991
  1
214
  0
TEXT
  8
_0-0_LAYER001
 62
    7
 10
1437.8327247883076
 20
926.5684158591298
 40
20
 41
1
 50
24.230758000000005
  1
236
  0
TEXT
  8
_0-0_LAYER001
 62
    7
 10
1657.2811046731556
 20
1016.8763911203844
 40
20
 41
1
 50
24.230758000000019
  1
236
  0
TEXT
  8
_0-0_LAYER001
 62
    7
 10
1831.2857904967268
 20
960.04776037935039
 40
20
 41
1
 50
0
  1
　下葺材：ルーフィング
  0
TEXT
  8
_0-0_LAYER001
 62
    7
 10
1871.3110060423287
 20
1115.3120841551518
 40
20
 41
1
 50
24.230758000000019
  1
236
  0
TEXT
  8
_0-0_LAYER001
 62
    7
 10
1550.261294701821
 20
524.32562982336765
 40
20
 41
1
 50
110.06049999999999
  1
15
  0
TEXT
  8
_0-0_LAYER001
 62
    7
 10
1540.0354864268947
 20
549.73521402166864
 40
20
 41
1
 50
110.06049999999999
  1
36
  0
TEXT
  8
_0-0_LAYER001
 62
    7
 10
1618.7432228460227
 20
553.14381677997767
 40
20
 41
1
 50
110.0605
  1
20
  0
TEXT
  8
_0-0_LAYER001
 62
    7
 10
1609.1371605271527
 20
577.00403608813872
 40
20
 41
1
 50
110.0605
  1
31
  0
TEXT
  8
_0-0_LAYER001
 62
    7
 10
1872.3134999999997
 20
658.41079999999977
 40
20
 41
1
 50
110.06049999999991
  1
15
  0
TEXT
  8
_0-0_LAYER001
 62
    7
 10
1871.8483999999999
 20
675.31149999999968
 40
20
 41
1
 50
20.060499999999909
  1
30
  0
ENDSEC
  0
EOF
