  0
SECTION
  2
HEADER
  9
$ACADVER
  1
AC1009
  9
$INSBASE
 10
0
 20
0
 30
0
  9
$EXTMIN
 10
0
 20
0
  9
$EXTMAX
 10
2970
 20
2100
  9
$LIMMIN
 10
0
 20
0
  9
$LIMMAX
 10
2970
 20
2100
  9
$LTSCALE
 40
10
  0
ENDSEC
  0
SECTION
  2
TABLES
  0
TABLE
  2
LTYPE
 70
     9
  0
LTYPE
  2
CONTINUOUS
 70
    64
  3
実線
 72
    65
 73
     0
 40
0.0
  0
LTYPE
  2
DASHED1
 70
    64
  3
--  --  --  --  --  --  --  --  
 72
    65
 73
     2
 40
2.5
 49
1.25
 49
-1.25
  0
LTYPE
  2
DASHED2
 70
    64
  3
----    ----    ----    ----    
 72
    65
 73
     2
 40
5.0
 49
2.5
 49
-2.5
  0
LTYPE
  2
DASHED3
 70
    64
  3
------  ------  ------  ------  
 72
    65
 73
     2
 40
5.0
 49
3.75
 49
-1.25
  0
LTYPE
  2
CENTER1
 70
    64
  3
----- - ----- - ----- - ----- - 
 72
    65
 73
     4
 40
10.0
 49
6.25
 49
-1.25
 49
1.25
 49
-1.25
  0
LTYPE
  2
CENTER2
 70
    64
  3
----------  --  ----------  --  
 72
    65
 73
     4
 40
20.0
 49
12.5
 49
-2.5
 49
2.5
 49
-2.5
  0
LTYPE
  2
PHANTOM1
 70
    64
  3
--- - - --- - - --- - - --- - - 
 72
    65
 73
     6
 40
10.0
 49
3.25
 49
-1.25
 49
1.25
 49
-1.25
 49
1.25
 49
-1.25
  0
LTYPE
  2
PHANTOM2
 70
    64
  3
--------  -  -  --------  -  -  
 72
    65
 73
     6
 40
20.0
 49
10.0
 49
-2.5
 49
1.25
 49
-2.5
 49
1.25
 49
-2.5
  0
LTYPE
  2
DOT
 70
    64
  3
-   -   -   -   -   -   -   -   
 72
    65
 73
     2
 40
2.5
 49
0.625
 49
-1.875
  0
LTYPE
  2
DUMMY
 70
    64
  3
ダミー
 72
    65
 73
     0
 40
0.0
  0
LTYPE
  2
RAND1
 70
    64
  3
ランダム線1
 72
    65
 73
     4
 40
10.0
 49
1.0
 49
-2.0
 49
3.0
 49
-4.0
  0
LTYPE
  2
RAND2
 70
    64
  3
ランダム線2
 72
    65
 73
     4
 40
14.0
 49
2.0
 49
-3.0
 49
4.0
 49
-5.0
  0
LTYPE
  2
RAND3
 70
    64
  3
ランダム線3
 72
    65
 73
     4
 40
18.0
 49
3.0
 49
-4.0
 49
5.0
 49
-6.0
  0
LTYPE
  2
RAND4
 70
    64
  3
ランダム線4
 72
    65
 73
     4
 40
22.0
 49
4.0
 49
-5.0
 49
6.0
 49
-7.0
  0
LTYPE
  2
RAND5
 70
    64
  3
ランダム線5
 72
    65
 73
     4
 40
26.0
 49
5.0
 49
-6.0
 49
7.0
 49
-8.0
  0
LTYPE
  2
LONG1
 70
    64
  3
----------  --  ----------  --  
 72
    65
 73
     4
 40
40.0
 49
32.5
 49
-2.5
 49
2.5
 49
-2.5
  0
LTYPE
  2
LONG2
 70
    64
  3
--------  -  -  --------  -  -  
 72
    65
 73
     6
 40
40.0
 49
30.0
 49
-2.5
 49
1.25
 49
-2.5
 49
1.25
 49
-2.5
  0
LTYPE
  2
LONG3
 70
    64
  3
+++++++++++++++..+++++++++++++++
 72
    65
 73
     2
 40
40.0
 49
37.5
 49
-2.5
  0
LTYPE
  2
LONG4
 70
    64
  3
+++++++++++++++..+++++++++++++++
 72
    65
 73
     2
 40
80.0
 49
75.0
 49
-5.0
  0
LTYPE
  2
LONG5
 70
    64
  3
----------  --  ----------  --  
 72
    65
 73
     4
 40
60.0
 49
37.5
 49
-7.5
 49
7.5
 49
-7.5
  0
LTYPE
  2
dashed
 70
   64
  3
-------   -------------   ------
 72
   65
 73
    2
 40
7.5
 49
6
 49
-1.5
  0
LTYPE
  2
dashed_spaced
 70
   64
  3
----        --------        ----
 72
   65
 73
    2
 40
12
 49
6
 49
-6
  0
LTYPE
  2
long_dashed_dotted
 70
   64
  3
------------- --- --------------
 72
   65
 73
    4
 40
15.25
 49
12
 49
-1.5
 49
0.25
 49
-1.5
  0
LTYPE
  2
long_dashed_double-dotted
 70
   64
  3
----------- --- --- ------------
 72
   65
 73
    6
 40
17
 49
12
 49
-1.5
 49
0.25
 49
-1.5
 49
0.25
 49
-1.5
  0
LTYPE
  2
long_dashed_triplicate-dotted
 70
   64
  3
--------- --- --- --- ----------
 72
   65
 73
    8
 40
18.75
 49
12
 49
-1.5
 49
0.25
 49
-1.5
 49
0.25
 49
-1.5
 49
0.25
 49
-1.5
  0
LTYPE
  2
dotted
 70
   64
  3
   -       -       -       -    
 72
   65
 73
    2
 40
1.75
 49
0.25
 49
-1.5
  0
LTYPE
  2
chain
 70
   64
  3
-------------- -- --------------
 72
   65
 73
    4
 40
18.5
 49
12
 49
-1.5
 49
3.5
 49
-1.5
  0
LTYPE
  2
chain_double_dash
 70
   64
  3
------------ -- -- -------------
 72
   65
 73
    6
 40
23.5
 49
12
 49
-1.5
 49
3.5
 49
-1.5
 49
3.5
 49
-1.5
  0
LTYPE
  2
dashed_dotted
 70
   64
  3
-----------     -     ----------
 72
   65
 73
    4
 40
9.25
 49
6
 49
-1.5
 49
0.25
 49
-1.5
  0
LTYPE
  2
double-dashed_dotted
 70
   64
  3
------   -----------   -   -----
 72
   65
 73
    6
 40
16.75
 49
6
 49
-1.5
 49
6
 49
-1.5
 49
0.25
 49
-1.5
  0
LTYPE
  2
dashed_double-dotted
 70
   64
  3
---------    -    -    ---------
 72
   65
 73
    6
 40
11
 49
6
 49
-1.5
 49
0.25
 49
-1.5
 49
0.25
 49
-1.5
  0
LTYPE
  2
double-dashed_double-dotted
 70
   64
  3
-----   ---------   -   -   ----
 72
   65
 73
    8
 40
18.5
 49
6
 49
-1.5
 49
6
 49
-1.5
 49
0.25
 49
-1.5
 49
0.25
 49
-1.5
  0
LTYPE
  2
dashed_triplicate-dotted
 70
   64
  3
-------    -    -    -    ------
 72
   65
 73
    8
 40
12.75
 49
6
 49
-1.5
 49
0.25
 49
-1.5
 49
0.25
 49
-1.5
 49
0.25
 49
-1.5
  0
LTYPE
  2
double-dashed_triplicate-dotted
 70
   64
  3
-----  ---------  -  -  -  -----
 72
   65
 73
   10
 40
20.25
 49
6
 49
-1.5
 49
6
 49
-1.5
 49
0.25
 49
-1.5
 49
0.25
 49
-1.5
 49
0.25
 49
-1.5
  0
LTYPE
  2
undefined
 70
   64
  3
--------------------------------
 72
   65
 73
    0
 40
0
  0
ENDTAB
  0
TABLE
  2
STYLE
  5
3
100
AcDbSymbolTable
 70
     1
  0
STYLE
  5
10
100
AcDbSymbolTableRecord
100
AcDbTextStyleTableRecord
  2
STANDARD
 70
     0
 40
0.0
 41
1.0
 50
0.0
 71
     0
 42
0.2
  3
txt
  4
bigfont.shx
  0
STYLE
  5
26
100
AcDbSymbolTableRecord
100
AcDbTextStyleTableRecord
  2
TATEGAKI
 70
    68
 40
0.0
 41
1.0
 50
0.0
 71
     0
 42
1.0
  3
txt
  4
bigfont.shx
  0
ENDTAB
  0
TABLE
  2
LAYER
 70
    8
  0
LAYER
  2
_0-0_LAYER001
 70
   64
 62
    7
  6
CONTINUOUS
  0
LAYER
  2
_0-1_LAYER002
 70
   64
 62
    7
  6
CONTINUOUS
  0
LAYER
  2
_0-2_LAYER003
 70
   64
 62
    7
  6
CONTINUOUS
  0
LAYER
  2
_0-3_LAYER004
 70
   64
 62
    7
  6
CONTINUOUS
  0
LAYER
  2
_0-4_LAYER005
 70
   64
 62
    7
  6
CONTINUOUS
  0
LAYER
  2
_0-5_LAYER006
 70
   64
 62
    7
  6
CONTINUOUS
  0
LAYER
  2
_0-6_LAYER007
 70
   64
 62
    7
  6
CONTINUOUS
  0
LAYER
  2
ADD_LINE
 70
   64
 62
    7
  6
CONTINUOUS
  0
ENDTAB
  0
ENDSEC
  0
SECTION
  2
BLOCKS
  0
ENDSEC
  0
SECTION
  2
ENTITIES
  0
LINE
  8
_0-1_LAYER002
  6
CONTINUOUS
 62
    2
 10
1481.0747999999999
 20
1158.4494999999999
 11
1476.6136000000001
 21
1099.9825000000001
  0
LINE
  8
_0-6_LAYER007
  6
CONTINUOUS
 62
    2
 10
1396.3271
 20
1066.2067999999999
 11
1486.3271
 21
1106.7067999999999
  0
LINE
  8
_0-0_LAYER001
  6
CONTINUOUS
 62
    2
 10
1486.3271
 20
1082.5817999999999
 11
1486.3271
 21
1016.7868000000001
  0
LINE
  8
_0-0_LAYER001
  6
CONTINUOUS
 62
    4
 10
1506.7993999999999
 20
1234.5621000000001
 11
1506.7813000000001
 21
1234.0967000000001
  0
LINE
  8
_0-0_LAYER001
  6
CONTINUOUS
 62
    4
 10
1506.7813000000001
 20
1234.0967000000001
 11
1506.7323999999999
 21
1232.8333
  0
LINE
  8
_0-0_LAYER001
  6
CONTINUOUS
 62
    4
 10
1506.7323999999999
 20
1232.8333
 11
1506.6601999999998
 21
1230.9716000000001
  0
LINE
  8
_0-0_LAYER001
  6
CONTINUOUS
 62
    4
 10
1506.6601999999998
 20
1230.9716000000001
 11
1506.5726
 21
1228.711
  0
LINE
  8
_0-0_LAYER001
  6
CONTINUOUS
 62
    4
 10
1506.5726
 20
1228.711
 11
1506.4771999999998
 21
1226.2508
  0
LINE
  8
_0-0_LAYER001
  6
CONTINUOUS
 62
    4
 10
1506.4771999999998
 20
1226.2508
 11
1506.3818999999999
 21
1223.7907
  0
LINE
  8
_0-0_LAYER001
  6
CONTINUOUS
 62
    4
 10
1506.3818999999999
 20
1223.7907
 11
1506.2941999999998
 21
1221.53
  0
LINE
  8
_0-0_LAYER001
  6
CONTINUOUS
 62
    4
 10
1506.2941999999998
 20
1221.53
 11
1506.2221
 21
1219.6683
  0
LINE
  8
_0-0_LAYER001
  6
CONTINUOUS
 62
    4
 10
1506.2221
 20
1219.6683
 11
1506.1731
 21
1218.405
  0
LINE
  8
_0-0_LAYER001
  6
CONTINUOUS
 62
    4
 10
1506.1731
 20
1218.405
 11
1506.1550999999999
 21
1217.9395999999999
  0
LINE
  8
_0-0_LAYER001
  6
CONTINUOUS
 62
    4
 10
1506.1550999999999
 20
1217.9395999999999
 11
1507.3024
 21
1217.915
  0
LINE
  8
_0-0_LAYER001
  6
CONTINUOUS
 62
    4
 10
1507.3024
 20
1217.915
 11
1510.6707999999999
 21
1217.6887999999999
  0
LINE
  8
_0-0_LAYER001
  6
CONTINUOUS
 62
    4
 10
1510.6707999999999
 20
1217.6887999999999
 11
1516.1493999999998
 21
1217.0322000000001
  0
LINE
  8
_0-0_LAYER001
  6
CONTINUOUS
 62
    4
 10
1516.1493999999998
 20
1217.0322000000001
 11
1523.6275999999998
 21
1215.7164
  0
LINE
  8
_0-0_LAYER001
  6
CONTINUOUS
 62
    4
 10
1523.6275999999998
 20
1215.7164
 11
1532.9947000000002
 21
1213.5127
  0
LINE
  8
_0-0_LAYER001
  6
CONTINUOUS
 62
    4
 10
1532.9947000000002
 20
1213.5127
 11
1544.1399000000001
 21
1210.1922
  0
LINE
  8
_0-0_LAYER001
  6
CONTINUOUS
 62
    4
 10
1544.1399000000001
 20
1210.1922
 11
1556.9524999999999
 21
1205.5262
  0
LINE
  8
_0-0_LAYER001
  6
CONTINUOUS
 62
    4
 10
1556.9524999999999
 20
1205.5262
 11
1571.3218000000002
 21
1199.2859000000001
  0
LINE
  8
_0-0_LAYER001
  6
CONTINUOUS
 62
    4
 10
1571.3218000000002
 20
1199.2859000000001
 11
1587.1370999999999
 21
1191.2425000000001
  0
LINE
  8
_0-0_LAYER001
  6
CONTINUOUS
 62
    4
 10
1587.1370999999999
 20
1191.2425000000001
 11
1604.2876999999999
 21
1181.1673000000001
  0
LINE
  8
_0-0_LAYER001
  6
CONTINUOUS
 62
    4
 10
1604.2876999999999
 20
1181.1673000000001
 11
1604.3171000000002
 21
1181.9248
  0
LINE
  8
_0-0_LAYER001
  6
CONTINUOUS
 62
    4
 10
1604.3171000000002
 20
1181.9248
 11
1604.3968
 21
1183.9808
  0
LINE
  8
_0-0_LAYER001
  6
CONTINUOUS
 62
    4
 10
1604.3968
 20
1183.9808
 11
1604.5142000000001
 21
1187.0107
  0
LINE
  8
_0-0_LAYER001
  6
CONTINUOUS
 62
    4
 10
1604.5142000000001
 20
1187.0107
 11
1604.6568000000002
 21
1190.6898000000001
  0
LINE
  8
_0-0_LAYER001
  6
CONTINUOUS
 62
    4
 10
1604.6568000000002
 20
1190.6898000000001
 11
1604.8119999999999
 21
1194.6936000000001
  0
LINE
  8
_0-0_LAYER001
  6
CONTINUOUS
 62
    4
 10
1604.8119999999999
 20
1194.6936000000001
 11
1604.9672
 21
1198.6974
  0
LINE
  8
_0-0_LAYER001
  6
CONTINUOUS
 62
    4
 10
1604.9672
 20
1198.6974
 11
1605.1098000000002
 21
1202.3766000000001
  0
LINE
  8
_0-0_LAYER001
  6
CONTINUOUS
 62
    4
 10
1605.1098000000002
 20
1202.3766000000001
 11
1605.2273
 21
1205.4065000000001
  0
LINE
  8
_0-0_LAYER001
  6
CONTINUOUS
 62
    4
 10
1605.2273
 20
1205.4065000000001
 11
1605.3069999999998
 21
1207.4625000000001
  0
LINE
  8
_0-0_LAYER001
  6
CONTINUOUS
 62
    4
 10
1605.3069999999998
 20
1207.4625000000001
 11
1605.3362999999999
 21
1208.2199000000001
  0
LINE
  8
_0-0_LAYER001
  6
CONTINUOUS
 62
    4
 10
1605.3362999999999
 20
1208.2199000000001
 11
1603.6932000000002
 21
1208.8702000000001
  0
LINE
  8
_0-0_LAYER001
  6
CONTINUOUS
 62
    4
 10
1603.6932000000002
 20
1208.8702000000001
 11
1599.0562
 21
1210.6491000000001
  0
LINE
  8
_0-0_LAYER001
  6
CONTINUOUS
 62
    4
 10
1599.0562
 20
1210.6491000000001
 11
1591.8636999999999
 21
1213.2986000000001
  0
LINE
  8
_0-0_LAYER001
  6
CONTINUOUS
 62
    4
 10
1591.8636999999999
 20
1213.2986000000001
 11
1582.5542999999998
 21
1216.5609999999999
  0
LINE
  8
_0-0_LAYER001
  6
CONTINUOUS
 62
    4
 10
1582.5542999999998
 20
1216.5609999999999
 11
1571.5666000000001
 21
1220.1783
  0
LINE
  8
_0-0_LAYER001
  6
CONTINUOUS
 62
    4
 10
1571.5666000000001
 20
1220.1783
 11
1559.3389000000002
 21
1223.8925999999999
  0
LINE
  8
_0-0_LAYER001
  6
CONTINUOUS
 62
    4
 10
1559.3389000000002
 20
1223.8925999999999
 11
1546.3099000000002
 21
1227.4459999999999
  0
LINE
  8
_0-0_LAYER001
  6
CONTINUOUS
 62
    4
 10
1546.3099000000002
 20
1227.4459999999999
 11
1532.9178999999999
 21
1230.5807
  0
LINE
  8
_0-0_LAYER001
  6
CONTINUOUS
 62
    4
 10
1532.9178999999999
 20
1230.5807
 11
1519.6016
 21
1233.0387000000001
  0
LINE
  8
_0-0_LAYER001
  6
CONTINUOUS
 62
    4
 10
1506.7993999999999
 20
1234.5621000000001
 11
1519.7132000000001
 21
1233.0181
  0
LINE
  8
_0-0_LAYER001
  6
CONTINUOUS
 62
    4
 10
1501.4623999999999
 20
1265.4421
 11
1501.4443000000001
 21
1264.9766999999999
  0
LINE
  8
_0-0_LAYER001
  6
CONTINUOUS
 62
    4
 10
1501.4443000000001
 20
1264.9766999999999
 11
1501.3953999999999
 21
1263.7132999999999
  0
LINE
  8
_0-0_LAYER001
  6
CONTINUOUS
 62
    4
 10
1501.3953999999999
 20
1263.7132999999999
 11
1501.3231999999998
 21
1261.8516
  0
LINE
  8
_0-0_LAYER001
  6
CONTINUOUS
 62
    4
 10
1501.3231999999998
 20
1261.8516
 11
1501.2356
 21
1259.5909999999999
  0
LINE
  8
_0-0_LAYER001
  6
CONTINUOUS
 62
    4
 10
1501.2356
 20
1259.5909999999999
 11
1501.1401999999998
 21
1257.1307999999999
  0
LINE
  8
_0-0_LAYER001
  6
CONTINUOUS
 62
    4
 10
1501.1401999999998
 20
1257.1307999999999
 11
1501.0448999999999
 21
1254.6706999999999
  0
LINE
  8
_0-0_LAYER001
  6
CONTINUOUS
 62
    4
 10
1501.0448999999999
 20
1254.6706999999999
 11
1500.9571999999998
 21
1252.4100000000001
  0
LINE
  8
_0-0_LAYER001
  6
CONTINUOUS
 62
    4
 10
1500.9571999999998
 20
1252.4100000000001
 11
1500.8851
 21
1250.5482999999999
  0
LINE
  8
_0-0_LAYER001
  6
CONTINUOUS
 62
    4
 10
1500.8851
 20
1250.5482999999999
 11
1500.8361
 21
1249.2850000000001
  0
LINE
  8
_0-0_LAYER001
  6
CONTINUOUS
 62
    4
 10
1500.8361
 20
1249.2850000000001
 11
1500.8181
 21
1248.8196
  0
LINE
  8
_0-0_LAYER001
  6
CONTINUOUS
 62
    4
 10
1500.8181
 20
1248.8196
 11
1501.9654
 21
1248.7950000000001
  0
LINE
  8
_0-0_LAYER001
  6
CONTINUOUS
 62
    4
 10
1501.9654
 20
1248.7950000000001
 11
1505.3337999999999
 21
1248.5688
  0
LINE
  8
_0-0_LAYER001
  6
CONTINUOUS
 62
    4
 10
1505.3337999999999
 20
1248.5688
 11
1510.8123999999998
 21
1247.9122
  0
LINE
  8
_0-0_LAYER001
  6
CONTINUOUS
 62
    4
 10
1510.8123999999998
 20
1247.9122
 11
1518.2905999999998
 21
1246.5963999999999
  0
LINE
  8
_0-0_LAYER001
  6
CONTINUOUS
 62
    4
 10
1518.2905999999998
 20
1246.5963999999999
 11
1527.6577000000002
 21
1244.3927000000001
  0
LINE
  8
_0-0_LAYER001
  6
CONTINUOUS
 62
    4
 10
1527.6577000000002
 20
1244.3927000000001
 11
1538.8029000000001
 21
1241.0722000000001
  0
LINE
  8
_0-0_LAYER001
  6
CONTINUOUS
 62
    4
 10
1538.8029000000001
 20
1241.0722000000001
 11
1551.6154999999999
 21
1236.4061999999999
  0
LINE
  8
_0-0_LAYER001
  6
CONTINUOUS
 62
    4
 10
1551.6154999999999
 20
1236.4061999999999
 11
1565.9848000000002
 21
1230.1659
  0
LINE
  8
_0-0_LAYER001
  6
CONTINUOUS
 62
    4
 10
1565.9848000000002
 20
1230.1659
 11
1581.8000999999999
 21
1222.1224999999999
  0
LINE
  8
_0-0_LAYER001
  6
CONTINUOUS
 62
    4
 10
1581.8000999999999
 20
1222.1224999999999
 11
1598.9506999999999
 21
1212.0473
  0
LINE
  8
_0-0_LAYER001
  6
CONTINUOUS
 62
    4
 10
1598.9506999999999
 20
1212.0473
 11
1598.9801000000002
 21
1212.8047999999999
  0
LINE
  8
_0-0_LAYER001
  6
CONTINUOUS
 62
    4
 10
1598.9801000000002
 20
1212.8047999999999
 11
1599.0598
 21
1214.8607999999999
  0
LINE
  8
_0-0_LAYER001
  6
CONTINUOUS
 62
    4
 10
1599.0598
 20
1214.8607999999999
 11
1599.1772000000001
 21
1217.8906999999999
  0
LINE
  8
_0-0_LAYER001
  6
CONTINUOUS
 62
    4
 10
1599.1772000000001
 20
1217.8906999999999
 11
1599.3198000000002
 21
1221.5698
  0
LINE
  8
_0-0_LAYER001
  6
CONTINUOUS
 62
    4
 10
1599.3198000000002
 20
1221.5698
 11
1599.4749999999999
 21
1225.5735999999999
  0
LINE
  8
_0-0_LAYER001
  6
CONTINUOUS
 62
    4
 10
1599.4749999999999
 20
1225.5735999999999
 11
1599.6302000000001
 21
1229.5773999999999
  0
LINE
  8
_0-0_LAYER001
  6
CONTINUOUS
 62
    4
 10
1599.6302000000001
 20
1229.5773999999999
 11
1599.7728000000002
 21
1233.2565999999999
  0
LINE
  8
_0-0_LAYER001
  6
CONTINUOUS
 62
    4
 10
1599.7728000000002
 20
1233.2565999999999
 11
1599.8903
 21
1236.2864999999999
  0
LINE
  8
_0-0_LAYER001
  6
CONTINUOUS
 62
    4
 10
1599.8903
 20
1236.2864999999999
 11
1599.9699999999998
 21
1238.3425
  0
LINE
  8
_0-0_LAYER001
  6
CONTINUOUS
 62
    4
 10
1599.9699999999998
 20
1238.3425
 11
1599.9992999999999
 21
1239.0998999999999
  0
LINE
  8
_0-0_LAYER001
  6
CONTINUOUS
 62
    4
 10
1599.9992999999999
 20
1239.0998999999999
 11
1598.3562000000002
 21
1239.7501999999999
  0
LINE
  8
_0-0_LAYER001
  6
CONTINUOUS
 62
    4
 10
1598.3562000000002
 20
1239.7501999999999
 11
1593.7192
 21
1241.5291
  0
LINE
  8
_0-0_LAYER001
  6
CONTINUOUS
 62
    4
 10
1593.7192
 20
1241.5291
 11
1586.5266999999999
 21
1244.1786
  0
LINE
  8
_0-0_LAYER001
  6
CONTINUOUS
 62
    4
 10
1586.5266999999999
 20
1244.1786
 11
1577.2172999999998
 21
1247.441
  0
LINE
  8
_0-0_LAYER001
  6
CONTINUOUS
 62
    4
 10
1577.2172999999998
 20
1247.441
 11
1566.2296000000001
 21
1251.0582999999999
  0
LINE
  8
_0-0_LAYER001
  6
CONTINUOUS
 62
    4
 10
1566.2296000000001
 20
1251.0582999999999
 11
1554.0019000000002
 21
1254.7726
  0
LINE
  8
_0-0_LAYER001
  6
CONTINUOUS
 62
    4
 10
1554.0019000000002
 20
1254.7726
 11
1540.9729000000002
 21
1258.326
  0
LINE
  8
_0-0_LAYER001
  6
CONTINUOUS
 62
    4
 10
1540.9729000000002
 20
1258.326
 11
1527.5808999999999
 21
1261.4607000000001
  0
LINE
  8
_0-0_LAYER001
  6
CONTINUOUS
 62
    4
 10
1527.5808999999999
 20
1261.4607000000001
 11
1514.2646
 21
1263.9186999999999
  0
LINE
  8
_0-0_LAYER001
  6
CONTINUOUS
 62
    4
 10
1501.4623999999999
 20
1265.4421
 11
1514.3762000000002
 21
1263.8981000000001
  0
LINE
  8
_0-0_LAYER001
  6
CONTINUOUS
 62
    4
 10
1471.1916999999999
 20
1265.4421
 11
1471.2098000000001
 21
1264.9766999999999
  0
LINE
  8
_0-0_LAYER001
  6
CONTINUOUS
 62
    4
 10
1471.2098000000001
 20
1264.9766999999999
 11
1471.2586999999999
 21
1263.7132999999999
  0
LINE
  8
_0-0_LAYER001
  6
CONTINUOUS
 62
    4
 10
1471.2586999999999
 20
1263.7132999999999
 11
1471.3308999999999
 21
1261.8516
  0
LINE
  8
_0-0_LAYER001
  6
CONTINUOUS
 62
    4
 10
1471.3308999999999
 20
1261.8516
 11
1471.4185000000002
 21
1259.5909999999999
  0
LINE
  8
_0-0_LAYER001
  6
CONTINUOUS
 62
    4
 10
1471.4185000000002
 20
1259.5909999999999
 11
1471.5138999999999
 21
1257.1307999999999
  0
LINE
  8
_0-0_LAYER001
  6
CONTINUOUS
 62
    4
 10
1471.5138999999999
 20
1257.1307999999999
 11
1471.6093000000001
 21
1254.6706999999999
  0
LINE
  8
_0-0_LAYER001
  6
CONTINUOUS
 62
    4
 10
1471.6093000000001
 20
1254.6706999999999
 11
1471.6968999999999
 21
1252.4100000000001
  0
LINE
  8
_0-0_LAYER001
  6
CONTINUOUS
 62
    4
 10
1471.6968999999999
 20
1252.4100000000001
 11
1471.7689999999998
 21
1250.5482999999999
  0
LINE
  8
_0-0_LAYER001
  6
CONTINUOUS
 62
    4
 10
1471.7689999999998
 20
1250.5482999999999
 11
1471.8180000000002
 21
1249.2850000000001
  0
LINE
  8
_0-0_LAYER001
  6
CONTINUOUS
 62
    4
 10
1471.8180000000002
 20
1249.2850000000001
 11
1471.8361
 21
1248.8196
  0
LINE
  8
_0-0_LAYER001
  6
CONTINUOUS
 62
    4
 10
1471.8361
 20
1248.8196
 11
1470.6887000000002
 21
1248.7950000000001
  0
LINE
  8
_0-0_LAYER001
  6
CONTINUOUS
 62
    4
 10
1470.6887000000002
 20
1248.7950000000001
 11
1467.3202999999999
 21
1248.5688
  0
LINE
  8
_0-0_LAYER001
  6
CONTINUOUS
 62
    4
 10
1467.3202999999999
 20
1248.5688
 11
1461.8416999999999
 21
1247.9122
  0
LINE
  8
_0-0_LAYER001
  6
CONTINUOUS
 62
    4
 10
1461.8416999999999
 20
1247.9122
 11
1454.3634999999999
 21
1246.5963999999999
  0
LINE
  8
_0-0_LAYER001
  6
CONTINUOUS
 62
    4
 10
1454.3634999999999
 20
1246.5963999999999
 11
1444.9964
 21
1244.3927000000001
  0
LINE
  8
_0-0_LAYER001
  6
CONTINUOUS
 62
    4
 10
1444.9964
 20
1244.3927000000001
 11
1433.8512000000001
 21
1241.0722000000001
  0
LINE
  8
_0-0_LAYER001
  6
CONTINUOUS
 62
    4
 10
1433.8512000000001
 20
1241.0722000000001
 11
1421.0385999999999
 21
1236.4061999999999
  0
LINE
  8
_0-0_LAYER001
  6
CONTINUOUS
 62
    4
 10
1421.0385999999999
 20
1236.4061999999999
 11
1406.6693
 21
1230.1659
  0
LINE
  8
_0-0_LAYER001
  6
CONTINUOUS
 62
    4
 10
1406.6693
 20
1230.1659
 11
1390.8539999999998
 21
1222.1224999999999
  0
LINE
  8
_0-0_LAYER001
  6
CONTINUOUS
 62
    4
 10
1390.8539999999998
 20
1222.1224999999999
 11
1373.7033999999999
 21
1212.0473
  0
LINE
  8
_0-0_LAYER001
  6
CONTINUOUS
 62
    4
 10
1373.7033999999999
 20
1212.0473
 11
1373.674
 21
1212.8047999999999
  0
LINE
  8
_0-0_LAYER001
  6
CONTINUOUS
 62
    4
 10
1373.674
 20
1212.8047999999999
 11
1373.5943
 21
1214.8607999999999
  0
LINE
  8
_0-0_LAYER001
  6
CONTINUOUS
 62
    4
 10
1373.5943
 20
1214.8607999999999
 11
1373.4769000000001
 21
1217.8906999999999
  0
LINE
  8
_0-0_LAYER001
  6
CONTINUOUS
 62
    4
 10
1373.4769000000001
 20
1217.8906999999999
 11
1373.3343
 21
1221.5698
  0
LINE
  8
_0-0_LAYER001
  6
CONTINUOUS
 62
    4
 10
1373.3343
 20
1221.5698
 11
1373.1791000000001
 21
1225.5735999999999
  0
LINE
  8
_0-0_LAYER001
  6
CONTINUOUS
 62
    4
 10
1373.1791000000001
 20
1225.5735999999999
 11
1373.0239000000001
 21
1229.5773999999999
  0
LINE
  8
_0-0_LAYER001
  6
CONTINUOUS
 62
    4
 10
1373.0239000000001
 20
1229.5773999999999
 11
1372.8813
 21
1233.2565999999999
  0
LINE
  8
_0-0_LAYER001
  6
CONTINUOUS
 62
    4
 10
1372.8813
 20
1233.2565999999999
 11
1372.7637999999999
 21
1236.2864999999999
  0
LINE
  8
_0-0_LAYER001
  6
CONTINUOUS
 62
    4
 10
1372.7637999999999
 20
1236.2864999999999
 11
1372.6840999999999
 21
1238.3425
  0
LINE
  8
_0-0_LAYER001
  6
CONTINUOUS
 62
    4
 10
1372.6840999999999
 20
1238.3425
 11
1372.6548
 21
1239.0998999999999
  0
LINE
  8
_0-0_LAYER001
  6
CONTINUOUS
 62
    4
 10
1372.6548
 20
1239.0998999999999
 11
1374.2979
 21
1239.7501999999999
  0
LINE
  8
_0-0_LAYER001
  6
CONTINUOUS
 62
    4
 10
1374.2979
 20
1239.7501999999999
 11
1378.9348999999997
 21
1241.5291
  0
LINE
  8
_0-0_LAYER001
  6
CONTINUOUS
 62
    4
 10
1378.9348999999997
 20
1241.5291
 11
1386.1274000000001
 21
1244.1786
  0
LINE
  8
_0-0_LAYER001
  6
CONTINUOUS
 62
    4
 10
1386.1274000000001
 20
1244.1786
 11
1395.4367999999999
 21
1247.441
  0
LINE
  8
_0-0_LAYER001
  6
CONTINUOUS
 62
    4
 10
1395.4367999999999
 20
1247.441
 11
1406.4245000000001
 21
1251.0582999999999
  0
LINE
  8
_0-0_LAYER001
  6
CONTINUOUS
 62
    4
 10
1406.4245000000001
 20
1251.0582999999999
 11
1418.6522
 21
1254.7726
  0
LINE
  8
_0-0_LAYER001
  6
CONTINUOUS
 62
    4
 10
1418.6522
 20
1254.7726
 11
1431.6813000000002
 21
1258.326
  0
LINE
  8
_0-0_LAYER001
  6
CONTINUOUS
 62
    4
 10
1431.6813000000002
 20
1258.326
 11
1445.0731999999998
 21
1261.4607000000001
  0
LINE
  8
_0-0_LAYER001
  6
CONTINUOUS
 62
    4
 10
1445.0731999999998
 20
1261.4607000000001
 11
1458.3895000000002
 21
1263.9186999999999
  0
LINE
  8
_0-0_LAYER001
  6
CONTINUOUS
 62
    4
 10
1471.1916999999999
 20
1265.4421
 11
1458.2779
 21
1263.8981000000001
  0
LINE
  8
_0-0_LAYER001
  6
CONTINUOUS
 62
    4
 10
1465.8546999999999
 20
1234.5621000000001
 11
1465.8728000000001
 21
1234.0967000000001
  0
LINE
  8
_0-0_LAYER001
  6
CONTINUOUS
 62
    4
 10
1465.8728000000001
 20
1234.0967000000001
 11
1465.9216999999999
 21
1232.8333
  0
LINE
  8
_0-0_LAYER001
  6
CONTINUOUS
 62
    4
 10
1465.9216999999999
 20
1232.8333
 11
1465.9938999999999
 21
1230.9716000000001
  0
LINE
  8
_0-0_LAYER001
  6
CONTINUOUS
 62
    4
 10
1465.9938999999999
 20
1230.9716000000001
 11
1466.0814999999998
 21
1228.711
  0
LINE
  8
_0-0_LAYER001
  6
CONTINUOUS
 62
    4
 10
1466.0814999999998
 20
1228.711
 11
1466.1768999999999
 21
1226.2508
  0
LINE
  8
_0-0_LAYER001
  6
CONTINUOUS
 62
    4
 10
1466.1768999999999
 20
1226.2508
 11
1466.2723000000001
 21
1223.7907
  0
LINE
  8
_0-0_LAYER001
  6
CONTINUOUS
 62
    4
 10
1466.2723000000001
 20
1223.7907
 11
1466.3598999999999
 21
1221.53
  0
LINE
  8
_0-0_LAYER001
  6
CONTINUOUS
 62
    4
 10
1466.3598999999999
 20
1221.53
 11
1466.4319999999998
 21
1219.6683
  0
LINE
  8
_0-0_LAYER001
  6
CONTINUOUS
 62
    4
 10
1466.4319999999998
 20
1219.6683
 11
1466.4810000000002
 21
1218.405
  0
LINE
  8
_0-0_LAYER001
  6
CONTINUOUS
 62
    4
 10
1466.4810000000002
 20
1218.405
 11
1466.4991
 21
1217.9395999999999
  0
LINE
  8
_0-0_LAYER001
  6
CONTINUOUS
 62
    4
 10
1466.4991
 20
1217.9395999999999
 11
1465.3517000000002
 21
1217.915
  0
LINE
  8
_0-0_LAYER001
  6
CONTINUOUS
 62
    4
 10
1465.3517000000002
 20
1217.915
 11
1461.9832999999999
 21
1217.6887999999999
  0
LINE
  8
_0-0_LAYER001
  6
CONTINUOUS
 62
    4
 10
1461.9832999999999
 20
1217.6887999999999
 11
1456.5047
 21
1217.0322000000001
  0
LINE
  8
_0-0_LAYER001
  6
CONTINUOUS
 62
    4
 10
1456.5047
 20
1217.0322000000001
 11
1449.0264999999999
 21
1215.7164
  0
LINE
  8
_0-0_LAYER001
  6
CONTINUOUS
 62
    4
 10
1449.0264999999999
 20
1215.7164
 11
1439.6594
 21
1213.5127
  0
LINE
  8
_0-0_LAYER001
  6
CONTINUOUS
 62
    4
 10
1439.6594
 20
1213.5127
 11
1428.5142000000001
 21
1210.1922
  0
LINE
  8
_0-0_LAYER001
  6
CONTINUOUS
 62
    4
 10
1428.5142000000001
 20
1210.1922
 11
1415.7016000000001
 21
1205.5262
  0
LINE
  8
_0-0_LAYER001
  6
CONTINUOUS
 62
    4
 10
1415.7016000000001
 20
1205.5262
 11
1401.3323
 21
1199.2859000000001
  0
LINE
  8
_0-0_LAYER001
  6
CONTINUOUS
 62
    4
 10
1401.3323
 20
1199.2859000000001
 11
1385.5170000000001
 21
1191.2425000000001
  0
LINE
  8
_0-0_LAYER001
  6
CONTINUOUS
 62
    4
 10
1385.5170000000001
 20
1191.2425000000001
 11
1368.3664000000001
 21
1181.1673000000001
  0
LINE
  8
_0-0_LAYER001
  6
CONTINUOUS
 62
    4
 10
1368.3664000000001
 20
1181.1673000000001
 11
1368.337
 21
1181.9248
  0
LINE
  8
_0-0_LAYER001
  6
CONTINUOUS
 62
    4
 10
1368.337
 20
1181.9248
 11
1368.2573
 21
1183.9808
  0
LINE
  8
_0-0_LAYER001
  6
CONTINUOUS
 62
    4
 10
1368.2573
 20
1183.9808
 11
1368.1398999999999
 21
1187.0107
  0
LINE
  8
_0-0_LAYER001
  6
CONTINUOUS
 62
    4
 10
1368.1398999999999
 20
1187.0107
 11
1367.9973
 21
1190.6898000000001
  0
LINE
  8
_0-0_LAYER001
  6
CONTINUOUS
 62
    4
 10
1367.9973
 20
1190.6898000000001
 11
1367.8421000000001
 21
1194.6936000000001
  0
LINE
  8
_0-0_LAYER001
  6
CONTINUOUS
 62
    4
 10
1367.8421000000001
 20
1194.6936000000001
 11
1367.6868999999999
 21
1198.6974
  0
LINE
  8
_0-0_LAYER001
  6
CONTINUOUS
 62
    4
 10
1367.6868999999999
 20
1198.6974
 11
1367.5443
 21
1202.3766000000001
  0
LINE
  8
_0-0_LAYER001
  6
CONTINUOUS
 62
    4
 10
1367.5443
 20
1202.3766000000001
 11
1367.4268000000002
 21
1205.4065000000001
  0
LINE
  8
_0-0_LAYER001
  6
CONTINUOUS
 62
    4
 10
1367.4268000000002
 20
1205.4065000000001
 11
1367.3471
 21
1207.4625000000001
  0
LINE
  8
_0-0_LAYER001
  6
CONTINUOUS
 62
    4
 10
1367.3471
 20
1207.4625000000001
 11
1367.3178000000003
 21
1208.2199000000001
  0
LINE
  8
_0-0_LAYER001
  6
CONTINUOUS
 62
    4
 10
1367.3178000000003
 20
1208.2199000000001
 11
1368.9609
 21
1208.8702000000001
  0
LINE
  8
_0-0_LAYER001
  6
CONTINUOUS
 62
    4
 10
1368.9609
 20
1208.8702000000001
 11
1373.5979
 21
1210.6491000000001
  0
LINE
  8
_0-0_LAYER001
  6
CONTINUOUS
 62
    4
 10
1373.5979
 20
1210.6491000000001
 11
1380.7904000000003
 21
1213.2986000000001
  0
LINE
  8
_0-0_LAYER001
  6
CONTINUOUS
 62
    4
 10
1380.7904000000003
 20
1213.2986000000001
 11
1390.0998
 21
1216.5609999999999
  0
LINE
  8
_0-0_LAYER001
  6
CONTINUOUS
 62
    4
 10
1390.0998
 20
1216.5609999999999
 11
1401.0875000000001
 21
1220.1783
  0
LINE
  8
_0-0_LAYER001
  6
CONTINUOUS
 62
    4
 10
1401.0875000000001
 20
1220.1783
 11
1413.3152
 21
1223.8925999999999
  0
LINE
  8
_0-0_LAYER001
  6
CONTINUOUS
 62
    4
 10
1413.3152
 20
1223.8925999999999
 11
1426.3443000000002
 21
1227.4459999999999
  0
LINE
  8
_0-0_LAYER001
  6
CONTINUOUS
 62
    4
 10
1426.3443000000002
 20
1227.4459999999999
 11
1439.7361999999998
 21
1230.5807
  0
LINE
  8
_0-0_LAYER001
  6
CONTINUOUS
 62
    4
 10
1439.7361999999998
 20
1230.5807
 11
1453.0524999999998
 21
1233.0387000000001
  0
LINE
  8
_0-0_LAYER001
  6
CONTINUOUS
 62
    4
 10
1465.8546999999999
 20
1234.5621000000001
 11
1452.9409000000001
 21
1233.0181
  0
LINE
  8
_0-0_LAYER001
  6
CONTINUOUS
 62
    4
 10
1461.8181
 20
1203.9858999999999
 11
1461.8361
 21
1203.5205000000001
  0
LINE
  8
_0-0_LAYER001
  6
CONTINUOUS
 62
    4
 10
1461.8361
 20
1203.5205000000001
 11
1461.8851
 21
1202.2572
  0
LINE
  8
_0-0_LAYER001
  6
CONTINUOUS
 62
    4
 10
1461.8851
 20
1202.2572
 11
1461.9573
 21
1200.3955000000001
  0
LINE
  8
_0-0_LAYER001
  6
CONTINUOUS
 62
    4
 10
1461.9573
 20
1200.3955000000001
 11
1462.0448999999999
 21
1198.1348
  0
LINE
  8
_0-0_LAYER001
  6
CONTINUOUS
 62
    4
 10
1462.0448999999999
 20
1198.1348
 11
1462.1401999999998
 21
1195.6747
  0
LINE
  8
_0-0_LAYER001
  6
CONTINUOUS
 62
    4
 10
1462.1401999999998
 20
1195.6747
 11
1462.2356
 21
1193.2146
  0
LINE
  8
_0-0_LAYER001
  6
CONTINUOUS
 62
    4
 10
1462.2356
 20
1193.2146
 11
1462.3231999999998
 21
1190.9539
  0
LINE
  8
_0-0_LAYER001
  6
CONTINUOUS
 62
    4
 10
1462.3231999999998
 20
1190.9539
 11
1462.3953999999999
 21
1189.0922
  0
LINE
  8
_0-0_LAYER001
  6
CONTINUOUS
 62
    4
 10
1462.3953999999999
 20
1189.0922
 11
1462.4443999999999
 21
1187.8289
  0
LINE
  8
_0-0_LAYER001
  6
CONTINUOUS
 62
    4
 10
1462.4443999999999
 20
1187.8289
 11
1462.4623999999999
 21
1187.3634
  0
LINE
  8
_0-0_LAYER001
  6
CONTINUOUS
 62
    4
 10
1462.4623999999999
 20
1187.3634
 11
1461.3150000000001
 21
1187.3389
  0
LINE
  8
_0-0_LAYER001
  6
CONTINUOUS
 62
    4
 10
1461.3150000000001
 20
1187.3389
 11
1457.9466000000002
 21
1187.1126999999999
  0
LINE
  8
_0-0_LAYER001
  6
CONTINUOUS
 62
    4
 10
1457.9466000000002
 20
1187.1126999999999
 11
1452.4679999999998
 21
1186.4561000000001
  0
LINE
  8
_0-0_LAYER001
  6
CONTINUOUS
 62
    4
 10
1452.4679999999998
 20
1186.4561000000001
 11
1444.9897999999998
 21
1185.1403
  0
LINE
  8
_0-0_LAYER001
  6
CONTINUOUS
 62
    4
 10
1444.9897999999998
 20
1185.1403
 11
1435.6228000000001
 21
1182.9365
  0
LINE
  8
_0-0_LAYER001
  6
CONTINUOUS
 62
    4
 10
1435.6228000000001
 20
1182.9365
 11
1424.4775999999999
 21
1179.616
  0
LINE
  8
_0-0_LAYER001
  6
CONTINUOUS
 62
    4
 10
1424.4775999999999
 20
1179.616
 11
1411.665
 21
1174.95
  0
LINE
  8
_0-0_LAYER001
  6
CONTINUOUS
 62
    4
 10
1411.665
 20
1174.95
 11
1397.2956999999999
 21
1168.7097000000001
  0
LINE
  8
_0-0_LAYER001
  6
CONTINUOUS
 62
    4
 10
1397.2956999999999
 20
1168.7097000000001
 11
1381.4803000000002
 21
1160.6664000000001
  0
LINE
  8
_0-0_LAYER001
  6
CONTINUOUS
 62
    4
 10
1381.4803000000002
 20
1160.6664000000001
 11
1364.3297000000002
 21
1150.5912000000001
  0
LINE
  8
_0-0_LAYER001
  6
CONTINUOUS
 62
    4
 10
1364.3297000000002
 20
1150.5912000000001
 11
1364.3004000000001
 21
1151.3487
  0
LINE
  8
_0-0_LAYER001
  6
CONTINUOUS
 62
    4
 10
1364.3004000000001
 20
1151.3487
 11
1364.2207000000003
 21
1153.4047
  0
LINE
  8
_0-0_LAYER001
  6
CONTINUOUS
 62
    4
 10
1364.2207000000003
 20
1153.4047
 11
1364.1032
 21
1156.4345000000001
  0
LINE
  8
_0-0_LAYER001
  6
CONTINUOUS
 62
    4
 10
1364.1032
 20
1156.4345000000001
 11
1363.9606000000001
 21
1160.1137000000001
  0
LINE
  8
_0-0_LAYER001
  6
CONTINUOUS
 62
    4
 10
1363.9606000000001
 20
1160.1137000000001
 11
1363.8054
 21
1164.1175000000001
  0
LINE
  8
_0-0_LAYER001
  6
CONTINUOUS
 62
    4
 10
1363.8054
 20
1164.1175000000001
 11
1363.6502
 21
1168.1213
  0
LINE
  8
_0-0_LAYER001
  6
CONTINUOUS
 62
    4
 10
1363.6502
 20
1168.1213
 11
1363.5075999999999
 21
1171.8004000000001
  0
LINE
  8
_0-0_LAYER001
  6
CONTINUOUS
 62
    4
 10
1363.5075999999999
 20
1171.8004000000001
 11
1363.3902
 21
1174.8303000000001
  0
LINE
  8
_0-0_LAYER001
  6
CONTINUOUS
 62
    4
 10
1363.3902
 20
1174.8303000000001
 11
1363.3105
 21
1176.8862999999999
  0
LINE
  8
_0-0_LAYER001
  6
CONTINUOUS
 62
    4
 10
1363.3105
 20
1176.8862999999999
 11
1363.2810999999997
 21
1177.6438000000001
  0
LINE
  8
_0-0_LAYER001
  6
CONTINUOUS
 62
    4
 10
1363.2810999999997
 20
1177.6438000000001
 11
1364.9241999999999
 21
1178.2941000000001
  0
LINE
  8
_0-0_LAYER001
  6
CONTINUOUS
 62
    4
 10
1364.9241999999999
 20
1178.2941000000001
 11
1369.5613000000001
 21
1180.0728999999999
  0
LINE
  8
_0-0_LAYER001
  6
CONTINUOUS
 62
    4
 10
1369.5613000000001
 20
1180.0728999999999
 11
1376.7536999999998
 21
1182.7225000000001
  0
LINE
  8
_0-0_LAYER001
  6
CONTINUOUS
 62
    4
 10
1376.7536999999998
 20
1182.7225000000001
 11
1386.0631000000001
 21
1185.9848999999999
  0
LINE
  8
_0-0_LAYER001
  6
CONTINUOUS
 62
    4
 10
1386.0631000000001
 20
1185.9848999999999
 11
1397.0508999999997
 21
1189.6022
  0
LINE
  8
_0-0_LAYER001
  6
CONTINUOUS
 62
    4
 10
1397.0508999999997
 20
1189.6022
 11
1409.2784999999999
 21
1193.3164999999999
  0
LINE
  8
_0-0_LAYER001
  6
CONTINUOUS
 62
    4
 10
1409.2784999999999
 20
1193.3164999999999
 11
1422.3076000000001
 21
1196.8698999999999
  0
LINE
  8
_0-0_LAYER001
  6
CONTINUOUS
 62
    4
 10
1422.3076000000001
 20
1196.8698999999999
 11
1435.6995000000002
 21
1200.0045
  0
LINE
  8
_0-0_LAYER001
  6
CONTINUOUS
 62
    4
 10
1435.6995000000002
 20
1200.0045
 11
1449.0158999999999
 21
1202.4625000000001
  0
LINE
  8
_0-0_LAYER001
  6
CONTINUOUS
 62
    4
 10
1461.8181
 20
1203.9858999999999
 11
1448.9041999999999
 21
1202.4419
  0
LINE
  8
_0-0_LAYER001
  6
CONTINUOUS
 62
    4
 10
1510.8359999999998
 20
1203.9858999999999
 11
1510.8180000000002
 21
1203.5205000000001
  0
LINE
  8
_0-0_LAYER001
  6
CONTINUOUS
 62
    4
 10
1510.8180000000002
 20
1203.5205000000001
 11
1510.7689999999998
 21
1202.2572
  0
LINE
  8
_0-0_LAYER001
  6
CONTINUOUS
 62
    4
 10
1510.7689999999998
 20
1202.2572
 11
1510.6968999999999
 21
1200.3955000000001
  0
LINE
  8
_0-0_LAYER001
  6
CONTINUOUS
 62
    4
 10
1510.6968999999999
 20
1200.3955000000001
 11
1510.6091999999999
 21
1198.1348
  0
LINE
  8
_0-0_LAYER001
  6
CONTINUOUS
 62
    4
 10
1510.6091999999999
 20
1198.1348
 11
1510.5138999999999
 21
1195.6747
  0
LINE
  8
_0-0_LAYER001
  6
CONTINUOUS
 62
    4
 10
1510.5138999999999
 20
1195.6747
 11
1510.4185000000002
 21
1193.2146
  0
LINE
  8
_0-0_LAYER001
  6
CONTINUOUS
 62
    4
 10
1510.4185000000002
 20
1193.2146
 11
1510.3308999999999
 21
1190.9539
  0
LINE
  8
_0-0_LAYER001
  6
CONTINUOUS
 62
    4
 10
1510.3308999999999
 20
1190.9539
 11
1510.2586999999999
 21
1189.0922
  0
LINE
  8
_0-0_LAYER001
  6
CONTINUOUS
 62
    4
 10
1510.2586999999999
 20
1189.0922
 11
1510.2098000000001
 21
1187.8289
  0
LINE
  8
_0-0_LAYER001
  6
CONTINUOUS
 62
    4
 10
1510.2098000000001
 20
1187.8289
 11
1510.1916999999999
 21
1187.3634
  0
LINE
  8
_0-0_LAYER001
  6
CONTINUOUS
 62
    4
 10
1510.1916999999999
 20
1187.3634
 11
1511.3391000000001
 21
1187.3389
  0
LINE
  8
_0-0_LAYER001
  6
CONTINUOUS
 62
    4
 10
1511.3391000000001
 20
1187.3389
 11
1514.7075
 21
1187.1126999999999
  0
LINE
  8
_0-0_LAYER001
  6
CONTINUOUS
 62
    4
 10
1514.7075
 20
1187.1126999999999
 11
1520.1860999999999
 21
1186.4561000000001
  0
LINE
  8
_0-0_LAYER001
  6
CONTINUOUS
 62
    4
 10
1520.1860999999999
 20
1186.4561000000001
 11
1527.6642999999999
 21
1185.1403
  0
LINE
  8
_0-0_LAYER001
  6
CONTINUOUS
 62
    4
 10
1527.6642999999999
 20
1185.1403
 11
1537.0313000000001
 21
1182.9365
  0
LINE
  8
_0-0_LAYER001
  6
CONTINUOUS
 62
    4
 10
1537.0313000000001
 20
1182.9365
 11
1548.1765
 21
1179.616
  0
LINE
  8
_0-0_LAYER001
  6
CONTINUOUS
 62
    4
 10
1548.1765
 20
1179.616
 11
1560.9890999999998
 21
1174.95
  0
LINE
  8
_0-0_LAYER001
  6
CONTINUOUS
 62
    4
 10
1560.9890999999998
 20
1174.95
 11
1575.3584000000001
 21
1168.7097000000001
  0
LINE
  8
_0-0_LAYER001
  6
CONTINUOUS
 62
    4
 10
1575.3584000000001
 20
1168.7097000000001
 11
1591.1738
 21
1160.6664000000001
  0
LINE
  8
_0-0_LAYER001
  6
CONTINUOUS
 62
    4
 10
1591.1738
 20
1160.6664000000001
 11
1608.3244
 21
1150.5912000000001
  0
LINE
  8
_0-0_LAYER001
  6
CONTINUOUS
 62
    4
 10
1608.3244
 20
1150.5912000000001
 11
1608.3537999999999
 21
1151.3487
  0
LINE
  8
_0-0_LAYER001
  6
CONTINUOUS
 62
    4
 10
1608.3537999999999
 20
1151.3487
 11
1608.4333999999999
 21
1153.4047
  0
LINE
  8
_0-0_LAYER001
  6
CONTINUOUS
 62
    4
 10
1608.4333999999999
 20
1153.4047
 11
1608.5509000000002
 21
1156.4345000000001
  0
LINE
  8
_0-0_LAYER001
  6
CONTINUOUS
 62
    4
 10
1608.5509000000002
 20
1156.4345000000001
 11
1608.6934999999999
 21
1160.1137000000001
  0
LINE
  8
_0-0_LAYER001
  6
CONTINUOUS
 62
    4
 10
1608.6934999999999
 20
1160.1137000000001
 11
1608.8487
 21
1164.1175000000001
  0
LINE
  8
_0-0_LAYER001
  6
CONTINUOUS
 62
    4
 10
1608.8487
 20
1164.1175000000001
 11
1609.0039000000002
 21
1168.1213
  0
LINE
  8
_0-0_LAYER001
  6
CONTINUOUS
 62
    4
 10
1609.0039000000002
 20
1168.1213
 11
1609.1464999999998
 21
1171.8004000000001
  0
LINE
  8
_0-0_LAYER001
  6
CONTINUOUS
 62
    4
 10
1609.1464999999998
 20
1171.8004000000001
 11
1609.2638999999999
 21
1174.8303000000001
  0
LINE
  8
_0-0_LAYER001
  6
CONTINUOUS
 62
    4
 10
1609.2638999999999
 20
1174.8303000000001
 11
1609.3436000000002
 21
1176.8862999999999
  0
LINE
  8
_0-0_LAYER001
  6
CONTINUOUS
 62
    4
 10
1609.3436000000002
 20
1176.8862999999999
 11
1609.373
 21
1177.6438000000001
  0
LINE
  8
_0-0_LAYER001
  6
CONTINUOUS
 62
    4
 10
1609.373
 20
1177.6438000000001
 11
1607.7298999999998
 21
1178.2941000000001
  0
LINE
  8
_0-0_LAYER001
  6
CONTINUOUS
 62
    4
 10
1607.7298999999998
 20
1178.2941000000001
 11
1603.0927999999999
 21
1180.0728999999999
  0
LINE
  8
_0-0_LAYER001
  6
CONTINUOUS
 62
    4
 10
1603.0927999999999
 20
1180.0728999999999
 11
1595.9004
 21
1182.7225000000001
  0
LINE
  8
_0-0_LAYER001
  6
CONTINUOUS
 62
    4
 10
1595.9004
 20
1182.7225000000001
 11
1586.5909999999999
 21
1185.9848999999999
  0
LINE
  8
_0-0_LAYER001
  6
CONTINUOUS
 62
    4
 10
1586.5909999999999
 20
1185.9848999999999
 11
1575.6032
 21
1189.6022
  0
LINE
  8
_0-0_LAYER001
  6
CONTINUOUS
 62
    4
 10
1575.6032
 20
1189.6022
 11
1563.3755999999998
 21
1193.3164999999999
  0
LINE
  8
_0-0_LAYER001
  6
CONTINUOUS
 62
    4
 10
1563.3755999999998
 20
1193.3164999999999
 11
1550.3465000000001
 21
1196.8698999999999
  0
LINE
  8
_0-0_LAYER001
  6
CONTINUOUS
 62
    4
 10
1550.3465000000001
 20
1196.8698999999999
 11
1536.9546
 21
1200.0045
  0
LINE
  8
_0-0_LAYER001
  6
CONTINUOUS
 62
    4
 10
1536.9546
 20
1200.0045
 11
1523.6381999999999
 21
1202.4625000000001
  0
LINE
  8
_0-0_LAYER001
  6
CONTINUOUS
 62
    4
 10
1510.8359999999998
 20
1203.9858999999999
 11
1523.7498999999998
 21
1202.4419
  0
LINE
  8
_0-1_LAYER002
  6
CONTINUOUS
 62
    2
 10
1491.6316000000002
 20
1158.4494999999999
 11
1481.0747999999999
 21
1158.4494999999999
  0
LINE
  8
_0-1_LAYER002
  6
CONTINUOUS
 62
    2
 10
1479.8112000000001
 20
1159.8132000000001
 11
1492.8951999999999
 21
1159.8132000000001
  0
LINE
  8
_0-1_LAYER002
  6
CONTINUOUS
 62
    2
 10
1487.9484000000002
 20
1316.8330000000001
 11
1490.1866
 21
1318.2065
  0
LINE
  8
_0-1_LAYER002
  6
CONTINUOUS
 62
    2
 10
1482.5196999999998
 20
1318.2071000000001
 11
1490.1866
 21
1318.2065
  0
LINE
  8
_0-1_LAYER002
  6
CONTINUOUS
 62
    2
 10
1484.7573000000002
 20
1316.8341
 11
1482.5196999999998
 21
1318.2071000000001
  0
LINE
  8
_0-1_LAYER002
  6
CONTINUOUS
 62
    2
 10
1484.7557000000002
 20
1281.2688000000001
 11
1486.5378000000001
 21
1273.3422
  0
LINE
  8
_0-1_LAYER002
  6
CONTINUOUS
 62
    2
 10
1484.7579999999998
 20
1316.7977999999998
 11
1484.7557000000002
 21
1277.1239
  0
LINE
  8
_0-1_LAYER002
  6
CONTINUOUS
 62
    2
 10
1487.9484000000002
 20
1316.8330000000001
 11
1487.9470999999999
 21
1276.2221
  0
LINE
  8
_0-1_LAYER002
  6
CONTINUOUS
 62
    2
 10
1486.5378000000001
 20
1273.3422
 11
1487.9470999999999
 21
1280.3669
  0
LINE
  8
_0-1_LAYER002
  6
CONTINUOUS
 62
    2
 10
1472.0342000000001
 20
1270.5295000000001
 11
1472.0342000000001
 21
1299.1675
  0
LINE
  8
_0-1_LAYER002
  6
CONTINUOUS
 62
    2
 10
1500.6722
 20
1299.1675
 11
1500.6722
 21
1270.5295000000001
  0
LINE
  8
_0-1_LAYER002
  6
CONTINUOUS
 62
    2
 10
1500.6722
 20
1270.5295000000001
 11
1472.0342000000001
 21
1270.5295000000001
  0
LINE
  8
_0-1_LAYER002
  6
CONTINUOUS
 62
    2
 10
1503.0585999999998
 20
1266.6436000000001
 11
1469.6475999999998
 21
1266.6436000000001
  0
LINE
  8
_0-1_LAYER002
  6
CONTINUOUS
 62
    2
 10
1472.0342000000001
 20
1270.5295000000001
 11
1500.6722
 21
1299.1675
  0
LINE
  8
_0-1_LAYER002
  6
CONTINUOUS
 62
    2
 10
1472.0342000000001
 20
1299.1675
 11
1500.6722
 21
1299.1675
  0
LINE
  8
_0-1_LAYER002
  6
CONTINUOUS
 62
    2
 10
1472.0342000000001
 20
1299.1675
 11
1500.6722
 21
1270.5295000000001
  0
LINE
  8
_0-1_LAYER002
  6
CONTINUOUS
 62
    2
 10
1501.6948000000002
 20
1268.0071
 11
1471.0113999999999
 21
1268.0071
  0
LINE
  8
_0-1_LAYER002
  6
CONTINUOUS
 62
    2
 10
1469.6475999999998
 20
1266.6436000000001
 11
1469.6475999999998
 21
1285.0538000000001
  0
LINE
  8
_0-1_LAYER002
  6
CONTINUOUS
 62
    2
 10
1471.0113999999999
 20
1268.0071
 11
1471.0113999999999
 21
1285.0538000000001
  0
LINE
  8
_0-1_LAYER002
  6
CONTINUOUS
 62
    2
 10
1469.6475999999998
 20
1285.0538000000001
 11
1471.0113999999999
 21
1285.0538000000001
  0
LINE
  8
_0-1_LAYER002
  6
CONTINUOUS
 62
    2
 10
1503.0585999999998
 20
1266.6436000000001
 11
1503.0585999999998
 21
1285.0538000000001
  0
LINE
  8
_0-1_LAYER002
  6
CONTINUOUS
 62
    2
 10
1501.6948000000002
 20
1268.0071
 11
1501.6948000000002
 21
1285.0538000000001
  0
LINE
  8
_0-1_LAYER002
  6
CONTINUOUS
 62
    2
 10
1501.6948000000002
 20
1285.0538000000001
 11
1503.0585999999998
 21
1285.0538000000001
  0
LINE
  8
_0-1_LAYER002
  6
CONTINUOUS
 62
    2
 10
1483.2849000000001
 20
1126.9766
 11
1489.4214999999999
 21
1126.9766
  0
LINE
  8
_0-1_LAYER002
  6
CONTINUOUS
 62
    2
 10
1491.6316000000002
 20
1158.4494999999999
 11
1496.0819000000001
 21
1100.1241
  0
LINE
  8
_0-1_LAYER002
  6
CONTINUOUS
 62
    2
 10
1479.8112000000001
 20
1159.8132000000001
 11
1475.3832000000002
 21
1101.7820999999999
  0
LINE
  8
_0-1_LAYER002
  6
CONTINUOUS
 62
    2
 10
1492.8951999999999
 20
1159.8132000000001
 11
1497.3017
 21
1102.0626999999999
  0
LINE
  8
_0-1_LAYER002
  6
CONTINUOUS
 62
    2
 10
1483.2849000000001
 20
1266.6436000000001
 11
1483.2849000000001
 21
1126.9766
  0
LINE
  8
_0-1_LAYER002
  6
CONTINUOUS
 62
    2
 10
1489.4214999999999
 20
1266.6436000000001
 11
1489.4214999999999
 21
1126.9766
  0
LINE
  8
_0-1_LAYER002
  6
CONTINUOUS
 62
    2
 10
1484.0897
 20
1281.0903000000003
 11
1488.6131999999998
 21
1282.3024
  0
LINE
  8
_0-1_LAYER002
  6
CONTINUOUS
 62
    2
 10
1484.0897
 20
1283.0882999999999
 11
1488.6131999999998
 21
1284.3004000000001
  0
LINE
  8
_0-1_LAYER002
  6
CONTINUOUS
 62
    2
 10
1484.0897
 20
1285.0862999999999
 11
1488.6131999999998
 21
1286.2984000000001
  0
LINE
  8
_0-1_LAYER002
  6
CONTINUOUS
 62
    2
 10
1484.0897
 20
1287.0843
 11
1488.6131999999998
 21
1288.2963999999997
  0
LINE
  8
_0-1_LAYER002
  6
CONTINUOUS
 62
    2
 10
1484.0897
 20
1289.0823
 11
1488.6131999999998
 21
1290.2944
  0
LINE
  8
_0-1_LAYER002
  6
CONTINUOUS
 62
    2
 10
1484.0897
 20
1291.0803000000001
 11
1488.6131999999998
 21
1292.2924
  0
LINE
  8
_0-1_LAYER002
  6
CONTINUOUS
 62
    2
 10
1484.0897
 20
1293.0782999999999
 11
1488.6131999999998
 21
1294.2904000000001
  0
LINE
  8
_0-1_LAYER002
  6
CONTINUOUS
 62
    2
 10
1484.0897
 20
1295.0763000000002
 11
1488.6131999999998
 21
1296.2883999999999
  0
LINE
  8
_0-1_LAYER002
  6
CONTINUOUS
 62
    2
 10
1484.0897
 20
1297.0742999999998
 11
1488.6131999999998
 21
1298.2864
  0
LINE
  8
_0-1_LAYER002
  6
CONTINUOUS
 62
    2
 10
1484.0897
 20
1299.0723
 11
1488.6131999999998
 21
1300.2844
  0
LINE
  8
_0-1_LAYER002
  6
CONTINUOUS
 62
    2
 10
1484.0897
 20
1301.0703000000001
 11
1488.6131999999998
 21
1302.2824000000001
  0
LINE
  8
_0-1_LAYER002
  6
CONTINUOUS
 62
    2
 10
1484.0897
 20
1303.0682999999999
 11
1488.6131999999998
 21
1304.2804000000001
  0
LINE
  8
_0-1_LAYER002
  6
CONTINUOUS
 62
    2
 10
1484.0897
 20
1305.0663
 11
1488.6131999999998
 21
1306.2783999999999
  0
LINE
  8
_0-1_LAYER002
  6
CONTINUOUS
 62
    2
 10
1484.0897
 20
1307.0643
 11
1488.6131999999998
 21
1308.2764
  0
LINE
  8
_0-0_LAYER001
  6
CONTINUOUS
 62
    2
 10
1587.4160000000002
 20
1209.6935000000001
 11
1582.1127000000001
 21
1204.3902
  0
LINE
  8
_0-0_LAYER001
  6
CONTINUOUS
 62
    2
 10
1582.1127000000001
 20
1204.3902
 11
1584.0538999999999
 21
1211.6347000000001
  0
LINE
  8
_0-0_LAYER001
  6
CONTINUOUS
 62
    2
 10
1582.1127000000001
 20
1204.3902
 11
1625.0279
 21
1278.7215000000001
  0
LINE
  8
_0-0_LAYER001
  6
CONTINUOUS
 62
    2
 10
1625.0279
 20
1278.7215000000001
 11
1739.0279
 21
1278.7215000000001
  0
LINE
  8
_0-0_LAYER001
  6
CONTINUOUS
 62
    2
 10
1545.1453000000001
 20
1287.9151999999999
 11
1539.8420000000001
 21
1282.6118999999999
  0
LINE
  8
_0-0_LAYER001
  6
CONTINUOUS
 62
    2
 10
1539.8420000000001
 20
1282.6118999999999
 11
1541.7831999999999
 21
1289.8562999999999
  0
LINE
  8
_0-0_LAYER001
  6
CONTINUOUS
 62
    2
 10
1539.8420000000001
 20
1282.6118999999999
 11
1579.6831999999999
 21
1351.6188999999999
  0
LINE
  8
_0-0_LAYER001
  6
CONTINUOUS
 62
    2
 10
1579.6831999999999
 20
1351.6188999999999
 11
1620.1831999999999
 21
1351.6188999999999
  0
LINE
  8
_0-0_LAYER001
  6
CONTINUOUS
 62
    2
 10
1500.1113999999998
 20
1249.0442
 11
1496.3613999999998
 21
1242.5491
  0
LINE
  8
_0-0_LAYER001
  6
CONTINUOUS
 62
    2
 10
1496.3613999999998
 20
1242.5491
 11
1496.3613999999998
 21
1250.0491
  0
LINE
  8
_0-0_LAYER001
  6
CONTINUOUS
 62
    2
 10
1496.3613999999998
 20
1242.5491
 11
1542.3339000000001
 21
1414.1208000000001
  0
LINE
  8
_0-0_LAYER001
  6
CONTINUOUS
 62
    2
 10
1542.3339000000001
 20
1414.1208000000001
 11
1618.8339000000001
 21
1414.1208000000001
  0
LINE
  8
_0-6_LAYER007
  6
CONTINUOUS
 62
    2
 10
1749.8245999999999
 20
1079.3557000000001
 11
1744.5212999999999
 21
1074.0524
  0
LINE
  8
_0-6_LAYER007
  6
CONTINUOUS
 62
    2
 10
1744.5212999999999
 20
1074.0524
 11
1746.4623999999999
 21
1081.2968000000001
  0
LINE
  8
_0-6_LAYER007
  6
CONTINUOUS
 62
    2
 10
1744.5212999999999
 20
1074.0524
 11
1801.8397
 21
1173.3308
  0
LINE
  8
_0-6_LAYER007
  6
CONTINUOUS
 62
    2
 10
1801.8397
 20
1173.3308
 11
1842.3397
 21
1173.3308
  0
ARC
  8
_0-0_LAYER001
  6
CONTINUOUS
 62
    2
 10
1263.7594999999999
 20
1147.7445
 40
139.00153
 50
342.49919
 51
9.1390800000000016
  0
LINE
  8
_0-0_LAYER001
  6
CONTINUOUS
 62
    2
 10
1413.4692
 20
1233.1188999999999
 11
1411.7695000000001
 21
1223.4231
  0
LINE
  8
_0-0_LAYER001
  6
CONTINUOUS
 62
    2
 10
1406.9726000000001
 20
1201.7353000000001
 11
1404.3271
 21
1191.8124
  0
LINE
  8
_0-0_LAYER001
  6
CONTINUOUS
 62
    2
 10
1565.6815999999999
 20
1201.7353000000001
 11
1568.3270000000002
 21
1191.8124
  0
LINE
  8
_0-0_LAYER001
  6
CONTINUOUS
 62
    2
 10
1559.1849000000002
 20
1233.1188999999999
 11
1560.8845999999999
 21
1223.4231
  0
LINE
  8
_0-1_LAYER002
  6
CONTINUOUS
 62
    2
 10
1456.3262
 20
1263.6786
 11
1456.3262
 21
1246.9418000000001
  0
LINE
  8
_0-1_LAYER002
  6
CONTINUOUS
 62
    2
 10
1521.3901999999998
 20
1262.9253000000001
 11
1521.3901999999998
 21
1245.8671999999999
  0
LINE
  8
_0-0_LAYER001
  6
CONTINUOUS
 62
    2
 10
1521.3901999999998
 20
1245.8671999999999
 11
1456.3262
 21
1246.9418000000001
  0
LINE
  8
_0-1_LAYER002
  6
CONTINUOUS
 62
    2
 10
1521.0475999999999
 20
1233.2589
 11
1521.0475999999999
 21
1216.1704
  0
LINE
  8
_0-1_LAYER002
  6
CONTINUOUS
 62
    2
 10
1456.3269
 20
1233.6719000000001
 11
1456.3269
 21
1217.0009
  0
LINE
  8
_0-0_LAYER001
  6
CONTINUOUS
 62
    2
 10
1456.3269
 20
1217.0009
 11
1521.0475999999999
 21
1216.1704
  0
LINE
  8
_0-1_LAYER002
  6
CONTINUOUS
 62
    2
 10
1456.3265999999999
 20
1203.5043000000001
 11
1456.3265999999999
 21
1187.1297999999999
  0
LINE
  8
_0-1_LAYER002
  6
CONTINUOUS
 62
    2
 10
1521.0470999999998
 20
1203.0912000000001
 11
1521.0470999999998
 21
1186.4469999999999
  0
LINE
  8
_0-0_LAYER001
  6
CONTINUOUS
 62
    2
 10
1521.0470999999998
 20
1186.4469999999999
 11
1456.3265999999999
 21
1187.1297999999999
  0
ARC
  8
_0-0_LAYER001
  6
DASHED1
 62
    2
 10
1708.8946000000001
 20
1147.7445
 40
139.00153
 50
170.86091999999999
 51
197.50080000000003
  0
LINE
  8
_0-0_LAYER001
  6
CONTINUOUS
 62
    2
 10
2165.1493999999998
 20
873.952
 11
2159.3515000000002
 21
857.97119999999995
  0
LINE
  8
_0-0_LAYER001
  6
CONTINUOUS
 62
    2
 10
1959.4371000000001
 20
966.66920000000005
 11
1953.6392999999998
 21
950.68849999999998
  0
LINE
  8
_0-0_LAYER001
  6
CONTINUOUS
 62
    2
 10
1753.7249000000002
 20
1059.3864000000001
 11
1747.9270999999999
 21
1043.4057
  0
LINE
  8
_0-0_LAYER001
  6
CONTINUOUS
 62
    2
 10
1548.0127000000002
 20
1152.1036999999999
 11
1542.2148999999999
 21
1136.1229000000001
  0
LINE
  8
_0-0_LAYER001
  6
CONTINUOUS
 62
    2
 10
2127.5475999999999
 20
887.59400000000005
 11
1953.6392999999998
 21
950.68849999999998
  0
ARC
  8
_0-0_LAYER001
  6
CONTINUOUS
 62
    4
 10
2176.7593999999999
 20
869.66390000000001
 40
17.623681999999999
 50
340.29127000000005
 51
57.209820000000029
  0
LINE
  8
_0-0_LAYER001
  6
CONTINUOUS
 62
    2
 10
2141.8371000000002
 20
811.68039999999996
 11
2114.4794999999999
 21
823.99140000000011
  0
LINE
  8
_0-0_LAYER001
  6
CONTINUOUS
 62
    2
 10
2120.6350000000002
 20
837.67020000000002
 11
2147.9926
 21
825.3592000000001
  0
LINE
  8
_0-0_LAYER001
  6
CONTINUOUS
 62
    2
 10
2114.4794999999999
 20
823.99140000000011
 11
2120.6350000000002
 21
837.67020000000002
  0
LINE
  8
_0-0_LAYER001
  6
CONTINUOUS
 62
    2
 10
2147.9926
 20
825.3592000000001
 11
2141.8371000000002
 21
811.68039999999996
  0
LINE
  8
_0-0_LAYER001
  6
CONTINUOUS
 62
    2
 10
2120.6350000000002
 20
837.67020000000002
 11
2141.8371000000002
 21
811.68039999999996
  0
LINE
  8
_0-0_LAYER001
  6
CONTINUOUS
 62
    4
 10
2119.3542000000002
 20
838.62159999999994
 11
2115.2615999999998
 21
827.34099999999989
  0
LINE
  8
_0-0_LAYER001
  6
CONTINUOUS
 62
    4
 10
2106.8011999999999
 20
830.41049999999996
 11
2115.2615999999998
 21
827.34099999999989
  0
ARC
  8
_0-0_LAYER001
  6
CONTINUOUS
 62
    4
 10
2192.1354999999999
 20
889.69209999999998
 40
10
 50
340.05907999999999
 51
70.059082999999987
  0
LINE
  8
_0-0_LAYER001
  6
CONTINUOUS
 62
    4
 10
2193.3507
 20
863.7204999999999
 11
2201.5358999999999
 21
886.28150000000005
  0
LINE
  8
_0-0_LAYER001
  6
CONTINUOUS
 62
    4
 10
2127.5475999999999
 20
887.59400000000005
 11
2106.8011999999999
 21
830.41049999999996
  0
LINE
  8
_0-0_LAYER001
  6
CONTINUOUS
 62
    4
 10
2116.6916999999999
 20
857.67180000000008
 11
1913.6419999999998
 21
931.33879999999999
  0
LINE
  8
_0-0_LAYER001
  6
CONTINUOUS
 62
    4
 10
2186.6965
 20
884.21890000000008
 11
1921.8353000000002
 21
980.31130000000007
  0
LINE
  8
_0-0_LAYER001
  6
CONTINUOUS
 62
    4
 10
2195.5459999999998
 20
899.09249999999997
 11
1993.4364
 21
972.41849999999999
  0
LINE
  8
_0-0_LAYER001
  6
CONTINUOUS
 62
    2
 10
1921.8353000000002
 20
980.31130000000007
 11
1747.9270999999999
 21
1043.4057
  0
LINE
  8
_0-0_LAYER001
  6
CONTINUOUS
 62
    2
 10
1503.4097000000002
 20
1115.5962
 11
1530.7568999999999
 21
1103.2621999999999
  0
LINE
  8
_0-0_LAYER001
  6
CONTINUOUS
 62
    2
 10
1497.2426999999998
 20
1101.9226000000001
 11
1503.4097000000002
 21
1115.5962
  0
LINE
  8
_0-0_LAYER001
  6
CONTINUOUS
 62
    2
 10
1503.4097000000002
 20
1115.5962
 11
1524.5898999999999
 21
1089.5886
  0
LINE
  8
_0-0_LAYER001
  6
CONTINUOUS
 62
    4
 10
1502.2175999999999
 20
1116.7732000000001
 11
1498.125
 21
1105.4927
  0
LINE
  8
_0-0_LAYER001
  6
CONTINUOUS
 62
    4
 10
1516.2087999999999
 20
1181.7265
 11
1489.6646000000001
 21
1108.5622000000001
  0
ARC
  8
_0-0_LAYER001
  6
CONTINUOUS
 62
    4
 10
1971.0472
 20
962.38110000000006
 40
17.623681999999999
 50
340.29127000000005
 51
57.209820000000029
  0
LINE
  8
_0-0_LAYER001
  6
CONTINUOUS
 62
    2
 10
1524.5898999999999
 20
1089.5886
 11
1497.2426999999998
 21
1101.9226000000001
  0
LINE
  8
_0-0_LAYER001
  6
CONTINUOUS
 62
    2
 10
1530.7568999999999
 20
1103.2621999999999
 11
1524.5898999999999
 21
1089.5886
  0
LINE
  8
_0-0_LAYER001
  6
CONTINUOUS
 62
    2
 10
1730.3573999999999
 20
996.99319999999989
 11
1702.9998000000001
 21
1009.3041000000001
  0
LINE
  8
_0-0_LAYER001
  6
CONTINUOUS
 62
    2
 10
1736.5129000000002
 20
1010.672
 11
1730.3573999999999
 21
996.99319999999989
  0
LINE
  8
_0-0_LAYER001
  6
CONTINUOUS
 62
    2
 10
1936.1248999999998
 20
904.39769999999999
 11
1908.7673
 21
916.70859999999993
  0
LINE
  8
_0-0_LAYER001
  6
CONTINUOUS
 62
    2
 10
1914.9227999999998
 20
930.38740000000007
 11
1942.2804000000001
 21
918.0764999999999
  0
LINE
  8
_0-0_LAYER001
  6
CONTINUOUS
 62
    2
 10
1908.7673
 20
916.70859999999993
 11
1914.9227999999998
 21
930.38740000000007
  0
LINE
  8
_0-0_LAYER001
  6
CONTINUOUS
 62
    2
 10
1942.2804000000001
 20
918.0764999999999
 11
1936.1248999999998
 21
904.39769999999999
  0
LINE
  8
_0-0_LAYER001
  6
CONTINUOUS
 62
    2
 10
1914.9227999999998
 20
930.38740000000007
 11
1936.1248999999998
 21
904.39769999999999
  0
LINE
  8
_0-0_LAYER001
  6
CONTINUOUS
 62
    4
 10
1498.125
 20
1105.4927
 11
1489.6646000000001
 21
1108.5622000000001
  0
LINE
  8
_0-0_LAYER001
  6
CONTINUOUS
 62
    4
 10
1695.3768
 20
1015.8449000000001
 11
1703.8371999999999
 21
1012.7755
  0
LINE
  8
_0-0_LAYER001
  6
CONTINUOUS
 62
    4
 10
1913.6419999999998
 20
931.33879999999999
 11
1909.5493999999999
 21
920.05819999999994
  0
LINE
  8
_0-0_LAYER001
  6
CONTINUOUS
 62
    4
 10
1901.0889999999999
 20
923.1277
 11
1909.5493999999999
 21
920.05819999999994
  0
ARC
  8
_0-0_LAYER001
  6
CONTINUOUS
 62
    4
 10
1986.4232999999999
 20
982.40930000000003
 40
10
 50
340.05907999999999
 51
70.059082999999987
  0
LINE
  8
_0-0_LAYER001
  6
CONTINUOUS
 62
    4
 10
1987.6385
 20
956.43769999999995
 11
1995.8236999999999
 21
978.99880000000007
  0
LINE
  8
_0-0_LAYER001
  6
CONTINUOUS
 62
    4
 10
1921.8353000000002
 20
980.31130000000007
 11
1901.0889999999999
 21
923.1277
  0
ARC
  8
_0-0_LAYER001
  6
CONTINUOUS
 62
    4
 10
1765.335
 20
1055.0983000000001
 40
17.623681999999999
 50
340.29127000000005
 51
57.209820000000029
  0
LINE
  8
_0-0_LAYER001
  6
CONTINUOUS
 62
    4
 10
1910.9794999999999
 20
950.3889999999999
 11
1707.9297999999999
 21
1024.056
  0
LINE
  8
_0-0_LAYER001
  6
CONTINUOUS
 62
    2
 10
1709.1552000000001
 20
1022.9829
 11
1736.5129000000002
 21
1010.672
  0
LINE
  8
_0-0_LAYER001
  6
CONTINUOUS
 62
    2
 10
1702.9998000000001
 20
1009.3041000000001
 11
1709.1552000000001
 21
1022.9829
  0
LINE
  8
_0-0_LAYER001
  6
CONTINUOUS
 62
    2
 10
1709.1552000000001
 20
1022.9829
 11
1730.3573999999999
 21
996.99319999999989
  0
LINE
  8
_0-0_LAYER001
  6
CONTINUOUS
 62
    4
 10
1980.9843000000001
 20
976.9360999999999
 11
1716.1230999999998
 21
1073.0284999999999
  0
LINE
  8
_0-0_LAYER001
  6
CONTINUOUS
 62
    4
 10
1707.9297999999999
 20
1024.056
 11
1703.8371999999999
 21
1012.7755
  0
LINE
  8
_0-0_LAYER001
  6
CONTINUOUS
 62
    4
 10
1989.8337999999999
 20
991.80970000000002
 11
1787.7240999999999
 21
1065.1357
  0
ARC
  8
_0-0_LAYER001
  6
CONTINUOUS
 62
    4
 10
1780.7109999999998
 20
1075.1265000000001
 40
10
 50
340.05907999999999
 51
70.059082999999987
  0
LINE
  8
_0-0_LAYER001
  6
CONTINUOUS
 62
    4
 10
1781.9263000000001
 20
1049.1549
 11
1790.1115
 21
1071.7159999999999
  0
LINE
  8
_0-0_LAYER001
  6
CONTINUOUS
 62
    4
 10
1716.1230999999998
 20
1073.0284999999999
 11
1695.3768
 21
1015.8449000000001
  0
LINE
  8
_0-0_LAYER001
  6
CONTINUOUS
 62
    4
 10
1705.2673
 20
1043.1061999999999
 11
1502.2175999999999
 21
1116.7732000000001
  0
LINE
  8
_0-0_LAYER001
  6
CONTINUOUS
 62
    4
 10
1775.2721000000001
 20
1069.6532999999999
 11
1510.4108999999999
 21
1165.7456999999999
  0
LINE
  8
_0-0_LAYER001
  6
CONTINUOUS
 62
    4
 10
1784.1215999999999
 20
1084.527
 11
1516.2087999999999
 21
1181.7265
  0
LINE
  8
_0-0_LAYER001
  6
CONTINUOUS
 62
    2
 10
1716.1230999999998
 20
1073.0284999999999
 11
1542.2148999999999
 21
1136.1229000000001
  0
LINE
  8
_0-0_LAYER001
  6
CONTINUOUS
 62
    2
 10
2257.3546999999999
 20
822.41540000000009
 11
2159.3515000000002
 21
857.97119999999995
  0
LINE
  8
_0-0_LAYER001
  6
CONTINUOUS
 62
    4
 10
2245.3285999999998
 20
792.91769999999997
 11
2119.3542000000002
 21
838.62159999999994
  0
LINE
  8
_0-0_LAYER001
  6
CONTINUOUS
 62
    4
 10
2263.7775000000001
 20
838.1694
 11
2127.5475999999999
 21
887.59400000000005
  0
LINE
  8
_0-0_LAYER001
  6
CONTINUOUS
 62
    4
 10
2270.2004000000002
 20
853.9233999999999
 11
2199.1486
 21
879.70119999999997
  0
LINE
  8
_0-2_LAYER003
  6
CONTINUOUS
 62
    2
 10
791.59519999999998
 20
704.15750000000003
 11
1486.3271
 21
1016.7868000000001
  0
LINE
  8
_0-3_LAYER004
  6
DASHED3
 62
    2
 10
759.17650000000003
 20
776.19910000000004
 11
1486.3271
 21
1103.4168
  0
LINE
  8
_0-2_LAYER003
  6
CONTINUOUS
 62
    2
 10
2230.0751
 20
682.09979999999996
 11
1486.3271
 21
1016.7868000000001
  0
LINE
  8
_0-3_LAYER004
  6
DASHED3
 62
    2
 10
2230.0751
 20
768.72980000000007
 11
1486.3271
 21
1103.4168
  0
LINE
  8
_0-4_LAYER005
  6
CONTINUOUS
 62
    4
 10
1411.3271
 20
1255.1360999999999
 11
1427.0811000000001
 21
1258.1360999999999
  0
LINE
  8
_0-4_LAYER005
  6
CONTINUOUS
 62
    4
 10
1545.5720999999999
 20
1258.1360999999999
 11
1561.3271
 21
1255.1360999999999
  0
LINE
  8
_0-2_LAYER003
  6
CONTINUOUS
 62
    2
 10
766.97330000000011
 20
758.8726999999999
 11
1486.3271
 21
1082.5817999999999
  0
LINE
  8
_0-2_LAYER003
  6
CONTINUOUS
 62
    2
 10
2230.0751
 20
747.89480000000003
 11
1486.3271
 21
1082.5817999999999
  0
LINE
  8
_0-2_LAYER003
  6
CONTINUOUS
 62
    2
 10
2230.0751
 20
764.3438000000001
 11
1486.3271
 21
1099.0308
  0
LINE
  8
_0-2_LAYER003
  6
CONTINUOUS
 62
    2
 10
760.81780000000003
 20
772.55169999999998
 11
1486.3271
 21
1099.0308
  0
LINE
  8
_0-6_LAYER007
  6
CONTINUOUS
 62
    2
 10
1396.3271
 20
1066.2067999999999
 11
1396.3271
 21
1064.0137999999999
  0
LINE
  8
_0-6_LAYER007
  6
CONTINUOUS
 62
    2
 10
1576.3271
 20
1066.2067999999999
 11
1576.3271
 21
1064.0137999999999
  0
LINE
  8
_0-6_LAYER007
  6
CONTINUOUS
 62
    2
 10
1576.3261000000002
 20
1066.2067999999999
 11
1486.3271
 21
1106.7067999999999
  0
ARC
  8
_0-4_LAYER005
  6
CONTINUOUS
 62
    4
 10
1486.3271
 20
1241.9930999999999
 40
76.143000000000001
 50
9.9394530000000003
 51
170.06053999999997
  0
ARC
  8
_0-4_LAYER005
  6
CONTINUOUS
 62
    4
 10
1486.3271
 20
1241.6360999999999
 40
61.5
 50
15.562729000000001
 51
164.43727000000001
  0
CIRCLE
  8
_0-5_LAYER006
  6
CONTINUOUS
 62
    2
 10
1446.2781
 20
1273.1750999999999
 40
1.5179999999999998
  0
CIRCLE
  8
_0-5_LAYER006
  6
CONTINUOUS
 62
    2
 10
1455.3870999999999
 20
1280.0081
 40
1.5179999999999998
  0
CIRCLE
  8
_0-5_LAYER006
  6
CONTINUOUS
 62
    2
 10
1454.8081000000002
 20
1278.8151
 40
1.5179999999999998
  0
CIRCLE
  8
_0-5_LAYER006
  6
CONTINUOUS
 62
    2
 10
1513.0830999999998
 20
1276.9711
 40
1.5179999999999998
  0
CIRCLE
  8
_0-5_LAYER006
  6
CONTINUOUS
 62
    2
 10
1522.1931
 20
1276.2121
 40
1.5179999999999998
  0
CIRCLE
  8
_0-5_LAYER006
  6
CONTINUOUS
 62
    2
 10
1519.9160999999999
 20
1279.2491
 40
1.5179999999999998
  0
CIRCLE
  8
_0-5_LAYER006
  6
CONTINUOUS
 62
    2
 10
1462.2201
 20
1291.3951
 40
1.5179999999999998
  0
CIRCLE
  8
_0-5_LAYER006
  6
CONTINUOUS
 62
    2
 10
1456.1471000000001
 20
1289.1181000000001
 40
1.5179999999999998
  0
CIRCLE
  8
_0-5_LAYER006
  6
CONTINUOUS
 62
    2
 10
1450.0731000000001
 20
1279.2491
 40
1.5179999999999998
  0
CIRCLE
  8
_0-5_LAYER006
  6
CONTINUOUS
 62
    2
 10
1513.0830999999998
 20
1272.4160999999999
 40
1.5179999999999998
  0
CIRCLE
  8
_0-5_LAYER006
  6
CONTINUOUS
 62
    2
 10
1524.4711000000002
 20
1270.1391000000001
 40
1.5179999999999998
  0
CIRCLE
  8
_0-5_LAYER006
  6
CONTINUOUS
 62
    2
 10
1529.7851000000001
 20
1269.3791000000001
 40
1.5179999999999998
  0
CIRCLE
  8
_0-5_LAYER006
  6
CONTINUOUS
 62
    2
 10
1515.3611000000001
 20
1284.5631000000001
 40
1.5179999999999998
  0
CIRCLE
  8
_0-5_LAYER006
  6
CONTINUOUS
 62
    2
 10
1479.7930999999999
 20
1212.6421
 40
1.5179999999999998
  0
CIRCLE
  8
_0-5_LAYER006
  6
CONTINUOUS
 62
    2
 10
1507.7691
 20
1215.2501
 40
1.5179999999999998
  0
CIRCLE
  8
_0-5_LAYER006
  6
CONTINUOUS
 62
    2
 10
1463.0920999999998
 20
1211.8831
 40
1.5179999999999998
  0
CIRCLE
  8
_0-5_LAYER006
  6
CONTINUOUS
 62
    2
 10
1457.0180999999998
 20
1209.6051
 40
1.5179999999999998
  0
CIRCLE
  8
_0-5_LAYER006
  6
CONTINUOUS
 62
    2
 10
1444.8721
 20
1208.0871
 40
1.5179999999999998
  0
CIRCLE
  8
_0-5_LAYER006
  6
CONTINUOUS
 62
    2
 10
1434.2440999999999
 20
1207.3280999999999
 40
1.5179999999999998
  0
CIRCLE
  8
_0-5_LAYER006
  6
CONTINUOUS
 62
    2
 10
1425.1341
 20
1205.0500999999999
 40
1.5179999999999998
  0
CIRCLE
  8
_0-5_LAYER006
  6
CONTINUOUS
 62
    2
 10
1419.8200999999999
 20
1202.7731000000001
 40
1.5179999999999998
  0
CIRCLE
  8
_0-5_LAYER006
  6
CONTINUOUS
 62
    2
 10
1412.2281
 20
1201.2551000000001
 40
1.5179999999999998
  0
CIRCLE
  8
_0-5_LAYER006
  6
CONTINUOUS
 62
    2
 10
1448.6680999999999
 20
1167.0931
 40
1.5179999999999998
  0
CIRCLE
  8
_0-5_LAYER006
  6
CONTINUOUS
 62
    2
 10
1451.7040999999999
 20
1154.1871000000001
 40
1.5179999999999998
  0
CIRCLE
  8
_0-5_LAYER006
  6
CONTINUOUS
 62
    2
 10
1456.2591000000002
 20
1161.7781
 40
1.5179999999999998
  0
CIRCLE
  8
_0-5_LAYER006
  6
CONTINUOUS
 62
    2
 10
1459.2961
 20
1167.0931
 40
1.5179999999999998
  0
CIRCLE
  8
_0-5_LAYER006
  6
CONTINUOUS
 62
    2
 10
1438.7991000000002
 20
1167.0931
 40
1.5179999999999998
  0
CIRCLE
  8
_0-5_LAYER006
  6
CONTINUOUS
 62
    2
 10
1435.7620999999999
 20
1169.3701000000001
 40
1.5179999999999998
  0
CIRCLE
  8
_0-5_LAYER006
  6
CONTINUOUS
 62
    2
 10
1408.3200999999999
 20
1155.2761
 40
1.5179999999999998
  0
CIRCLE
  8
_0-5_LAYER006
  6
CONTINUOUS
 62
    2
 10
1406.1550999999999
 20
1151.1501000000001
 40
1.5179999999999998
  0
CIRCLE
  8
_0-5_LAYER006
  6
CONTINUOUS
 62
    2
 10
1421.9840999999999
 20
1153.7581
 40
1.5179999999999998
  0
CIRCLE
  8
_0-5_LAYER006
  6
CONTINUOUS
 62
    2
 10
1411.2907999999998
 20
1127.5225
 40
1.5179999999999998
  0
CIRCLE
  8
_0-5_LAYER006
  6
CONTINUOUS
 62
    2
 10
1412.0498
 20
1125.2455
 40
1.5179999999999998
  0
CIRCLE
  8
_0-5_LAYER006
  6
CONTINUOUS
 62
    2
 10
1409.7728000000002
 20
1121.4494999999999
 40
1.5179999999999998
  0
CIRCLE
  8
_0-5_LAYER006
  6
CONTINUOUS
 62
    2
 10
1417.3638000000001
 20
1122.9675
 40
1.5179999999999998
  0
CIRCLE
  8
_0-5_LAYER006
  6
CONTINUOUS
 62
    2
 10
1426.4738
 20
1127.5225
 40
1.5179999999999998
  0
CIRCLE
  8
_0-5_LAYER006
  6
CONTINUOUS
 62
    2
 10
1438.0391
 20
1162.5381
 40
1.5179999999999998
  0
CIRCLE
  8
_0-5_LAYER006
  6
CONTINUOUS
 62
    2
 10
1514.6021000000001
 20
1109.0147999999999
 40
1.5179999999999998
  0
CIRCLE
  8
_0-5_LAYER006
  6
CONTINUOUS
 62
    2
 10
1516.8791000000001
 20
1115.8478
 40
1.5179999999999998
  0
CIRCLE
  8
_0-5_LAYER006
  6
CONTINUOUS
 62
    2
 10
1509.2871
 20
1155.3237999999999
 40
1.5179999999999998
  0
CIRCLE
  8
_0-5_LAYER006
  6
CONTINUOUS
 62
    2
 10
1517.6381000000001
 20
1175.0141000000001
 40
1.5179999999999998
  0
CIRCLE
  8
_0-5_LAYER006
  6
CONTINUOUS
 62
    2
 10
1552.5590999999999
 20
1176.5331000000001
 40
1.5179999999999998
  0
CIRCLE
  8
_0-5_LAYER006
  6
CONTINUOUS
 62
    2
 10
1556.3551000000002
 20
1165.9050999999999
 40
1.5179999999999998
  0
CIRCLE
  8
_0-5_LAYER006
  6
CONTINUOUS
 62
    2
 10
1551.8000999999999
 20
1159.0721000000001
 40
1.5179999999999998
  0
CIRCLE
  8
_0-5_LAYER006
  6
CONTINUOUS
 62
    2
 10
1563.9470999999999
 20
1152.9991
 40
1.5179999999999998
  0
CIRCLE
  8
_0-5_LAYER006
  6
CONTINUOUS
 62
    2
 10
1560.9101000000001
 20
1161.3501000000001
 40
1.5179999999999998
  0
CIRCLE
  8
_0-5_LAYER006
  6
CONTINUOUS
 62
    2
 10
1566.7408999999998
 20
1129.2826
 40
1.5179999999999998
  0
CIRCLE
  8
_0-5_LAYER006
  6
CONTINUOUS
 62
    2
 10
1548.0041000000001
 20
1150.7211
 40
1.5179999999999998
  0
CIRCLE
  8
_0-5_LAYER006
  6
CONTINUOUS
 62
    2
 10
1548.5219000000002
 20
1130.0416
 40
1.5179999999999998
  0
CIRCLE
  8
_0-5_LAYER006
  6
CONTINUOUS
 62
    2
 10
1552.3168999999998
 20
1128.5236
 40
1.5179999999999998
  0
CIRCLE
  8
_0-5_LAYER006
  6
CONTINUOUS
 62
    2
 10
1564.4639000000002
 20
1122.4505999999999
 40
1.5179999999999998
  0
CIRCLE
  8
_0-5_LAYER006
  6
CONTINUOUS
 62
    2
 10
1566.7408999999998
 20
1122.4505999999999
 40
1.5179999999999998
  0
CIRCLE
  8
_0-5_LAYER006
  6
CONTINUOUS
 62
    2
 10
1552.3168999999998
 20
1126.2465999999999
 40
1.5179999999999998
  0
CIRCLE
  8
_0-5_LAYER006
  6
CONTINUOUS
 62
    2
 10
1529.0261
 20
1162.1090999999999
 40
1.5179999999999998
  0
CIRCLE
  8
_0-5_LAYER006
  6
CONTINUOUS
 62
    2
 10
1507.0101
 20
1133.3078
 40
1.5179999999999998
  0
CIRCLE
  8
_0-5_LAYER006
  6
CONTINUOUS
 62
    2
 10
1505.4920999999999
 20
1121.1618000000001
 40
1.5179999999999998
  0
CIRCLE
  8
_0-5_LAYER006
  6
CONTINUOUS
 62
    2
 10
1500.1781000000001
 20
1116.6068
 40
1.5179999999999998
  0
CIRCLE
  8
_0-5_LAYER006
  6
CONTINUOUS
 62
    2
 10
1457.6651000000002
 20
1109.0147999999999
 40
1.5179999999999998
  0
CIRCLE
  8
_0-5_LAYER006
  6
CONTINUOUS
 62
    2
 10
1456.1471000000001
 20
1127.9938
 40
1.5179999999999998
  0
CIRCLE
  8
_0-5_LAYER006
  6
CONTINUOUS
 62
    2
 10
1413.5678000000003
 20
1120.6904999999999
 40
1.5179999999999998
  0
CIRCLE
  8
_0-5_LAYER006
  6
CONTINUOUS
 62
    2
 10
1409.1921
 20
1150.3911000000001
 40
1.5179999999999998
  0
CIRCLE
  8
_0-5_LAYER006
  6
CONTINUOUS
 62
    2
 10
1407.6731
 20
1164.8151
 40
1.5179999999999998
  0
CIRCLE
  8
_0-5_LAYER006
  6
CONTINUOUS
 62
    2
 10
1417.5421000000001
 20
1170.8880999999999
 40
1.5179999999999998
  0
CIRCLE
  8
_0-5_LAYER006
  6
CONTINUOUS
 62
    2
 10
1454.7411000000002
 20
1176.2021
 40
1.5179999999999998
  0
CIRCLE
  8
_0-5_LAYER006
  6
CONTINUOUS
 62
    2
 10
1469.1651000000002
 20
1158.7888
 40
1.5179999999999998
  0
CIRCLE
  8
_0-5_LAYER006
  6
CONTINUOUS
 62
    2
 10
1469.1651000000002
 20
1196.7001
 40
1.5179999999999998
  0
CIRCLE
  8
_0-5_LAYER006
  6
CONTINUOUS
 62
    2
 10
1516.8791000000001
 20
1152.9991
 40
1.5179999999999998
  0
CIRCLE
  8
_0-5_LAYER006
  6
CONTINUOUS
 62
    2
 10
1501.6961000000001
 20
1113.5698
 40
1.5179999999999998
  0
CIRCLE
  8
_0-5_LAYER006
  6
CONTINUOUS
 62
    2
 10
1438.7991000000002
 20
1152.6691000000001
 40
1.5179999999999998
  0
CIRCLE
  8
_0-5_LAYER006
  6
CONTINUOUS
 62
    2
 10
1454.7411000000002
 20
1161.0191
 40
1.5179999999999998
  0
CIRCLE
  8
_0-5_LAYER006
  6
CONTINUOUS
 62
    2
 10
1436.5210999999999
 20
1176.9621
 40
1.5179999999999998
  0
CIRCLE
  8
_0-5_LAYER006
  6
CONTINUOUS
 62
    2
 10
1472.9611
 20
1148.1608000000001
 40
1.5179999999999998
  0
CIRCLE
  8
_0-5_LAYER006
  6
CONTINUOUS
 62
    2
 10
1513.8420999999998
 20
1127.2348
 40
1.5179999999999998
  0
CIRCLE
  8
_0-5_LAYER006
  6
CONTINUOUS
 62
    2
 10
1520.6750999999999
 20
1150.7211
 40
1.5179999999999998
  0
CIRCLE
  8
_0-5_LAYER006
  6
CONTINUOUS
 62
    2
 10
1460.0551
 20
1171.6470999999999
 40
1.5179999999999998
  0
CIRCLE
  8
_0-5_LAYER006
  6
CONTINUOUS
 62
    2
 10
1448.6680999999999
 20
1171.6470999999999
 40
1.5179999999999998
  0
CIRCLE
  8
_0-5_LAYER006
  6
CONTINUOUS
 62
    2
 10
1468.2930999999999
 20
1112.0518
 40
1.5179999999999998
  0
CIRCLE
  8
_0-5_LAYER006
  6
CONTINUOUS
 62
    2
 10
1466.0160999999998
 20
1106.7378000000001
 40
1.5179999999999998
  0
CIRCLE
  8
_0-5_LAYER006
  6
CONTINUOUS
 62
    2
 10
1425.8931000000002
 20
1155.7050999999999
 40
1.5179999999999998
  0
CIRCLE
  8
_0-5_LAYER006
  6
CONTINUOUS
 62
    2
 10
1427.4110999999998
 20
1161.0191
 40
1.5179999999999998
  0
CIRCLE
  8
_0-5_LAYER006
  6
CONTINUOUS
 62
    2
 10
1510.0470999999998
 20
1162.1558
 40
1.5179999999999998
  0
CIRCLE
  8
_0-5_LAYER006
  6
CONTINUOUS
 62
    2
 10
1439.4450999999999
 20
1266.3431
 40
1.5179999999999998
  0
CIRCLE
  8
_0-5_LAYER006
  6
CONTINUOUS
 62
    2
 10
1454.6280999999999
 20
1270.8981000000001
 40
1.5179999999999998
  0
CIRCLE
  8
_0-5_LAYER006
  6
CONTINUOUS
 62
    2
 10
1441.7231000000002
 20
1278.4891
 40
1.5179999999999998
  0
CIRCLE
  8
_0-5_LAYER006
  6
CONTINUOUS
 62
    2
 10
1529.0261
 20
1279.2491
 40
1.5179999999999998
  0
CIRCLE
  8
_0-5_LAYER006
  6
CONTINUOUS
 62
    2
 10
1509.2871
 20
1289.8770999999999
 40
1.5179999999999998
  0
CIRCLE
  8
_0-5_LAYER006
  6
CONTINUOUS
 62
    2
 10
1468.4301
 20
1242.7630999999999
 40
1.5179999999999998
  0
CIRCLE
  8
_0-5_LAYER006
  6
CONTINUOUS
 62
    2
 10
1462.3561
 20
1240.4861000000001
 40
1.5179999999999998
  0
CIRCLE
  8
_0-5_LAYER006
  6
CONTINUOUS
 62
    2
 10
1450.2100999999998
 20
1238.9671000000001
 40
1.5179999999999998
  0
CIRCLE
  8
_0-5_LAYER006
  6
CONTINUOUS
 62
    2
 10
1439.5821000000001
 20
1238.2081000000001
 40
1.5179999999999998
  0
CIRCLE
  8
_0-5_LAYER006
  6
CONTINUOUS
 62
    2
 10
1430.4721
 20
1235.9311
 40
1.5179999999999998
  0
CIRCLE
  8
_0-5_LAYER006
  6
CONTINUOUS
 62
    2
 10
1425.1581000000001
 20
1233.6531
 40
1.5179999999999998
  0
CIRCLE
  8
_0-5_LAYER006
  6
CONTINUOUS
 62
    2
 10
1417.5661
 20
1232.1351
 40
1.5179999999999998
  0
CIRCLE
  8
_0-5_LAYER006
  6
CONTINUOUS
 62
    2
 10
1474.5030999999999
 20
1210.8791000000001
 40
1.5179999999999998
  0
CIRCLE
  8
_0-5_LAYER006
  6
CONTINUOUS
 62
    2
 10
1474.5030999999999
 20
1227.5800999999999
 40
1.5179999999999998
  0
CIRCLE
  8
_0-5_LAYER006
  6
CONTINUOUS
 62
    2
 10
1527.7811000000002
 20
1208.0871
 40
1.5179999999999998
  0
CIRCLE
  8
_0-5_LAYER006
  6
CONTINUOUS
 62
    2
 10
1538.4090999999999
 20
1207.3280999999999
 40
1.5179999999999998
  0
CIRCLE
  8
_0-5_LAYER006
  6
CONTINUOUS
 62
    2
 10
1547.5191
 20
1205.0500999999999
 40
1.5179999999999998
  0
CIRCLE
  8
_0-5_LAYER006
  6
CONTINUOUS
 62
    2
 10
1552.8330999999998
 20
1202.7731000000001
 40
1.5179999999999998
  0
CIRCLE
  8
_0-5_LAYER006
  6
CONTINUOUS
 62
    2
 10
1560.4250999999999
 20
1201.2551000000001
 40
1.5179999999999998
  0
CIRCLE
  8
_0-5_LAYER006
  6
CONTINUOUS
 62
    2
 10
1523.9850999999999
 20
1167.0931
 40
1.5179999999999998
  0
CIRCLE
  8
_0-5_LAYER006
  6
CONTINUOUS
 62
    2
 10
1520.9490999999998
 20
1154.1871000000001
 40
1.5179999999999998
  0
CIRCLE
  8
_0-5_LAYER006
  6
CONTINUOUS
 62
    2
 10
1533.8541
 20
1167.0931
 40
1.5179999999999998
  0
CIRCLE
  8
_0-5_LAYER006
  6
CONTINUOUS
 62
    2
 10
1536.8910999999998
 20
1169.3701000000001
 40
1.5179999999999998
  0
CIRCLE
  8
_0-5_LAYER006
  6
CONTINUOUS
 62
    2
 10
1564.3330999999998
 20
1155.2761
 40
1.5179999999999998
  0
CIRCLE
  8
_0-5_LAYER006
  6
CONTINUOUS
 62
    2
 10
1566.4980999999998
 20
1151.1501000000001
 40
1.5179999999999998
  0
CIRCLE
  8
_0-5_LAYER006
  6
CONTINUOUS
 62
    2
 10
1550.6691000000001
 20
1153.7581
 40
1.5179999999999998
  0
CIRCLE
  8
_0-5_LAYER006
  6
CONTINUOUS
 62
    2
 10
1534.6140999999998
 20
1162.5381
 40
1.5179999999999998
  0
CIRCLE
  8
_0-5_LAYER006
  6
CONTINUOUS
 62
    2
 10
1516.5070999999998
 20
1127.9938
 40
1.5179999999999998
  0
CIRCLE
  8
_0-5_LAYER006
  6
CONTINUOUS
 62
    2
 10
1563.4621000000002
 20
1150.3911000000001
 40
1.5179999999999998
  0
CIRCLE
  8
_0-5_LAYER006
  6
CONTINUOUS
 62
    2
 10
1564.9801000000002
 20
1164.8151
 40
1.5179999999999998
  0
CIRCLE
  8
_0-5_LAYER006
  6
CONTINUOUS
 62
    2
 10
1555.1111000000001
 20
1170.8880999999999
 40
1.5179999999999998
  0
CIRCLE
  8
_0-5_LAYER006
  6
CONTINUOUS
 62
    2
 10
1517.9121
 20
1176.2021
 40
1.5179999999999998
  0
CIRCLE
  8
_0-5_LAYER006
  6
CONTINUOUS
 62
    2
 10
1503.4881
 20
1158.7888
 40
1.5179999999999998
  0
CIRCLE
  8
_0-5_LAYER006
  6
CONTINUOUS
 62
    2
 10
1503.4881
 20
1196.7001
 40
1.5179999999999998
  0
CIRCLE
  8
_0-5_LAYER006
  6
CONTINUOUS
 62
    2
 10
1502.0830999999998
 20
1127.9938
 40
1.5179999999999998
  0
CIRCLE
  8
_0-5_LAYER006
  6
CONTINUOUS
 62
    2
 10
1533.8541
 20
1152.6691000000001
 40
1.5179999999999998
  0
CIRCLE
  8
_0-5_LAYER006
  6
CONTINUOUS
 62
    2
 10
1536.1320999999998
 20
1176.9621
 40
1.5179999999999998
  0
CIRCLE
  8
_0-5_LAYER006
  6
CONTINUOUS
 62
    2
 10
1499.6921000000002
 20
1148.1608000000001
 40
1.5179999999999998
  0
CIRCLE
  8
_0-5_LAYER006
  6
CONTINUOUS
 62
    2
 10
1523.9850999999999
 20
1171.6470999999999
 40
1.5179999999999998
  0
CIRCLE
  8
_0-5_LAYER006
  6
CONTINUOUS
 62
    2
 10
1546.7601
 20
1155.7050999999999
 40
1.5179999999999998
  0
CIRCLE
  8
_0-5_LAYER006
  6
CONTINUOUS
 62
    2
 10
1545.2420999999999
 20
1161.0191
 40
1.5179999999999998
  0
CIRCLE
  8
_0-5_LAYER006
  6
CONTINUOUS
 62
    2
 10
1504.2240999999999
 20
1242.7630999999999
 40
1.5179999999999998
  0
CIRCLE
  8
_0-5_LAYER006
  6
CONTINUOUS
 62
    2
 10
1510.2970999999998
 20
1240.4861000000001
 40
1.5179999999999998
  0
CIRCLE
  8
_0-5_LAYER006
  6
CONTINUOUS
 62
    2
 10
1522.4431
 20
1238.9671000000001
 40
1.5179999999999998
  0
CIRCLE
  8
_0-5_LAYER006
  6
CONTINUOUS
 62
    2
 10
1533.0720999999999
 20
1238.2081000000001
 40
1.5179999999999998
  0
CIRCLE
  8
_0-5_LAYER006
  6
CONTINUOUS
 62
    2
 10
1542.1810999999998
 20
1235.9311
 40
1.5179999999999998
  0
CIRCLE
  8
_0-5_LAYER006
  6
CONTINUOUS
 62
    2
 10
1547.4960999999998
 20
1233.6531
 40
1.5179999999999998
  0
CIRCLE
  8
_0-5_LAYER006
  6
CONTINUOUS
 62
    2
 10
1555.0871000000002
 20
1232.1351
 40
1.5179999999999998
  0
CIRCLE
  8
_0-5_LAYER006
  6
CONTINUOUS
 62
    2
 10
1498.3651
 20
1151.3928000000001
 40
1.5179999999999998
  0
CIRCLE
  8
_0-5_LAYER006
  6
CONTINUOUS
 62
    2
 10
1499.1241
 20
1155.9477999999999
 40
1.5179999999999998
  0
CIRCLE
  8
_0-5_LAYER006
  6
CONTINUOUS
 62
    2
 10
1515.8960999999999
 20
1164.5880999999999
 40
1.5179999999999998
  0
CIRCLE
  8
_0-5_LAYER006
  6
CONTINUOUS
 62
    2
 10
1516.6550999999999
 20
1169.1431
 40
1.5179999999999998
  0
CIRCLE
  8
_0-5_LAYER006
  6
CONTINUOUS
 62
    2
 10
1495.8611000000001
 20
1134.3628000000001
 40
1.5179999999999998
  0
CIRCLE
  8
_0-5_LAYER006
  6
CONTINUOUS
 62
    2
 10
1496.6201000000001
 20
1138.9177999999999
 40
1.5179999999999998
  0
CIRCLE
  8
_0-5_LAYER006
  6
CONTINUOUS
 62
    2
 10
1494.3580999999999
 20
1167.9228000000001
 40
1.5179999999999998
  0
CIRCLE
  8
_0-5_LAYER006
  6
CONTINUOUS
 62
    2
 10
1495.1170999999999
 20
1193.6860999999999
 40
1.5179999999999998
  0
CIRCLE
  8
_0-5_LAYER006
  6
CONTINUOUS
 62
    2
 10
1493.6151
 20
1207.2101
 40
1.5179999999999998
  0
CIRCLE
  8
_0-5_LAYER006
  6
CONTINUOUS
 62
    2
 10
1491.6111000000001
 20
1231.7541000000001
 40
1.5179999999999998
  0
CIRCLE
  8
_0-5_LAYER006
  6
CONTINUOUS
 62
    2
 10
1494.8591000000001
 20
1233.7101
 40
1.5179999999999998
  0
CIRCLE
  8
_0-5_LAYER006
  6
CONTINUOUS
 62
    2
 10
1495.6181000000001
 20
1238.2651000000001
 40
1.5179999999999998
  0
CIRCLE
  8
_0-5_LAYER006
  6
CONTINUOUS
 62
    2
 10
1506.8800999999999
 20
1209.1670999999999
 40
1.5179999999999998
  0
CIRCLE
  8
_0-5_LAYER006
  6
CONTINUOUS
 62
    2
 10
1507.6390999999999
 20
1213.7221
 40
1.5179999999999998
  0
CIRCLE
  8
_0-5_LAYER006
  6
CONTINUOUS
 62
    2
 10
1548.7129
 20
1121.9166
 40
1.5179999999999998
  0
CIRCLE
  8
_0-5_LAYER006
  6
CONTINUOUS
 62
    2
 10
1549.4719
 20
1126.4716000000001
 40
1.5179999999999998
  0
CIRCLE
  8
_0-5_LAYER006
  6
CONTINUOUS
 62
    2
 10
1495.4971
 20
1258.1911
 40
1.5179999999999998
  0
CIRCLE
  8
_0-5_LAYER006
  6
CONTINUOUS
 62
    2
 10
1494.9371000000001
 20
1249.9791
 40
1.5179999999999998
  0
CIRCLE
  8
_0-5_LAYER006
  6
CONTINUOUS
 62
    2
 10
1494.9371000000001
 20
1243.0741
 40
1.5179999999999998
  0
CIRCLE
  8
_0-5_LAYER006
  6
CONTINUOUS
 62
    2
 10
1477.9531000000002
 20
1243.6341
 40
1.5179999999999998
  0
CIRCLE
  8
_0-5_LAYER006
  6
CONTINUOUS
 62
    2
 10
1460.5961000000002
 20
1274.8021000000001
 40
1.5179999999999998
  0
CIRCLE
  8
_0-5_LAYER006
  6
CONTINUOUS
 62
    2
 10
1414.4930999999999
 20
1161.7211
 40
1.5179999999999998
  0
CIRCLE
  8
_0-5_LAYER006
  6
CONTINUOUS
 62
    2
 10
1432.1448
 20
1126.6415
 40
1.5179999999999998
  0
ARC
  8
_0-6_LAYER007
  6
CONTINUOUS
 62
    2
 10
1486.7240999999999
 20
1078.9630999999999
 40
187.19999999999999
 50
79.328232
 51
99.345168999999999
  0
ARC
  8
_0-6_LAYER007
  6
CONTINUOUS
 62
    2
 10
1487.9521
 20
1118.2491
 40
119.67700000000001
 50
73.946152000000012
 51
105.32263
  0
ARC
  8
_0-6_LAYER007
  6
CONTINUOUS
 62
    2
 10
1487.8411000000001
 20
1070.7681
 40
136.42599999999999
 50
75.912734999999998
 51
103.35594999999999
  0
LINE
  8
_0-0_LAYER001
  6
CONTINUOUS
 62
    2
 10
1449.0506999999998
 20
1090.0642
 11
1476.4077000000002
 21
1102.3765000000001
  0
LINE
  8
_0-0_LAYER001
  6
CONTINUOUS
 62
    2
 10
1476.4077000000002
 20
1102.3765000000001
 11
1470.2514999999999
 21
1116.0550000000001
  0
LINE
  8
_0-0_LAYER001
  6
CONTINUOUS
 62
    2
 10
1470.2514999999999
 20
1116.0550000000001
 11
1442.8944999999999
 21
1103.7427
  0
LINE
  8
_0-0_LAYER001
  6
CONTINUOUS
 62
    2
 10
1442.8944999999999
 20
1103.7427
 11
1449.0506999999998
 21
1090.0642
  0
LINE
  8
_0-0_LAYER001
  6
CONTINUOUS
 62
    2
 10
1470.2514999999999
 20
1116.0550000000001
 11
1449.0506999999998
 21
1090.0642
  0
LINE
  8
_0-0_LAYER001
  6
CONTINUOUS
 62
    4
 10
1483.0315000000001
 20
1107.9223
 11
1472.6862000000001
 21
1136.2526
  0
LINE
  8
_0-0_LAYER001
  6
CONTINUOUS
 62
    4
 10
1483.0315000000001
 20
1107.9223
 11
1475.9371000000001
 21
1105.3484000000001
  0
LINE
  8
_0-0_LAYER001
  6
CONTINUOUS
 62
    4
 10
1471.6808000000001
 20
1117.0802000000001
 11
1475.9371000000001
 21
1105.3484000000001
  0
LINE
  8
_0-0_LAYER001
  6
CONTINUOUS
 62
    4
 10
1472.6862000000001
 20
1136.2526
 11
1452.9962
 21
1183.1319000000001
  0
LINE
  8
_0-0_LAYER001
  6
CONTINUOUS
 62
    2
 10
803.42550000000006
 20
799.49199999999996
 11
830.78250000000003
 21
811.80439999999999
  0
LINE
  8
_0-0_LAYER001
  6
CONTINUOUS
 62
    2
 10
830.78250000000003
 20
811.80439999999999
 11
824.6262999999999
 21
825.48289999999997
  0
LINE
  8
_0-0_LAYER001
  6
CONTINUOUS
 62
    2
 10
824.6262999999999
 20
825.48289999999997
 11
797.26929999999993
 21
813.17049999999995
  0
LINE
  8
_0-0_LAYER001
  6
CONTINUOUS
 62
    2
 10
797.26929999999993
 20
813.17049999999995
 11
803.42550000000006
 21
799.49199999999996
  0
LINE
  8
_0-0_LAYER001
  6
CONTINUOUS
 62
    2
 10
824.6262999999999
 20
825.48289999999997
 11
803.42550000000006
 21
799.49199999999996
  0
LINE
  8
_0-0_LAYER001
  6
CONTINUOUS
 62
    4
 10
838.49189999999999
 20
817.65859999999998
 11
828.14660000000003
 21
845.98890000000006
  0
LINE
  8
_0-0_LAYER001
  6
CONTINUOUS
 62
    2
 10
1018.6339
 20
896.34940000000006
 11
1045.9909
 21
908.66180000000008
  0
LINE
  8
_0-0_LAYER001
  6
CONTINUOUS
 62
    2
 10
1045.9909
 20
908.66180000000008
 11
1039.8347000000001
 21
922.34030000000007
  0
LINE
  8
_0-0_LAYER001
  6
CONTINUOUS
 62
    2
 10
1039.8347000000001
 20
922.34030000000007
 11
1012.4776999999999
 21
910.02790000000005
  0
LINE
  8
_0-0_LAYER001
  6
CONTINUOUS
 62
    2
 10
1012.4776999999999
 20
910.02790000000005
 11
1018.6339
 21
896.34940000000006
  0
LINE
  8
_0-0_LAYER001
  6
CONTINUOUS
 62
    2
 10
1039.8347000000001
 20
922.34030000000007
 11
1018.6339
 21
896.34940000000006
  0
LINE
  8
_0-0_LAYER001
  6
CONTINUOUS
 62
    4
 10
1053.3384000000001
 20
914.41319999999996
 11
1042.9930999999999
 21
942.74350000000004
  0
LINE
  8
_0-0_LAYER001
  6
CONTINUOUS
 62
    2
 10
1233.8423
 20
993.20679999999993
 11
1261.1993
 21
1005.5192
  0
LINE
  8
_0-0_LAYER001
  6
CONTINUOUS
 62
    2
 10
1261.1993
 20
1005.5192
 11
1255.0431000000001
 21
1019.1976999999999
  0
LINE
  8
_0-0_LAYER001
  6
CONTINUOUS
 62
    2
 10
1255.0431000000001
 20
1019.1976999999999
 11
1227.6860999999999
 21
1006.8852999999999
  0
LINE
  8
_0-0_LAYER001
  6
CONTINUOUS
 62
    2
 10
1227.6860999999999
 20
1006.8852999999999
 11
1233.8423
 21
993.20679999999993
  0
LINE
  8
_0-0_LAYER001
  6
CONTINUOUS
 62
    2
 10
1255.0431000000001
 20
1019.1976999999999
 11
1233.8423
 21
993.20679999999993
  0
LINE
  8
_0-0_LAYER001
  6
CONTINUOUS
 62
    4
 10
1268.1849
 20
1011.1677999999999
 11
1257.8397
 21
1039.498
  0
LINE
  8
_0-0_LAYER001
  6
CONTINUOUS
 62
    4
 10
1268.1849
 20
1011.1677999999999
 11
1260.7378000000001
 21
1008.4658999999999
  0
LINE
  8
_0-0_LAYER001
  6
CONTINUOUS
 62
    4
 10
1256.4815000000001
 20
1020.1976999999999
 11
1260.7378000000001
 21
1008.4658999999999
  0
LINE
  8
_0-0_LAYER001
  6
CONTINUOUS
 62
    4
 10
1053.3384000000001
 20
914.41319999999996
 11
1045.5386000000001
 21
911.58339999999998
  0
LINE
  8
_0-0_LAYER001
  6
CONTINUOUS
 62
    4
 10
1041.2822000000001
 20
923.3152
 11
1045.5386000000001
 21
911.58339999999998
  0
LINE
  8
_0-0_LAYER001
  6
CONTINUOUS
 62
    4
 10
838.49189999999999
 20
817.65859999999998
 11
830.33930000000009
 21
814.70090000000005
  0
LINE
  8
_0-0_LAYER001
  6
CONTINUOUS
 62
    4
 10
826.08300000000008
 20
826.43260000000009
 11
830.33930000000009
 21
814.70090000000005
  0
LINE
  8
_0-0_LAYER001
  6
CONTINUOUS
 62
    4
 10
980.96190000000001
 20
939.04600000000005
 11
1471.6808000000001
 21
1117.0802000000001
  0
LINE
  8
_0-0_LAYER001
  6
CONTINUOUS
 62
    4
 10
963.64200000000005
 20
986.78510000000006
 11
1174.6168
 21
1063.3273999999999
  0
LINE
  8
_0-0_LAYER001
  6
CONTINUOUS
 62
    4
 10
1172.2336
 20
1070.2071000000001
 11
1192.0364
 21
1015.6243999999999
  0
ARC
  8
_0-0_LAYER001
  6
CONTINUOUS
 62
    4
 10
1182.0101
 20
1073.7539999999999
 40
10.4
 50
109.94091000000002
 51
199.94091
  0
ARC
  8
_0-0_LAYER001
  6
CONTINUOUS
 62
    4
 10
769.63689999999997
 20
832.50579999999991
 40
10.4
 50
109.94091000000002
 51
199.94091
  0
ARC
  8
_0-0_LAYER001
  6
CONTINUOUS
 62
    4
 10
984.48350000000005
 20
929.26029999999992
 40
10.4
 50
109.94091000000002
 51
199.94091
  0
ARC
  8
_0-0_LAYER001
  6
CONTINUOUS
 62
    4
 10
1199.3299999999999
 20
1026.0148999999999
 40
10.4
 50
109.94091000000002
 51
199.94091
  0
LINE
  8
_0-0_LAYER001
  6
CONTINUOUS
 62
    4
 10
1194.9025999999999
 20
1035.4719
 11
1472.6862000000001
 21
1136.2526
  0
LINE
  8
_0-0_LAYER001
  6
CONTINUOUS
 62
    4
 10
1172.2336
 20
1070.2071000000001
 11
1186.0065999999999
 21
1032.2444
  0
LINE
  8
_0-0_LAYER001
  6
CONTINUOUS
 62
    4
 10
828.14660000000003
 20
845.98890000000006
 11
1041.2822000000001
 21
923.3152
  0
LINE
  8
_0-0_LAYER001
  6
CONTINUOUS
 62
    4
 10
749.13409999999999
 20
798.5154
 11
826.08300000000008
 21
826.43260000000009
  0
LINE
  8
_0-0_LAYER001
  6
CONTINUOUS
 62
    4
 10
720.96019999999999
 20
861.12419999999997
 11
744.92380000000003
 21
869.81829999999991
  0
ARC
  8
_0-0_LAYER001
  6
CONTINUOUS
 62
    4
 10
752.31700000000001
 20
880.24489999999992
 40
10.4
 50
109.94091000000002
 51
199.94091
  0
LINE
  8
_0-0_LAYER001
  6
CONTINUOUS
 62
    4
 10
742.54060000000004
 20
876.69800000000009
 11
762.3433
 21
822.11529999999993
  0
LINE
  8
_0-0_LAYER001
  6
CONTINUOUS
 62
    4
 10
742.54060000000004
 20
876.69800000000009
 11
762.3433
 21
822.11529999999993
  0
LINE
  8
_0-0_LAYER001
  6
CONTINUOUS
 62
    4
 10
741.85850000000005
 20
814.68339999999989
 11
828.14660000000003
 21
845.98890000000006
  0
LINE
  8
_0-0_LAYER001
  6
CONTINUOUS
 62
    4
 10
749.70129999999995
 20
890.3592000000001
 11
959.77029999999991
 21
966.57279999999992
  0
LINE
  8
_0-0_LAYER001
  6
CONTINUOUS
 62
    4
 10
963.41689999999994
 20
956.83249999999998
 11
977.1898000000001
 21
918.86989999999992
  0
LINE
  8
_0-0_LAYER001
  6
CONTINUOUS
 62
    4
 10
766.08999999999992
 20
842.2822000000001
 11
1256.4815000000001
 21
1020.1976999999999
  0
LINE
  8
_0-0_LAYER001
  6
CONTINUOUS
 62
    4
 10
1177.5826999999999
 20
1083.211
 11
1452.9962
 21
1183.1319000000001
  0
LINE
  8
_0-0_LAYER001
  6
CONTINUOUS
 62
    4
 10
957.38709999999992
 20
973.4525000000001
 11
977.1898000000001
 21
918.86989999999992
  0
ARC
  8
_0-0_LAYER001
  6
CONTINUOUS
 62
    4
 10
967.16360000000009
 20
976.9994999999999
 40
10.4
 50
109.94091000000002
 51
199.94091
  0
LINE
  8
_0-0_LAYER001
  6
CONTINUOUS
 62
    2
 10
699.79950000000008
 20
993.3898999999999
 11
717.80770000000007
 21
944.07500000000005
  0
CIRCLE
  8
_0-0_LAYER001
  6
CONTINUOUS
 62
    2
 10
700.6570999999999
 20
991.04150000000004
 40
1.6999999999999997
  0
LINE
  8
_0-0_LAYER001
  6
CONTINUOUS
 62
    2
 10
700.6570999999999
 20
991.04150000000004
 11
921.39979999999991
 21
1071.6494
  0
CIRCLE
  8
_0-0_LAYER001
  6
CONTINUOUS
 62
    2
 10
921.39979999999991
 20
1071.6494
 40
1.6999999999999997
  0
LINE
  8
_0-0_LAYER001
  6
CONTINUOUS
 62
    2
 10
920.54230000000007
 20
1073.9978000000001
 11
938.55050000000006
 21
1024.6829
  0
LINE
  8
_0-0_LAYER001
  6
CONTINUOUS
 62
    2
 10
906.82179999999994
 20
1111.5709999999999
 11
924.82999999999993
 21
1062.2561000000001
  0
CIRCLE
  8
_0-0_LAYER001
  6
CONTINUOUS
 62
    2
 10
907.67930000000001
 20
1109.2227
 40
1.6999999999999997
  0
LINE
  8
_0-0_LAYER001
  6
CONTINUOUS
 62
    2
 10
907.67930000000001
 20
1109.2227
 11
1128.4221
 21
1189.8306
  0
CIRCLE
  8
_0-0_LAYER001
  6
CONTINUOUS
 62
    2
 10
1128.4221
 20
1189.8306
 40
1.6999999999999997
  0
LINE
  8
_0-0_LAYER001
  6
CONTINUOUS
 62
    2
 10
1127.5645999999999
 20
1192.1789000000001
 11
1145.5726999999999
 21
1142.864
  0
LINE
  8
_0-0_LAYER001
  6
CONTINUOUS
 62
    2
 10
1400.3399999999999
 20
1334.3708999999999
 11
1418.3481999999999
 21
1285.056
  0
CIRCLE
  8
_0-0_LAYER001
  6
CONTINUOUS
 62
    2
 10
1401.1975000000002
 20
1332.0226
 40
1.6999999999999997
  0
LINE
  8
_0-0_LAYER001
  6
CONTINUOUS
 62
    2
 10
1401.1975000000002
 20
1332.0226
 11
1114.7016000000001
 21
1227.4038
  0
CIRCLE
  8
_0-0_LAYER001
  6
CONTINUOUS
 62
    2
 10
1114.7016000000001
 20
1227.4038
 40
1.6999999999999997
  0
LINE
  8
_0-0_LAYER001
  6
CONTINUOUS
 62
    2
 10
1113.8441
 20
1229.7520999999999
 11
1131.8522
 21
1180.4373000000001
  0
LINE
  8
_0-0_LAYER001
  6
CONTINUOUS
 62
    2
 10
1427.1713999999999
 20
1155.9928
 11
1429.1125999999999
 21
1148.7483
  0
LINE
  8
_0-0_LAYER001
  6
CONTINUOUS
 62
    2
 10
1429.1125999999999
 20
1148.7483
 11
1423.8092999999999
 21
1154.0516
  0
LINE
  8
_0-0_LAYER001
  6
CONTINUOUS
 62
    2
 10
1429.1125999999999
 20
1148.7483
 11
1324.3784000000001
 21
1330.1532999999999
  0
LINE
  8
_0-0_LAYER001
  6
CONTINUOUS
 62
    2
 10
1324.3784000000001
 20
1330.1532999999999
 11
1249.6817000000001
 21
1330.1532999999999
  0
LINE
  8
_0-0_LAYER001
  6
CONTINUOUS
 62
    2
 10
1484.3847000000001
 20
1228.9322999999999
 11
1486.3258999999998
 21
1221.6877999999999
  0
LINE
  8
_0-0_LAYER001
  6
CONTINUOUS
 62
    2
 10
1486.3258999999998
 20
1221.6877999999999
 11
1481.0225999999998
 21
1226.9911
  0
LINE
  8
_0-0_LAYER001
  6
CONTINUOUS
 62
    2
 10
1486.3258999999998
 20
1221.6877999999999
 11
1407.0105000000001
 21
1359.0661
  0
LINE
  8
_0-0_LAYER001
  6
CONTINUOUS
 62
    2
 10
1407.0105000000001
 20
1359.0661
 11
1323.2255
 21
1359.0661
  0
LINE
  8
_0-0_LAYER001
  6
CONTINUOUS
 62
    2
 10
1156.3218999999999
 20
673.63380000000006
 11
1327.9931999999999
 21
673.63380000000006
  0
LINE
  8
_0-0_LAYER001
  6
CONTINUOUS
 62
    2
 10
1138.9463000000001
 20
703.72910000000002
 11
1375.2917
 21
703.72910000000002
  0
LINE
  8
_0-0_LAYER001
  6
CONTINUOUS
 62
    2
 10
1173.5653
 20
643.7672
 11
1234.1152999999999
 21
643.7672
  0
LINE
  8
_0-0_LAYER001
  6
CONTINUOUS
 62
    2
 10
1482.1486
 20
1296.3267999999998
 11
1484.0897
 21
1289.0823
  0
LINE
  8
_0-0_LAYER001
  6
CONTINUOUS
 62
    2
 10
1484.0897
 20
1289.0823
 11
1478.7864
 21
1294.3856000000001
  0
LINE
  8
_0-0_LAYER001
  6
CONTINUOUS
 62
    2
 10
1484.0897
 20
1289.0823
 11
1425.1785999999997
 21
1391.1194
  0
LINE
  8
_0-0_LAYER001
  6
CONTINUOUS
 62
    2
 10
1425.1785999999997
 20
1391.1194
 11
1260.9400000000001
 21
1391.1194
  0
LINE
  8
_0-0_LAYER001
  6
CONTINUOUS
 62
    2
 10
1487.9481000000001
 20
1315.5981999999999
 11
1487.9481000000001
 21
1308.0981999999999
  0
LINE
  8
_0-0_LAYER001
  6
CONTINUOUS
 62
    2
 10
1487.9481000000001
 20
1308.0981999999999
 11
1484.1981000000001
 21
1314.5934
  0
LINE
  8
_0-0_LAYER001
  6
CONTINUOUS
 62
    2
 10
1487.9481000000001
 20
1308.0981999999999
 11
1452.9447
 21
1438.7327
  0
LINE
  8
_0-0_LAYER001
  6
CONTINUOUS
 62
    2
 10
1452.9447
 20
1438.7327
 11
1266.7646
 21
1438.7327
  0
LINE
  8
_0-0_LAYER001
  6
CONTINUOUS
 62
    2
 10
1025.8182999999999
 20
895.79040000000009
 11
1023.8770999999999
 21
903.03490000000011
  0
LINE
  8
_0-0_LAYER001
  6
CONTINUOUS
 62
    2
 10
1023.8770999999999
 20
903.03490000000011
 11
1029.1804
 21
897.7315000000001
  0
LINE
  8
_0-0_LAYER001
  6
CONTINUOUS
 62
    2
 10
1023.8770999999999
 20
903.03490000000011
 11
1173.5653
 21
643.7672
  0
LINE
  8
_0-0_LAYER001
  6
CONTINUOUS
 62
    2
 10
1121.6368
 20
733.71010000000001
 11
1326.4594999999999
 21
733.71010000000001
  0
LINE
  8
_0-1_LAYER002
  6
CONTINUOUS
 62
    7
 10
1266.7646
 20
1438.7327
 11
1452.9447
 21
1438.7327
  0
LINE
  8
_0-1_LAYER002
  6
CONTINUOUS
 62
    7
 10
1260.9400000000001
 20
1391.1194
 11
1425.1785999999997
 21
1391.1194
  0
LINE
  8
_0-1_LAYER002
  6
CONTINUOUS
 62
    7
 10
1323.2255
 20
1359.0661
 11
1407.0105000000001
 21
1359.0661
  0
LINE
  8
_0-1_LAYER002
  6
CONTINUOUS
 62
    7
 10
1249.6817000000001
 20
1330.1532999999999
 11
1324.3784000000001
 21
1330.1532999999999
  0
LINE
  8
_0-1_LAYER002
  6
CONTINUOUS
 62
    7
 10
1542.3339000000001
 20
1414.1208000000001
 11
1618.8339000000001
 21
1414.1208000000001
  0
LINE
  8
_0-1_LAYER002
  6
CONTINUOUS
 62
    7
 10
1579.6831999999999
 20
1351.6188999999999
 11
1620.1831999999999
 21
1351.6188999999999
  0
LINE
  8
_0-1_LAYER002
  6
CONTINUOUS
 62
    7
 10
1625.0279
 20
1278.7215000000001
 11
1739.0279
 21
1278.7215000000001
  0
LINE
  8
_0-1_LAYER002
  6
CONTINUOUS
 62
    7
 10
1801.8397
 20
1173.3308
 11
1842.3397
 21
1173.3308
  0
LINE
  8
_0-1_LAYER002
  6
CONTINUOUS
 62
    7
 10
1121.6368
 20
733.71010000000001
 11
1326.4594999999999
 21
733.71010000000001
  0
LINE
  8
_0-1_LAYER002
  6
CONTINUOUS
 62
    7
 10
1138.9463000000001
 20
703.72910000000002
 11
1375.2917
 21
703.72910000000002
  0
LINE
  8
_0-1_LAYER002
  6
CONTINUOUS
 62
    7
 10
1156.3218999999999
 20
673.63380000000006
 11
1327.9931999999999
 21
673.63380000000006
  0
LINE
  8
_0-1_LAYER002
  6
CONTINUOUS
 62
    7
 10
1173.5653
 20
643.7672
 11
1234.1152999999999
 21
643.7672
  0
LINE
  8
_0-1_LAYER002
  6
CONTINUOUS
 62
    7
 10
1472.0342000000001
 20
1299.1675
 11
1500.6722
 21
1299.1675
  0
LINE
  8
_0-1_LAYER002
  6
CONTINUOUS
 62
    7
 10
1500.6722
 20
1299.1675
 11
1500.6722
 21
1270.5295000000001
  0
LINE
  8
_0-1_LAYER002
  6
CONTINUOUS
 62
    7
 10
1500.6722
 20
1270.5295000000001
 11
1472.0342000000001
 21
1270.5295000000001
  0
LINE
  8
_0-1_LAYER002
  6
CONTINUOUS
 62
    7
 10
1472.0342000000001
 20
1299.1675
 11
1472.0342000000001
 21
1270.5295000000001
  0
LINE
  8
_0-1_LAYER002
  6
CONTINUOUS
 62
    7
 10
1469.6475999999998
 20
1285.0538000000001
 11
1471.0113999999999
 21
1285.0538000000001
  0
LINE
  8
_0-1_LAYER002
  6
CONTINUOUS
 62
    7
 10
1471.0113999999999
 20
1285.0538000000001
 11
1471.0113999999999
 21
1268.0071
  0
LINE
  8
_0-1_LAYER002
  6
CONTINUOUS
 62
    7
 10
1471.0113999999999
 20
1268.0071
 11
1501.6948000000002
 21
1268.0071
  0
LINE
  8
_0-1_LAYER002
  6
CONTINUOUS
 62
    7
 10
1501.6948000000002
 20
1268.0071
 11
1501.6948000000002
 21
1285.0538000000001
  0
LINE
  8
_0-1_LAYER002
  6
CONTINUOUS
 62
    7
 10
1503.0585999999998
 20
1285.0538000000001
 11
1501.6948000000002
 21
1285.0538000000001
  0
LINE
  8
_0-1_LAYER002
  6
CONTINUOUS
 62
    7
 10
1503.0585999999998
 20
1285.0538000000001
 11
1503.0585999999998
 21
1266.6436000000001
  0
LINE
  8
_0-1_LAYER002
  6
CONTINUOUS
 62
    7
 10
1502.8175020334354
 20
1266.6436000000001
 11
1469.6475999999998
 21
1266.6436000000001
  0
LINE
  8
_0-1_LAYER002
  6
CONTINUOUS
 62
    7
 10
1469.6475999999998
 20
1266.6436000000001
 11
1469.6475999999998
 21
1285.0538000000001
  0
LINE
  8
_0-1_LAYER002
  6
CONTINUOUS
 62
    7
 10
1469.6475999999998
 20
1285.0538000000001
 11
1471.0113999999999
 21
1285.0538000000001
  0
LINE
  8
_0-1_LAYER002
  6
CONTINUOUS
 62
    7
 10
1489.4214999999999
 20
1266.6436000000001
 11
1489.4214999999999
 21
1126.9766
  0
LINE
  8
_0-1_LAYER002
  6
CONTINUOUS
 62
    7
 10
1489.4214999999999
 20
1126.9766
 11
1483.2849000000001
 21
1126.9766
  0
LINE
  8
_0-1_LAYER002
  6
CONTINUOUS
 62
    7
 10
1483.2849000000001
 20
1126.9766
 11
1483.2849000000001
 21
1266.6436000000001
  0
LINE
  8
_0-1_LAYER002
  6
CONTINUOUS
 62
    7
 10
1483.2849000000001
 20
1158.4494999999999
 11
1489.4214999999999
 21
1158.4494999999999
  0
LINE
  8
_0-1_LAYER002
  6
CONTINUOUS
 62
    7
 10
1479.8112000000001
 20
1159.8132000000001
 11
1492.8951999999999
 21
1159.8132000000001
  0
LINE
  8
_0-1_LAYER002
  6
CONTINUOUS
 62
    7
 10
1491.6316000000002
 20
1158.4494999999999
 11
1481.0747999999999
 21
1158.4494999999999
  0
LINE
  8
_0-1_LAYER002
  6
CONTINUOUS
 62
    7
 10
1456.3269741979102
 20
1233.6719562590704
 11
1456.3269741979102
 21
1217.0009
  0
LINE
  8
_0-1_LAYER002
  6
CONTINUOUS
 62
    7
 10
1456.3269
 20
1217.0009
 11
1521.0473222584928
 21
1217.0009
  0
LINE
  8
_0-1_LAYER002
  6
CONTINUOUS
 62
    7
 10
1521.0473222584928
 20
1216.1704035639959
 11
1521.0473222584928
 21
1233.0181
  0
LINE
  8
_0-1_LAYER002
  6
CONTINUOUS
 62
    7
 10
1519.7132000000001
 20
1233.0181
 11
1456.3269741979102
 21
1233.0181
  0
LINE
  8
_0-1_LAYER002
  6
CONTINUOUS
 62
    7
 10
1456.3262
 20
1263.6786
 11
1456.3262
 21
1246.9417948406231
  0
LINE
  8
_0-1_LAYER002
  6
CONTINUOUS
 62
    7
 10
1456.3265123857332
 20
1246.9417948406231
 11
1521.3901999999998
 21
1246.9417948406231
  0
LINE
  8
_0-1_LAYER002
  6
CONTINUOUS
 62
    7
 10
1521.3901999999998
 20
1246.9417948406231
 11
1521.3901999999998
 21
1262.9253000000001
  0
LINE
  8
_0-1_LAYER002
  6
CONTINUOUS
 62
    7
 10
1456.3262
 20
1263.6786
 11
1521.3901999999998
 21
1263.6786
  0
LINE
  8
_0-1_LAYER002
  6
CONTINUOUS
 62
    7
 10
1521.0471112602625
 20
1203.0912434488439
 11
1521.0471112602625
 21
1186.4469999999999
  0
LINE
  8
_0-1_LAYER002
  6
CONTINUOUS
 62
    7
 10
1521.0470999999998
 20
1186.4469999999999
 11
1456.3265999999999
 21
1186.4469999999999
  0
LINE
  8
_0-1_LAYER002
  6
CONTINUOUS
 62
    7
 10
1456.3265999999999
 20
1187.1297999999999
 11
1456.3265999999999
 21
1203.5043000000001
  0
LINE
  8
_0-1_LAYER002
  6
CONTINUOUS
 62
    7
 10
1456.3265999999999
 20
1203.5043000000001
 11
1521.0470999999998
 21
1203.5043000000001
  0
LINE
  8
_0-1_LAYER002
  6
CONTINUOUS
 62
    7
 10
1429.1125999999999
 20
1148.7483
 11
1427.1713999999999
 21
1155.9928
  0
LINE
  8
_0-1_LAYER002
  6
CONTINUOUS
 62
    7
 10
1429.1125999999999
 20
1148.7483
 11
1423.8092999999999
 21
1154.0516
  0
LINE
  8
_0-1_LAYER002
  6
CONTINUOUS
 62
    7
 10
1429.1125999999999
 20
1148.7483
 11
1324.3784000000001
 21
1330.1532999999999
  0
LINE
  8
_0-1_LAYER002
  6
CONTINUOUS
 62
    7
 10
1400.6143980286813
 20
1333.6194694658752
 11
1418.3481999999999
 21
1285.056
  0
LINE
  8
_0-1_LAYER002
  6
CONTINUOUS
 62
    7
 10
1401.1975000000002
 20
1332.0226
 11
1114.7016000000001
 21
1227.4038
  0
LINE
  8
_0-1_LAYER002
  6
CONTINUOUS
 62
    7
 10
1114.1184971751691
 20
1229.0006691542121
 11
1145.5726999999999
 21
1142.864
  0
LINE
  8
_0-1_LAYER002
  6
CONTINUOUS
 62
    7
 10
1126.8252374415258
 20
1189.2474791125817
 11
1128.4220856140369
 21
1189.8305947467265
  0
LINE
  8
_0-1_LAYER002
  6
CONTINUOUS
 62
    7
 10
1128.4221
 20
1189.8306
 11
907.67932020561716
 21
1109.2227073784168
  0
LINE
  8
_0-1_LAYER002
  6
CONTINUOUS
 62
    7
 10
907.09619802868144
 20
1110.8195694658752
 11
938.55050000000006
 21
1024.6829
  0
LINE
  8
_0-1_LAYER002
  6
CONTINUOUS
 62
    7
 10
921.39979999999991
 20
1071.6494
 11
700.6570999999999
 21
991.04150000000004
  0
LINE
  8
_0-1_LAYER002
  6
CONTINUOUS
 62
    7
 10
699.79950000000008
 20
993.3898999999999
 11
717.80770000000007
 21
944.07500000000005
  0
LINE
  8
_0-1_LAYER002
  6
CONTINUOUS
 62
    7
 10
759.17650000000003
 20
776.19910000000004
 11
1486.3271
 21
1103.4168
  0
LINE
  8
_0-1_LAYER002
  6
CONTINUOUS
 62
    7
 10
1486.3271
 20
1099.0308
 11
760.81780000000003
 21
772.55169999999998
  0
LINE
  8
_0-1_LAYER002
  6
CONTINUOUS
 62
    7
 10
766.97330000000011
 20
758.8726999999999
 11
1486.3271
 21
1082.5817999999999
  0
LINE
  8
_0-1_LAYER002
  6
CONTINUOUS
 62
    7
 10
1486.3271
 20
1082.5817999999999
 11
1486.3271
 21
1016.7868000000001
  0
LINE
  8
_0-1_LAYER002
  6
CONTINUOUS
 62
    7
 10
1486.3271
 20
1016.7868000000001
 11
791.59519999999998
 21
704.15750000000003
  0
LINE
  8
_0-1_LAYER002
  6
CONTINUOUS
 62
    7
 10
1486.3271
 20
1082.5817999999999
 11
2230.0751
 21
747.89480000000003
  0
LINE
  8
_0-1_LAYER002
  6
CONTINUOUS
 62
    7
 10
2230.0751
 20
682.09979999999996
 11
1486.3271
 21
1016.7868000000001
  0
LINE
  8
_0-1_LAYER002
  6
CONTINUOUS
 62
    7
 10
1486.3271
 20
1082.5817999999999
 11
1486.3271
 21
1016.7868000000001
  0
LINE
  8
_0-1_LAYER002
  6
CONTINUOUS
 62
    7
 10
1486.3271
 20
1099.0308
 11
2230.0751
 21
764.3438000000001
  0
LINE
  8
_0-1_LAYER002
  6
CONTINUOUS
 62
    7
 10
2230.0751
 20
764.3438000000001
 11
2230.0751
 21
768.72980000000007
  0
LINE
  8
_0-1_LAYER002
  6
CONTINUOUS
 62
    7
 10
1486.3271
 20
1106.7067999999999
 11
1576.3271
 21
1066.2067999999999
  0
LINE
  8
_0-1_LAYER002
  6
CONTINUOUS
 62
    7
 10
1576.3261000000002
 20
1066.2067999999999
 11
1576.3271
 21
1064.0137999999999
  0
LINE
  8
_0-1_LAYER002
  6
CONTINUOUS
 62
    7
 10
1503.4097000000002
 20
1115.5962
 11
1497.3017
 21
1102.0626999999999
  0
LINE
  8
_0-1_LAYER002
  6
CONTINUOUS
 62
    7
 10
1497.3017
 20
1102.0626999999999
 11
1524.5898999999999
 21
1089.5886
  0
LINE
  8
_0-1_LAYER002
  6
CONTINUOUS
 62
    7
 10
1524.5898999999999
 20
1089.5886
 11
1530.7568999999999
 21
1103.2621999999999
  0
LINE
  8
_0-1_LAYER002
  6
CONTINUOUS
 62
    7
 10
1530.7568999999999
 20
1103.2621999999999
 11
1503.4097000000002
 21
1115.5962
  0
LINE
  8
_0-1_LAYER002
  6
CONTINUOUS
 62
    7
 10
1503.4097000000002
 20
1115.5962
 11
1524.5898999999999
 21
1089.5886
  0
LINE
  8
_0-1_LAYER002
  6
CONTINUOUS
 62
    7
 10
1442.8944999999999
 20
1103.7427
 11
1449.0506999999998
 21
1090.0642
  0
LINE
  8
_0-1_LAYER002
  6
CONTINUOUS
 62
    7
 10
1449.0506999999998
 20
1090.0642
 11
1476.7995423977843
 21
1102.4193990790029
  0
LINE
  8
_0-1_LAYER002
  6
CONTINUOUS
 62
    7
 10
1470.2514999999999
 20
1116.0550000000001
 11
1442.8944999999999
 21
1103.7427
  0
LINE
  8
_0-1_LAYER002
  6
CONTINUOUS
 62
    7
 10
1470.2514999999999
 20
1116.0550000000001
 11
1449.0506999999998
 21
1090.0642
  0
LINE
  8
_0-1_LAYER002
  6
CONTINUOUS
 62
    7
 10
1486.3271
 20
1106.7067999999999
 11
1396.3271
 21
1066.2067999999999
  0
LINE
  8
_0-1_LAYER002
  6
CONTINUOUS
 62
    7
 10
1396.3271
 20
1066.2067999999999
 11
1396.3271
 21
1064.0137999999999
  0
LINE
  8
_0-1_LAYER002
  6
CONTINUOUS
 62
    7
 10
1476.7995423977843
 20
1102.4193990790029
 11
1481.0747999999999
 21
1158.4494999999999
  0
LINE
  8
_0-1_LAYER002
  6
CONTINUOUS
 62
    7
 10
1491.6316000000002
 20
1158.4494999999999
 11
1496.0819000000001
 21
1100.1241
  0
LINE
  8
_0-1_LAYER002
  6
CONTINUOUS
 62
    7
 10
1492.8951999999999
 20
1159.8132000000001
 11
1497.3051714964561
 21
1102.0611130945263
  0
LINE
  8
_0-1_LAYER002
  6
CONTINUOUS
 62
    7
 10
1486.3271
 20
1103.4168
 11
2230.0751
 21
768.72980000000007
  0
LINE
  8
_0-1_LAYER002
  6
CONTINUOUS
 62
    7
 10
2120.6350000000002
 20
837.67020000000002
 11
2114.4794999999999
 21
823.99140000000011
  0
LINE
  8
_0-1_LAYER002
  6
CONTINUOUS
 62
    7
 10
2114.4794999999999
 20
823.99140000000011
 11
2141.8371000000002
 21
811.68039999999996
  0
LINE
  8
_0-1_LAYER002
  6
CONTINUOUS
 62
    7
 10
2141.8371000000002
 20
811.68039999999996
 11
2147.9926
 21
825.3592000000001
  0
LINE
  8
_0-1_LAYER002
  6
CONTINUOUS
 62
    7
 10
2147.9926
 20
825.3592000000001
 11
2120.6350000000002
 21
837.67020000000002
  0
LINE
  8
_0-1_LAYER002
  6
CONTINUOUS
 62
    7
 10
2120.6350000000002
 20
837.67020000000002
 11
2141.8371000000002
 21
811.68039999999996
  0
LINE
  8
_0-1_LAYER002
  6
CONTINUOUS
 62
    7
 10
1914.9227999999998
 20
930.38740000000007
 11
1908.7673
 21
916.70859999999993
  0
LINE
  8
_0-1_LAYER002
  6
CONTINUOUS
 62
    7
 10
1908.7673
 20
916.70859999999993
 11
1936.1248999999998
 21
904.39769999999999
  0
LINE
  8
_0-1_LAYER002
  6
CONTINUOUS
 62
    7
 10
1936.1248999999998
 20
904.39769999999999
 11
1942.2804000000001
 21
918.0764999999999
  0
LINE
  8
_0-1_LAYER002
  6
CONTINUOUS
 62
    7
 10
1942.2804000000001
 20
918.0764999999999
 11
1914.9227999999998
 21
930.38740000000007
  0
LINE
  8
_0-1_LAYER002
  6
CONTINUOUS
 62
    7
 10
1914.9227999999998
 20
930.38740000000007
 11
1936.1248999999998
 21
904.39769999999999
  0
LINE
  8
_0-1_LAYER002
  6
CONTINUOUS
 62
    7
 10
1709.1552000000001
 20
1022.9829
 11
1702.9998000000001
 21
1009.3041000000001
  0
LINE
  8
_0-1_LAYER002
  6
CONTINUOUS
 62
    7
 10
1702.9998000000001
 20
1009.3041000000001
 11
1730.3573999999999
 21
996.99319999999989
  0
LINE
  8
_0-1_LAYER002
  6
CONTINUOUS
 62
    7
 10
1730.3573999999999
 20
996.99319999999989
 11
1736.5129000000002
 21
1010.672
  0
LINE
  8
_0-1_LAYER002
  6
CONTINUOUS
 62
    7
 10
1736.5129000000002
 20
1010.672
 11
1709.1552000000001
 21
1022.9829
  0
LINE
  8
_0-1_LAYER002
  6
CONTINUOUS
 62
    7
 10
1709.1552000000001
 20
1022.9829
 11
1730.3573999999999
 21
996.99319999999989
  0
LINE
  8
_0-1_LAYER002
  6
CONTINUOUS
 62
    7
 10
1746.4623999999999
 20
1081.2968000000001
 11
1744.5212999999999
 21
1074.0524
  0
LINE
  8
_0-1_LAYER002
  6
CONTINUOUS
 62
    7
 10
1744.5212999999999
 20
1074.0524
 11
1749.4797413869262
 21
1079.0108413869261
  0
LINE
  8
_0-1_LAYER002
  6
CONTINUOUS
 62
    7
 10
1744.5212999999999
 20
1074.0524
 11
1801.8397
 21
1173.3308
  0
LINE
  8
_0-1_LAYER002
  6
CONTINUOUS
 62
    7
 10
1584.0538999999999
 20
1211.6347000000001
 11
1582.1127000000001
 21
1204.3902
  0
LINE
  8
_0-1_LAYER002
  6
CONTINUOUS
 62
    7
 10
1582.1127000000001
 20
1204.3902
 11
1587.4160000000002
 21
1209.6935000000001
  0
LINE
  8
_0-1_LAYER002
  6
CONTINUOUS
 62
    7
 10
1582.1127000000001
 20
1204.3902
 11
1625.0279
 21
1278.7215000000001
  0
LINE
  8
_0-1_LAYER002
  6
CONTINUOUS
 62
    7
 10
1541.7831999999999
 20
1289.8562999999999
 11
1539.8420000000001
 21
1282.6118999999999
  0
LINE
  8
_0-1_LAYER002
  6
CONTINUOUS
 62
    7
 10
1539.8420000000001
 20
1282.6118999999999
 11
1545.1453000000001
 21
1287.9151999999999
  0
LINE
  8
_0-1_LAYER002
  6
CONTINUOUS
 62
    7
 10
1539.8420000000001
 20
1282.6118999999999
 11
1579.6831999999999
 21
1351.6188999999999
  0
LINE
  8
_0-1_LAYER002
  6
CONTINUOUS
 62
    7
 10
1496.3613999999998
 20
1250.0491
 11
1496.3614664991985
 21
1242.5492151783853
  0
LINE
  8
_0-1_LAYER002
  6
CONTINUOUS
 62
    7
 10
1496.3613999999998
 20
1242.5491
 11
1500.1113999999998
 21
1249.0442
  0
LINE
  8
_0-1_LAYER002
  6
CONTINUOUS
 62
    7
 10
1496.3613999999998
 20
1242.5491
 11
1542.3339000000001
 21
1414.1208000000001
  0
LINE
  8
_0-1_LAYER002
  6
CONTINUOUS
 62
    7
 10
1452.9447
 20
1438.7327
 11
1487.9481203889625
 21
1308.0981877757181
  0
LINE
  8
_0-1_LAYER002
  6
CONTINUOUS
 62
    7
 10
1487.9481203889625
 20
1308.0981877757181
 11
1487.9481000000001
 21
1315.5981999999999
  0
LINE
  8
_0-1_LAYER002
  6
CONTINUOUS
 62
    7
 10
1487.9481203889625
 20
1308.0981877757181
 11
1484.1981000000001
 21
1314.5934
  0
LINE
  8
_0-1_LAYER002
  6
CONTINUOUS
 62
    7
 10
1482.1486
 20
1296.3267999999998
 11
1484.0897
 21
1289.0823
  0
LINE
  8
_0-1_LAYER002
  6
CONTINUOUS
 62
    7
 10
1484.0897
 20
1289.0823
 11
1478.7864
 21
1294.3856000000001
  0
LINE
  8
_0-1_LAYER002
  6
CONTINUOUS
 62
    7
 10
1472.0342000000001
 20
1299.1675
 11
1500.6722
 21
1270.5295000000001
  0
LINE
  8
_0-1_LAYER002
  6
CONTINUOUS
 62
    7
 10
1500.6722
 20
1299.1675
 11
1472.0342000000001
 21
1270.5295000000001
  0
LINE
  8
_0-1_LAYER002
  6
CONTINUOUS
 62
    7
 10
1484.0897
 20
1289.0823
 11
1425.1785999999997
 21
1391.1194
  0
LINE
  8
_0-1_LAYER002
  6
CONTINUOUS
 62
    7
 10
1407.0105000000001
 20
1359.0661
 11
1486.3258999999998
 21
1221.6877999999999
  0
LINE
  8
_0-1_LAYER002
  6
CONTINUOUS
 62
    7
 10
1486.3258999999998
 20
1221.6877999999999
 11
1484.3847000000001
 21
1228.9322999999999
  0
LINE
  8
_0-1_LAYER002
  6
CONTINUOUS
 62
    7
 10
1486.3258999999998
 20
1221.6877999999999
 11
1481.0225999999998
 21
1226.9911
  0
LINE
  8
_0-1_LAYER002
  6
CONTINUOUS
 62
    7
 10
1476.6136000000001
 20
1099.9825000000001
 11
1476.7995423977843
 21
1102.4193990790029
  0
LINE
  8
_0-1_LAYER002
  6
CONTINUOUS
 62
    7
 10
1476.7995423977843
 20
1102.4193990790029
 11
1477.0539516489487
 21
1105.7536019140773
  0
LINE
  8
_0-1_LAYER002
  6
CONTINUOUS
 62
    7
 10
1470.2514999999999
 20
1116.0550000000001
 11
1476.4077000000002
 21
1102.3765000000001
  0
LINE
  8
_0-1_LAYER002
  6
CONTINUOUS
 62
    7
 10
1476.4077000000002
 20
1102.3765000000001
 11
1449.0506999999998
 21
1090.0642
  0
LINE
  8
_0-1_LAYER002
  6
CONTINUOUS
 62
    7
 10
1475.3937340739205
 20
1101.9201541772977
 11
1479.8112000000001
 21
1159.8132000000001
  0
LINE
  8
_0-1_LAYER002
  6
CONTINUOUS
 62
    7
 10
1233.8423
 20
993.20679999999993
 11
1227.6860999999999
 21
1006.8852999999999
  0
LINE
  8
_0-1_LAYER002
  6
CONTINUOUS
 62
    7
 10
1227.6860999999999
 20
1006.8852999999999
 11
1255.0431000000001
 21
1019.1976999999999
  0
LINE
  8
_0-1_LAYER002
  6
CONTINUOUS
 62
    7
 10
1255.0431000000001
 20
1019.1976999999999
 11
1261.1993
 21
1005.5192
  0
LINE
  8
_0-1_LAYER002
  6
CONTINUOUS
 62
    7
 10
1261.1993
 20
1005.5192
 11
1233.8423
 21
993.20679999999993
  0
LINE
  8
_0-1_LAYER002
  6
CONTINUOUS
 62
    7
 10
1233.8423
 20
993.20679999999993
 11
1255.0431000000001
 21
1019.1976999999999
  0
LINE
  8
_0-1_LAYER002
  6
CONTINUOUS
 62
    7
 10
1018.6339
 20
896.34940000000006
 11
1012.4776999999999
 21
910.02790000000005
  0
LINE
  8
_0-1_LAYER002
  6
CONTINUOUS
 62
    7
 10
1012.4776999999999
 20
910.02790000000005
 11
1039.8347000000001
 21
922.34030000000007
  0
LINE
  8
_0-1_LAYER002
  6
CONTINUOUS
 62
    7
 10
1039.8347000000001
 20
922.34030000000007
 11
1045.9909
 21
908.66180000000008
  0
LINE
  8
_0-1_LAYER002
  6
CONTINUOUS
 62
    7
 10
1045.9909
 20
908.66180000000008
 11
1018.6339
 21
896.34940000000006
  0
LINE
  8
_0-1_LAYER002
  6
CONTINUOUS
 62
    7
 10
1018.6339
 20
896.34940000000006
 11
1039.8347000000001
 21
922.34030000000007
  0
LINE
  8
_0-1_LAYER002
  6
CONTINUOUS
 62
    7
 10
1023.8770999999999
 20
903.03490000000011
 11
1025.8182999999999
 21
895.79040000000009
  0
LINE
  8
_0-1_LAYER002
  6
CONTINUOUS
 62
    7
 10
1023.8770999999999
 20
903.03490000000011
 11
1029.1804
 21
897.7315000000001
  0
LINE
  8
_0-1_LAYER002
  6
CONTINUOUS
 62
    7
 10
1023.9928494908484
 20
902.91914832655812
 11
1173.5653
 21
643.7672
  0
LINE
  8
_0-1_LAYER002
  6
CONTINUOUS
 62
    7
 10
803.42550000000006
 20
799.49199999999996
 11
797.26929999999993
 21
813.17049999999995
  0
LINE
  8
_0-1_LAYER002
  6
CONTINUOUS
 62
    7
 10
797.26929999999993
 20
813.17049999999995
 11
824.6262999999999
 21
825.48289999999997
  0
LINE
  8
_0-1_LAYER002
  6
CONTINUOUS
 62
    7
 10
824.6262999999999
 20
825.48289999999997
 11
830.78250000000003
 21
811.80439999999999
  0
LINE
  8
_0-1_LAYER002
  6
CONTINUOUS
 62
    7
 10
830.78250000000003
 20
811.80439999999999
 11
803.42550000000006
 21
799.49199999999996
  0
LINE
  8
_0-1_LAYER002
  6
CONTINUOUS
 62
    7
 10
803.42550000000006
 20
799.49199999999996
 11
824.6262999999999
 21
825.48289999999997
  0
ARC
  8
_0-1_LAYER002
  6
CONTINUOUS
 62
    7
 10
1428.4813334882936
 20
1236.0159520794512
 40
10.703447905256191
 50
327.33908727832613
 51
36.356133253663089
  0
ARC
  8
_0-1_LAYER002
  6
CONTINUOUS
 62
    7
 10
1409.1974176806652
 20
1200.976099531304
 40
9.9533101444502368
 50
331.46711045984551
 51
32.93808586368597
  0
ARC
  8
_0-1_LAYER002
  6
CONTINUOUS
 62
    7
 10
1306.5183678799849
 20
1148.3151285618173
 40
96.895188226247996
 50
336.33174661660746
 51
12.824385424235411
  0
ARC
  8
_0-0_LAYER001
  6
CONTINUOUS
 62
    2
 10
1708.8947000000003
 20
1147.7445
 40
139.00153
 50
170.86091999999999
 51
197.50080999999994
  0
ARC
  8
_0-1_LAYER002
  6
CONTINUOUS
 62
    7
 10
1666.1358321200148
 20
1148.3151285618173
 40
96.895188226247996
 50
167.1756145757646
 51
203.66825338339251
  0
ARC
  8
_0-1_LAYER002
  6
CONTINUOUS
 62
    7
 10
1563.4567823193347
 20
1200.976099531304
 40
9.9533101444502368
 50
147.06191413631404
 51
208.53288954015449
  0
ARC
  8
_0-1_LAYER002
  6
CONTINUOUS
 62
    7
 10
1544.1728665117062
 20
1236.0159520794512
 40
10.703447905256191
 50
143.6438667463369
 51
212.6609127216739
  0
TEXT
  8
_0-6_LAYER007
 62
    7
 10
1818.3397
 20
1175.8308
 40
20
 41
1
 50
0
  1
　
  0
TEXT
  8
_0-0_LAYER001
 62
    7
 10
1625.0279
 20
1281.2215000000003
 40
20
 41
1
 50
0
  1
熨斗瓦３段積み
  0
TEXT
  8
_0-0_LAYER001
 62
    7
 10
1579.6831999999999
 20
1354.1189000000004
 40
20
 41
1
 50
0
  1
冠　瓦
  0
TEXT
  8
_0-0_LAYER001
 62
    7
 10
1259.8784000000001
 20
1332.6532999999999
 40
20
 41
1
 50
0
  1
葺　土　
  0
TEXT
  8
_0-0_LAYER001
 62
    7
 10
1326.0105000000001
 20
1361.5661000000002
 40
20
 41
1
 50
0
  1
棟補強金物
  0
TEXT
  8
_0-0_LAYER001
 62
    7
 10
1156.3218999999999
 20
676.13380000000018
 40
20
 41
1
 50
0
  1
　野地板：杉ｔ＝１２
  0
TEXT
  8
_0-0_LAYER001
 62
    7
 10
1173.5653
 20
646.26720000000023
 40
20
 41
1
 50
0
  1
　垂木
  0
TEXT
  8
_0-0_LAYER001
 62
    7
 10
1269.877
 20
1393.6194
 40
20
 41
1
 50
0
  1
芯木４０ｘ３０以上
  0
TEXT
  8
_0-0_LAYER001
 62
    7
 10
1272.9447
 20
1441.2327000000002
 40
20
 41
1
 50
0
  1
パッキンステンレスネジ
  0
TEXT
  8
_0-0_LAYER001
 62
    7
 10
1121.6368
 20
736.21010000000012
 40
20
 41
1
 50
0
  1
　瓦桟：１５ｘ３０以上
  0
TEXT
  8
_0-6_LAYER007
 62
    7
 10
1802.5106194799109
 20
1182.1535712648447
 40
20
 41
1
 50
0
  1
桟　瓦
  0
TEXT
  8
_0-0_LAYER001
 62
    7
 10
795.45347236358998
 20
1044.5097835751221
 40
20
 41
1
 50
20.060506999999955
  1
235
  0
TEXT
  8
_0-0_LAYER001
 62
    7
 10
1005.0349794636409
 20
1158.684783711717
 40
20
 41
1
 50
20.060507000000005
  1
235
  0
TEXT
  8
_0-0_LAYER001
 62
    7
 10
1244.3332674211613
 20
1286.9361537281661
 40
20
 41
1
 50
20.060506999999973
  1
305
  0
TEXT
  8
_0-0_LAYER001
 62
    7
 10
1138.9462999999998
 20
706.22910000000024
 40
20
 41
1
 50
0
  1
　下葺材：ルーフィング
  0
TEXT
  8
_0-0_LAYER001
 62
    7
 10
1542.3338999999999
 20
1416.6208000000001
 40
20
 41
1
 50
0
  1
銅線0.9ｍｍ
  0
ENDSEC
  0
EOF
