  0
SECTION
  2
HEADER
  9
$ACADVER
  1
AC1009
  9
$INSBASE
 10
0
 20
0
 30
0
  9
$EXTMIN
 10
0
 20
0
  9
$EXTMAX
 10
2970
 20
2100
  9
$LIMMIN
 10
0
 20
0
  9
$LIMMAX
 10
2970
 20
2100
  9
$LTSCALE
 40
10
  0
ENDSEC
  0
SECTION
  2
TABLES
  0
TABLE
  2
LTYPE
 70
     9
  0
LTYPE
  2
CONTINUOUS
 70
    64
  3
実線
 72
    65
 73
     0
 40
0.0
  0
LTYPE
  2
DASHED1
 70
    64
  3
--  --  --  --  --  --  --  --  
 72
    65
 73
     2
 40
2.5
 49
1.25
 49
-1.25
  0
LTYPE
  2
DASHED2
 70
    64
  3
----    ----    ----    ----    
 72
    65
 73
     2
 40
5.0
 49
2.5
 49
-2.5
  0
LTYPE
  2
DASHED3
 70
    64
  3
------  ------  ------  ------  
 72
    65
 73
     2
 40
5.0
 49
3.75
 49
-1.25
  0
LTYPE
  2
CENTER1
 70
    64
  3
----- - ----- - ----- - ----- - 
 72
    65
 73
     4
 40
10.0
 49
6.25
 49
-1.25
 49
1.25
 49
-1.25
  0
LTYPE
  2
CENTER2
 70
    64
  3
----------  --  ----------  --  
 72
    65
 73
     4
 40
20.0
 49
12.5
 49
-2.5
 49
2.5
 49
-2.5
  0
LTYPE
  2
PHANTOM1
 70
    64
  3
--- - - --- - - --- - - --- - - 
 72
    65
 73
     6
 40
10.0
 49
3.25
 49
-1.25
 49
1.25
 49
-1.25
 49
1.25
 49
-1.25
  0
LTYPE
  2
PHANTOM2
 70
    64
  3
--------  -  -  --------  -  -  
 72
    65
 73
     6
 40
20.0
 49
10.0
 49
-2.5
 49
1.25
 49
-2.5
 49
1.25
 49
-2.5
  0
LTYPE
  2
DOT
 70
    64
  3
-   -   -   -   -   -   -   -   
 72
    65
 73
     2
 40
2.5
 49
0.625
 49
-1.875
  0
LTYPE
  2
DUMMY
 70
    64
  3
ダミー
 72
    65
 73
     0
 40
0.0
  0
LTYPE
  2
RAND1
 70
    64
  3
ランダム線1
 72
    65
 73
     4
 40
10.0
 49
1.0
 49
-2.0
 49
3.0
 49
-4.0
  0
LTYPE
  2
RAND2
 70
    64
  3
ランダム線2
 72
    65
 73
     4
 40
14.0
 49
2.0
 49
-3.0
 49
4.0
 49
-5.0
  0
LTYPE
  2
RAND3
 70
    64
  3
ランダム線3
 72
    65
 73
     4
 40
18.0
 49
3.0
 49
-4.0
 49
5.0
 49
-6.0
  0
LTYPE
  2
RAND4
 70
    64
  3
ランダム線4
 72
    65
 73
     4
 40
22.0
 49
4.0
 49
-5.0
 49
6.0
 49
-7.0
  0
LTYPE
  2
RAND5
 70
    64
  3
ランダム線5
 72
    65
 73
     4
 40
26.0
 49
5.0
 49
-6.0
 49
7.0
 49
-8.0
  0
LTYPE
  2
LONG1
 70
    64
  3
----------  --  ----------  --  
 72
    65
 73
     4
 40
40.0
 49
32.5
 49
-2.5
 49
2.5
 49
-2.5
  0
LTYPE
  2
LONG2
 70
    64
  3
--------  -  -  --------  -  -  
 72
    65
 73
     6
 40
40.0
 49
30.0
 49
-2.5
 49
1.25
 49
-2.5
 49
1.25
 49
-2.5
  0
LTYPE
  2
LONG3
 70
    64
  3
+++++++++++++++..+++++++++++++++
 72
    65
 73
     2
 40
40.0
 49
37.5
 49
-2.5
  0
LTYPE
  2
LONG4
 70
    64
  3
+++++++++++++++..+++++++++++++++
 72
    65
 73
     2
 40
80.0
 49
75.0
 49
-5.0
  0
LTYPE
  2
LONG5
 70
    64
  3
----------  --  ----------  --  
 72
    65
 73
     4
 40
60.0
 49
37.5
 49
-7.5
 49
7.5
 49
-7.5
  0
LTYPE
  2
dashed
 70
   64
  3
-------   -------------   ------
 72
   65
 73
    2
 40
7.5
 49
6
 49
-1.5
  0
LTYPE
  2
dashed_spaced
 70
   64
  3
----        --------        ----
 72
   65
 73
    2
 40
12
 49
6
 49
-6
  0
LTYPE
  2
long_dashed_dotted
 70
   64
  3
------------- --- --------------
 72
   65
 73
    4
 40
15.25
 49
12
 49
-1.5
 49
0.25
 49
-1.5
  0
LTYPE
  2
long_dashed_double-dotted
 70
   64
  3
----------- --- --- ------------
 72
   65
 73
    6
 40
17
 49
12
 49
-1.5
 49
0.25
 49
-1.5
 49
0.25
 49
-1.5
  0
LTYPE
  2
long_dashed_triplicate-dotted
 70
   64
  3
--------- --- --- --- ----------
 72
   65
 73
    8
 40
18.75
 49
12
 49
-1.5
 49
0.25
 49
-1.5
 49
0.25
 49
-1.5
 49
0.25
 49
-1.5
  0
LTYPE
  2
dotted
 70
   64
  3
   -       -       -       -    
 72
   65
 73
    2
 40
1.75
 49
0.25
 49
-1.5
  0
LTYPE
  2
chain
 70
   64
  3
-------------- -- --------------
 72
   65
 73
    4
 40
18.5
 49
12
 49
-1.5
 49
3.5
 49
-1.5
  0
LTYPE
  2
chain_double_dash
 70
   64
  3
------------ -- -- -------------
 72
   65
 73
    6
 40
23.5
 49
12
 49
-1.5
 49
3.5
 49
-1.5
 49
3.5
 49
-1.5
  0
LTYPE
  2
dashed_dotted
 70
   64
  3
-----------     -     ----------
 72
   65
 73
    4
 40
9.25
 49
6
 49
-1.5
 49
0.25
 49
-1.5
  0
LTYPE
  2
double-dashed_dotted
 70
   64
  3
------   -----------   -   -----
 72
   65
 73
    6
 40
16.75
 49
6
 49
-1.5
 49
6
 49
-1.5
 49
0.25
 49
-1.5
  0
LTYPE
  2
dashed_double-dotted
 70
   64
  3
---------    -    -    ---------
 72
   65
 73
    6
 40
11
 49
6
 49
-1.5
 49
0.25
 49
-1.5
 49
0.25
 49
-1.5
  0
LTYPE
  2
double-dashed_double-dotted
 70
   64
  3
-----   ---------   -   -   ----
 72
   65
 73
    8
 40
18.5
 49
6
 49
-1.5
 49
6
 49
-1.5
 49
0.25
 49
-1.5
 49
0.25
 49
-1.5
  0
LTYPE
  2
dashed_triplicate-dotted
 70
   64
  3
-------    -    -    -    ------
 72
   65
 73
    8
 40
12.75
 49
6
 49
-1.5
 49
0.25
 49
-1.5
 49
0.25
 49
-1.5
 49
0.25
 49
-1.5
  0
LTYPE
  2
double-dashed_triplicate-dotted
 70
   64
  3
-----  ---------  -  -  -  -----
 72
   65
 73
   10
 40
20.25
 49
6
 49
-1.5
 49
6
 49
-1.5
 49
0.25
 49
-1.5
 49
0.25
 49
-1.5
 49
0.25
 49
-1.5
  0
LTYPE
  2
undefined
 70
   64
  3
--------------------------------
 72
   65
 73
    0
 40
0
  0
ENDTAB
  0
TABLE
  2
STYLE
  5
3
100
AcDbSymbolTable
 70
     1
  0
STYLE
  5
10
100
AcDbSymbolTableRecord
100
AcDbTextStyleTableRecord
  2
STANDARD
 70
     0
 40
0.0
 41
1.0
 50
0.0
 71
     0
 42
0.2
  3
txt
  4
bigfont.shx
  0
STYLE
  5
26
100
AcDbSymbolTableRecord
100
AcDbTextStyleTableRecord
  2
TATEGAKI
 70
    68
 40
0.0
 41
1.0
 50
0.0
 71
     0
 42
1.0
  3
txt
  4
bigfont.shx
  0
ENDTAB
  0
TABLE
  2
LAYER
 70
    3
  0
LAYER
  2
_0-0_LAYER001
 70
   64
 62
    7
  6
CONTINUOUS
  0
LAYER
  2
_0-1_LAYER004
 70
   64
 62
    7
  6
CONTINUOUS
  0
LAYER
  2
ADD_LINE
 70
   64
 62
    7
  6
CONTINUOUS
  0
ENDTAB
  0
ENDSEC
  0
SECTION
  2
BLOCKS
  0
ENDSEC
  0
SECTION
  2
ENTITIES
  0
LINE
  8
_0-0_LAYER001
  6
CONTINUOUS
 62
    2
 10
1097.9771000000001
 20
1041.221
 11
1157.9771000000001
 21
1041.221
  0
LINE
  8
_0-0_LAYER001
  6
CONTINUOUS
 62
    2
 10
1157.9771000000001
 20
1041.221
 11
1157.9771000000001
 21
981.221
  0
LINE
  8
_0-0_LAYER001
  6
CONTINUOUS
 62
    2
 10
1157.9771000000001
 20
981.221
 11
1097.9771000000001
 21
981.221
  0
LINE
  8
_0-0_LAYER001
  6
CONTINUOUS
 62
    2
 10
1097.9771000000001
 20
981.221
 11
1097.9771000000001
 21
1041.221
  0
LINE
  8
_0-0_LAYER001
  6
CONTINUOUS
 62
    2
 10
1097.9771000000001
 20
1041.221
 11
1157.9771000000001
 21
981.221
  0
LINE
  8
_0-0_LAYER001
  6
CONTINUOUS
 62
    3
 10
1072.9771000000001
 20
1041.221
 11
1072.9771000000001
 21
892.89210000000003
  0
LINE
  8
_0-0_LAYER001
  6
CONTINUOUS
 62
    3
 10
1097.9771000000001
 20
1041.221
 11
1097.9771000000001
 21
892.89210000000003
  0
LINE
  8
_0-0_LAYER001
  6
CONTINUOUS
 62
    3
 10
1144.9771000000001
 20
1041.221
 11
1054.9771000000001
 21
1041.221
  0
LINE
  8
_0-0_LAYER001
  6
CONTINUOUS
 62
    2
 10
1094.3538000000001
 20
892.89210000000003
 11
1097.9771000000001
 21
896.5154
  0
LINE
  8
_0-0_LAYER001
  6
CONTINUOUS
 62
    2
 10
1080.2117000000001
 20
892.89210000000003
 11
1097.9771000000001
 21
910.65750000000003
  0
LINE
  8
_0-0_LAYER001
  6
CONTINUOUS
 62
    2
 10
1072.9771000000001
 20
899.79960000000005
 11
1097.9771000000001
 21
924.79960000000005
  0
LINE
  8
_0-0_LAYER001
  6
CONTINUOUS
 62
    2
 10
1072.9771000000001
 20
913.94180000000006
 11
1097.9771000000001
 21
938.94180000000006
  0
LINE
  8
_0-0_LAYER001
  6
CONTINUOUS
 62
    2
 10
1072.9771000000001
 20
928.08390000000009
 11
1097.9771000000001
 21
953.08390000000009
  0
LINE
  8
_0-0_LAYER001
  6
CONTINUOUS
 62
    2
 10
1072.9771000000001
 20
942.22600000000011
 11
1097.9771000000001
 21
967.22600000000011
  0
LINE
  8
_0-0_LAYER001
  6
CONTINUOUS
 62
    2
 10
1072.9771000000001
 20
956.36819999999989
 11
1097.9771000000001
 21
981.36819999999989
  0
LINE
  8
_0-0_LAYER001
  6
CONTINUOUS
 62
    2
 10
1072.9771000000001
 20
970.51029999999992
 11
1097.9771000000001
 21
995.51029999999992
  0
LINE
  8
_0-0_LAYER001
  6
CONTINUOUS
 62
    2
 10
1072.9771000000001
 20
984.65239999999994
 11
1097.9771000000001
 21
1009.6523999999999
  0
LINE
  8
_0-0_LAYER001
  6
CONTINUOUS
 62
    2
 10
1072.9771000000001
 20
998.79459999999995
 11
1097.9771000000001
 21
1023.7945999999999
  0
LINE
  8
_0-0_LAYER001
  6
CONTINUOUS
 62
    2
 10
1072.9771000000001
 20
1012.9367
 11
1097.9771000000001
 21
1037.9367
  0
LINE
  8
_0-0_LAYER001
  6
CONTINUOUS
 62
    2
 10
1072.9771000000001
 20
1027.0789
 11
1087.1192000000001
 21
1041.221
  0
LINE
  8
_0-0_LAYER001
  6
CONTINUOUS
 62
    2
 10
1444.6601999999998
 20
1052.5142000000001
 11
1444.6601999999998
 21
1060.0142000000001
  0
LINE
  8
_0-0_LAYER001
  6
CONTINUOUS
 62
    2
 10
1444.6601999999998
 20
1060.0142000000001
 11
1448.4101999999998
 21
1053.519
  0
LINE
  8
_0-0_LAYER001
  6
CONTINUOUS
 62
    2
 10
1444.6601999999998
 20
1060.0142000000001
 11
1514.2653
 21
800.24440000000004
  0
LINE
  8
_0-1_LAYER004
  6
CONTINUOUS
 62
    2
 10
1662.7076999999999
 20
1098.8219999999999
 11
1662.7076999999999
 21
1091.3219999999999
  0
LINE
  8
_0-1_LAYER004
  6
CONTINUOUS
 62
    2
 10
1662.7076999999999
 20
1091.3219999999999
 11
1658.9576999999999
 21
1097.8172
  0
LINE
  8
_0-1_LAYER004
  6
CONTINUOUS
 62
    2
 10
1662.7076999999999
 20
1091.3219999999999
 11
1632.7682
 21
1203.0574999999999
  0
LINE
  8
_0-1_LAYER004
  6
CONTINUOUS
 62
    2
 10
1632.7682
 20
1203.0574999999999
 11
1592.2682
 21
1203.0574999999999
  0
LINE
  8
_0-0_LAYER001
  6
CONTINUOUS
 62
    2
 10
1400.9771000000001
 20
1041.221
 11
1460.9771000000001
 21
1041.221
  0
LINE
  8
_0-0_LAYER001
  6
CONTINUOUS
 62
    2
 10
1460.9771000000001
 20
1041.221
 11
1460.9771000000001
 21
981.221
  0
LINE
  8
_0-0_LAYER001
  6
CONTINUOUS
 62
    2
 10
1460.9771000000001
 20
981.221
 11
1400.9771000000001
 21
981.221
  0
LINE
  8
_0-0_LAYER001
  6
CONTINUOUS
 62
    2
 10
1400.9771000000001
 20
981.221
 11
1400.9771000000001
 21
1041.221
  0
LINE
  8
_0-0_LAYER001
  6
CONTINUOUS
 62
    2
 10
1400.9771000000001
 20
1041.221
 11
1460.9771000000001
 21
981.221
  0
LINE
  8
_0-0_LAYER001
  6
CONTINUOUS
 62
    2
 10
1703.9771000000001
 20
1041.221
 11
1763.9771000000001
 21
1041.221
  0
LINE
  8
_0-0_LAYER001
  6
CONTINUOUS
 62
    2
 10
1763.9771000000001
 20
1041.221
 11
1763.9771000000001
 21
981.221
  0
LINE
  8
_0-0_LAYER001
  6
CONTINUOUS
 62
    2
 10
1763.9771000000001
 20
981.221
 11
1703.9771000000001
 21
981.221
  0
LINE
  8
_0-0_LAYER001
  6
CONTINUOUS
 62
    2
 10
1703.9771000000001
 20
981.221
 11
1703.9771000000001
 21
1041.221
  0
LINE
  8
_0-0_LAYER001
  6
CONTINUOUS
 62
    2
 10
1703.9771000000001
 20
1041.221
 11
1763.9771000000001
 21
981.221
  0
LINE
  8
_0-0_LAYER001
  6
CONTINUOUS
 62
    2
 10
1990.8748000000001
 20
1056.221
 11
1144.9771000000001
 21
1056.221
  0
LINE
  8
_0-0_LAYER001
  6
DASHED3
 62
    2
 10
1990.8748000000001
 20
1057.721
 11
1144.9771000000001
 21
1057.721
  0
LINE
  8
_0-0_LAYER001
  6
CONTINUOUS
 62
    2
 10
1990.8748000000001
 20
1041.221
 11
1144.9771000000001
 21
1041.221
  0
LINE
  8
_0-0_LAYER001
  6
CONTINUOUS
 62
    3
 10
1054.9771000000001
 20
1061.221
 11
1054.9771000000001
 21
1041.221
  0
LINE
  8
_0-0_LAYER001
  6
CONTINUOUS
 62
    3
 10
1144.9771000000001
 20
1041.221
 11
1144.9771000000001
 21
1061.221
  0
LINE
  8
_0-0_LAYER001
  6
CONTINUOUS
 62
    3
 10
1144.9771000000001
 20
1061.221
 11
1054.9771000000001
 21
1061.221
  0
LINE
  8
_0-0_LAYER001
  6
CONTINUOUS
 62
    2
 10
1990.8748000000001
 20
1059.221
 11
1144.9771000000001
 21
1059.221
  0
LINE
  8
_0-0_LAYER001
  6
CONTINUOUS
 62
    2
 10
1054.9771000000001
 20
1046.933
 11
1060.6891000000001
 21
1041.221
  0
LINE
  8
_0-0_LAYER001
  6
CONTINUOUS
 62
    2
 10
1054.9771000000001
 20
1061.0751
 11
1074.8312000000001
 21
1041.221
  0
LINE
  8
_0-0_LAYER001
  6
CONTINUOUS
 62
    2
 10
1068.9733000000001
 20
1061.221
 11
1088.9733000000001
 21
1041.221
  0
LINE
  8
_0-0_LAYER001
  6
CONTINUOUS
 62
    2
 10
1083.1155000000001
 20
1061.221
 11
1103.1155000000001
 21
1041.221
  0
LINE
  8
_0-0_LAYER001
  6
CONTINUOUS
 62
    2
 10
1097.2575999999999
 20
1061.221
 11
1117.2575999999999
 21
1041.221
  0
LINE
  8
_0-0_LAYER001
  6
CONTINUOUS
 62
    2
 10
1111.3996999999999
 20
1061.221
 11
1131.3996999999999
 21
1041.221
  0
LINE
  8
_0-0_LAYER001
  6
CONTINUOUS
 62
    2
 10
1125.5418999999999
 20
1061.221
 11
1144.9771000000001
 21
1041.7858000000001
  0
LINE
  8
_0-0_LAYER001
  6
CONTINUOUS
 62
    2
 10
1144.5583999999999
 20
1056.3466000000001
 11
1144.9771000000001
 21
1055.9278999999999
  0
LINE
  8
_0-0_LAYER001
  6
CONTINUOUS
 62
    2
 10
1054.9771000000001
 20
971.73450000000003
 11
1054.9771000000001
 21
999.23450000000003
  0
CIRCLE
  8
_0-0_LAYER001
  6
CONTINUOUS
 62
    2
 10
1054.9771000000001
 20
974.23450000000003
 40
1.6999999999999997
  0
LINE
  8
_0-0_LAYER001
  6
CONTINUOUS
 62
    2
 10
1054.9771000000001
 20
974.23450000000003
 11
1034.9771000000001
 21
974.23450000000003
  0
CIRCLE
  8
_0-0_LAYER001
  6
CONTINUOUS
 62
    2
 10
1034.9771000000001
 20
974.23450000000003
 40
1.6999999999999997
  0
LINE
  8
_0-0_LAYER001
  6
CONTINUOUS
 62
    2
 10
1034.9771000000001
 20
971.73450000000003
 11
1034.9771000000001
 21
999.23450000000003
  0
LINE
  8
_0-0_LAYER001
  6
CONTINUOUS
 62
    2
 10
1787.4659999999999
 20
1286.7554999999998
 11
1787.4659999999999
 21
1234.2555
  0
CIRCLE
  8
_0-0_LAYER001
  6
CONTINUOUS
 62
    2
 10
1787.4659999999999
 20
1284.2554999999998
 40
1.6999999999999997
  0
LINE
  8
_0-0_LAYER001
  6
CONTINUOUS
 62
    2
 10
1787.4659999999999
 20
1284.2554999999998
 11
1522.4659999999999
 21
1284.2554999999998
  0
CIRCLE
  8
_0-0_LAYER001
  6
CONTINUOUS
 62
    2
 10
1522.4659999999999
 20
1284.2554999999998
 40
1.6999999999999997
  0
LINE
  8
_0-0_LAYER001
  6
CONTINUOUS
 62
    2
 10
1522.4659999999999
 20
1286.7554999999998
 11
1522.4659999999999
 21
1234.2555
  0
CIRCLE
  8
_0-0_LAYER001
  6
CONTINUOUS
 62
    2
 10
1522.4659999999999
 20
1284.2554999999998
 40
1.6999999999999997
  0
LINE
  8
_0-0_LAYER001
  6
CONTINUOUS
 62
    2
 10
1522.4659999999999
 20
1284.2554999999998
 11
1257.4659999999999
 21
1284.2554999999998
  0
CIRCLE
  8
_0-0_LAYER001
  6
CONTINUOUS
 62
    2
 10
1257.4659999999999
 20
1284.2554999999998
 40
1.6999999999999997
  0
LINE
  8
_0-0_LAYER001
  6
CONTINUOUS
 62
    2
 10
1257.4659999999999
 20
1286.7554999999998
 11
1257.4659999999999
 21
1234.2555
  0
CIRCLE
  8
_0-0_LAYER001
  6
CONTINUOUS
 62
    2
 10
1257.4659999999999
 20
1284.2554999999998
 40
1.6999999999999997
  0
LINE
  8
_0-0_LAYER001
  6
CONTINUOUS
 62
    2
 10
1257.4659999999999
 20
1284.2554999999998
 11
1032.4659999999999
 21
1284.2554999999998
  0
CIRCLE
  8
_0-0_LAYER001
  6
CONTINUOUS
 62
    2
 10
1032.4659999999999
 20
1284.2554999999998
 40
1.6999999999999997
  0
LINE
  8
_0-0_LAYER001
  6
CONTINUOUS
 62
    2
 10
1032.4659999999999
 20
1286.7554999999998
 11
1032.4659999999999
 21
1234.2555
  0
LINE
  8
_0-0_LAYER001
  6
CONTINUOUS
 62
    2
 10
1507.9216000000001
 20
830.1108999999999
 11
1679.5929999999998
 21
830.1108999999999
  0
LINE
  8
_0-0_LAYER001
  6
CONTINUOUS
 62
    2
 10
1498.3784999999998
 20
860.20630000000006
 11
1735.1385
 21
860.20630000000006
  0
LINE
  8
_0-0_LAYER001
  6
CONTINUOUS
 62
    2
 10
1514.2653
 20
800.24440000000004
 11
1573.9612000000002
 21
800.24440000000004
  0
LINE
  8
_0-0_LAYER001
  6
CONTINUOUS
 62
    2
 10
1990.8748000000001
 20
1074.221
 11
1110.1343999999999
 21
1074.221
  0
LINE
  8
_0-0_LAYER001
  6
CONTINUOUS
 62
    2
 10
1110.1343999999999
 20
1074.221
 11
1110.1343999999999
 21
1061.221
  0
LINE
  8
_0-1_LAYER004
  6
CONTINUOUS
 62
    2
 10
1086.1256000000001
 20
1081.7734
 11
1086.1256000000001
 21
1074.2734
  0
LINE
  8
_0-1_LAYER004
  6
CONTINUOUS
 62
    2
 10
1086.1256000000001
 20
1074.2734
 11
1082.3756000000001
 21
1080.7686000000001
  0
LINE
  8
_0-1_LAYER004
  6
CONTINUOUS
 62
    2
 10
1086.1256000000001
 20
1074.2734
 11
1050.8440000000001
 21
1205.9459999999999
  0
LINE
  8
_0-1_LAYER004
  6
CONTINUOUS
 62
    2
 10
1050.8440000000001
 20
1205.9459999999999
 11
979.0612000000001
 21
1205.9459999999999
  0
LINE
  8
_0-1_LAYER004
  6
CONTINUOUS
 62
    2
 10
1061.7317
 20
1056.885
 11
1061.7317
 21
1049.385
  0
LINE
  8
_0-1_LAYER004
  6
CONTINUOUS
 62
    2
 10
1061.7317
 20
1049.385
 11
1057.9817
 21
1055.8802000000001
  0
LINE
  8
_0-1_LAYER004
  6
CONTINUOUS
 62
    2
 10
1061.7317
 20
1049.385
 11
1032.3168000000001
 21
1159.1631
  0
LINE
  8
_0-1_LAYER004
  6
CONTINUOUS
 62
    2
 10
1032.3168000000001
 20
1159.1631
 11
976.63709999999992
 21
1159.1631
  0
LINE
  8
_0-1_LAYER004
  6
CONTINUOUS
 62
    2
 10
1090.7016000000001
 20
938.13539999999989
 11
1090.7016000000001
 21
945.63539999999989
  0
LINE
  8
_0-1_LAYER004
  6
CONTINUOUS
 62
    2
 10
1090.7016000000001
 20
945.63539999999989
 11
1094.4516000000001
 21
939.14020000000005
  0
LINE
  8
_0-1_LAYER004
  6
CONTINUOUS
 62
    2
 10
1090.7016000000001
 20
945.63539999999989
 11
1122.6881000000001
 21
826.26019999999994
  0
LINE
  8
_0-1_LAYER004
  6
CONTINUOUS
 62
    2
 10
1122.6881000000001
 20
826.26019999999994
 11
1201.1157000000001
 21
826.26019999999994
  0
LINE
  8
_0-0_LAYER001
  6
CONTINUOUS
 62
    2
 10
1489.7491
 20
890.30160000000001
 11
1694.5718000000002
 21
890.30160000000001
  0
LINE
  8
_0-0_LAYER001
  6
CONTINUOUS
 62
    2
 10
973.20000000000005
 20
1041.221
 11
1000.7
 21
1041.221
  0
CIRCLE
  8
_0-0_LAYER001
  6
CONTINUOUS
 62
    2
 10
975.70000000000005
 20
1041.221
 40
1.6999999999999997
  0
LINE
  8
_0-0_LAYER001
  6
CONTINUOUS
 62
    2
 10
975.70000000000005
 20
1041.221
 11
975.70000000000005
 21
1061.221
  0
CIRCLE
  8
_0-0_LAYER001
  6
CONTINUOUS
 62
    2
 10
975.70000000000005
 20
1061.221
 40
1.6999999999999997
  0
LINE
  8
_0-0_LAYER001
  6
CONTINUOUS
 62
    2
 10
973.20000000000005
 20
1061.221
 11
1000.7
 21
1061.221
  0
CIRCLE
  8
_0-0_LAYER001
  6
CONTINUOUS
 62
    2
 10
975.70000000000005
 20
1061.221
 40
1.6999999999999997
  0
LINE
  8
_0-0_LAYER001
  6
CONTINUOUS
 62
    2
 10
975.70000000000005
 20
1061.221
 11
975.70000000000005
 21
1091.7417
  0
CIRCLE
  8
_0-0_LAYER001
  6
CONTINUOUS
 62
    2
 10
975.70000000000005
 20
1091.7417
 40
1.6999999999999997
  0
LINE
  8
_0-0_LAYER001
  6
CONTINUOUS
 62
    2
 10
973.20000000000005
 20
1091.7417
 11
1000.7
 21
1091.7417
  0
LINE
  8
_0-0_LAYER001
  6
CONTINUOUS
 62
    2
 10
1098.3741
 20
1078.8072
 11
1063.3741
 21
1061.221
  0
LINE
  8
_0-0_LAYER001
  6
CONTINUOUS
 62
    2
 10
1063.3741
 20
1092.1560999999999
 11
1098.3741
 21
1061.221
  0
LINE
  8
_0-1_LAYER004
  6
CONTINUOUS
 62
    2
 10
1181.0640000000001
 20
1096.7825
 11
1181.0640000000001
 21
1089.2825
  0
LINE
  8
_0-1_LAYER004
  6
CONTINUOUS
 62
    2
 10
1181.0640000000001
 20
1089.2825
 11
1177.3140000000001
 21
1095.7777000000001
  0
LINE
  8
_0-1_LAYER004
  6
CONTINUOUS
 62
    2
 10
1181.0640000000001
 20
1089.2825
 11
1150.5423000000001
 21
1203.1913
  0
LINE
  8
_0-1_LAYER004
  6
CONTINUOUS
 62
    2
 10
1150.5423000000001
 20
1203.1913
 11
1102.5423000000001
 21
1203.1913
  0
LINE
  8
_0-0_LAYER001
  6
CONTINUOUS
 62
    2
 10
1063.3741
 20
1092.1560999999999
 11
1063.3741
 21
1061.221
  0
LINE
  8
_0-0_LAYER001
  6
CONTINUOUS
 62
    2
 10
1098.3741
 20
1078.8072
 11
1098.3741
 21
1061.221
  0
LINE
  8
_0-0_LAYER001
  6
CONTINUOUS
 62
    2
 10
1063.3741
 20
1092.1560999999999
 11
1098.3741
 21
1078.8072
  0
LINE
  8
_0-0_LAYER001
  6
DASHED1
 62
    2
 10
1076.4860000000001
 20
1117.8398
 11
1092.4860000000001
 21
1117.8398
  0
LINE
  8
_0-0_LAYER001
  6
DASHED1
 62
    2
 10
1092.4860000000001
 20
1117.8398
 11
1092.4860000000001
 21
1114.8398
  0
LINE
  8
_0-0_LAYER001
  6
DASHED1
 62
    2
 10
1076.4860000000001
 20
1117.8398
 11
1076.4860000000001
 21
1114.8398
  0
LINE
  8
_0-0_LAYER001
  6
DASHED1
 62
    2
 10
1076.4860000000001
 20
1114.8398
 11
1092.4860000000001
 21
1114.8398
  0
LINE
  8
_0-0_LAYER001
  6
DASHED1
 62
    2
 10
1087.4860000000001
 20
1059.9438
 11
1084.4358
 21
1045.4349
  0
LINE
  8
_0-0_LAYER001
  6
DASHED1
 62
    2
 10
1087.4860000000001
 20
1114.8398
 11
1087.4860000000001
 21
1059.9438
  0
LINE
  8
_0-0_LAYER001
  6
DASHED1
 62
    2
 10
1084.4358
 20
1045.4349
 11
1081.4860000000001
 21
1059.6923999999999
  0
LINE
  8
_0-0_LAYER001
  6
DASHED1
 62
    2
 10
1081.4860000000001
 20
1114.8398
 11
1081.4860000000001
 21
1059.6923999999999
  0
LINE
  8
_0-0_LAYER001
  6
CONTINUOUS
 62
    4
 10
1914.3393000000001
 20
1067.1576
 11
1905.8038000000001
 21
1081.6909000000001
  0
LINE
  8
_0-0_LAYER001
  6
CONTINUOUS
 62
    4
 10
1922.5070999999998
 20
1066.5073
 11
1930.8132999999998
 21
1076.5727999999999
  0
ARC
  8
_0-0_LAYER001
  6
CONTINUOUS
 62
    4
 10
1918.6507000000001
 20
1069.6896999999999
 40
5
 50
210.42578
 51
320.47001
  0
LINE
  8
_0-0_LAYER001
  6
CONTINUOUS
 62
    4
 10
1998.4526999999998
 20
1066.0373999999999
 11
1991.1273999999999
 21
1077.3434999999999
  0
LINE
  8
_0-0_LAYER001
  6
CONTINUOUS
 62
    4
 10
2006.9623000000001
 20
1066.2274
 11
2009.7999
 21
1071.0672999999999
  0
ARC
  8
_0-0_LAYER001
  6
CONTINUOUS
 62
    4
 10
2002.6489999999999
 20
1068.7562
 40
5
 50
212.93986000000001
 51
329.61716000000001
  0
LINE
  8
_0-0_LAYER001
  6
CONTINUOUS
 62
    4
 10
2001.5549000000001
 20
1098.6554000000001
 11
2009.7999
 21
1099.8661
  0
LINE
  8
_0-0_LAYER001
  6
CONTINUOUS
 62
    4
 10
1993.1466
 20
1097.539
 11
2001.5549000000001
 21
1098.6554000000001
  0
LINE
  8
_0-0_LAYER001
  6
CONTINUOUS
 62
    4
 10
1984.634
 20
1096.5655999999999
 11
1993.1466
 21
1097.539
  0
LINE
  8
_0-0_LAYER001
  6
CONTINUOUS
 62
    4
 10
1976.0749000000001
 20
1095.7817
 11
1984.634
 21
1096.5655999999999
  0
LINE
  8
_0-0_LAYER001
  6
CONTINUOUS
 62
    4
 10
1971.0133000000001
 20
1095.4236000000001
 11
1976.0749000000001
 21
1095.7817
  0
LINE
  8
_0-0_LAYER001
  6
CONTINUOUS
 62
    4
 10
1968.2107000000001
 20
1095.2619999999999
 11
1971.0133000000001
 21
1095.4236000000001
  0
LINE
  8
_0-0_LAYER001
  6
CONTINUOUS
 62
    4
 10
1963.4897000000001
 20
1095.0581
 11
1968.2107000000001
 21
1095.2619999999999
  0
LINE
  8
_0-0_LAYER001
  6
CONTINUOUS
 62
    4
 10
1958.6605
 20
1094.9526000000001
 11
1963.4897000000001
 21
1095.0581
  0
LINE
  8
_0-0_LAYER001
  6
CONTINUOUS
 62
    4
 10
1953.7588999999998
 20
1094.9680000000001
 11
1958.6605
 21
1094.9526000000001
  0
LINE
  8
_0-0_LAYER001
  6
CONTINUOUS
 62
    4
 10
1948.7878000000001
 20
1095.1259
 11
1953.7588999999998
 21
1094.9680000000001
  0
LINE
  8
_0-0_LAYER001
  6
CONTINUOUS
 62
    4
 10
1943.8303999999998
 20
1095.4436000000001
 11
1948.7878000000001
 21
1095.1259
  0
LINE
  8
_0-0_LAYER001
  6
CONTINUOUS
 62
    4
 10
1940.7788
 20
1095.7251000000001
 11
1943.8303999999998
 21
1095.4436000000001
  0
LINE
  8
_0-0_LAYER001
  6
CONTINUOUS
 62
    4
 10
1936.8499000000002
 20
1096.1873000000001
 11
1940.7788
 21
1095.7251000000001
  0
LINE
  8
_0-0_LAYER001
  6
CONTINUOUS
 62
    4
 10
1930.3359999999998
 20
1097.2099000000001
 11
1936.8499000000002
 21
1096.1873000000001
  0
LINE
  8
_0-0_LAYER001
  6
CONTINUOUS
 62
    4
 10
1923.7894000000001
 20
1098.5619999999999
 11
1930.3359999999998
 21
1097.2099000000001
  0
LINE
  8
_0-0_LAYER001
  6
CONTINUOUS
 62
    4
 10
1917.3263999999999
 20
1100.2179000000001
 11
1923.7894000000001
 21
1098.5619999999999
  0
LINE
  8
_0-0_LAYER001
  6
CONTINUOUS
 62
    4
 10
1910.9605000000001
 20
1102.1686
 11
1917.3263999999999
 21
1100.2179000000001
  0
LINE
  8
_0-0_LAYER001
  6
CONTINUOUS
 62
    4
 10
1904.7957000000001
 20
1104.3734999999999
 11
1910.9605000000001
 21
1102.1686
  0
LINE
  8
_0-0_LAYER001
  6
CONTINUOUS
 62
    4
 10
1901.1091000000001
 20
1105.8453
 11
1904.7957000000001
 21
1104.3734999999999
  0
LINE
  8
_0-0_LAYER001
  6
CONTINUOUS
 62
    4
 10
1896.7447999999999
 20
1107.7378000000001
 11
1901.1091000000001
 21
1105.8453
  0
LINE
  8
_0-0_LAYER001
  6
CONTINUOUS
 62
    4
 10
1889.6758
 20
1111.1528000000001
 11
1896.7447999999999
 21
1107.7378000000001
  0
LINE
  8
_0-0_LAYER001
  6
CONTINUOUS
 62
    4
 10
1882.7829000000002
 20
1114.8824
 11
1889.6758
 21
1111.1528000000001
  0
LINE
  8
_0-0_LAYER001
  6
CONTINUOUS
 62
    4
 10
1876.1459
 20
1118.8161
 11
1882.7829000000002
 21
1114.8824
  0
LINE
  8
_0-0_LAYER001
  6
CONTINUOUS
 62
    4
 10
1869.7365
 20
1122.8985
 11
1876.1459
 21
1118.8161
  0
LINE
  8
_0-0_LAYER001
  6
CONTINUOUS
 62
    4
 10
1863.5522999999998
 20
1127.0606
 11
1869.7365
 21
1122.8985
  0
LINE
  8
_0-0_LAYER001
  6
CONTINUOUS
 62
    4
 10
1860.0100000000002
 20
1129.5244
 11
1863.5522999999998
 21
1127.0606
  0
LINE
  8
_0-0_LAYER001
  6
CONTINUOUS
 62
    4
 10
1857.7779999999998
 20
1131.0978
 11
1860.0100000000002
 21
1129.5244
  0
LINE
  8
_0-0_LAYER001
  6
CONTINUOUS
 62
    4
 10
1854.1543999999999
 20
1133.6369999999999
 11
1857.7779999999998
 21
1131.0978
  0
LINE
  8
_0-0_LAYER001
  6
CONTINUOUS
 62
    4
 10
1850.7847999999999
 20
1135.9024999999999
 11
1854.1543999999999
 21
1133.6369999999999
  0
LINE
  8
_0-0_LAYER001
  6
CONTINUOUS
 62
    4
 10
1847.6698000000001
 20
1137.8296
 11
1850.7847999999999
 21
1135.9024999999999
  0
LINE
  8
_0-0_LAYER001
  6
CONTINUOUS
 62
    4
 10
1844.8026
 20
1139.3852999999999
 11
1847.6698000000001
 21
1137.8296
  0
LINE
  8
_0-0_LAYER001
  6
CONTINUOUS
 62
    4
 10
1841.9713999999999
 20
1140.6538
 11
1844.8026
 21
1139.3852999999999
  0
LINE
  8
_0-0_LAYER001
  6
CONTINUOUS
 62
    4
 10
1840.5082000000002
 20
1141.1858999999999
 11
1841.9713999999999
 21
1140.6538
  0
LINE
  8
_0-0_LAYER001
  6
CONTINUOUS
 62
    4
 10
1840.3271
 20
1141.2438999999999
 11
1840.5082000000002
 21
1141.1858999999999
  0
LINE
  8
_0-0_LAYER001
  6
CONTINUOUS
 62
    4
 10
1839.5387999999998
 20
1141.4718
 11
1840.3271
 21
1141.2438999999999
  0
LINE
  8
_0-0_LAYER001
  6
CONTINUOUS
 62
    4
 10
1838.8816999999999
 20
1141.6344999999999
 11
1839.5387999999998
 21
1141.4718
  0
LINE
  8
_0-0_LAYER001
  6
CONTINUOUS
 62
    4
 10
1838.2999
 20
1141.7525000000001
 11
1838.8816999999999
 21
1141.6344999999999
  0
LINE
  8
_0-0_LAYER001
  6
CONTINUOUS
 62
    4
 10
1838.2597999999998
 20
1141.7587000000001
 11
1838.2999
 21
1141.7525000000001
  0
LINE
  8
_0-0_LAYER001
  6
CONTINUOUS
 62
    4
 10
2005.8798999999999
 20
1080.6922
 11
2009.7999
 21
1081.3056999999999
  0
LINE
  8
_0-0_LAYER001
  6
CONTINUOUS
 62
    4
 10
1997.5954000000002
 20
1079.4757999999999
 11
2005.8798999999999
 21
1080.6922
  0
LINE
  8
_0-0_LAYER001
  6
CONTINUOUS
 62
    4
 10
1989.2188000000001
 20
1078.3635999999999
 11
1997.5954000000002
 21
1079.4757999999999
  0
LINE
  8
_0-0_LAYER001
  6
CONTINUOUS
 62
    4
 10
1980.7465999999999
 20
1077.3949
 11
1989.2188000000001
 21
1078.3635999999999
  0
LINE
  8
_0-0_LAYER001
  6
CONTINUOUS
 62
    4
 10
1972.2305000000001
 20
1076.6148000000001
 11
1980.7465999999999
 21
1077.3949
  0
LINE
  8
_0-0_LAYER001
  6
CONTINUOUS
 62
    4
 10
1967.2026000000001
 20
1076.2592
 11
1972.2305000000001
 21
1076.6148000000001
  0
LINE
  8
_0-0_LAYER001
  6
CONTINUOUS
 62
    4
 10
1964.4274
 20
1076.0992000000001
 11
1967.2026000000001
 21
1076.2592
  0
LINE
  8
_0-0_LAYER001
  6
CONTINUOUS
 62
    4
 10
1959.7420999999999
 20
1075.8967
 11
1964.4274
 21
1076.0992000000001
  0
LINE
  8
_0-0_LAYER001
  6
CONTINUOUS
 62
    4
 10
1954.9591999999998
 20
1075.7923000000001
 11
1959.7420999999999
 21
1075.8967
  0
LINE
  8
_0-0_LAYER001
  6
CONTINUOUS
 62
    4
 10
1950.1111999999998
 20
1075.8074999999999
 11
1954.9591999999998
 21
1075.7923000000001
  0
LINE
  8
_0-0_LAYER001
  6
CONTINUOUS
 62
    4
 10
1945.201
 20
1075.9635000000001
 11
1950.1111999999998
 21
1075.8074999999999
  0
LINE
  8
_0-0_LAYER001
  6
CONTINUOUS
 62
    4
 10
1940.3036999999999
 20
1076.2773
 11
1945.201
 21
1075.9635000000001
  0
LINE
  8
_0-0_LAYER001
  6
CONTINUOUS
 62
    4
 10
1937.3049000000001
 20
1076.5539000000001
 11
1940.3036999999999
 21
1076.2773
  0
LINE
  8
_0-0_LAYER001
  6
CONTINUOUS
 62
    4
 10
1933.4394000000002
 20
1077.0087000000001
 11
1937.3049000000001
 21
1076.5539000000001
  0
LINE
  8
_0-0_LAYER001
  6
CONTINUOUS
 62
    4
 10
1927.011
 20
1078.0178000000001
 11
1933.4394000000002
 21
1077.0087000000001
  0
LINE
  8
_0-0_LAYER001
  6
CONTINUOUS
 62
    4
 10
1920.5574999999999
 20
1079.3507
 11
1927.011
 21
1078.0178000000001
  0
LINE
  8
_0-0_LAYER001
  6
CONTINUOUS
 62
    4
 10
1914.1853000000001
 20
1080.9833000000001
 11
1920.5574999999999
 21
1079.3507
  0
LINE
  8
_0-0_LAYER001
  6
CONTINUOUS
 62
    4
 10
1907.9079999999999
 20
1082.9069
 11
1914.1853000000001
 21
1080.9833000000001
  0
LINE
  8
_0-0_LAYER001
  6
CONTINUOUS
 62
    4
 10
1901.8209000000002
 20
1085.0841
 11
1907.9079999999999
 21
1082.9069
  0
LINE
  8
_0-0_LAYER001
  6
CONTINUOUS
 62
    4
 10
1898.1952999999999
 20
1086.5315000000001
 11
1901.8209000000002
 21
1085.0841
  0
LINE
  8
_0-0_LAYER001
  6
CONTINUOUS
 62
    4
 10
1893.8953999999999
 20
1088.3960999999999
 11
1898.1952999999999
 21
1086.5315000000001
  0
LINE
  8
_0-0_LAYER001
  6
CONTINUOUS
 62
    4
 10
1886.9045000000001
 20
1091.7733000000001
 11
1893.8953999999999
 21
1088.3960999999999
  0
LINE
  8
_0-0_LAYER001
  6
CONTINUOUS
 62
    4
 10
1880.0864000000001
 20
1095.4623999999999
 11
1886.9045000000001
 21
1091.7733000000001
  0
LINE
  8
_0-0_LAYER001
  6
CONTINUOUS
 62
    4
 10
1873.5106000000001
 20
1099.3598
 11
1880.0864000000001
 21
1095.4623999999999
  0
LINE
  8
_0-0_LAYER001
  6
CONTINUOUS
 62
    4
 10
1867.1496999999999
 20
1103.4114
 11
1873.5106000000001
 21
1099.3598
  0
LINE
  8
_0-0_LAYER001
  6
CONTINUOUS
 62
    4
 10
1860.9991
 20
1107.5509
 11
1867.1496999999999
 21
1103.4114
  0
LINE
  8
_0-0_LAYER001
  6
CONTINUOUS
 62
    4
 10
1857.4746
 20
1110.0023000000001
 11
1860.9991
 21
1107.5509
  0
LINE
  8
_0-0_LAYER001
  6
CONTINUOUS
 62
    4
 10
1855.2455
 20
1111.5736999999999
 11
1857.4746
 21
1110.0023000000001
  0
LINE
  8
_0-0_LAYER001
  6
CONTINUOUS
 62
    4
 10
1851.6037999999999
 20
1114.1256000000001
 11
1855.2455
 21
1111.5736999999999
  0
LINE
  8
_0-0_LAYER001
  6
CONTINUOUS
 62
    4
 10
1848.1866
 20
1116.423
 11
1851.6037999999999
 21
1114.1256000000001
  0
LINE
  8
_0-0_LAYER001
  6
CONTINUOUS
 62
    4
 10
1844.991
 20
1118.4000000000001
 11
1848.1866
 21
1116.423
  0
LINE
  8
_0-0_LAYER001
  6
CONTINUOUS
 62
    4
 10
1842.0070000000001
 20
1120.0191
 11
1844.991
 21
1118.4000000000001
  0
LINE
  8
_0-0_LAYER001
  6
CONTINUOUS
 62
    4
 10
1839.0405000000001
 20
1121.3481999999999
 11
1842.0070000000001
 21
1120.0191
  0
LINE
  8
_0-0_LAYER001
  6
CONTINUOUS
 62
    4
 10
1838.2905000000001
 20
1121.6208999999999
 11
1839.0405000000001
 21
1121.3481999999999
  0
LINE
  8
_0-0_LAYER001
  6
CONTINUOUS
 62
    4
 10
1838.6235999999999
 20
1141.6641
 11
1838.4476
 21
1121.4906000000001
  0
LINE
  8
_0-0_LAYER001
  6
CONTINUOUS
 62
    4
 10
1791.5273999999999
 20
1151.0542
 11
1792.3413999999998
 21
1151.3608999999999
  0
LINE
  8
_0-0_LAYER001
  6
CONTINUOUS
 62
    4
 10
1792.3413999999998
 20
1151.3608999999999
 11
1795.8906000000002
 21
1152.7004999999999
  0
LINE
  8
_0-0_LAYER001
  6
CONTINUOUS
 62
    4
 10
1795.8906000000002
 20
1152.7004999999999
 11
1799.4472000000001
 21
1154.0494000000001
  0
LINE
  8
_0-0_LAYER001
  6
CONTINUOUS
 62
    4
 10
1799.4472000000001
 20
1154.0494000000001
 11
1803.0158999999999
 21
1155.4133999999999
  0
LINE
  8
_0-0_LAYER001
  6
CONTINUOUS
 62
    4
 10
1803.0158999999999
 20
1155.4133999999999
 11
1806.6012000000001
 21
1156.7985000000001
  0
LINE
  8
_0-0_LAYER001
  6
CONTINUOUS
 62
    4
 10
1806.6012000000001
 20
1156.7985000000001
 11
1810.2078999999999
 21
1158.2104999999999
  0
LINE
  8
_0-0_LAYER001
  6
CONTINUOUS
 62
    4
 10
1810.2078999999999
 20
1158.2104999999999
 11
1812.3114999999998
 21
1159.0440000000001
  0
LINE
  8
_0-0_LAYER001
  6
CONTINUOUS
 62
    4
 10
1812.3114999999998
 20
1159.0440000000001
 11
1814.3908000000001
 21
1159.8729000000001
  0
LINE
  8
_0-0_LAYER001
  6
CONTINUOUS
 62
    4
 10
1814.3908000000001
 20
1159.8729000000001
 11
1817.9974000000002
 21
1161.2744
  0
LINE
  8
_0-0_LAYER001
  6
CONTINUOUS
 62
    4
 10
1817.9974000000002
 20
1161.2744
 11
1821.6300999999999
 21
1162.5571
  0
LINE
  8
_0-0_LAYER001
  6
CONTINUOUS
 62
    4
 10
1821.6300999999999
 20
1162.5571
 11
1825.288
 21
1163.6237000000001
  0
LINE
  8
_0-0_LAYER001
  6
CONTINUOUS
 62
    4
 10
1825.288
 20
1163.6237000000001
 11
1828.9701
 21
1164.377
  0
LINE
  8
_0-0_LAYER001
  6
CONTINUOUS
 62
    4
 10
1828.9701
 20
1164.377
 11
1832.6754000000001
 21
1164.7194999999999
  0
LINE
  8
_0-0_LAYER001
  6
CONTINUOUS
 62
    4
 10
1832.6754000000001
 20
1164.7194999999999
 11
1834.8346999999999
 21
1164.6916000000001
  0
LINE
  8
_0-0_LAYER001
  6
CONTINUOUS
 62
    4
 10
1834.8346999999999
 20
1164.6916000000001
 11
1835.6839
 21
1164.6302000000001
  0
LINE
  8
_0-0_LAYER001
  6
CONTINUOUS
 62
    4
 10
1835.6839
 20
1164.6302000000001
 11
1837.1482000000001
 21
1164.4595999999999
  0
LINE
  8
_0-0_LAYER001
  6
CONTINUOUS
 62
    4
 10
1837.1482000000001
 20
1164.4595999999999
 11
1838.6093000000001
 21
1164.2129
  0
LINE
  8
_0-0_LAYER001
  6
CONTINUOUS
 62
    4
 10
1838.6093000000001
 20
1164.2129
 11
1840.0630000000001
 21
1163.8969
  0
LINE
  8
_0-0_LAYER001
  6
CONTINUOUS
 62
    4
 10
1840.0630000000001
 20
1163.8969
 11
1841.5050999999999
 21
1163.5183999999999
  0
LINE
  8
_0-0_LAYER001
  6
CONTINUOUS
 62
    4
 10
1841.5050999999999
 20
1163.5183999999999
 11
1842.9315000000001
 21
1163.0842
  0
LINE
  8
_0-0_LAYER001
  6
CONTINUOUS
 62
    4
 10
1842.9315000000001
 20
1163.0842
 11
1843.75
 21
1162.8096
  0
LINE
  8
_0-0_LAYER001
  6
CONTINUOUS
 62
    4
 10
1843.75
 20
1162.8096
 11
1846.2483000000002
 21
1161.8614
  0
LINE
  8
_0-0_LAYER001
  6
CONTINUOUS
 62
    4
 10
1846.2483000000002
 20
1161.8614
 11
1850.4072000000001
 21
1159.9277999999999
  0
LINE
  8
_0-0_LAYER001
  6
CONTINUOUS
 62
    4
 10
1850.4072000000001
 20
1159.9277999999999
 11
1854.4110000000001
 21
1157.6824999999999
  0
LINE
  8
_0-0_LAYER001
  6
CONTINUOUS
 62
    4
 10
1854.4110000000001
 20
1157.6824999999999
 11
1858.2979
 21
1155.2021999999999
  0
LINE
  8
_0-0_LAYER001
  6
CONTINUOUS
 62
    4
 10
1858.2979
 20
1155.2021999999999
 11
1862.1059
 21
1152.5640000000001
  0
LINE
  8
_0-0_LAYER001
  6
CONTINUOUS
 62
    4
 10
1862.1059
 20
1152.5640000000001
 11
1865.8730999999998
 21
1149.845
  0
LINE
  8
_0-0_LAYER001
  6
CONTINUOUS
 62
    4
 10
1865.8730999999998
 20
1149.845
 11
1868.0545000000002
 21
1148.2611999999999
  0
LINE
  8
_0-0_LAYER001
  6
CONTINUOUS
 62
    4
 10
1868.0545000000002
 20
1148.2611999999999
 11
1871.386
 21
1145.8742999999999
  0
LINE
  8
_0-0_LAYER001
  6
CONTINUOUS
 62
    4
 10
1871.386
 20
1145.8742999999999
 11
1877.1783
 21
1141.8574000000001
  0
LINE
  8
_0-0_LAYER001
  6
CONTINUOUS
 62
    4
 10
1877.1783
 20
1141.8574000000001
 11
1883.0504000000001
 21
1138.0008
  0
LINE
  8
_0-0_LAYER001
  6
CONTINUOUS
 62
    4
 10
1883.0504000000001
 20
1138.0008
 11
1889.0246000000002
 21
1134.3462999999999
  0
LINE
  8
_0-0_LAYER001
  6
CONTINUOUS
 62
    4
 10
1889.0246000000002
 20
1134.3462999999999
 11
1895.1228000000001
 21
1130.9358
  0
LINE
  8
_0-0_LAYER001
  6
CONTINUOUS
 62
    4
 10
1895.1228000000001
 20
1130.9358
 11
1901.3670999999999
 21
1127.8109999999999
  0
LINE
  8
_0-0_LAYER001
  6
CONTINUOUS
 62
    4
 10
1901.3670999999999
 20
1127.8109999999999
 11
1905.0644000000002
 21
1126.146
  0
LINE
  8
_0-0_LAYER001
  6
CONTINUOUS
 62
    4
 10
1905.0644000000002
 20
1126.146
 11
1908.1235999999999
 21
1124.8749
  0
LINE
  8
_0-0_LAYER001
  6
CONTINUOUS
 62
    4
 10
1908.1235999999999
 20
1124.8749
 11
1913.4841000000001
 21
1122.8726999999999
  0
LINE
  8
_0-0_LAYER001
  6
CONTINUOUS
 62
    4
 10
1913.4841000000001
 20
1122.8726999999999
 11
1918.9398000000001
 21
1121.1171999999999
  0
LINE
  8
_0-0_LAYER001
  6
CONTINUOUS
 62
    4
 10
1918.9398000000001
 20
1121.1171999999999
 11
1924.4748
 21
1119.6165000000001
  0
LINE
  8
_0-0_LAYER001
  6
CONTINUOUS
 62
    4
 10
1924.4748
 20
1119.6165000000001
 11
1930.0731000000001
 21
1118.3784000000001
  0
LINE
  8
_0-0_LAYER001
  6
CONTINUOUS
 62
    4
 10
1930.0731000000001
 20
1118.3784000000001
 11
1935.7188000000001
 21
1117.4112
  0
LINE
  8
_0-0_LAYER001
  6
CONTINUOUS
 62
    4
 10
1935.7188000000001
 20
1117.4112
 11
1939.0088000000001
 21
1116.9775
  0
LINE
  8
_0-0_LAYER001
  6
CONTINUOUS
 62
    4
 10
1939.0088000000001
 20
1116.9775
 11
1941.5281
 21
1116.7095999999999
  0
LINE
  8
_0-0_LAYER001
  6
CONTINUOUS
 62
    4
 10
1941.5281
 20
1116.7095999999999
 11
1945.8802000000001
 21
1116.3696
  0
LINE
  8
_0-0_LAYER001
  6
CONTINUOUS
 62
    4
 10
1945.8802000000001
 20
1116.3696
 11
1950.2404000000001
 21
1116.1702
  0
LINE
  8
_0-0_LAYER001
  6
CONTINUOUS
 62
    4
 10
1950.2404000000001
 20
1116.1702
 11
1954.6055999999999
 21
1116.0954999999999
  0
LINE
  8
_0-0_LAYER001
  6
CONTINUOUS
 62
    4
 10
1954.6055999999999
 20
1116.0954999999999
 11
1958.9726999999998
 21
1116.1298999999999
  0
LINE
  8
_0-0_LAYER001
  6
CONTINUOUS
 62
    4
 10
1958.9726999999998
 20
1116.1298999999999
 11
1963.3386
 21
1116.2574999999999
  0
LINE
  8
_0-0_LAYER001
  6
CONTINUOUS
 62
    4
 10
1963.3386
 20
1116.2574999999999
 11
1965.8690999999999
 21
1116.3679999999999
  0
LINE
  8
_0-0_LAYER001
  6
CONTINUOUS
 62
    4
 10
1965.8690999999999
 20
1116.3679999999999
 11
1970.5981999999999
 21
1116.6360999999999
  0
LINE
  8
_0-0_LAYER001
  6
CONTINUOUS
 62
    4
 10
1970.5981999999999
 20
1116.6360999999999
 11
1978.7363
 21
1117.2671
  0
LINE
  8
_0-0_LAYER001
  6
CONTINUOUS
 62
    4
 10
1978.7363
 20
1117.2671
 11
1986.8571000000002
 21
1118.0809999999999
  0
LINE
  8
_0-0_LAYER001
  6
CONTINUOUS
 62
    4
 10
1986.8571000000002
 20
1118.0809999999999
 11
1994.9629
 21
1119.0423000000001
  0
LINE
  8
_0-0_LAYER001
  6
CONTINUOUS
 62
    4
 10
1994.9629
 20
1119.0423000000001
 11
2003.0563999999999
 21
1120.1155000000001
  0
LINE
  8
_0-0_LAYER001
  6
CONTINUOUS
 62
    4
 10
2003.0563999999999
 20
1120.1155000000001
 11
2009.7999
 21
1121.0744999999999
  0
LINE
  8
_0-0_LAYER001
  6
CONTINUOUS
 62
    4
 10
1796.6307000000002
 20
1133.7418
 11
1798.6925999999999
 21
1134.5186000000001
  0
LINE
  8
_0-0_LAYER001
  6
CONTINUOUS
 62
    4
 10
1798.6925999999999
 20
1134.5186000000001
 11
1802.2601
 21
1135.8651
  0
LINE
  8
_0-0_LAYER001
  6
CONTINUOUS
 62
    4
 10
1802.2601
 20
1135.8651
 11
1805.8519999999999
 21
1137.2274
  0
LINE
  8
_0-0_LAYER001
  6
CONTINUOUS
 62
    4
 10
1805.8519999999999
 20
1137.2274
 11
1809.4724000000001
 21
1138.6112000000001
  0
LINE
  8
_0-0_LAYER001
  6
CONTINUOUS
 62
    4
 10
1809.4724000000001
 20
1138.6112000000001
 11
1813.1253999999999
 21
1140.0224000000001
  0
LINE
  8
_0-0_LAYER001
  6
CONTINUOUS
 62
    4
 10
1813.1253999999999
 20
1140.0224000000001
 11
1816.8045999999999
 21
1141.4627
  0
LINE
  8
_0-0_LAYER001
  6
CONTINUOUS
 62
    4
 10
1816.8045999999999
 20
1141.4627
 11
1818.9598000000001
 21
1142.3168000000001
  0
LINE
  8
_0-0_LAYER001
  6
CONTINUOUS
 62
    4
 10
1818.9598000000001
 20
1142.3168000000001
 11
1820.9834000000001
 21
1143.1234999999999
  0
LINE
  8
_0-0_LAYER001
  6
CONTINUOUS
 62
    4
 10
1820.9834000000001
 20
1143.1234999999999
 11
1824.2552000000001
 21
1144.3949
  0
LINE
  8
_0-0_LAYER001
  6
CONTINUOUS
 62
    4
 10
1824.2552000000001
 20
1144.3949
 11
1827.1504
 21
1145.4170999999999
  0
LINE
  8
_0-0_LAYER001
  6
CONTINUOUS
 62
    4
 10
1827.1504
 20
1145.4170999999999
 11
1829.6185
 21
1146.1368
  0
LINE
  8
_0-0_LAYER001
  6
CONTINUOUS
 62
    4
 10
1829.6185
 20
1146.1368
 11
1831.6102000000001
 21
1146.5443
  0
LINE
  8
_0-0_LAYER001
  6
CONTINUOUS
 62
    4
 10
1831.6102000000001
 20
1146.5443
 11
1833.3895000000002
 21
1146.7086999999999
  0
LINE
  8
_0-0_LAYER001
  6
CONTINUOUS
 62
    4
 10
1833.3895000000002
 20
1146.7086999999999
 11
1834.0691000000002
 21
1146.7
  0
LINE
  8
_0-0_LAYER001
  6
CONTINUOUS
 62
    4
 10
1834.0691000000002
 20
1146.7
 11
1833.9929999999999
 21
1146.7055
  0
LINE
  8
_0-0_LAYER001
  6
CONTINUOUS
 62
    4
 10
1833.9929999999999
 20
1146.7055
 11
1834.6066000000001
 21
1146.634
  0
LINE
  8
_0-0_LAYER001
  6
CONTINUOUS
 62
    4
 10
1834.6066000000001
 20
1146.634
 11
1835.1970000000001
 21
1146.5343
  0
LINE
  8
_0-0_LAYER001
  6
CONTINUOUS
 62
    4
 10
1835.1970000000001
 20
1146.5343
 11
1835.8645000000001
 21
1146.3892000000001
  0
LINE
  8
_0-0_LAYER001
  6
CONTINUOUS
 62
    4
 10
1835.8645000000001
 20
1146.3892000000001
 11
1836.598
 21
1146.1967
  0
LINE
  8
_0-0_LAYER001
  6
CONTINUOUS
 62
    4
 10
1836.598
 20
1146.1967
 11
1837.4472000000001
 21
1145.9382000000001
  0
LINE
  8
_0-0_LAYER001
  6
CONTINUOUS
 62
    4
 10
1837.4472000000001
 20
1145.9382000000001
 11
1837.6913
 21
1145.8562999999999
  0
LINE
  8
_0-0_LAYER001
  6
CONTINUOUS
 62
    4
 10
1837.6913
 20
1145.8562999999999
 11
1839.2512000000002
 21
1145.2642000000001
  0
LINE
  8
_0-0_LAYER001
  6
CONTINUOUS
 62
    4
 10
1839.2512000000002
 20
1145.2642000000001
 11
1842.1988999999999
 21
1143.8938000000001
  0
LINE
  8
_0-0_LAYER001
  6
CONTINUOUS
 62
    4
 10
1842.1988999999999
 20
1143.8938000000001
 11
1845.1599000000001
 21
1142.2331999999999
  0
LINE
  8
_0-0_LAYER001
  6
CONTINUOUS
 62
    4
 10
1845.1599000000001
 20
1142.2331999999999
 11
1848.3276000000001
 21
1140.2118
  0
LINE
  8
_0-0_LAYER001
  6
CONTINUOUS
 62
    4
 10
1848.3276000000001
 20
1140.2118
 11
1851.7123000000001
 21
1137.8669
  0
LINE
  8
_0-0_LAYER001
  6
CONTINUOUS
 62
    4
 10
1851.7123000000001
 20
1137.8669
 11
1855.3181
 21
1135.2644
  0
LINE
  8
_0-0_LAYER001
  6
CONTINUOUS
 62
    4
 10
1855.3181
 20
1135.2644
 11
1857.5250000000001
 21
1133.662
  0
LINE
  8
_0-0_LAYER001
  6
CONTINUOUS
 62
    4
 10
1857.5250000000001
 20
1133.662
 11
1861.0149999999999
 21
1131.1617000000001
  0
LINE
  8
_0-0_LAYER001
  6
CONTINUOUS
 62
    4
 10
1861.0149999999999
 20
1131.1617000000001
 11
1867.1071999999999
 21
1126.9367999999999
  0
LINE
  8
_0-0_LAYER001
  6
CONTINUOUS
 62
    4
 10
1867.1071999999999
 20
1126.9367999999999
 11
1873.4108999999999
 21
1122.7967000000001
  0
LINE
  8
_0-0_LAYER001
  6
CONTINUOUS
 62
    4
 10
1873.4108999999999
 20
1122.7967000000001
 11
1879.9315999999999
 21
1118.8079
  0
LINE
  8
_0-0_LAYER001
  6
CONTINUOUS
 62
    4
 10
1879.9315999999999
 20
1118.8079
 11
1886.6976
 21
1115.0238999999999
  0
LINE
  8
_0-0_LAYER001
  6
CONTINUOUS
 62
    4
 10
1886.6976
 20
1115.0238999999999
 11
1893.6406000000002
 21
1111.5494000000001
  0
LINE
  8
_0-0_LAYER001
  6
CONTINUOUS
 62
    4
 10
1893.6406000000002
 20
1111.5494000000001
 11
1897.9140000000002
 21
1109.625
  0
LINE
  8
_0-0_LAYER001
  6
CONTINUOUS
 62
    4
 10
1897.9140000000002
 20
1109.625
 11
1901.5191
 21
1108.1270999999999
  0
LINE
  8
_0-0_LAYER001
  6
CONTINUOUS
 62
    4
 10
1901.5191
 20
1108.1270999999999
 11
1907.5752000000002
 21
1105.8651
  0
LINE
  8
_0-0_LAYER001
  6
CONTINUOUS
 62
    4
 10
1907.5752000000002
 20
1105.8651
 11
1913.8251
 21
1103.8541
  0
LINE
  8
_0-0_LAYER001
  6
CONTINUOUS
 62
    4
 10
1913.8251
 20
1103.8541
 11
1920.1738
 21
1102.1327000000001
  0
LINE
  8
_0-0_LAYER001
  6
CONTINUOUS
 62
    4
 10
1920.1738
 20
1102.1327000000001
 11
1926.6080999999999
 21
1100.7098000000001
  0
LINE
  8
_0-0_LAYER001
  6
CONTINUOUS
 62
    4
 10
1926.6080999999999
 20
1100.7098000000001
 11
1933.0218
 21
1099.6110000000001
  0
LINE
  8
_0-0_LAYER001
  6
CONTINUOUS
 62
    4
 10
1933.0218
 20
1099.6110000000001
 11
1936.8806
 21
1099.1023
  0
LINE
  8
_0-0_LAYER001
  6
CONTINUOUS
 62
    4
 10
1936.8806
 20
1099.1023
 11
1939.8751999999999
 21
1098.7838999999999
  0
LINE
  8
_0-0_LAYER001
  6
CONTINUOUS
 62
    4
 10
1939.8751999999999
 20
1098.7838999999999
 11
1944.7676000000001
 21
1098.4016999999999
  0
LINE
  8
_0-0_LAYER001
  6
CONTINUOUS
 62
    4
 10
1944.7676000000001
 20
1098.4016999999999
 11
1949.6752000000001
 21
1098.1772000000001
  0
LINE
  8
_0-0_LAYER001
  6
CONTINUOUS
 62
    4
 10
1949.6752000000001
 20
1098.1772000000001
 11
1954.5225
 21
1098.0943
  0
LINE
  8
_0-0_LAYER001
  6
CONTINUOUS
 62
    4
 10
1954.5225
 20
1098.0943
 11
1959.3063999999999
 21
1098.1320000000001
  0
LINE
  8
_0-0_LAYER001
  6
CONTINUOUS
 62
    4
 10
1959.3063999999999
 20
1098.1320000000001
 11
1963.9940999999999
 21
1098.2689
  0
LINE
  8
_0-0_LAYER001
  6
CONTINUOUS
 62
    4
 10
1963.9940999999999
 20
1098.2689
 11
1966.7712999999999
 21
1098.3902
  0
LINE
  8
_0-0_LAYER001
  6
CONTINUOUS
 62
    4
 10
1966.7712999999999
 20
1098.3902
 11
1971.8036000000002
 21
1098.6756
  0
LINE
  8
_0-0_LAYER001
  6
CONTINUOUS
 62
    4
 10
1971.8036000000002
 20
1098.6756
 11
1980.3296999999998
 21
1099.3367000000001
  0
LINE
  8
_0-0_LAYER001
  6
CONTINUOUS
 62
    4
 10
1980.3296999999998
 20
1099.3367000000001
 11
1988.8146000000002
 21
1100.1869999999999
  0
LINE
  8
_0-0_LAYER001
  6
CONTINUOUS
 62
    4
 10
1988.8146000000002
 20
1100.1869999999999
 11
1997.2058999999999
 21
1101.1821
  0
LINE
  8
_0-0_LAYER001
  6
CONTINUOUS
 62
    4
 10
1997.2058999999999
 20
1101.1821
 11
2005.5066000000002
 21
1102.2828
  0
LINE
  8
_0-0_LAYER001
  6
CONTINUOUS
 62
    4
 10
2005.5066000000002
 20
1102.2828
 11
2009.7999
 21
1102.8933999999999
  0
LINE
  8
_0-0_LAYER001
  6
CONTINUOUS
 62
    4
 10
1791.1017999999999
 20
1150.8919000000001
 11
1791.5277999999998
 21
1151.0550000000001
  0
ARC
  8
_0-0_LAYER001
  6
CONTINUOUS
 62
    4
 10
1792.1743999999999
 20
1148.0902000000001
 40
3
 50
110.94902000000002
 51
178.70000000000002
  0
LINE
  8
_0-0_LAYER001
  6
CONTINUOUS
 62
    4
 10
1789.0659000000001
 20
1132.3191999999999
 11
1789.0659000000001
 21
1148.0417
  0
LINE
  8
_0-0_LAYER001
  6
CONTINUOUS
 62
    4
 10
1790.4198999999999
 20
1131.3839
 11
1796.5947000000001
 21
1133.7211
  0
ARC
  8
_0-0_LAYER001
  6
CONTINUOUS
 62
    4
 10
1790.0659000000001
 20
1132.3191999999999
 40
1
 50
180
 51
290.73165999999998
  0
LINE
  8
_0-0_LAYER001
  6
CONTINUOUS
 62
    4
 10
1649.8463999999999
 20
1067.6875
 11
1641.3108999999999
 21
1082.2209
  0
LINE
  8
_0-0_LAYER001
  6
CONTINUOUS
 62
    4
 10
1658.0142999999998
 20
1067.0372
 11
1666.3204999999998
 21
1077.1026999999999
  0
ARC
  8
_0-0_LAYER001
  6
CONTINUOUS
 62
    4
 10
1654.1578
 20
1070.2195999999999
 40
5
 50
210.42578
 51
320.47001
  0
LINE
  8
_0-0_LAYER001
  6
CONTINUOUS
 62
    4
 10
1733.9598999999998
 20
1066.5673999999999
 11
1726.6345000000001
 21
1077.8733999999999
  0
LINE
  8
_0-0_LAYER001
  6
CONTINUOUS
 62
    4
 10
1742.4693000000002
 20
1066.7573
 11
1751.4078
 21
1082.0029999999999
  0
ARC
  8
_0-0_LAYER001
  6
CONTINUOUS
 62
    4
 10
1738.1559999999999
 20
1069.2861
 40
5
 50
212.93986000000001
 51
329.61716000000001
  0
LINE
  8
_0-0_LAYER001
  6
CONTINUOUS
 62
    4
 10
1781.7514000000001
 20
1106.3149000000001
 11
1784.1795000000002
 21
1106.7188000000001
  0
LINE
  8
_0-0_LAYER001
  6
CONTINUOUS
 62
    4
 10
1777.5623000000001
 20
1105.6187
 11
1781.7514000000001
 21
1106.3149000000001
  0
LINE
  8
_0-0_LAYER001
  6
CONTINUOUS
 62
    4
 10
1773.3685
 20
1104.9231
 11
1777.5623000000001
 21
1105.6187
  0
LINE
  8
_0-0_LAYER001
  6
CONTINUOUS
 62
    4
 10
1769.1696999999999
 20
1104.2291
 11
1773.3685
 21
1104.9231
  0
LINE
  8
_0-0_LAYER001
  6
CONTINUOUS
 62
    4
 10
1764.9657000000002
 20
1103.5376000000001
 11
1769.1696999999999
 21
1104.2291
  0
LINE
  8
_0-0_LAYER001
  6
CONTINUOUS
 62
    4
 10
1760.7588999999998
 20
1102.8499999999999
 11
1764.9657000000002
 21
1103.5376000000001
  0
LINE
  8
_0-0_LAYER001
  6
CONTINUOUS
 62
    4
 10
1758.3065999999999
 20
1102.4514999999999
 11
1760.7588999999998
 21
1102.8499999999999
  0
LINE
  8
_0-0_LAYER001
  6
CONTINUOUS
 62
    4
 10
1753.5738000000001
 20
1101.6890000000001
 11
1758.3065999999999
 21
1102.4514999999999
  0
LINE
  8
_0-0_LAYER001
  6
CONTINUOUS
 62
    4
 10
1745.3694
 20
1100.4050999999999
 11
1753.5738000000001
 21
1101.6890000000001
  0
LINE
  8
_0-0_LAYER001
  6
CONTINUOUS
 62
    4
 10
1737.0619000000002
 20
1099.1853000000001
 11
1745.3694
 21
1100.4050999999999
  0
LINE
  8
_0-0_LAYER001
  6
CONTINUOUS
 62
    4
 10
1728.6536999999998
 20
1098.0689
 11
1737.0619000000002
 21
1099.1853000000001
  0
LINE
  8
_0-0_LAYER001
  6
CONTINUOUS
 62
    4
 10
1720.1410999999998
 20
1097.0956000000001
 11
1728.6536999999998
 21
1098.0689
  0
LINE
  8
_0-0_LAYER001
  6
CONTINUOUS
 62
    4
 10
1711.5819999999999
 20
1096.3116
 11
1720.1410999999998
 21
1097.0956000000001
  0
LINE
  8
_0-0_LAYER001
  6
CONTINUOUS
 62
    4
 10
1706.5205000000001
 20
1095.9536000000001
 11
1711.5819999999999
 21
1096.3116
  0
LINE
  8
_0-0_LAYER001
  6
CONTINUOUS
 62
    4
 10
1703.7179000000001
 20
1095.7919999999999
 11
1706.5205000000001
 21
1095.9536000000001
  0
LINE
  8
_0-0_LAYER001
  6
CONTINUOUS
 62
    4
 10
1698.9967999999999
 20
1095.588
 11
1703.7179000000001
 21
1095.7919999999999
  0
LINE
  8
_0-0_LAYER001
  6
CONTINUOUS
 62
    4
 10
1694.1676000000002
 20
1095.4826
 11
1698.9967999999999
 21
1095.588
  0
LINE
  8
_0-0_LAYER001
  6
CONTINUOUS
 62
    4
 10
1689.2660000000001
 20
1095.4979000000001
 11
1694.1676000000002
 21
1095.4826
  0
LINE
  8
_0-0_LAYER001
  6
CONTINUOUS
 62
    4
 10
1684.2948999999999
 20
1095.6558
 11
1689.2660000000001
 21
1095.4979000000001
  0
LINE
  8
_0-0_LAYER001
  6
CONTINUOUS
 62
    4
 10
1679.3375999999998
 20
1095.9735000000001
 11
1684.2948999999999
 21
1095.6558
  0
LINE
  8
_0-0_LAYER001
  6
CONTINUOUS
 62
    4
 10
1676.2858999999999
 20
1096.2550000000001
 11
1679.3375999999998
 21
1095.9735000000001
  0
LINE
  8
_0-0_LAYER001
  6
CONTINUOUS
 62
    4
 10
1672.3571000000002
 20
1096.7172
 11
1676.2858999999999
 21
1096.2550000000001
  0
LINE
  8
_0-0_LAYER001
  6
CONTINUOUS
 62
    4
 10
1665.8431
 20
1097.7398000000001
 11
1672.3571000000002
 21
1096.7172
  0
LINE
  8
_0-0_LAYER001
  6
CONTINUOUS
 62
    4
 10
1659.2964999999999
 20
1099.0918999999999
 11
1665.8431
 21
1097.7398000000001
  0
LINE
  8
_0-0_LAYER001
  6
CONTINUOUS
 62
    4
 10
1652.8335999999999
 20
1100.7478000000001
 11
1659.2964999999999
 21
1099.0918999999999
  0
LINE
  8
_0-0_LAYER001
  6
CONTINUOUS
 62
    4
 10
1646.4675999999999
 20
1102.6985
 11
1652.8335999999999
 21
1100.7478000000001
  0
LINE
  8
_0-0_LAYER001
  6
CONTINUOUS
 62
    4
 10
1640.3027999999999
 20
1104.9033999999999
 11
1646.4675999999999
 21
1102.6985
  0
LINE
  8
_0-0_LAYER001
  6
CONTINUOUS
 62
    4
 10
1636.6161999999999
 20
1106.3751999999999
 11
1640.3027999999999
 21
1104.9033999999999
  0
LINE
  8
_0-0_LAYER001
  6
CONTINUOUS
 62
    4
 10
1632.2519000000002
 20
1108.2677000000001
 11
1636.6161999999999
 21
1106.3751999999999
  0
LINE
  8
_0-0_LAYER001
  6
CONTINUOUS
 62
    4
 10
1625.1828999999998
 20
1111.6827000000001
 11
1632.2519000000002
 21
1108.2677000000001
  0
LINE
  8
_0-0_LAYER001
  6
CONTINUOUS
 62
    4
 10
1618.29
 20
1115.4123
 11
1625.1828999999998
 21
1111.6827000000001
  0
LINE
  8
_0-0_LAYER001
  6
CONTINUOUS
 62
    4
 10
1611.6529999999998
 20
1119.346
 11
1618.29
 21
1115.4123
  0
LINE
  8
_0-0_LAYER001
  6
CONTINUOUS
 62
    4
 10
1605.2437
 20
1123.4284
 11
1611.6529999999998
 21
1119.346
  0
LINE
  8
_0-0_LAYER001
  6
CONTINUOUS
 62
    4
 10
1599.0594000000001
 20
1127.5906
 11
1605.2437
 21
1123.4284
  0
LINE
  8
_0-0_LAYER001
  6
CONTINUOUS
 62
    4
 10
1595.5171
 20
1130.0543
 11
1599.0594000000001
 21
1127.5906
  0
LINE
  8
_0-0_LAYER001
  6
CONTINUOUS
 62
    4
 10
1593.2851000000001
 20
1131.6278
 11
1595.5171
 21
1130.0543
  0
LINE
  8
_0-0_LAYER001
  6
CONTINUOUS
 62
    4
 10
1589.6615000000002
 20
1134.1668999999999
 11
1593.2851000000001
 21
1131.6278
  0
LINE
  8
_0-0_LAYER001
  6
CONTINUOUS
 62
    4
 10
1586.2919000000002
 20
1136.4323999999999
 11
1589.6615000000002
 21
1134.1668999999999
  0
LINE
  8
_0-0_LAYER001
  6
CONTINUOUS
 62
    4
 10
1583.1768999999999
 20
1138.3595
 11
1586.2919000000002
 21
1136.4323999999999
  0
LINE
  8
_0-0_LAYER001
  6
CONTINUOUS
 62
    4
 10
1580.3096999999998
 20
1139.9151999999999
 11
1583.1768999999999
 21
1138.3595
  0
LINE
  8
_0-0_LAYER001
  6
CONTINUOUS
 62
    4
 10
1577.4785999999999
 20
1141.1837
 11
1580.3096999999998
 21
1139.9151999999999
  0
LINE
  8
_0-0_LAYER001
  6
CONTINUOUS
 62
    4
 10
1576.0154000000002
 20
1141.7157999999999
 11
1577.4785999999999
 21
1141.1837
  0
LINE
  8
_0-0_LAYER001
  6
CONTINUOUS
 62
    4
 10
1575.8343
 20
1141.7737999999999
 11
1576.0154000000002
 21
1141.7157999999999
  0
LINE
  8
_0-0_LAYER001
  6
CONTINUOUS
 62
    4
 10
1575.0459999999998
 20
1142.0017
 11
1575.8343
 21
1141.7737999999999
  0
LINE
  8
_0-0_LAYER001
  6
CONTINUOUS
 62
    4
 10
1574.3888000000002
 20
1142.1643999999999
 11
1575.0459999999998
 21
1142.0017
  0
LINE
  8
_0-0_LAYER001
  6
CONTINUOUS
 62
    4
 10
1573.8069999999998
 20
1142.2824000000001
 11
1574.3888000000002
 21
1142.1643999999999
  0
LINE
  8
_0-0_LAYER001
  6
CONTINUOUS
 62
    4
 10
1573.7669999999998
 20
1142.2886000000001
 11
1573.8069999999998
 21
1142.2824000000001
  0
LINE
  8
_0-0_LAYER001
  6
CONTINUOUS
 62
    4
 10
1777.7408
 20
1087.1274000000001
 11
1779.3548999999998
 21
1087.3959
  0
LINE
  8
_0-0_LAYER001
  6
CONTINUOUS
 62
    4
 10
1773.5522000000001
 20
1086.4313
 11
1777.7408
 21
1087.1274000000001
  0
LINE
  8
_0-0_LAYER001
  6
CONTINUOUS
 62
    4
 10
1769.3593000000001
 20
1085.7357999999999
 11
1773.5522000000001
 21
1086.4313
  0
LINE
  8
_0-0_LAYER001
  6
CONTINUOUS
 62
    4
 10
1765.1617999999999
 20
1085.0420999999999
 11
1769.3593000000001
 21
1085.7357999999999
  0
LINE
  8
_0-0_LAYER001
  6
CONTINUOUS
 62
    4
 10
1760.9594999999999
 20
1084.3508999999999
 11
1765.1617999999999
 21
1085.0420999999999
  0
LINE
  8
_0-0_LAYER001
  6
CONTINUOUS
 62
    4
 10
1756.7546000000002
 20
1083.6635000000001
 11
1760.9594999999999
 21
1084.3508999999999
  0
LINE
  8
_0-0_LAYER001
  6
CONTINUOUS
 62
    4
 10
1754.3045000000002
 20
1083.2654
 11
1756.7546000000002
 21
1083.6635000000001
  0
LINE
  8
_0-0_LAYER001
  6
CONTINUOUS
 62
    4
 10
1749.5776000000001
 20
1082.5038999999999
 11
1754.3045000000002
 21
1083.2654
  0
LINE
  8
_0-0_LAYER001
  6
CONTINUOUS
 62
    4
 10
1741.3869
 20
1081.2221999999999
 11
1749.5776000000001
 21
1082.5038999999999
  0
LINE
  8
_0-0_LAYER001
  6
CONTINUOUS
 62
    4
 10
1733.1025
 20
1080.0056999999999
 11
1741.3869
 21
1081.2221999999999
  0
LINE
  8
_0-0_LAYER001
  6
CONTINUOUS
 62
    4
 10
1724.7258999999999
 20
1078.8934999999999
 11
1733.1025
 21
1080.0056999999999
  0
LINE
  8
_0-0_LAYER001
  6
CONTINUOUS
 62
    4
 10
1716.2537000000002
 20
1077.9248
 11
1724.7258999999999
 21
1078.8934999999999
  0
LINE
  8
_0-0_LAYER001
  6
CONTINUOUS
 62
    4
 10
1707.7375999999999
 20
1077.1447000000001
 11
1716.2537000000002
 21
1077.9248
  0
LINE
  8
_0-0_LAYER001
  6
CONTINUOUS
 62
    4
 10
1702.7096999999999
 20
1076.7891
 11
1707.7375999999999
 21
1077.1447000000001
  0
LINE
  8
_0-0_LAYER001
  6
CONTINUOUS
 62
    4
 10
1699.9346
 20
1076.6291000000001
 11
1702.7096999999999
 21
1076.7891
  0
LINE
  8
_0-0_LAYER001
  6
CONTINUOUS
 62
    4
 10
1695.2492999999999
 20
1076.4267
 11
1699.9346
 21
1076.6291000000001
  0
LINE
  8
_0-0_LAYER001
  6
CONTINUOUS
 62
    4
 10
1690.4663
 20
1076.3222000000001
 11
1695.2492999999999
 21
1076.4267
  0
LINE
  8
_0-0_LAYER001
  6
CONTINUOUS
 62
    4
 10
1685.6183000000001
 20
1076.3373999999999
 11
1690.4663
 21
1076.3222000000001
  0
LINE
  8
_0-0_LAYER001
  6
CONTINUOUS
 62
    4
 10
1680.7080999999998
 20
1076.4934000000001
 11
1685.6183000000001
 21
1076.3373999999999
  0
LINE
  8
_0-0_LAYER001
  6
CONTINUOUS
 62
    4
 10
1675.8108000000002
 20
1076.8072999999999
 11
1680.7080999999998
 21
1076.4934000000001
  0
LINE
  8
_0-0_LAYER001
  6
CONTINUOUS
 62
    4
 10
1672.8121000000001
 20
1077.0838000000001
 11
1675.8108000000002
 21
1076.8072999999999
  0
LINE
  8
_0-0_LAYER001
  6
CONTINUOUS
 62
    4
 10
1668.9465
 20
1077.5386000000001
 11
1672.8121000000001
 21
1077.0838000000001
  0
LINE
  8
_0-0_LAYER001
  6
CONTINUOUS
 62
    4
 10
1662.5180999999998
 20
1078.5477000000001
 11
1668.9465
 21
1077.5386000000001
  0
LINE
  8
_0-0_LAYER001
  6
CONTINUOUS
 62
    4
 10
1656.0646000000002
 20
1079.8806
 11
1662.5180999999998
 21
1078.5477000000001
  0
LINE
  8
_0-0_LAYER001
  6
CONTINUOUS
 62
    4
 10
1649.6923999999999
 20
1081.5132000000001
 11
1656.0646000000002
 21
1079.8806
  0
LINE
  8
_0-0_LAYER001
  6
CONTINUOUS
 62
    4
 10
1643.4151000000002
 20
1083.4367999999999
 11
1649.6923999999999
 21
1081.5132000000001
  0
LINE
  8
_0-0_LAYER001
  6
CONTINUOUS
 62
    4
 10
1637.328
 20
1085.614
 11
1643.4151000000002
 21
1083.4367999999999
  0
LINE
  8
_0-0_LAYER001
  6
CONTINUOUS
 62
    4
 10
1633.7024000000001
 20
1087.0614
 11
1637.328
 21
1085.614
  0
LINE
  8
_0-0_LAYER001
  6
CONTINUOUS
 62
    4
 10
1629.4025000000001
 20
1088.9259999999999
 11
1633.7024000000001
 21
1087.0614
  0
LINE
  8
_0-0_LAYER001
  6
CONTINUOUS
 62
    4
 10
1622.4115999999999
 20
1092.3032000000001
 11
1629.4025000000001
 21
1088.9259999999999
  0
LINE
  8
_0-0_LAYER001
  6
CONTINUOUS
 62
    4
 10
1615.5934999999999
 20
1095.9924000000001
 11
1622.4115999999999
 21
1092.3032000000001
  0
LINE
  8
_0-0_LAYER001
  6
CONTINUOUS
 62
    4
 10
1609.0178000000001
 20
1099.8896999999999
 11
1615.5934999999999
 21
1095.9924000000001
  0
LINE
  8
_0-0_LAYER001
  6
CONTINUOUS
 62
    4
 10
1602.6568000000002
 20
1103.9413999999999
 11
1609.0178000000001
 21
1099.8896999999999
  0
LINE
  8
_0-0_LAYER001
  6
CONTINUOUS
 62
    4
 10
1596.5063
 20
1108.0808
 11
1602.6568000000002
 21
1103.9413999999999
  0
LINE
  8
_0-0_LAYER001
  6
CONTINUOUS
 62
    4
 10
1592.9816999999998
 20
1110.5322000000001
 11
1596.5063
 21
1108.0808
  0
LINE
  8
_0-0_LAYER001
  6
CONTINUOUS
 62
    4
 10
1590.7525999999998
 20
1112.1035999999999
 11
1592.9816999999998
 21
1110.5322000000001
  0
LINE
  8
_0-0_LAYER001
  6
CONTINUOUS
 62
    4
 10
1587.1109000000001
 20
1114.6555000000001
 11
1590.7525999999998
 21
1112.1035999999999
  0
LINE
  8
_0-0_LAYER001
  6
CONTINUOUS
 62
    4
 10
1583.6936999999998
 20
1116.9529
 11
1587.1109000000001
 21
1114.6555000000001
  0
LINE
  8
_0-0_LAYER001
  6
CONTINUOUS
 62
    4
 10
1580.4980999999998
 20
1118.9299000000001
 11
1583.6936999999998
 21
1116.9529
  0
LINE
  8
_0-0_LAYER001
  6
CONTINUOUS
 62
    4
 10
1577.5142000000001
 20
1120.549
 11
1580.4980999999998
 21
1118.9299000000001
  0
LINE
  8
_0-0_LAYER001
  6
CONTINUOUS
 62
    4
 10
1574.5475999999999
 20
1121.8780999999999
 11
1577.5142000000001
 21
1120.549
  0
LINE
  8
_0-0_LAYER001
  6
CONTINUOUS
 62
    4
 10
1573.7975999999999
 20
1122.1509000000001
 11
1574.5475999999999
 21
1121.8780999999999
  0
LINE
  8
_0-0_LAYER001
  6
CONTINUOUS
 62
    4
 10
1574.1307000000002
 20
1142.194
 11
1573.9546999999998
 21
1122.0205000000001
  0
LINE
  8
_0-0_LAYER001
  6
CONTINUOUS
 62
    4
 10
1774.4562999999998
 20
1076.7062000000001
 11
1772.2107999999998
 21
1085.2796000000001
  0
ARC
  8
_0-0_LAYER001
  6
CONTINUOUS
 62
    4
 10
1777.3584000000001
 20
1077.4663
 40
3
 50
194.67639000000003
 51
270.00000000000006
  0
LINE
  8
_0-0_LAYER001
  6
CONTINUOUS
 62
    4
 10
1780.8009000000002
 20
1074.462
 11
1777.3829999999998
 21
1074.462
  0
LINE
  8
_0-0_LAYER001
  6
CONTINUOUS
 62
    4
 10
1783.7600000000002
 20
1076.9688000000001
 11
1785.6941000000002
 21
1088.5728999999999
  0
ARC
  8
_0-0_LAYER001
  6
CONTINUOUS
 62
    4
 10
1780.8009000000002
 20
1077.462
 40
3
 50
270
 51
350.53766999999999
  0
LINE
  8
_0-0_LAYER001
  6
CONTINUOUS
 62
    4
 10
1527.0346
 20
1151.5842
 11
1527.8485000000001
 21
1151.8907999999999
  0
LINE
  8
_0-0_LAYER001
  6
CONTINUOUS
 62
    4
 10
1527.8485000000001
 20
1151.8907999999999
 11
1531.3977
 21
1153.2303999999999
  0
LINE
  8
_0-0_LAYER001
  6
CONTINUOUS
 62
    4
 10
1531.3977
 20
1153.2303999999999
 11
1534.9542999999999
 21
1154.5793000000001
  0
LINE
  8
_0-0_LAYER001
  6
CONTINUOUS
 62
    4
 10
1534.9542999999999
 20
1154.5793000000001
 11
1538.5230000000001
 21
1155.9432999999999
  0
LINE
  8
_0-0_LAYER001
  6
CONTINUOUS
 62
    4
 10
1538.5230000000001
 20
1155.9432999999999
 11
1542.1084000000001
 21
1157.3284000000001
  0
LINE
  8
_0-0_LAYER001
  6
CONTINUOUS
 62
    4
 10
1542.1084000000001
 20
1157.3284000000001
 11
1545.7150999999999
 21
1158.7403999999999
  0
LINE
  8
_0-0_LAYER001
  6
CONTINUOUS
 62
    4
 10
1545.7150999999999
 20
1158.7403999999999
 11
1547.8186000000001
 21
1159.5740000000001
  0
LINE
  8
_0-0_LAYER001
  6
CONTINUOUS
 62
    4
 10
1547.8186000000001
 20
1159.5740000000001
 11
1549.8980000000001
 21
1160.4029
  0
LINE
  8
_0-0_LAYER001
  6
CONTINUOUS
 62
    4
 10
1549.8980000000001
 20
1160.4029
 11
1553.5045
 21
1161.8043
  0
LINE
  8
_0-0_LAYER001
  6
CONTINUOUS
 62
    4
 10
1553.5045
 20
1161.8043
 11
1557.1372000000001
 21
1163.087
  0
LINE
  8
_0-0_LAYER001
  6
CONTINUOUS
 62
    4
 10
1557.1372000000001
 20
1163.087
 11
1560.7950999999998
 21
1164.1536000000001
  0
LINE
  8
_0-0_LAYER001
  6
CONTINUOUS
 62
    4
 10
1560.7950999999998
 20
1164.1536000000001
 11
1564.4773
 21
1164.9069
  0
LINE
  8
_0-0_LAYER001
  6
CONTINUOUS
 62
    4
 10
1564.4773
 20
1164.9069
 11
1568.1826000000001
 21
1165.2493999999999
  0
LINE
  8
_0-0_LAYER001
  6
CONTINUOUS
 62
    4
 10
1568.1826000000001
 20
1165.2493999999999
 11
1570.3418000000001
 21
1165.2215000000001
  0
LINE
  8
_0-0_LAYER001
  6
CONTINUOUS
 62
    4
 10
1570.3418000000001
 20
1165.2215000000001
 11
1571.1909999999998
 21
1165.1601000000001
  0
LINE
  8
_0-0_LAYER001
  6
CONTINUOUS
 62
    4
 10
1571.1909999999998
 20
1165.1601000000001
 11
1572.6552999999999
 21
1164.9894999999999
  0
LINE
  8
_0-0_LAYER001
  6
CONTINUOUS
 62
    4
 10
1572.6552999999999
 20
1164.9894999999999
 11
1574.1163999999999
 21
1164.7428
  0
LINE
  8
_0-0_LAYER001
  6
CONTINUOUS
 62
    4
 10
1574.1163999999999
 20
1164.7428
 11
1575.5700999999999
 21
1164.4268
  0
LINE
  8
_0-0_LAYER001
  6
CONTINUOUS
 62
    4
 10
1575.5700999999999
 20
1164.4268
 11
1577.0122000000001
 21
1164.0482999999999
  0
LINE
  8
_0-0_LAYER001
  6
CONTINUOUS
 62
    4
 10
1577.0122000000001
 20
1164.0482999999999
 11
1578.4387000000002
 21
1163.6141
  0
LINE
  8
_0-0_LAYER001
  6
CONTINUOUS
 62
    4
 10
1578.4387000000002
 20
1163.6141
 11
1579.2572
 21
1163.3395
  0
LINE
  8
_0-0_LAYER001
  6
CONTINUOUS
 62
    4
 10
1579.2572
 20
1163.3395
 11
1581.7554
 21
1162.3913
  0
LINE
  8
_0-0_LAYER001
  6
CONTINUOUS
 62
    4
 10
1581.7554
 20
1162.3913
 11
1585.9142999999999
 21
1160.4577999999999
  0
LINE
  8
_0-0_LAYER001
  6
CONTINUOUS
 62
    4
 10
1585.9142999999999
 20
1160.4577999999999
 11
1589.9180999999999
 21
1158.2123999999999
  0
LINE
  8
_0-0_LAYER001
  6
CONTINUOUS
 62
    4
 10
1589.9180999999999
 20
1158.2123999999999
 11
1593.8049999999998
 21
1155.7320999999999
  0
LINE
  8
_0-0_LAYER001
  6
CONTINUOUS
 62
    4
 10
1593.8049999999998
 20
1155.7320999999999
 11
1597.6129999999998
 21
1153.0940000000001
  0
LINE
  8
_0-0_LAYER001
  6
CONTINUOUS
 62
    4
 10
1597.6129999999998
 20
1153.0940000000001
 11
1601.3802000000001
 21
1150.3749
  0
LINE
  8
_0-0_LAYER001
  6
CONTINUOUS
 62
    4
 10
1601.3802000000001
 20
1150.3749
 11
1603.5616
 21
1148.7910999999999
  0
LINE
  8
_0-0_LAYER001
  6
CONTINUOUS
 62
    4
 10
1603.5616
 20
1148.7910999999999
 11
1606.8930999999998
 21
1146.4041999999999
  0
LINE
  8
_0-0_LAYER001
  6
CONTINUOUS
 62
    4
 10
1606.8930999999998
 20
1146.4041999999999
 11
1612.6853999999998
 21
1142.3873000000001
  0
LINE
  8
_0-0_LAYER001
  6
CONTINUOUS
 62
    4
 10
1612.6853999999998
 20
1142.3873000000001
 11
1618.5574999999999
 21
1138.5307
  0
LINE
  8
_0-0_LAYER001
  6
CONTINUOUS
 62
    4
 10
1618.5574999999999
 20
1138.5307
 11
1624.5317
 21
1134.8761999999999
  0
LINE
  8
_0-0_LAYER001
  6
CONTINUOUS
 62
    4
 10
1624.5317
 20
1134.8761999999999
 11
1630.6298999999999
 21
1131.4657
  0
LINE
  8
_0-0_LAYER001
  6
CONTINUOUS
 62
    4
 10
1630.6298999999999
 20
1131.4657
 11
1636.8742000000002
 21
1128.3408999999999
  0
LINE
  8
_0-0_LAYER001
  6
CONTINUOUS
 62
    4
 10
1636.8742000000002
 20
1128.3408999999999
 11
1640.5715
 21
1126.6759
  0
LINE
  8
_0-0_LAYER001
  6
CONTINUOUS
 62
    4
 10
1640.5715
 20
1126.6759
 11
1643.6307000000002
 21
1125.4048
  0
LINE
  8
_0-0_LAYER001
  6
CONTINUOUS
 62
    4
 10
1643.6307000000002
 20
1125.4048
 11
1648.9911999999999
 21
1123.4025999999999
  0
LINE
  8
_0-0_LAYER001
  6
CONTINUOUS
 62
    4
 10
1648.9911999999999
 20
1123.4025999999999
 11
1654.4468999999999
 21
1121.6470999999999
  0
LINE
  8
_0-0_LAYER001
  6
CONTINUOUS
 62
    4
 10
1654.4468999999999
 20
1121.6470999999999
 11
1659.9819000000002
 21
1120.1464000000001
  0
LINE
  8
_0-0_LAYER001
  6
CONTINUOUS
 62
    4
 10
1659.9819000000002
 20
1120.1464000000001
 11
1665.5801999999999
 21
1118.9084
  0
LINE
  8
_0-0_LAYER001
  6
CONTINUOUS
 62
    4
 10
1665.5801999999999
 20
1118.9084
 11
1671.2258999999999
 21
1117.9411
  0
LINE
  8
_0-0_LAYER001
  6
CONTINUOUS
 62
    4
 10
1671.2258999999999
 20
1117.9411
 11
1674.5158999999999
 21
1117.5074
  0
LINE
  8
_0-0_LAYER001
  6
CONTINUOUS
 62
    4
 10
1674.5158999999999
 20
1117.5074
 11
1677.0351999999998
 21
1117.2396000000001
  0
LINE
  8
_0-0_LAYER001
  6
CONTINUOUS
 62
    4
 10
1677.0351999999998
 20
1117.2396000000001
 11
1681.3872999999999
 21
1116.8995
  0
LINE
  8
_0-0_LAYER001
  6
CONTINUOUS
 62
    4
 10
1681.3872999999999
 20
1116.8995
 11
1685.7474999999999
 21
1116.7001
  0
LINE
  8
_0-0_LAYER001
  6
CONTINUOUS
 62
    4
 10
1685.7474999999999
 20
1116.7001
 11
1690.1127000000001
 21
1116.6253999999999
  0
LINE
  8
_0-0_LAYER001
  6
CONTINUOUS
 62
    4
 10
1690.1127000000001
 20
1116.6253999999999
 11
1694.4798000000001
 21
1116.6597999999999
  0
LINE
  8
_0-0_LAYER001
  6
CONTINUOUS
 62
    4
 10
1694.4798000000001
 20
1116.6597999999999
 11
1698.8456999999999
 21
1116.7873999999999
  0
LINE
  8
_0-0_LAYER001
  6
CONTINUOUS
 62
    4
 10
1698.8456999999999
 20
1116.7873999999999
 11
1701.3762000000002
 21
1116.8978999999999
  0
LINE
  8
_0-0_LAYER001
  6
CONTINUOUS
 62
    4
 10
1701.3762000000002
 20
1116.8978999999999
 11
1706.1053000000002
 21
1117.1660999999999
  0
LINE
  8
_0-0_LAYER001
  6
CONTINUOUS
 62
    4
 10
1706.1053000000002
 20
1117.1660999999999
 11
1714.2433999999998
 21
1117.7971
  0
LINE
  8
_0-0_LAYER001
  6
CONTINUOUS
 62
    4
 10
1714.2433999999998
 20
1117.7971
 11
1722.3642
 21
1118.6108999999999
  0
LINE
  8
_0-0_LAYER001
  6
CONTINUOUS
 62
    4
 10
1722.3642
 20
1118.6108999999999
 11
1730.4701
 21
1119.5722000000001
  0
LINE
  8
_0-0_LAYER001
  6
CONTINUOUS
 62
    4
 10
1730.4701
 20
1119.5722000000001
 11
1738.5634
 21
1120.6454000000001
  0
LINE
  8
_0-0_LAYER001
  6
CONTINUOUS
 62
    4
 10
1738.5634
 20
1120.6454000000001
 11
1746.6469999999999
 21
1121.7950000000001
  0
LINE
  8
_0-0_LAYER001
  6
CONTINUOUS
 62
    4
 10
1746.6469999999999
 20
1121.7950000000001
 11
1751.3319000000001
 21
1122.4827
  0
LINE
  8
_0-0_LAYER001
  6
CONTINUOUS
 62
    4
 10
1751.3319000000001
 20
1122.4827
 11
1753.7667999999999
 21
1122.8435999999999
  0
LINE
  8
_0-0_LAYER001
  6
CONTINUOUS
 62
    4
 10
1753.7667999999999
 20
1122.8435999999999
 11
1757.9636999999998
 21
1123.4695999999999
  0
LINE
  8
_0-0_LAYER001
  6
CONTINUOUS
 62
    4
 10
1757.9636999999998
 20
1123.4695999999999
 11
1762.1595000000002
 21
1124.0997
  0
LINE
  8
_0-0_LAYER001
  6
CONTINUOUS
 62
    4
 10
1762.1595000000002
 20
1124.0997
 11
1766.3544000000002
 21
1124.7329999999999
  0
LINE
  8
_0-0_LAYER001
  6
CONTINUOUS
 62
    4
 10
1766.3544000000002
 20
1124.7329999999999
 11
1770.5484999999999
 21
1125.3686
  0
LINE
  8
_0-0_LAYER001
  6
CONTINUOUS
 62
    4
 10
1770.5484999999999
 20
1125.3686
 11
1774.7422999999999
 21
1126.0055
  0
LINE
  8
_0-0_LAYER001
  6
CONTINUOUS
 62
    4
 10
1774.7422999999999
 20
1126.0055
 11
1777.1745999999998
 21
1126.3752999999999
  0
LINE
  8
_0-0_LAYER001
  6
CONTINUOUS
 62
    4
 10
1532.1378
 20
1134.2717
 11
1534.1997000000001
 21
1135.0486000000001
  0
LINE
  8
_0-0_LAYER001
  6
CONTINUOUS
 62
    4
 10
1534.1997000000001
 20
1135.0486000000001
 11
1537.7673
 21
1136.3951
  0
LINE
  8
_0-0_LAYER001
  6
CONTINUOUS
 62
    4
 10
1537.7673
 20
1136.3951
 11
1541.3591999999999
 21
1137.7573
  0
LINE
  8
_0-0_LAYER001
  6
CONTINUOUS
 62
    4
 10
1541.3591999999999
 20
1137.7573
 11
1544.9796000000001
 21
1139.1411000000001
  0
LINE
  8
_0-0_LAYER001
  6
CONTINUOUS
 62
    4
 10
1544.9796000000001
 20
1139.1411000000001
 11
1548.6325000000002
 21
1140.5523000000001
  0
LINE
  8
_0-0_LAYER001
  6
CONTINUOUS
 62
    4
 10
1548.6325000000002
 20
1140.5523000000001
 11
1552.3117000000002
 21
1141.9927
  0
LINE
  8
_0-0_LAYER001
  6
CONTINUOUS
 62
    4
 10
1552.3117000000002
 20
1141.9927
 11
1554.4668999999999
 21
1142.8467000000001
  0
LINE
  8
_0-0_LAYER001
  6
CONTINUOUS
 62
    4
 10
1554.4668999999999
 20
1142.8467000000001
 11
1556.4904999999999
 21
1143.6533999999999
  0
LINE
  8
_0-0_LAYER001
  6
CONTINUOUS
 62
    4
 10
1556.4904999999999
 20
1143.6533999999999
 11
1559.7624000000001
 21
1144.9248
  0
LINE
  8
_0-0_LAYER001
  6
CONTINUOUS
 62
    4
 10
1559.7624000000001
 20
1144.9248
 11
1562.6574999999998
 21
1145.9469999999999
  0
LINE
  8
_0-0_LAYER001
  6
CONTINUOUS
 62
    4
 10
1562.6574999999998
 20
1145.9469999999999
 11
1565.1255999999998
 21
1146.6667
  0
LINE
  8
_0-0_LAYER001
  6
CONTINUOUS
 62
    4
 10
1565.1255999999998
 20
1146.6667
 11
1567.1172999999999
 21
1147.0742
  0
LINE
  8
_0-0_LAYER001
  6
CONTINUOUS
 62
    4
 10
1567.1172999999999
 20
1147.0742
 11
1568.8966
 21
1147.2387000000001
  0
LINE
  8
_0-0_LAYER001
  6
CONTINUOUS
 62
    4
 10
1568.8966
 20
1147.2387000000001
 11
1569.5762
 21
1147.2299
  0
LINE
  8
_0-0_LAYER001
  6
CONTINUOUS
 62
    4
 10
1569.5762
 20
1147.2299
 11
1569.5001000000002
 21
1147.2354
  0
LINE
  8
_0-0_LAYER001
  6
CONTINUOUS
 62
    4
 10
1569.5001000000002
 20
1147.2354
 11
1570.1136999999999
 21
1147.1639
  0
LINE
  8
_0-0_LAYER001
  6
CONTINUOUS
 62
    4
 10
1570.1136999999999
 20
1147.1639
 11
1570.7040999999999
 21
1147.0642
  0
LINE
  8
_0-0_LAYER001
  6
CONTINUOUS
 62
    4
 10
1570.7040999999999
 20
1147.0642
 11
1571.3715999999999
 21
1146.9191000000001
  0
LINE
  8
_0-0_LAYER001
  6
CONTINUOUS
 62
    4
 10
1571.3715999999999
 20
1146.9191000000001
 11
1572.1051000000002
 21
1146.7266
  0
LINE
  8
_0-0_LAYER001
  6
CONTINUOUS
 62
    4
 10
1572.1051000000002
 20
1146.7266
 11
1572.9542999999999
 21
1146.4681
  0
LINE
  8
_0-0_LAYER001
  6
CONTINUOUS
 62
    4
 10
1572.9542999999999
 20
1146.4681
 11
1573.1984000000002
 21
1146.3861999999999
  0
LINE
  8
_0-0_LAYER001
  6
CONTINUOUS
 62
    4
 10
1573.1984000000002
 20
1146.3861999999999
 11
1574.7583
 21
1145.7942
  0
LINE
  8
_0-0_LAYER001
  6
CONTINUOUS
 62
    4
 10
1574.7583
 20
1145.7942
 11
1577.7060000000001
 21
1144.4237000000001
  0
LINE
  8
_0-0_LAYER001
  6
CONTINUOUS
 62
    4
 10
1577.7060000000001
 20
1144.4237000000001
 11
1580.6669999999999
 21
1142.7630999999999
  0
LINE
  8
_0-0_LAYER001
  6
CONTINUOUS
 62
    4
 10
1580.6669999999999
 20
1142.7630999999999
 11
1583.8348000000001
 21
1140.7418
  0
LINE
  8
_0-0_LAYER001
  6
CONTINUOUS
 62
    4
 10
1583.8348000000001
 20
1140.7418
 11
1587.2195000000002
 21
1138.3969
  0
LINE
  8
_0-0_LAYER001
  6
CONTINUOUS
 62
    4
 10
1587.2195000000002
 20
1138.3969
 11
1590.8252000000002
 21
1135.7944
  0
LINE
  8
_0-0_LAYER001
  6
CONTINUOUS
 62
    4
 10
1590.8252000000002
 20
1135.7944
 11
1593.0322000000001
 21
1134.192
  0
LINE
  8
_0-0_LAYER001
  6
CONTINUOUS
 62
    4
 10
1593.0322000000001
 20
1134.192
 11
1596.5221000000001
 21
1131.6916000000001
  0
LINE
  8
_0-0_LAYER001
  6
CONTINUOUS
 62
    4
 10
1596.5221000000001
 20
1131.6916000000001
 11
1602.6143000000002
 21
1127.4666999999999
  0
LINE
  8
_0-0_LAYER001
  6
CONTINUOUS
 62
    4
 10
1602.6143000000002
 20
1127.4666999999999
 11
1608.9180999999999
 21
1123.3266000000001
  0
LINE
  8
_0-0_LAYER001
  6
CONTINUOUS
 62
    4
 10
1608.9180999999999
 20
1123.3266000000001
 11
1615.4387999999999
 21
1119.3378
  0
LINE
  8
_0-0_LAYER001
  6
CONTINUOUS
 62
    4
 10
1615.4387999999999
 20
1119.3378
 11
1622.2046999999998
 21
1115.5537999999999
  0
LINE
  8
_0-0_LAYER001
  6
CONTINUOUS
 62
    4
 10
1622.2046999999998
 20
1115.5537999999999
 11
1629.1478000000002
 21
1112.0793000000001
  0
LINE
  8
_0-0_LAYER001
  6
CONTINUOUS
 62
    4
 10
1629.1478000000002
 20
1112.0793000000001
 11
1633.4212000000002
 21
1110.1549
  0
LINE
  8
_0-0_LAYER001
  6
CONTINUOUS
 62
    4
 10
1633.4212000000002
 20
1110.1549
 11
1637.0263
 21
1108.6569999999999
  0
LINE
  8
_0-0_LAYER001
  6
CONTINUOUS
 62
    4
 10
1637.0263
 20
1108.6569999999999
 11
1643.0823
 21
1106.395
  0
LINE
  8
_0-0_LAYER001
  6
CONTINUOUS
 62
    4
 10
1643.0823
 20
1106.395
 11
1649.3321999999998
 21
1104.384
  0
LINE
  8
_0-0_LAYER001
  6
CONTINUOUS
 62
    4
 10
1649.3321999999998
 20
1104.384
 11
1655.681
 21
1102.6626000000001
  0
LINE
  8
_0-0_LAYER001
  6
CONTINUOUS
 62
    4
 10
1655.681
 20
1102.6626000000001
 11
1662.1152000000002
 21
1101.2397000000001
  0
LINE
  8
_0-0_LAYER001
  6
CONTINUOUS
 62
    4
 10
1662.1152000000002
 20
1101.2397000000001
 11
1668.5288999999998
 21
1100.1410000000001
  0
LINE
  8
_0-0_LAYER001
  6
CONTINUOUS
 62
    4
 10
1668.5288999999998
 20
1100.1410000000001
 11
1672.3877000000002
 21
1099.6322
  0
LINE
  8
_0-0_LAYER001
  6
CONTINUOUS
 62
    4
 10
1672.3877000000002
 20
1099.6322
 11
1675.3823000000002
 21
1099.3137999999999
  0
LINE
  8
_0-0_LAYER001
  6
CONTINUOUS
 62
    4
 10
1675.3823000000002
 20
1099.3137999999999
 11
1680.2746999999999
 21
1098.9315999999999
  0
LINE
  8
_0-0_LAYER001
  6
CONTINUOUS
 62
    4
 10
1680.2746999999999
 20
1098.9315999999999
 11
1685.1822999999999
 21
1098.7071000000001
  0
LINE
  8
_0-0_LAYER001
  6
CONTINUOUS
 62
    4
 10
1685.1822999999999
 20
1098.7071000000001
 11
1690.0295999999998
 21
1098.6242
  0
LINE
  8
_0-0_LAYER001
  6
CONTINUOUS
 62
    4
 10
1690.0295999999998
 20
1098.6242
 11
1694.8135000000002
 21
1098.6619000000001
  0
LINE
  8
_0-0_LAYER001
  6
CONTINUOUS
 62
    4
 10
1694.8135000000002
 20
1098.6619000000001
 11
1699.5012000000002
 21
1098.7989
  0
LINE
  8
_0-0_LAYER001
  6
CONTINUOUS
 62
    4
 10
1699.5012000000002
 20
1098.7989
 11
1702.2784000000001
 21
1098.9201
  0
LINE
  8
_0-0_LAYER001
  6
CONTINUOUS
 62
    4
 10
1702.2784000000001
 20
1098.9201
 11
1707.3107
 21
1099.2055
  0
LINE
  8
_0-0_LAYER001
  6
CONTINUOUS
 62
    4
 10
1707.3107
 20
1099.2055
 11
1715.8368999999998
 21
1099.8666000000001
  0
LINE
  8
_0-0_LAYER001
  6
CONTINUOUS
 62
    4
 10
1715.8368999999998
 20
1099.8666000000001
 11
1724.3217
 21
1100.7168999999999
  0
LINE
  8
_0-0_LAYER001
  6
CONTINUOUS
 62
    4
 10
1724.3217
 20
1100.7168999999999
 11
1732.7130999999999
 21
1101.7121
  0
LINE
  8
_0-0_LAYER001
  6
CONTINUOUS
 62
    4
 10
1732.7130999999999
 20
1101.7121
 11
1741.0137
 21
1102.8126999999999
  0
LINE
  8
_0-0_LAYER001
  6
CONTINUOUS
 62
    4
 10
1741.0137
 20
1102.8126999999999
 11
1749.2213999999999
 21
1103.98
  0
LINE
  8
_0-0_LAYER001
  6
CONTINUOUS
 62
    4
 10
1749.2213999999999
 20
1103.98
 11
1753.9585999999999
 21
1104.6754000000001
  0
LINE
  8
_0-0_LAYER001
  6
CONTINUOUS
 62
    4
 10
1753.9585999999999
 20
1104.6754000000001
 11
1756.4139
 21
1105.0392999999999
  0
LINE
  8
_0-0_LAYER001
  6
CONTINUOUS
 62
    4
 10
1756.4139
 20
1105.0392999999999
 11
1760.6280000000002
 21
1105.6678999999999
  0
LINE
  8
_0-0_LAYER001
  6
CONTINUOUS
 62
    4
 10
1760.6280000000002
 20
1105.6678999999999
 11
1764.8395999999998
 21
1106.3003000000001
  0
LINE
  8
_0-0_LAYER001
  6
CONTINUOUS
 62
    4
 10
1764.8395999999998
 20
1106.3003000000001
 11
1769.0463
 21
1106.9354000000001
  0
LINE
  8
_0-0_LAYER001
  6
CONTINUOUS
 62
    4
 10
1769.0463
 20
1106.9354000000001
 11
1773.2485000000001
 21
1107.5722000000001
  0
LINE
  8
_0-0_LAYER001
  6
CONTINUOUS
 62
    4
 10
1773.2485000000001
 20
1107.5722000000001
 11
1777.4463999999998
 21
1108.2098000000001
  0
LINE
  8
_0-0_LAYER001
  6
CONTINUOUS
 62
    4
 10
1777.4463999999998
 20
1108.2098000000001
 11
1779.0641000000001
 21
1108.4557
  0
LINE
  8
_0-0_LAYER001
  6
CONTINUOUS
 62
    4
 10
1526.6089000000002
 20
1151.4218000000001
 11
1527.0349000000001
 21
1151.5849000000001
  0
ARC
  8
_0-0_LAYER001
  6
CONTINUOUS
 62
    4
 10
1527.6815000000001
 20
1148.6201000000001
 40
3
 50
110.94902000000002
 51
178.70000000000002
  0
LINE
  8
_0-0_LAYER001
  6
CONTINUOUS
 62
    4
 10
1524.5729999999999
 20
1132.8490999999999
 11
1524.5729999999999
 21
1148.5716
  0
LINE
  8
_0-0_LAYER001
  6
CONTINUOUS
 62
    4
 10
1525.9270000000001
 20
1131.9138
 11
1532.1017999999999
 21
1134.251
  0
ARC
  8
_0-0_LAYER001
  6
CONTINUOUS
 62
    4
 10
1525.5729999999999
 20
1132.8490999999999
 40
1
 50
180
 51
290.73165999999998
  0
LINE
  8
_0-0_LAYER001
  6
CONTINUOUS
 62
    4
 10
1789.5729000000001
 20
1111.5269000000001
 11
1789.5729000000001
 21
1128.7242000000001
  0
LINE
  8
_0-0_LAYER001
  6
CONTINUOUS
 62
    4
 10
1777.2995000000001
 20
1126.4106999999999
 11
1821.7538
 21
1136.0586000000001
  0
LINE
  8
_0-0_LAYER001
  6
CONTINUOUS
 62
    4
 10
1784.0446999999999
 20
1106.577
 11
1822.7165
 21
1115.6269
  0
LINE
  8
_0-0_LAYER001
  6
CONTINUOUS
 62
    4
 10
1822.7165
 20
1116.5834
 11
1822.7165
 21
1115.6269
  0
ARC
  8
_0-0_LAYER001
  6
CONTINUOUS
 62
    4
 10
1823.7165
 20
1116.5834
 40
1
 50
102.72435
 51
180
  0
LINE
  8
_0-0_LAYER001
  6
CONTINUOUS
 62
    4
 10
1828.5335
 20
1118.6963000000001
 11
1823.4962
 21
1117.5589
  0
ARC
  8
_0-0_LAYER001
  6
CONTINUOUS
 62
    4
 10
1828.7538
 20
1117.7209
 40
1
 50
0
 51
102.72435
  0
LINE
  8
_0-0_LAYER001
  6
CONTINUOUS
 62
    4
 10
1828.9659000000001
 20
1119.2048
 11
1778.8319000000001
 21
1108.3242
  0
ARC
  8
_0-0_LAYER001
  6
CONTINUOUS
 62
    4
 10
1828.7538
 20
1120.182
 40
1
 50
282.24497000000002
 51
0
  0
LINE
  8
_0-0_LAYER001
  6
CONTINUOUS
 62
    4
 10
1828.9715999999999
 20
1098.4639999999999
 11
1779.3877000000002
 21
1087.3961999999999
  0
LINE
  8
_0-0_LAYER001
  6
CONTINUOUS
 62
    4
 10
1829.7538
 20
1099.4400000000001
 11
1829.7538
 21
1117.7209
  0
ARC
  8
_0-0_LAYER001
  6
CONTINUOUS
 62
    4
 10
1828.7538
 20
1099.4400000000001
 40
1
 50
282.58296000000001
 51
0.0000000000000254
  0
LINE
  8
_0-0_LAYER001
  6
CONTINUOUS
 62
    4
 10
1821.7538
 20
1137.5155999999999
 11
1821.7538
 21
1136.0586000000001
  0
ARC
  8
_0-0_LAYER001
  6
CONTINUOUS
 62
    4
 10
1822.7538
 20
1137.5155999999999
 40
1
 50
101.73308
 51
180
  0
LINE
  8
_0-0_LAYER001
  6
CONTINUOUS
 62
    4
 10
1828.5504000000001
 20
1139.7409
 11
1822.5504000000001
 21
1138.4947
  0
LINE
  8
_0-0_LAYER001
  6
CONTINUOUS
 62
    4
 10
1829.7538
 20
1138.7618
 11
1829.7538
 21
1120.182
  0
ARC
  8
_0-0_LAYER001
  6
CONTINUOUS
 62
    4
 10
1828.7538
 20
1138.7618
 40
1
 50
0
 51
101.73308
  0
LINE
  8
_0-0_LAYER001
  6
CONTINUOUS
 62
    4
 10
1384.9867999999997
 20
1068.4940999999999
 11
1376.4512999999999
 21
1083.0273999999999
  0
LINE
  8
_0-0_LAYER001
  6
CONTINUOUS
 62
    4
 10
1393.1547
 20
1067.8436999999999
 11
1401.4609
 21
1077.9092000000001
  0
ARC
  8
_0-0_LAYER001
  6
CONTINUOUS
 62
    4
 10
1389.2982000000002
 20
1071.0262
 40
5
 50
210.42578
 51
320.47001
  0
LINE
  8
_0-0_LAYER001
  6
CONTINUOUS
 62
    4
 10
1469.1003000000001
 20
1067.3739
 11
1461.7748999999999
 21
1078.6799000000001
  0
LINE
  8
_0-0_LAYER001
  6
CONTINUOUS
 62
    4
 10
1477.6098000000002
 20
1067.5637999999999
 11
1486.5482999999999
 21
1082.8095000000001
  0
ARC
  8
_0-0_LAYER001
  6
CONTINUOUS
 62
    4
 10
1473.2964999999999
 20
1070.0926999999999
 40
5
 50
212.93986000000001
 51
329.61716000000001
  0
LINE
  8
_0-0_LAYER001
  6
CONTINUOUS
 62
    4
 10
1516.8919000000001
 20
1107.1215
 11
1519.3200000000002
 21
1107.5253
  0
LINE
  8
_0-0_LAYER001
  6
CONTINUOUS
 62
    4
 10
1512.7028
 20
1106.4251999999999
 11
1516.8919000000001
 21
1107.1215
  0
LINE
  8
_0-0_LAYER001
  6
CONTINUOUS
 62
    4
 10
1508.509
 20
1105.7295999999999
 11
1512.7028
 21
1106.4251999999999
  0
LINE
  8
_0-0_LAYER001
  6
CONTINUOUS
 62
    4
 10
1504.3101999999999
 20
1105.0356999999999
 11
1508.509
 21
1105.7295999999999
  0
LINE
  8
_0-0_LAYER001
  6
CONTINUOUS
 62
    4
 10
1500.1062000000002
 20
1104.3442
 11
1504.3101999999999
 21
1105.0356999999999
  0
LINE
  8
_0-0_LAYER001
  6
CONTINUOUS
 62
    4
 10
1495.8993999999998
 20
1103.6565000000001
 11
1500.1062000000002
 21
1104.3442
  0
LINE
  8
_0-0_LAYER001
  6
CONTINUOUS
 62
    4
 10
1493.4470999999999
 20
1103.258
 11
1495.8993999999998
 21
1103.6565000000001
  0
LINE
  8
_0-0_LAYER001
  6
CONTINUOUS
 62
    4
 10
1488.7143000000001
 20
1102.4956
 11
1493.4470999999999
 21
1103.258
  0
LINE
  8
_0-0_LAYER001
  6
CONTINUOUS
 62
    4
 10
1480.5099
 20
1101.2117000000001
 11
1488.7143000000001
 21
1102.4956
  0
LINE
  8
_0-0_LAYER001
  6
CONTINUOUS
 62
    4
 10
1472.2024000000001
 20
1099.9919
 11
1480.5099
 21
1101.2117000000001
  0
LINE
  8
_0-0_LAYER001
  6
CONTINUOUS
 62
    4
 10
1463.7941000000001
 20
1098.8755000000001
 11
1472.2024000000001
 21
1099.9919
  0
LINE
  8
_0-0_LAYER001
  6
CONTINUOUS
 62
    4
 10
1455.2815999999998
 20
1097.9021
 11
1463.7941000000001
 21
1098.8755000000001
  0
LINE
  8
_0-0_LAYER001
  6
CONTINUOUS
 62
    4
 10
1446.7224000000001
 20
1097.1180999999999
 11
1455.2815999999998
 21
1097.9021
  0
LINE
  8
_0-0_LAYER001
  6
CONTINUOUS
 62
    4
 10
1441.6608999999999
 20
1096.7601
 11
1446.7224000000001
 21
1097.1180999999999
  0
LINE
  8
_0-0_LAYER001
  6
CONTINUOUS
 62
    4
 10
1438.8582999999999
 20
1096.5985000000001
 11
1441.6608999999999
 21
1096.7601
  0
LINE
  8
_0-0_LAYER001
  6
CONTINUOUS
 62
    4
 10
1434.1372999999999
 20
1096.3945000000001
 11
1438.8582999999999
 21
1096.5985000000001
  0
LINE
  8
_0-0_LAYER001
  6
CONTINUOUS
 62
    4
 10
1429.308
 20
1096.2891
 11
1434.1372999999999
 21
1096.3945000000001
  0
LINE
  8
_0-0_LAYER001
  6
CONTINUOUS
 62
    4
 10
1424.4064000000001
 20
1096.3045
 11
1429.308
 21
1096.2891
  0
LINE
  8
_0-0_LAYER001
  6
CONTINUOUS
 62
    4
 10
1419.4354000000001
 20
1096.4622999999999
 11
1424.4064000000001
 21
1096.3045
  0
LINE
  8
_0-0_LAYER001
  6
CONTINUOUS
 62
    4
 10
1414.4780000000001
 20
1096.7800999999999
 11
1419.4354000000001
 21
1096.4622999999999
  0
LINE
  8
_0-0_LAYER001
  6
CONTINUOUS
 62
    4
 10
1411.4263000000001
 20
1097.0615
 11
1414.4780000000001
 21
1096.7800999999999
  0
LINE
  8
_0-0_LAYER001
  6
CONTINUOUS
 62
    4
 10
1407.4974999999999
 20
1097.5237999999999
 11
1411.4263000000001
 21
1097.0615
  0
LINE
  8
_0-0_LAYER001
  6
CONTINUOUS
 62
    4
 10
1400.9835
 20
1098.5463
 11
1407.4974999999999
 21
1097.5237999999999
  0
LINE
  8
_0-0_LAYER001
  6
CONTINUOUS
 62
    4
 10
1394.4369000000002
 20
1099.8985
 11
1400.9835
 21
1098.5463
  0
LINE
  8
_0-0_LAYER001
  6
CONTINUOUS
 62
    4
 10
1387.9739999999997
 20
1101.5543
 11
1394.4369000000002
 21
1099.8985
  0
LINE
  8
_0-0_LAYER001
  6
CONTINUOUS
 62
    4
 10
1381.6079999999999
 20
1103.5050000000001
 11
1387.9739999999997
 21
1101.5543
  0
LINE
  8
_0-0_LAYER001
  6
CONTINUOUS
 62
    4
 10
1375.4432999999999
 20
1105.71
 11
1381.6079999999999
 21
1103.5050000000001
  0
LINE
  8
_0-0_LAYER001
  6
CONTINUOUS
 62
    4
 10
1371.7565999999999
 20
1107.1818000000001
 11
1375.4432999999999
 21
1105.71
  0
LINE
  8
_0-0_LAYER001
  6
CONTINUOUS
 62
    4
 10
1367.3924
 20
1109.0743
 11
1371.7565999999999
 21
1107.1818000000001
  0
LINE
  8
_0-0_LAYER001
  6
CONTINUOUS
 62
    4
 10
1360.3233
 20
1112.4892
 11
1367.3924
 21
1109.0743
  0
LINE
  8
_0-0_LAYER001
  6
CONTINUOUS
 62
    4
 10
1353.4304
 20
1116.2189000000001
 11
1360.3233
 21
1112.4892
  0
LINE
  8
_0-0_LAYER001
  6
CONTINUOUS
 62
    4
 10
1346.7934
 20
1120.1524999999999
 11
1353.4304
 21
1116.2189000000001
  0
LINE
  8
_0-0_LAYER001
  6
CONTINUOUS
 62
    4
 10
1340.3841
 20
1124.2349999999999
 11
1346.7934
 21
1120.1524999999999
  0
LINE
  8
_0-0_LAYER001
  6
CONTINUOUS
 62
    4
 10
1334.1999000000001
 20
1128.3970999999999
 11
1340.3841
 21
1124.2349999999999
  0
LINE
  8
_0-0_LAYER001
  6
CONTINUOUS
 62
    4
 10
1330.6575
 20
1130.8607999999999
 11
1334.1999000000001
 21
1128.3970999999999
  0
LINE
  8
_0-0_LAYER001
  6
CONTINUOUS
 62
    4
 10
1328.4255000000003
 20
1132.4342999999999
 11
1330.6575
 21
1130.8607999999999
  0
LINE
  8
_0-0_LAYER001
  6
CONTINUOUS
 62
    4
 10
1324.8019999999999
 20
1134.9735000000001
 11
1328.4255000000003
 21
1132.4342999999999
  0
LINE
  8
_0-0_LAYER001
  6
CONTINUOUS
 62
    4
 10
1321.4322999999999
 20
1137.239
 11
1324.8019999999999
 21
1134.9735000000001
  0
LINE
  8
_0-0_LAYER001
  6
CONTINUOUS
 62
    4
 10
1318.3172999999999
 20
1139.1660999999999
 11
1321.4322999999999
 21
1137.239
  0
LINE
  8
_0-0_LAYER001
  6
CONTINUOUS
 62
    4
 10
1315.4501
 20
1140.7218
 11
1318.3172999999999
 21
1139.1660999999999
  0
LINE
  8
_0-0_LAYER001
  6
CONTINUOUS
 62
    4
 10
1312.6189999999999
 20
1141.9902999999999
 11
1315.4501
 21
1140.7218
  0
LINE
  8
_0-0_LAYER001
  6
CONTINUOUS
 62
    4
 10
1311.1558
 20
1142.5224000000001
 11
1312.6189999999999
 21
1141.9902999999999
  0
LINE
  8
_0-0_LAYER001
  6
CONTINUOUS
 62
    4
 10
1310.9746999999998
 20
1142.5803000000001
 11
1311.1558
 21
1142.5224000000001
  0
LINE
  8
_0-0_LAYER001
  6
CONTINUOUS
 62
    4
 10
1310.1864
 20
1142.8082999999999
 11
1310.9746999999998
 21
1142.5803000000001
  0
LINE
  8
_0-0_LAYER001
  6
CONTINUOUS
 62
    4
 10
1309.5291999999999
 20
1142.971
 11
1310.1864
 21
1142.8082999999999
  0
LINE
  8
_0-0_LAYER001
  6
CONTINUOUS
 62
    4
 10
1308.9474999999998
 20
1143.0889999999999
 11
1309.5291999999999
 21
1142.971
  0
LINE
  8
_0-0_LAYER001
  6
CONTINUOUS
 62
    4
 10
1308.9074000000001
 20
1143.0952
 11
1308.9474999999998
 21
1143.0889999999999
  0
LINE
  8
_0-0_LAYER001
  6
CONTINUOUS
 62
    4
 10
1512.8813
 20
1087.934
 11
1514.4953999999998
 21
1088.2025000000001
  0
LINE
  8
_0-0_LAYER001
  6
CONTINUOUS
 62
    4
 10
1508.6927000000001
 20
1087.2378000000001
 11
1512.8813
 21
1087.934
  0
LINE
  8
_0-0_LAYER001
  6
CONTINUOUS
 62
    4
 10
1504.4998000000001
 20
1086.5424
 11
1508.6927000000001
 21
1087.2378000000001
  0
LINE
  8
_0-0_LAYER001
  6
CONTINUOUS
 62
    4
 10
1500.3022999999998
 20
1085.8486
 11
1504.4998000000001
 21
1086.5424
  0
LINE
  8
_0-0_LAYER001
  6
CONTINUOUS
 62
    4
 10
1496.0999999999999
 20
1085.1574000000001
 11
1500.3022999999998
 21
1085.8486
  0
LINE
  8
_0-0_LAYER001
  6
CONTINUOUS
 62
    4
 10
1491.8951000000002
 20
1084.4701
 11
1496.0999999999999
 21
1085.1574000000001
  0
LINE
  8
_0-0_LAYER001
  6
CONTINUOUS
 62
    4
 10
1489.4450000000002
 20
1084.0719999999999
 11
1491.8951000000002
 21
1084.4701
  0
LINE
  8
_0-0_LAYER001
  6
CONTINUOUS
 62
    4
 10
1484.7181
 20
1083.3104000000001
 11
1489.4450000000002
 21
1084.0719999999999
  0
LINE
  8
_0-0_LAYER001
  6
CONTINUOUS
 62
    4
 10
1476.5273999999999
 20
1082.0287000000001
 11
1484.7181
 21
1083.3104000000001
  0
LINE
  8
_0-0_LAYER001
  6
CONTINUOUS
 62
    4
 10
1468.2429000000002
 20
1080.8123000000001
 11
1476.5273999999999
 21
1082.0287000000001
  0
LINE
  8
_0-0_LAYER001
  6
CONTINUOUS
 62
    4
 10
1459.8663000000001
 20
1079.7001
 11
1468.2429000000002
 21
1080.8123000000001
  0
LINE
  8
_0-0_LAYER001
  6
CONTINUOUS
 62
    4
 10
1451.3941
 20
1078.7312999999999
 11
1459.8663000000001
 21
1079.7001
  0
LINE
  8
_0-0_LAYER001
  6
CONTINUOUS
 62
    4
 10
1442.8780000000002
 20
1077.9512999999999
 11
1451.3941
 21
1078.7312999999999
  0
LINE
  8
_0-0_LAYER001
  6
CONTINUOUS
 62
    4
 10
1437.8501999999999
 20
1077.5956000000001
 11
1442.8780000000002
 21
1077.9512999999999
  0
LINE
  8
_0-0_LAYER001
  6
CONTINUOUS
 62
    4
 10
1435.0749999999998
 20
1077.4356
 11
1437.8501999999999
 21
1077.5956000000001
  0
LINE
  8
_0-0_LAYER001
  6
CONTINUOUS
 62
    4
 10
1430.3897000000002
 20
1077.2331999999999
 11
1435.0749999999998
 21
1077.4356
  0
LINE
  8
_0-0_LAYER001
  6
CONTINUOUS
 62
    4
 10
1425.6068
 20
1077.1288
 11
1430.3897000000002
 21
1077.2331999999999
  0
LINE
  8
_0-0_LAYER001
  6
CONTINUOUS
 62
    4
 10
1420.7587000000001
 20
1077.144
 11
1425.6068
 21
1077.1288
  0
LINE
  8
_0-0_LAYER001
  6
CONTINUOUS
 62
    4
 10
1415.8485000000001
 20
1077.2999
 11
1420.7587000000001
 21
1077.144
  0
LINE
  8
_0-0_LAYER001
  6
CONTINUOUS
 62
    4
 10
1410.9512
 20
1077.6138000000001
 11
1415.8485000000001
 21
1077.2999
  0
LINE
  8
_0-0_LAYER001
  6
CONTINUOUS
 62
    4
 10
1407.9525000000001
 20
1077.8904
 11
1410.9512
 21
1077.6138000000001
  0
LINE
  8
_0-0_LAYER001
  6
CONTINUOUS
 62
    4
 10
1404.0869
 20
1078.3452
 11
1407.9525000000001
 21
1077.8904
  0
LINE
  8
_0-0_LAYER001
  6
CONTINUOUS
 62
    4
 10
1397.6585
 20
1079.3543
 11
1404.0869
 21
1078.3452
  0
LINE
  8
_0-0_LAYER001
  6
CONTINUOUS
 62
    4
 10
1391.2049999999999
 20
1080.6872000000001
 11
1397.6585
 21
1079.3543
  0
LINE
  8
_0-0_LAYER001
  6
CONTINUOUS
 62
    4
 10
1384.8329000000001
 20
1082.3198
 11
1391.2049999999999
 21
1080.6872000000001
  0
LINE
  8
_0-0_LAYER001
  6
CONTINUOUS
 62
    4
 10
1378.5555999999999
 20
1084.2433000000001
 11
1384.8329000000001
 21
1082.3198
  0
LINE
  8
_0-0_LAYER001
  6
CONTINUOUS
 62
    4
 10
1372.4684999999999
 20
1086.4204999999999
 11
1378.5555999999999
 21
1084.2433000000001
  0
LINE
  8
_0-0_LAYER001
  6
CONTINUOUS
 62
    4
 10
1368.8427999999999
 20
1087.8679
 11
1372.4684999999999
 21
1086.4204999999999
  0
LINE
  8
_0-0_LAYER001
  6
CONTINUOUS
 62
    4
 10
1364.5429999999999
 20
1089.7325000000001
 11
1368.8427999999999
 21
1087.8679
  0
LINE
  8
_0-0_LAYER001
  6
CONTINUOUS
 62
    4
 10
1357.5521000000001
 20
1093.1097
 11
1364.5429999999999
 21
1089.7325000000001
  0
LINE
  8
_0-0_LAYER001
  6
CONTINUOUS
 62
    4
 10
1350.7338999999999
 20
1096.7989
 11
1357.5521000000001
 21
1093.1097
  0
LINE
  8
_0-0_LAYER001
  6
CONTINUOUS
 62
    4
 10
1344.1581999999999
 20
1100.6963000000001
 11
1350.7338999999999
 21
1096.7989
  0
LINE
  8
_0-0_LAYER001
  6
CONTINUOUS
 62
    4
 10
1337.7972
 20
1104.7479000000001
 11
1344.1581999999999
 21
1100.6963000000001
  0
LINE
  8
_0-0_LAYER001
  6
CONTINUOUS
 62
    4
 10
1331.6467
 20
1108.8874000000001
 11
1337.7972
 21
1104.7479000000001
  0
LINE
  8
_0-0_LAYER001
  6
CONTINUOUS
 62
    4
 10
1328.1221
 20
1111.3387
 11
1331.6467
 21
1108.8874000000001
  0
LINE
  8
_0-0_LAYER001
  6
CONTINUOUS
 62
    4
 10
1325.893
 20
1112.9102
 11
1328.1221
 21
1111.3387
  0
LINE
  8
_0-0_LAYER001
  6
CONTINUOUS
 62
    4
 10
1322.2512999999999
 20
1115.4621
 11
1325.893
 21
1112.9102
  0
LINE
  8
_0-0_LAYER001
  6
CONTINUOUS
 62
    4
 10
1318.8342
 20
1117.7594999999999
 11
1322.2512999999999
 21
1115.4621
  0
LINE
  8
_0-0_LAYER001
  6
CONTINUOUS
 62
    4
 10
1315.6386
 20
1119.7364
 11
1318.8342
 21
1117.7594999999999
  0
LINE
  8
_0-0_LAYER001
  6
CONTINUOUS
 62
    4
 10
1312.6546000000003
 20
1121.3554999999999
 11
1315.6386
 21
1119.7364
  0
LINE
  8
_0-0_LAYER001
  6
CONTINUOUS
 62
    4
 10
1309.6880000000001
 20
1122.6847
 11
1312.6546000000003
 21
1121.3554999999999
  0
LINE
  8
_0-0_LAYER001
  6
CONTINUOUS
 62
    4
 10
1308.9381000000001
 20
1122.9574
 11
1309.6880000000001
 21
1122.6847
  0
LINE
  8
_0-0_LAYER001
  6
CONTINUOUS
 62
    4
 10
1309.2712000000001
 20
1143.0005000000001
 11
1309.0951
 21
1122.8271
  0
LINE
  8
_0-0_LAYER001
  6
CONTINUOUS
 62
    4
 10
1509.5967999999998
 20
1077.5127
 11
1507.3512999999998
 21
1086.0862
  0
ARC
  8
_0-0_LAYER001
  6
CONTINUOUS
 62
    4
 10
1512.4989
 20
1078.2728
 40
3
 50
194.67639000000003
 51
270.00000000000006
  0
LINE
  8
_0-0_LAYER001
  6
CONTINUOUS
 62
    4
 10
1515.9414000000002
 20
1075.2684999999999
 11
1512.5236
 21
1075.2684999999999
  0
LINE
  8
_0-0_LAYER001
  6
CONTINUOUS
 62
    4
 10
1518.9005000000002
 20
1077.7753
 11
1520.8346000000001
 21
1089.3795
  0
ARC
  8
_0-0_LAYER001
  6
CONTINUOUS
 62
    4
 10
1515.9414000000002
 20
1078.2684999999999
 40
3
 50
270
 51
350.53766999999999
  0
LINE
  8
_0-0_LAYER001
  6
CONTINUOUS
 62
    4
 10
1262.175
 20
1152.3906999999999
 11
1262.9889000000001
 21
1152.6974
  0
LINE
  8
_0-0_LAYER001
  6
CONTINUOUS
 62
    4
 10
1262.9889000000001
 20
1152.6974
 11
1266.5382
 21
1154.037
  0
LINE
  8
_0-0_LAYER001
  6
CONTINUOUS
 62
    4
 10
1266.5382
 20
1154.037
 11
1270.0948000000001
 21
1155.3858
  0
LINE
  8
_0-0_LAYER001
  6
CONTINUOUS
 62
    4
 10
1270.0948000000001
 20
1155.3858
 11
1273.6633999999999
 21
1156.7499
  0
LINE
  8
_0-0_LAYER001
  6
CONTINUOUS
 62
    4
 10
1273.6633999999999
 20
1156.7499
 11
1277.2488000000001
 21
1158.1349
  0
LINE
  8
_0-0_LAYER001
  6
CONTINUOUS
 62
    4
 10
1277.2488000000001
 20
1158.1349
 11
1280.8554999999999
 21
1159.5469000000001
  0
LINE
  8
_0-0_LAYER001
  6
CONTINUOUS
 62
    4
 10
1280.8554999999999
 20
1159.5469000000001
 11
1282.9590000000003
 21
1160.3805
  0
LINE
  8
_0-0_LAYER001
  6
CONTINUOUS
 62
    4
 10
1282.9590000000003
 20
1160.3805
 11
1285.0383999999999
 21
1161.2094
  0
LINE
  8
_0-0_LAYER001
  6
CONTINUOUS
 62
    4
 10
1285.0383999999999
 20
1161.2094
 11
1288.6448999999998
 21
1162.6107999999999
  0
LINE
  8
_0-0_LAYER001
  6
CONTINUOUS
 62
    4
 10
1288.6448999999998
 20
1162.6107999999999
 11
1292.2775999999999
 21
1163.8934999999999
  0
LINE
  8
_0-0_LAYER001
  6
CONTINUOUS
 62
    4
 10
1292.2775999999999
 20
1163.8934999999999
 11
1295.9356
 21
1164.9602
  0
LINE
  8
_0-0_LAYER001
  6
CONTINUOUS
 62
    4
 10
1295.9356
 20
1164.9602
 11
1299.6177
 21
1165.7134000000001
  0
LINE
  8
_0-0_LAYER001
  6
CONTINUOUS
 62
    4
 10
1299.6177
 20
1165.7134000000001
 11
1303.3230000000001
 21
1166.0559000000001
  0
LINE
  8
_0-0_LAYER001
  6
CONTINUOUS
 62
    4
 10
1303.3230000000001
 20
1166.0559000000001
 11
1305.4822999999999
 21
1166.028
  0
LINE
  8
_0-0_LAYER001
  6
CONTINUOUS
 62
    4
 10
1305.4822999999999
 20
1166.028
 11
1306.3314
 21
1165.9666999999999
  0
LINE
  8
_0-0_LAYER001
  6
CONTINUOUS
 62
    4
 10
1306.3314
 20
1165.9666999999999
 11
1307.7958000000001
 21
1165.7961
  0
LINE
  8
_0-0_LAYER001
  6
CONTINUOUS
 62
    4
 10
1307.7958000000001
 20
1165.7961
 11
1309.2569000000001
 21
1165.5494000000001
  0
LINE
  8
_0-0_LAYER001
  6
CONTINUOUS
 62
    4
 10
1309.2569000000001
 20
1165.5494000000001
 11
1310.7104999999999
 21
1165.2333000000001
  0
LINE
  8
_0-0_LAYER001
  6
CONTINUOUS
 62
    4
 10
1310.7104999999999
 20
1165.2333000000001
 11
1312.1527000000001
 21
1164.8548000000001
  0
LINE
  8
_0-0_LAYER001
  6
CONTINUOUS
 62
    4
 10
1312.1527000000001
 20
1164.8548000000001
 11
1313.5790999999999
 21
1164.4206999999999
  0
LINE
  8
_0-0_LAYER001
  6
CONTINUOUS
 62
    4
 10
1313.5790999999999
 20
1164.4206999999999
 11
1314.3976
 21
1164.1460999999999
  0
LINE
  8
_0-0_LAYER001
  6
CONTINUOUS
 62
    4
 10
1314.3976
 20
1164.1460999999999
 11
1316.8958
 21
1163.1978999999999
  0
LINE
  8
_0-0_LAYER001
  6
CONTINUOUS
 62
    4
 10
1316.8958
 20
1163.1978999999999
 11
1321.0546999999999
 21
1161.2643
  0
LINE
  8
_0-0_LAYER001
  6
CONTINUOUS
 62
    4
 10
1321.0546999999999
 20
1161.2643
 11
1325.0586000000001
 21
1159.0189
  0
LINE
  8
_0-0_LAYER001
  6
CONTINUOUS
 62
    4
 10
1325.0586000000001
 20
1159.0189
 11
1328.9454000000001
 21
1156.5387000000001
  0
LINE
  8
_0-0_LAYER001
  6
CONTINUOUS
 62
    4
 10
1328.9454000000001
 20
1156.5387000000001
 11
1332.7534000000001
 21
1153.9005
  0
LINE
  8
_0-0_LAYER001
  6
CONTINUOUS
 62
    4
 10
1332.7534000000001
 20
1153.9005
 11
1336.5207
 21
1151.1813999999999
  0
LINE
  8
_0-0_LAYER001
  6
CONTINUOUS
 62
    4
 10
1336.5207
 20
1151.1813999999999
 11
1338.7020000000002
 21
1149.5976000000001
  0
LINE
  8
_0-0_LAYER001
  6
CONTINUOUS
 62
    4
 10
1338.7020000000002
 20
1149.5976000000001
 11
1342.0336
 21
1147.2108000000001
  0
LINE
  8
_0-0_LAYER001
  6
CONTINUOUS
 62
    4
 10
1342.0336
 20
1147.2108000000001
 11
1347.8258000000001
 21
1143.1938
  0
LINE
  8
_0-0_LAYER001
  6
CONTINUOUS
 62
    4
 10
1347.8258000000001
 20
1143.1938
 11
1353.6979999999999
 21
1139.3371999999999
  0
LINE
  8
_0-0_LAYER001
  6
CONTINUOUS
 62
    4
 10
1353.6979999999999
 20
1139.3371999999999
 11
1359.6721
 21
1135.6828
  0
LINE
  8
_0-0_LAYER001
  6
CONTINUOUS
 62
    4
 10
1359.6721
 20
1135.6828
 11
1365.7702999999997
 21
1132.2722000000001
  0
LINE
  8
_0-0_LAYER001
  6
CONTINUOUS
 62
    4
 10
1365.7702999999997
 20
1132.2722000000001
 11
1372.0146
 21
1129.1474000000001
  0
LINE
  8
_0-0_LAYER001
  6
CONTINUOUS
 62
    4
 10
1372.0146
 20
1129.1474000000001
 11
1375.7119
 21
1127.4824000000001
  0
LINE
  8
_0-0_LAYER001
  6
CONTINUOUS
 62
    4
 10
1375.7119
 20
1127.4824000000001
 11
1378.7710999999999
 21
1126.2112999999999
  0
LINE
  8
_0-0_LAYER001
  6
CONTINUOUS
 62
    4
 10
1378.7710999999999
 20
1126.2112999999999
 11
1384.1316999999999
 21
1124.2092
  0
LINE
  8
_0-0_LAYER001
  6
CONTINUOUS
 62
    4
 10
1384.1316999999999
 20
1124.2092
 11
1389.5873999999999
 21
1122.4537
  0
LINE
  8
_0-0_LAYER001
  6
CONTINUOUS
 62
    4
 10
1389.5873999999999
 20
1122.4537
 11
1395.1223
 21
1120.9529
  0
LINE
  8
_0-0_LAYER001
  6
CONTINUOUS
 62
    4
 10
1395.1223
 20
1120.9529
 11
1400.7206000000001
 21
1119.7148999999999
  0
LINE
  8
_0-0_LAYER001
  6
CONTINUOUS
 62
    4
 10
1400.7206000000001
 20
1119.7148999999999
 11
1406.3663999999999
 21
1118.7476999999999
  0
LINE
  8
_0-0_LAYER001
  6
CONTINUOUS
 62
    4
 10
1406.3663999999999
 20
1118.7476999999999
 11
1409.6563000000001
 21
1118.3140000000001
  0
LINE
  8
_0-0_LAYER001
  6
CONTINUOUS
 62
    4
 10
1409.6563000000001
 20
1118.3140000000001
 11
1412.1756
 21
1118.0461
  0
LINE
  8
_0-0_LAYER001
  6
CONTINUOUS
 62
    4
 10
1412.1756
 20
1118.0461
 11
1416.5277000000001
 21
1117.7061000000001
  0
LINE
  8
_0-0_LAYER001
  6
CONTINUOUS
 62
    4
 10
1416.5277000000001
 20
1117.7061000000001
 11
1420.8878999999999
 21
1117.5065999999999
  0
LINE
  8
_0-0_LAYER001
  6
CONTINUOUS
 62
    4
 10
1420.8878999999999
 20
1117.5065999999999
 11
1425.2530999999999
 21
1117.432
  0
LINE
  8
_0-0_LAYER001
  6
CONTINUOUS
 62
    4
 10
1425.2530999999999
 20
1117.432
 11
1429.6201999999998
 21
1117.4664
  0
LINE
  8
_0-0_LAYER001
  6
CONTINUOUS
 62
    4
 10
1429.6201999999998
 20
1117.4664
 11
1433.9861000000001
 21
1117.5939000000001
  0
LINE
  8
_0-0_LAYER001
  6
CONTINUOUS
 62
    4
 10
1433.9861000000001
 20
1117.5939000000001
 11
1436.5165999999999
 21
1117.7044000000001
  0
LINE
  8
_0-0_LAYER001
  6
CONTINUOUS
 62
    4
 10
1436.5165999999999
 20
1117.7044000000001
 11
1441.2456999999999
 21
1117.9726000000001
  0
LINE
  8
_0-0_LAYER001
  6
CONTINUOUS
 62
    4
 10
1441.2456999999999
 20
1117.9726000000001
 11
1449.3838999999998
 21
1118.6035999999999
  0
LINE
  8
_0-0_LAYER001
  6
CONTINUOUS
 62
    4
 10
1449.3838999999998
 20
1118.6035999999999
 11
1457.5046000000002
 21
1119.4175
  0
LINE
  8
_0-0_LAYER001
  6
CONTINUOUS
 62
    4
 10
1457.5046000000002
 20
1119.4175
 11
1465.6104999999998
 21
1120.3787
  0
LINE
  8
_0-0_LAYER001
  6
CONTINUOUS
 62
    4
 10
1465.6104999999998
 20
1120.3787
 11
1473.7039
 21
1121.4519
  0
LINE
  8
_0-0_LAYER001
  6
CONTINUOUS
 62
    4
 10
1473.7039
 20
1121.4519
 11
1481.7874999999999
 21
1122.6015
  0
LINE
  8
_0-0_LAYER001
  6
CONTINUOUS
 62
    4
 10
1481.7874999999999
 20
1122.6015
 11
1486.4724000000001
 21
1123.2892999999999
  0
LINE
  8
_0-0_LAYER001
  6
CONTINUOUS
 62
    4
 10
1486.4724000000001
 20
1123.2892999999999
 11
1488.9072999999999
 21
1123.6501000000001
  0
LINE
  8
_0-0_LAYER001
  6
CONTINUOUS
 62
    4
 10
1488.9072999999999
 20
1123.6501000000001
 11
1493.1043
 21
1124.2761
  0
LINE
  8
_0-0_LAYER001
  6
CONTINUOUS
 62
    4
 10
1493.1043
 20
1124.2761
 11
1497.3000000000002
 21
1124.9061999999999
  0
LINE
  8
_0-0_LAYER001
  6
CONTINUOUS
 62
    4
 10
1497.3000000000002
 20
1124.9061999999999
 11
1501.4949000000001
 21
1125.5395000000001
  0
LINE
  8
_0-0_LAYER001
  6
CONTINUOUS
 62
    4
 10
1501.4949000000001
 20
1125.5395000000001
 11
1505.6889999999999
 21
1126.1750999999999
  0
LINE
  8
_0-0_LAYER001
  6
CONTINUOUS
 62
    4
 10
1505.6889999999999
 20
1126.1750999999999
 11
1509.8827999999999
 21
1126.8121000000001
  0
LINE
  8
_0-0_LAYER001
  6
CONTINUOUS
 62
    4
 10
1509.8827999999999
 20
1126.8121000000001
 11
1512.3150999999998
 21
1127.1818000000001
  0
LINE
  8
_0-0_LAYER001
  6
CONTINUOUS
 62
    4
 10
1267.2782
 20
1135.0781999999999
 11
1269.3400999999999
 21
1135.8551
  0
LINE
  8
_0-0_LAYER001
  6
CONTINUOUS
 62
    4
 10
1269.3400999999999
 20
1135.8551
 11
1272.9077
 21
1137.2016000000001
  0
LINE
  8
_0-0_LAYER001
  6
CONTINUOUS
 62
    4
 10
1272.9077
 20
1137.2016000000001
 11
1276.4996000000001
 21
1138.5639000000001
  0
LINE
  8
_0-0_LAYER001
  6
CONTINUOUS
 62
    4
 10
1276.4996000000001
 20
1138.5639000000001
 11
1280.1199999999999
 21
1139.9476999999999
  0
LINE
  8
_0-0_LAYER001
  6
CONTINUOUS
 62
    4
 10
1280.1199999999999
 20
1139.9476999999999
 11
1283.7728999999999
 21
1141.3588999999999
  0
LINE
  8
_0-0_LAYER001
  6
CONTINUOUS
 62
    4
 10
1283.7728999999999
 20
1141.3588999999999
 11
1287.4521
 21
1142.7991999999999
  0
LINE
  8
_0-0_LAYER001
  6
CONTINUOUS
 62
    4
 10
1287.4521
 20
1142.7991999999999
 11
1289.6072999999999
 21
1143.6532999999999
  0
LINE
  8
_0-0_LAYER001
  6
CONTINUOUS
 62
    4
 10
1289.6072999999999
 20
1143.6532999999999
 11
1291.6309000000001
 21
1144.4599000000001
  0
LINE
  8
_0-0_LAYER001
  6
CONTINUOUS
 62
    4
 10
1291.6309000000001
 20
1144.4599000000001
 11
1294.9028000000001
 21
1145.7312999999999
  0
LINE
  8
_0-0_LAYER001
  6
CONTINUOUS
 62
    4
 10
1294.9028000000001
 20
1145.7312999999999
 11
1297.7979
 21
1146.7536
  0
LINE
  8
_0-0_LAYER001
  6
CONTINUOUS
 62
    4
 10
1297.7979
 20
1146.7536
 11
1300.2660000000001
 21
1147.4733000000001
  0
LINE
  8
_0-0_LAYER001
  6
CONTINUOUS
 62
    4
 10
1300.2660000000001
 20
1147.4733000000001
 11
1302.2578000000001
 21
1147.8806999999999
  0
LINE
  8
_0-0_LAYER001
  6
CONTINUOUS
 62
    4
 10
1302.2578000000001
 20
1147.8806999999999
 11
1304.0371
 21
1148.0452
  0
LINE
  8
_0-0_LAYER001
  6
CONTINUOUS
 62
    4
 10
1304.0371
 20
1148.0452
 11
1304.7165999999997
 21
1148.0364
  0
LINE
  8
_0-0_LAYER001
  6
CONTINUOUS
 62
    4
 10
1304.7165999999997
 20
1148.0364
 11
1304.6405
 21
1148.0418999999999
  0
LINE
  8
_0-0_LAYER001
  6
CONTINUOUS
 62
    4
 10
1304.6405
 20
1148.0418999999999
 11
1305.2541999999999
 21
1147.9703999999999
  0
LINE
  8
_0-0_LAYER001
  6
CONTINUOUS
 62
    4
 10
1305.2541999999999
 20
1147.9703999999999
 11
1305.8445999999999
 21
1147.8706999999999
  0
LINE
  8
_0-0_LAYER001
  6
CONTINUOUS
 62
    4
 10
1305.8445999999999
 20
1147.8706999999999
 11
1306.5119999999999
 21
1147.7256
  0
LINE
  8
_0-0_LAYER001
  6
CONTINUOUS
 62
    4
 10
1306.5119999999999
 20
1147.7256
 11
1307.2455
 21
1147.5331000000001
  0
LINE
  8
_0-0_LAYER001
  6
CONTINUOUS
 62
    4
 10
1307.2455
 20
1147.5331000000001
 11
1308.0947000000001
 21
1147.2746999999999
  0
LINE
  8
_0-0_LAYER001
  6
CONTINUOUS
 62
    4
 10
1308.0947000000001
 20
1147.2746999999999
 11
1308.3388
 21
1147.1928
  0
LINE
  8
_0-0_LAYER001
  6
CONTINUOUS
 62
    4
 10
1308.3388
 20
1147.1928
 11
1309.8987
 21
1146.6007
  0
LINE
  8
_0-0_LAYER001
  6
CONTINUOUS
 62
    4
 10
1309.8987
 20
1146.6007
 11
1312.8463999999999
 21
1145.2302999999999
  0
LINE
  8
_0-0_LAYER001
  6
CONTINUOUS
 62
    4
 10
1312.8463999999999
 20
1145.2302999999999
 11
1315.8074999999999
 21
1143.5697
  0
LINE
  8
_0-0_LAYER001
  6
CONTINUOUS
 62
    4
 10
1315.8074999999999
 20
1143.5697
 11
1318.9752000000001
 21
1141.5482999999999
  0
LINE
  8
_0-0_LAYER001
  6
CONTINUOUS
 62
    4
 10
1318.9752000000001
 20
1141.5482999999999
 11
1322.3598999999999
 21
1139.2034000000001
  0
LINE
  8
_0-0_LAYER001
  6
CONTINUOUS
 62
    4
 10
1322.3598999999999
 20
1139.2034000000001
 11
1325.9656
 21
1136.6008999999999
  0
LINE
  8
_0-0_LAYER001
  6
CONTINUOUS
 62
    4
 10
1325.9656
 20
1136.6008999999999
 11
1328.1726000000001
 21
1134.9984999999999
  0
LINE
  8
_0-0_LAYER001
  6
CONTINUOUS
 62
    4
 10
1328.1726000000001
 20
1134.9984999999999
 11
1331.6626000000001
 21
1132.4982
  0
LINE
  8
_0-0_LAYER001
  6
CONTINUOUS
 62
    4
 10
1331.6626000000001
 20
1132.4982
 11
1337.7547
 21
1128.2732000000001
  0
LINE
  8
_0-0_LAYER001
  6
CONTINUOUS
 62
    4
 10
1337.7547
 20
1128.2732000000001
 11
1344.0585000000001
 21
1124.1332
  0
LINE
  8
_0-0_LAYER001
  6
CONTINUOUS
 62
    4
 10
1344.0585000000001
 20
1124.1332
 11
1350.5791999999999
 21
1120.1443999999999
  0
LINE
  8
_0-0_LAYER001
  6
CONTINUOUS
 62
    4
 10
1350.5791999999999
 20
1120.1443999999999
 11
1357.3451
 21
1116.3604
  0
LINE
  8
_0-0_LAYER001
  6
CONTINUOUS
 62
    4
 10
1357.3451
 20
1116.3604
 11
1364.2882
 21
1112.8859
  0
LINE
  8
_0-0_LAYER001
  6
CONTINUOUS
 62
    4
 10
1364.2882
 20
1112.8859
 11
1368.5616
 21
1110.9613999999999
  0
LINE
  8
_0-0_LAYER001
  6
CONTINUOUS
 62
    4
 10
1368.5616
 20
1110.9613999999999
 11
1372.1667
 21
1109.4635000000001
  0
LINE
  8
_0-0_LAYER001
  6
CONTINUOUS
 62
    4
 10
1372.1667
 20
1109.4635000000001
 11
1378.2228
 21
1107.2016000000001
  0
LINE
  8
_0-0_LAYER001
  6
CONTINUOUS
 62
    4
 10
1378.2228
 20
1107.2016000000001
 11
1384.4726000000001
 21
1105.1905999999999
  0
LINE
  8
_0-0_LAYER001
  6
CONTINUOUS
 62
    4
 10
1384.4726000000001
 20
1105.1905999999999
 11
1390.8214
 21
1103.4692
  0
LINE
  8
_0-0_LAYER001
  6
CONTINUOUS
 62
    4
 10
1390.8214
 20
1103.4692
 11
1397.2556
 21
1102.0463
  0
LINE
  8
_0-0_LAYER001
  6
CONTINUOUS
 62
    4
 10
1397.2556
 20
1102.0463
 11
1403.6693
 21
1100.9475
  0
LINE
  8
_0-0_LAYER001
  6
CONTINUOUS
 62
    4
 10
1403.6693
 20
1100.9475
 11
1407.5281
 21
1100.4387999999999
  0
LINE
  8
_0-0_LAYER001
  6
CONTINUOUS
 62
    4
 10
1407.5281
 20
1100.4387999999999
 11
1410.5227
 21
1100.1204
  0
LINE
  8
_0-0_LAYER001
  6
CONTINUOUS
 62
    4
 10
1410.5227
 20
1100.1204
 11
1415.4151999999999
 21
1099.7381
  0
LINE
  8
_0-0_LAYER001
  6
CONTINUOUS
 62
    4
 10
1415.4151999999999
 20
1099.7381
 11
1420.3226999999997
 21
1099.5137
  0
LINE
  8
_0-0_LAYER001
  6
CONTINUOUS
 62
    4
 10
1420.3226999999997
 20
1099.5137
 11
1425.1701
 21
1099.4308000000001
  0
LINE
  8
_0-0_LAYER001
  6
CONTINUOUS
 62
    4
 10
1425.1701
 20
1099.4308000000001
 11
1429.954
 21
1099.4684
  0
LINE
  8
_0-0_LAYER001
  6
CONTINUOUS
 62
    4
 10
1429.954
 20
1099.4684
 11
1434.6415999999999
 21
1099.6053999999999
  0
LINE
  8
_0-0_LAYER001
  6
CONTINUOUS
 62
    4
 10
1434.6415999999999
 20
1099.6053999999999
 11
1437.4187999999999
 21
1099.7266999999999
  0
LINE
  8
_0-0_LAYER001
  6
CONTINUOUS
 62
    4
 10
1437.4187999999999
 20
1099.7266999999999
 11
1442.4511000000002
 21
1100.0119999999999
  0
LINE
  8
_0-0_LAYER001
  6
CONTINUOUS
 62
    4
 10
1442.4511000000002
 20
1100.0119999999999
 11
1450.9773
 21
1100.6731
  0
LINE
  8
_0-0_LAYER001
  6
CONTINUOUS
 62
    4
 10
1450.9773
 20
1100.6731
 11
1459.4621999999999
 21
1101.5235
  0
LINE
  8
_0-0_LAYER001
  6
CONTINUOUS
 62
    4
 10
1459.4621999999999
 20
1101.5235
 11
1467.8535000000002
 21
1102.5186000000001
  0
LINE
  8
_0-0_LAYER001
  6
CONTINUOUS
 62
    4
 10
1467.8535000000002
 20
1102.5186000000001
 11
1476.1541999999999
 21
1103.6193000000001
  0
LINE
  8
_0-0_LAYER001
  6
CONTINUOUS
 62
    4
 10
1476.1541999999999
 20
1103.6193000000001
 11
1484.3618999999999
 21
1104.7864999999999
  0
LINE
  8
_0-0_LAYER001
  6
CONTINUOUS
 62
    4
 10
1484.3618999999999
 20
1104.7864999999999
 11
1489.0990999999999
 21
1105.482
  0
LINE
  8
_0-0_LAYER001
  6
CONTINUOUS
 62
    4
 10
1489.0990999999999
 20
1105.482
 11
1491.5544
 21
1105.8458000000001
  0
LINE
  8
_0-0_LAYER001
  6
CONTINUOUS
 62
    4
 10
1491.5544
 20
1105.8458000000001
 11
1495.7685000000001
 21
1106.4744000000001
  0
LINE
  8
_0-0_LAYER001
  6
CONTINUOUS
 62
    4
 10
1495.7685000000001
 20
1106.4744000000001
 11
1499.9801000000002
 21
1107.1069
  0
LINE
  8
_0-0_LAYER001
  6
CONTINUOUS
 62
    4
 10
1499.9801000000002
 20
1107.1069
 11
1504.1867999999999
 21
1107.7419
  0
LINE
  8
_0-0_LAYER001
  6
CONTINUOUS
 62
    4
 10
1504.1867999999999
 20
1107.7419
 11
1508.3890000000001
 21
1108.3787
  0
LINE
  8
_0-0_LAYER001
  6
CONTINUOUS
 62
    4
 10
1508.3890000000001
 20
1108.3787
 11
1512.5868999999998
 21
1109.0164
  0
LINE
  8
_0-0_LAYER001
  6
CONTINUOUS
 62
    4
 10
1512.5868999999998
 20
1109.0164
 11
1514.2046
 21
1109.2623000000001
  0
LINE
  8
_0-0_LAYER001
  6
CONTINUOUS
 62
    4
 10
1261.7493999999999
 20
1152.2284
 11
1262.1753000000001
 21
1152.3915
  0
ARC
  8
_0-0_LAYER001
  6
CONTINUOUS
 62
    4
 10
1262.8219999999999
 20
1149.4267
 40
3
 50
110.94902000000002
 51
178.70000000000002
  0
LINE
  8
_0-0_LAYER001
  6
CONTINUOUS
 62
    4
 10
1259.7134000000001
 20
1133.6556
 11
1259.7134000000001
 21
1149.3780999999999
  0
LINE
  8
_0-0_LAYER001
  6
CONTINUOUS
 62
    4
 10
1261.0673999999999
 20
1132.7203999999999
 11
1267.2421999999999
 21
1135.0576000000001
  0
ARC
  8
_0-0_LAYER001
  6
CONTINUOUS
 62
    4
 10
1260.7134000000001
 20
1133.6556
 40
1
 50
180
 51
290.73165999999998
  0
LINE
  8
_0-0_LAYER001
  6
CONTINUOUS
 62
    4
 10
1524.7134000000001
 20
1112.3334
 11
1524.7134000000001
 21
1129.5308
  0
LINE
  8
_0-0_LAYER001
  6
CONTINUOUS
 62
    4
 10
1512.4400000000001
 20
1127.2172
 11
1556.8942999999999
 21
1136.8651
  0
LINE
  8
_0-0_LAYER001
  6
CONTINUOUS
 62
    4
 10
1519.1851999999999
 20
1107.3834999999999
 11
1557.857
 21
1116.4335000000001
  0
LINE
  8
_0-0_LAYER001
  6
CONTINUOUS
 62
    4
 10
1557.857
 20
1117.3900000000001
 11
1557.857
 21
1116.4335000000001
  0
ARC
  8
_0-0_LAYER001
  6
CONTINUOUS
 62
    4
 10
1558.857
 20
1117.3900000000001
 40
1
 50
102.72435
 51
180
  0
LINE
  8
_0-0_LAYER001
  6
CONTINUOUS
 62
    4
 10
1563.674
 20
1119.5029
 11
1558.6367
 21
1118.3653999999999
  0
ARC
  8
_0-0_LAYER001
  6
CONTINUOUS
 62
    4
 10
1563.8942999999999
 20
1118.5273999999999
 40
1
 50
0
 51
102.72435
  0
LINE
  8
_0-0_LAYER001
  6
CONTINUOUS
 62
    4
 10
1564.1064000000001
 20
1120.0112999999999
 11
1513.9724000000001
 21
1109.1307999999999
  0
ARC
  8
_0-0_LAYER001
  6
CONTINUOUS
 62
    4
 10
1563.8942999999999
 20
1120.9885999999999
 40
1
 50
282.24497000000002
 51
0
  0
LINE
  8
_0-0_LAYER001
  6
CONTINUOUS
 62
    4
 10
1564.1120999999998
 20
1099.2706000000001
 11
1514.5282000000002
 21
1088.2027
  0
LINE
  8
_0-0_LAYER001
  6
CONTINUOUS
 62
    4
 10
1564.8942999999999
 20
1100.2465999999999
 11
1564.8942999999999
 21
1118.5273999999999
  0
ARC
  8
_0-0_LAYER001
  6
CONTINUOUS
 62
    4
 10
1563.8942999999999
 20
1100.2465999999999
 40
1
 50
282.58296000000001
 51
0.0000000000000254
  0
LINE
  8
_0-0_LAYER001
  6
CONTINUOUS
 62
    4
 10
1556.8942999999999
 20
1138.3221000000001
 11
1556.8942999999999
 21
1136.8651
  0
ARC
  8
_0-0_LAYER001
  6
CONTINUOUS
 62
    4
 10
1557.8942999999999
 20
1138.3221000000001
 40
1
 50
101.73308
 51
180
  0
LINE
  8
_0-0_LAYER001
  6
CONTINUOUS
 62
    4
 10
1563.6909000000001
 20
1140.5473999999999
 11
1557.6909000000001
 21
1139.3012000000001
  0
LINE
  8
_0-0_LAYER001
  6
CONTINUOUS
 62
    4
 10
1564.8942999999999
 20
1139.5682999999999
 11
1564.8942999999999
 21
1120.9885999999999
  0
ARC
  8
_0-0_LAYER001
  6
CONTINUOUS
 62
    4
 10
1563.8942999999999
 20
1139.5682999999999
 40
1
 50
0
 51
101.73308
  0
LINE
  8
_0-0_LAYER001
  6
CONTINUOUS
 62
    4
 10
1042.1412
 20
1146.7265
 11
1046.4170999999999
 21
1144.7759000000001
  0
LINE
  8
_0-0_LAYER001
  6
CONTINUOUS
 62
    4
 10
1046.4170999999999
 20
1144.7759000000001
 11
1053.7417
 21
1141.4639999999999
  0
LINE
  8
_0-0_LAYER001
  6
CONTINUOUS
 62
    4
 10
1053.7417
 20
1141.4639999999999
 11
1060.9925000000001
 21
1138.2664
  0
LINE
  8
_0-0_LAYER001
  6
CONTINUOUS
 62
    4
 10
1060.9925000000001
 20
1138.2664
 11
1068.1836000000001
 21
1135.2252000000001
  0
LINE
  8
_0-0_LAYER001
  6
CONTINUOUS
 62
    4
 10
1068.1836000000001
 20
1135.2252000000001
 11
1075.3279
 21
1132.3806999999999
  0
LINE
  8
_0-0_LAYER001
  6
CONTINUOUS
 62
    4
 10
1075.3279
 20
1132.3806999999999
 11
1082.5026
 21
1129.7476999999999
  0
LINE
  8
_0-0_LAYER001
  6
CONTINUOUS
 62
    4
 10
1082.5026
 20
1129.7476999999999
 11
1086.5924
 21
1128.3643
  0
LINE
  8
_0-0_LAYER001
  6
CONTINUOUS
 62
    4
 10
1086.5924
 20
1128.3643
 11
1089.481
 21
1127.4438
  0
LINE
  8
_0-0_LAYER001
  6
CONTINUOUS
 62
    4
 10
1089.481
 20
1127.4438
 11
1094.6885
 21
1125.8931
  0
LINE
  8
_0-0_LAYER001
  6
CONTINUOUS
 62
    4
 10
1094.6885
 20
1125.8931
 11
1099.9345000000001
 21
1124.4541999999999
  0
LINE
  8
_0-0_LAYER001
  6
CONTINUOUS
 62
    4
 10
1099.9345000000001
 20
1124.4541999999999
 11
1105.2609
 21
1123.1011000000001
  0
LINE
  8
_0-0_LAYER001
  6
CONTINUOUS
 62
    4
 10
1105.2609
 20
1123.1011000000001
 11
1110.6622
 21
1121.8214
  0
LINE
  8
_0-0_LAYER001
  6
CONTINUOUS
 62
    4
 10
1110.6622
 20
1121.8214
 11
1116.1496
 21
1120.5985000000001
  0
LINE
  8
_0-0_LAYER001
  6
CONTINUOUS
 62
    4
 10
1116.1496
 20
1120.5985000000001
 11
1119.3314
 21
1119.9185
  0
LINE
  8
_0-0_LAYER001
  6
CONTINUOUS
 62
    4
 10
1119.3314
 20
1119.9185
 11
1121.7854
 21
1119.4069
  0
LINE
  8
_0-0_LAYER001
  6
CONTINUOUS
 62
    4
 10
1121.7854
 20
1119.4069
 11
1126.0291999999999
 21
1118.5572
  0
LINE
  8
_0-0_LAYER001
  6
CONTINUOUS
 62
    4
 10
1126.0291999999999
 20
1118.5572
 11
1130.1929
 21
1117.7827
  0
LINE
  8
_0-0_LAYER001
  6
CONTINUOUS
 62
    4
 10
1130.1929
 20
1117.7827
 11
1134.2896000000001
 21
1117.0962999999999
  0
LINE
  8
_0-0_LAYER001
  6
CONTINUOUS
 62
    4
 10
1134.2896000000001
 20
1117.0962999999999
 11
1138.3190999999999
 21
1116.5128999999999
  0
LINE
  8
_0-0_LAYER001
  6
CONTINUOUS
 62
    4
 10
1138.3190999999999
 20
1116.5128999999999
 11
1142.3436999999999
 21
1116.0386000000001
  0
LINE
  8
_0-0_LAYER001
  6
CONTINUOUS
 62
    4
 10
1142.3436999999999
 20
1116.0386000000001
 11
1144.5626
 21
1115.8307
  0
LINE
  8
_0-0_LAYER001
  6
CONTINUOUS
 62
    4
 10
1144.5626
 20
1115.8307
 11
1146.7738999999999
 21
1115.6652999999999
  0
LINE
  8
_0-0_LAYER001
  6
CONTINUOUS
 62
    4
 10
1146.7738999999999
 20
1115.6652999999999
 11
1150.8034
 21
1115.4597000000001
  0
LINE
  8
_0-0_LAYER001
  6
CONTINUOUS
 62
    4
 10
1150.8034
 20
1115.4597000000001
 11
1154.8571999999999
 21
1115.3596
  0
LINE
  8
_0-0_LAYER001
  6
CONTINUOUS
 62
    4
 10
1154.8571999999999
 20
1115.3596
 11
1158.9949999999999
 21
1115.3480999999999
  0
LINE
  8
_0-0_LAYER001
  6
CONTINUOUS
 62
    4
 10
1158.9949999999999
 20
1115.3480999999999
 11
1163.2139999999999
 21
1115.4105999999999
  0
LINE
  8
_0-0_LAYER001
  6
CONTINUOUS
 62
    4
 10
1163.2139999999999
 20
1115.4105999999999
 11
1167.5239999999999
 21
1115.5318
  0
LINE
  8
_0-0_LAYER001
  6
CONTINUOUS
 62
    4
 10
1167.5239999999999
 20
1115.5318
 11
1170.0243
 21
1115.6212
  0
LINE
  8
_0-0_LAYER001
  6
CONTINUOUS
 62
    4
 10
1170.0243
 20
1115.6212
 11
1172.8871999999999
 21
1115.7362000000001
  0
LINE
  8
_0-0_LAYER001
  6
CONTINUOUS
 62
    4
 10
1172.8871999999999
 20
1115.7362000000001
 11
1177.8425
 21
1115.9690000000001
  0
LINE
  8
_0-0_LAYER001
  6
CONTINUOUS
 62
    4
 10
1177.8425
 20
1115.9690000000001
 11
1182.7494999999999
 21
1116.2484999999999
  0
LINE
  8
_0-0_LAYER001
  6
CONTINUOUS
 62
    4
 10
1182.7494999999999
 20
1116.2484999999999
 11
1187.6207999999999
 21
1116.5823
  0
LINE
  8
_0-0_LAYER001
  6
CONTINUOUS
 62
    4
 10
1187.6207999999999
 20
1116.5823
 11
1192.4552000000001
 21
1116.9773
  0
LINE
  8
_0-0_LAYER001
  6
CONTINUOUS
 62
    4
 10
1192.4552000000001
 20
1116.9773
 11
1197.2833000000001
 21
1117.4432999999999
  0
LINE
  8
_0-0_LAYER001
  6
CONTINUOUS
 62
    4
 10
1197.2833000000001
 20
1117.4432999999999
 11
1199.9417000000001
 21
1117.7338999999999
  0
LINE
  8
_0-0_LAYER001
  6
CONTINUOUS
 62
    4
 10
1199.9417000000001
 20
1117.7338999999999
 11
1207.7098000000001
 21
1118.7286999999999
  0
LINE
  8
_0-0_LAYER001
  6
CONTINUOUS
 62
    4
 10
1207.7098000000001
 20
1118.7286999999999
 11
1221.2184999999999
 21
1120.9241999999999
  0
LINE
  8
_0-0_LAYER001
  6
CONTINUOUS
 62
    4
 10
1221.2184999999999
 20
1120.9241999999999
 11
1234.7080000000001
 21
1123.6171999999999
  0
LINE
  8
_0-0_LAYER001
  6
CONTINUOUS
 62
    4
 10
1234.7080000000001
 20
1123.6171999999999
 11
1248.2819
 21
1126.7243000000001
  0
LINE
  8
_0-0_LAYER001
  6
CONTINUOUS
 62
    4
 10
1248.2819
 20
1126.7243000000001
 11
1261.9532999999999
 21
1130.1442999999999
  0
LINE
  8
_0-0_LAYER001
  6
CONTINUOUS
 62
    4
 10
1261.9532999999999
 20
1130.1442999999999
 11
1275.7365
 21
1133.7725
  0
LINE
  8
_0-0_LAYER001
  6
CONTINUOUS
 62
    4
 10
1275.7365
 20
1133.7725
 11
1281.5255999999999
 21
1135.3236999999999
  0
LINE
  8
_0-0_LAYER001
  6
CONTINUOUS
 62
    4
 10
1280.4159999999999
 20
1114.3230000000001
 11
1266.9258
 21
1110.7719
  0
LINE
  8
_0-0_LAYER001
  6
CONTINUOUS
 62
    4
 10
1266.9258
 20
1110.7719
 11
1252.9404999999999
 21
1107.2734
  0
LINE
  8
_0-0_LAYER001
  6
CONTINUOUS
 62
    4
 10
1252.9404999999999
 20
1107.2734
 11
1238.8978999999999
 21
1104.0589
  0
LINE
  8
_0-0_LAYER001
  6
CONTINUOUS
 62
    4
 10
1238.8978999999999
 20
1104.0589
 11
1224.7816
 21
1101.2409
  0
LINE
  8
_0-0_LAYER001
  6
CONTINUOUS
 62
    4
 10
1224.7816
 20
1101.2409
 11
1210.5851
 21
1098.9336000000001
  0
LINE
  8
_0-0_LAYER001
  6
CONTINUOUS
 62
    4
 10
1210.5851
 20
1098.9336000000001
 11
1202.2989
 21
1097.8724
  0
LINE
  8
_0-0_LAYER001
  6
CONTINUOUS
 62
    4
 10
1202.2989
 20
1097.8724
 11
1199.3307
 21
1097.5479
  0
LINE
  8
_0-0_LAYER001
  6
CONTINUOUS
 62
    4
 10
1199.3307
 20
1097.5479
 11
1194.2302
 21
1097.0556999999999
  0
LINE
  8
_0-0_LAYER001
  6
CONTINUOUS
 62
    4
 10
1194.2302
 20
1097.0556999999999
 11
1189.1188999999999
 21
1096.6380999999999
  0
LINE
  8
_0-0_LAYER001
  6
CONTINUOUS
 62
    4
 10
1189.1188999999999
 20
1096.6380999999999
 11
1184.0019
 21
1096.2873999999999
  0
LINE
  8
_0-0_LAYER001
  6
CONTINUOUS
 62
    4
 10
1184.0019
 20
1096.2873999999999
 11
1178.8805
 21
1095.9956999999999
  0
LINE
  8
_0-0_LAYER001
  6
CONTINUOUS
 62
    4
 10
1178.8805
 20
1095.9956999999999
 11
1173.7578000000001
 21
1095.7550000000001
  0
LINE
  8
_0-0_LAYER001
  6
CONTINUOUS
 62
    4
 10
1173.7578000000001
 20
1095.7550000000001
 11
1170.7828999999999
 21
1095.6356000000001
  0
LINE
  8
_0-0_LAYER001
  6
CONTINUOUS
 62
    4
 10
1170.7828999999999
 20
1095.6356000000001
 11
1168.1624999999999
 21
1095.5418999999999
  0
LINE
  8
_0-0_LAYER001
  6
CONTINUOUS
 62
    4
 10
1168.1624999999999
 20
1095.5418999999999
 11
1163.6433
 21
1095.4147
  0
LINE
  8
_0-0_LAYER001
  6
CONTINUOUS
 62
    4
 10
1163.6433
 20
1095.4147
 11
1159.1152999999999
 21
1095.3477
  0
LINE
  8
_0-0_LAYER001
  6
CONTINUOUS
 62
    4
 10
1159.1152999999999
 20
1095.3477
 11
1154.5824
 21
1095.3603000000001
  0
LINE
  8
_0-0_LAYER001
  6
CONTINUOUS
 62
    4
 10
1154.5824
 20
1095.3603000000001
 11
1150.0469000000001
 21
1095.4722999999999
  0
LINE
  8
_0-0_LAYER001
  6
CONTINUOUS
 62
    4
 10
1150.0469000000001
 20
1095.4722999999999
 11
1145.5183999999999
 21
1095.7032999999999
  0
LINE
  8
_0-0_LAYER001
  6
CONTINUOUS
 62
    4
 10
1145.5183999999999
 20
1095.7032999999999
 11
1142.8834999999999
 21
1095.9004
  0
LINE
  8
_0-0_LAYER001
  6
CONTINUOUS
 62
    4
 10
1142.8834999999999
 20
1095.9004
 11
1140.2401
 21
1096.1481000000001
  0
LINE
  8
_0-0_LAYER001
  6
CONTINUOUS
 62
    4
 10
1140.2401
 20
1096.1481000000001
 11
1135.7153000000001
 21
1096.6813
  0
LINE
  8
_0-0_LAYER001
  6
CONTINUOUS
 62
    4
 10
1135.7153000000001
 20
1096.6813
 11
1131.2038
 21
1097.3345999999999
  0
LINE
  8
_0-0_LAYER001
  6
CONTINUOUS
 62
    4
 10
1131.2038
 20
1097.3345999999999
 11
1126.7113999999999
 21
1098.0871999999999
  0
LINE
  8
_0-0_LAYER001
  6
CONTINUOUS
 62
    4
 10
1126.7113999999999
 20
1098.0871999999999
 11
1122.2371000000001
 21
1098.9195
  0
LINE
  8
_0-0_LAYER001
  6
CONTINUOUS
 62
    4
 10
1122.2371000000001
 20
1098.9195
 11
1117.7814000000001
 21
1099.8116
  0
LINE
  8
_0-0_LAYER001
  6
CONTINUOUS
 62
    4
 10
1117.7814000000001
 20
1099.8116
 11
1115.2003
 21
1100.3497
  0
LINE
  8
_0-0_LAYER001
  6
CONTINUOUS
 62
    4
 10
1115.2003
 20
1100.3497
 11
1111.8842
 21
1101.0585000000001
  0
LINE
  8
_0-0_LAYER001
  6
CONTINUOUS
 62
    4
 10
1111.8842
 20
1101.0585000000001
 11
1106.1813999999999
 21
1102.3294000000001
  0
LINE
  8
_0-0_LAYER001
  6
CONTINUOUS
 62
    4
 10
1106.1813999999999
 20
1102.3294000000001
 11
1100.4929999999999
 21
1103.6771000000001
  0
LINE
  8
_0-0_LAYER001
  6
CONTINUOUS
 62
    4
 10
1100.4929999999999
 20
1103.6771000000001
 11
1094.8267000000001
 21
1105.1165000000001
  0
LINE
  8
_0-0_LAYER001
  6
CONTINUOUS
 62
    4
 10
1094.8267000000001
 20
1105.1165000000001
 11
1089.1887999999999
 21
1106.6629
  0
LINE
  8
_0-0_LAYER001
  6
CONTINUOUS
 62
    4
 10
1089.1887999999999
 20
1106.6629
 11
1083.5904
 21
1108.3299999999999
  0
LINE
  8
_0-0_LAYER001
  6
CONTINUOUS
 62
    4
 10
1083.5904
 20
1108.3299999999999
 11
1080.3514
 21
1109.3621000000001
  0
LINE
  8
_0-0_LAYER001
  6
CONTINUOUS
 62
    4
 10
1080.3514
 20
1109.3621000000001
 11
1075.8520000000001
 21
1110.8841
  0
LINE
  8
_0-0_LAYER001
  6
CONTINUOUS
 62
    4
 10
1075.8520000000001
 20
1110.8841
 11
1068.1823999999999
 21
1113.6987999999999
  0
LINE
  8
_0-0_LAYER001
  6
CONTINUOUS
 62
    4
 10
1068.1823999999999
 20
1113.6987999999999
 11
1060.5886
 21
1116.7221999999999
  0
LINE
  8
_0-0_LAYER001
  6
CONTINUOUS
 62
    4
 10
1060.5886
 20
1116.7221999999999
 11
1053.0618999999999
 21
1119.9052999999999
  0
LINE
  8
_0-0_LAYER001
  6
CONTINUOUS
 62
    4
 10
1053.0618999999999
 20
1119.9052999999999
 11
1052.6860999999999
 21
1120.0710999999999
  0
LINE
  8
_0-0_LAYER001
  6
CONTINUOUS
 62
    4
 10
1286.1054999999999
 20
1097.2103
 11
1285.4908
 21
1097.0455999999999
  0
LINE
  8
_0-0_LAYER001
  6
CONTINUOUS
 62
    4
 10
1285.4908
 20
1097.0455999999999
 11
1271.4012
 21
1093.3368
  0
LINE
  8
_0-0_LAYER001
  6
CONTINUOUS
 62
    4
 10
1271.4012
 20
1093.3368
 11
1257.1332
 21
1089.7675999999999
  0
LINE
  8
_0-0_LAYER001
  6
CONTINUOUS
 62
    4
 10
1257.1332
 20
1089.7675999999999
 11
1242.6687999999999
 21
1086.4566
  0
LINE
  8
_0-0_LAYER001
  6
CONTINUOUS
 62
    4
 10
1242.6687999999999
 20
1086.4566
 11
1227.9883
 21
1083.5259000000001
  0
LINE
  8
_0-0_LAYER001
  6
CONTINUOUS
 62
    4
 10
1227.9883
 20
1083.5259000000001
 11
1213.1729
 21
1081.1179999999999
  0
LINE
  8
_0-0_LAYER001
  6
CONTINUOUS
 62
    4
 10
1213.1729
 20
1081.1179999999999
 11
1204.4204
 21
1079.9971
  0
LINE
  8
_0-0_LAYER001
  6
CONTINUOUS
 62
    4
 10
1204.4204
 20
1079.9971
 11
1201.1733999999999
 21
1079.6421
  0
LINE
  8
_0-0_LAYER001
  6
CONTINUOUS
 62
    4
 10
1201.1733999999999
 20
1079.6421
 11
1195.8278
 21
1079.1261999999999
  0
LINE
  8
_0-0_LAYER001
  6
CONTINUOUS
 62
    4
 10
1195.8278
 20
1079.1261999999999
 11
1190.4672
 21
1078.6883
  0
LINE
  8
_0-0_LAYER001
  6
CONTINUOUS
 62
    4
 10
1190.4672
 20
1078.6883
 11
1185.1289999999999
 21
1078.3224
  0
LINE
  8
_0-0_LAYER001
  6
CONTINUOUS
 62
    4
 10
1185.1289999999999
 20
1078.3224
 11
1179.8145999999999
 21
1078.0197000000001
  0
LINE
  8
_0-0_LAYER001
  6
CONTINUOUS
 62
    4
 10
1179.8145999999999
 20
1078.0197000000001
 11
1174.5413000000001
 21
1077.7719999999999
  0
LINE
  8
_0-0_LAYER001
  6
CONTINUOUS
 62
    4
 10
1174.5413000000001
 20
1077.7719999999999
 11
1171.4657
 21
1077.6485
  0
LINE
  8
_0-0_LAYER001
  6
CONTINUOUS
 62
    4
 10
1171.4657
 20
1077.6485
 11
1168.7371000000001
 21
1077.5509
  0
LINE
  8
_0-0_LAYER001
  6
CONTINUOUS
 62
    4
 10
1168.7371000000001
 20
1077.5509
 11
1164.0297
 21
1077.4185
  0
LINE
  8
_0-0_LAYER001
  6
CONTINUOUS
 62
    4
 10
1164.0297
 20
1077.4185
 11
1159.2236
 21
1077.3472999999999
  0
LINE
  8
_0-0_LAYER001
  6
CONTINUOUS
 62
    4
 10
1159.2236
 20
1077.3472999999999
 11
1154.335
 21
1077.3608999999999
  0
LINE
  8
_0-0_LAYER001
  6
CONTINUOUS
 62
    4
 10
1154.335
 20
1077.3608999999999
 11
1149.3661
 21
1077.4837
  0
LINE
  8
_0-0_LAYER001
  6
CONTINUOUS
 62
    4
 10
1149.3661
 20
1077.4837
 11
1144.3885
 21
1077.7375
  0
LINE
  8
_0-0_LAYER001
  6
CONTINUOUS
 62
    4
 10
1144.3885
 20
1077.7375
 11
1141.3723
 21
1077.9630999999999
  0
LINE
  8
_0-0_LAYER001
  6
CONTINUOUS
 62
    4
 10
1141.3723
 20
1077.9630999999999
 11
1138.3468
 21
1078.2466999999999
  0
LINE
  8
_0-0_LAYER001
  6
CONTINUOUS
 62
    4
 10
1138.3468
 20
1078.2466999999999
 11
1133.3719000000001
 21
1078.8329000000001
  0
LINE
  8
_0-0_LAYER001
  6
CONTINUOUS
 62
    4
 10
1133.3719000000001
 20
1078.8329000000001
 11
1128.4266
 21
1079.549
  0
LINE
  8
_0-0_LAYER001
  6
CONTINUOUS
 62
    4
 10
1128.4266
 20
1079.549
 11
1123.578
 21
1080.3613
  0
LINE
  8
_0-0_LAYER001
  6
CONTINUOUS
 62
    4
 10
1123.578
 20
1080.3613
 11
1118.8241
 21
1081.2456
  0
LINE
  8
_0-0_LAYER001
  6
CONTINUOUS
 62
    4
 10
1118.8241
 20
1081.2456
 11
1114.1777
 21
1082.1759
  0
LINE
  8
_0-0_LAYER001
  6
CONTINUOUS
 62
    4
 10
1114.1777
 20
1082.1759
 11
1111.4822999999999
 21
1082.7378000000001
  0
LINE
  8
_0-0_LAYER001
  6
CONTINUOUS
 62
    4
 10
1111.4822999999999
 20
1082.7378000000001
 11
1108.0453
 21
1083.4724000000001
  0
LINE
  8
_0-0_LAYER001
  6
CONTINUOUS
 62
    4
 10
1108.0453
 20
1083.4724000000001
 11
1102.1487
 21
1084.7864999999999
  0
LINE
  8
_0-0_LAYER001
  6
CONTINUOUS
 62
    4
 10
1102.1487
 20
1084.7864999999999
 11
1096.2018
 21
1086.1955
  0
LINE
  8
_0-0_LAYER001
  6
CONTINUOUS
 62
    4
 10
1096.2018
 20
1086.1955
 11
1090.2298000000001
 21
1087.7126000000001
  0
LINE
  8
_0-0_LAYER001
  6
CONTINUOUS
 62
    4
 10
1090.2298000000001
 20
1087.7126000000001
 11
1084.239
 21
1089.3557000000001
  0
LINE
  8
_0-0_LAYER001
  6
CONTINUOUS
 62
    4
 10
1084.239
 20
1089.3557000000001
 11
1078.2888
 21
1091.1276
  0
LINE
  8
_0-0_LAYER001
  6
CONTINUOUS
 62
    4
 10
1078.2888
 20
1091.1276
 11
1074.7345
 21
1092.2601999999999
  0
LINE
  8
_0-0_LAYER001
  6
CONTINUOUS
 62
    4
 10
1074.7345
 20
1092.2601999999999
 11
1069.8664000000001
 21
1093.9069
  0
LINE
  8
_0-0_LAYER001
  6
CONTINUOUS
 62
    4
 10
1069.8664000000001
 20
1093.9069
 11
1061.7514000000001
 21
1096.885
  0
LINE
  8
_0-0_LAYER001
  6
CONTINUOUS
 62
    4
 10
1061.7514000000001
 20
1096.885
 11
1053.7530999999999
 21
1100.0695000000001
  0
LINE
  8
_0-0_LAYER001
  6
CONTINUOUS
 62
    4
 10
1053.7530999999999
 20
1100.0695000000001
 11
1052.3426999999999
 21
1100.6659999999999
  0
LINE
  8
_0-0_LAYER001
  6
CONTINUOUS
 62
    4
 10
1280.357
 20
1116.3756000000001
 11
1287.1459
 21
1118.1947
  0
LINE
  8
_0-0_LAYER001
  6
CONTINUOUS
 62
    4
 10
1266.4286
 20
1112.7092
 11
1280.357
 21
1116.3756000000001
  0
LINE
  8
_0-0_LAYER001
  6
CONTINUOUS
 62
    4
 10
1252.4746
 20
1109.2184999999999
 11
1266.4286
 21
1112.7092
  0
LINE
  8
_0-0_LAYER001
  6
CONTINUOUS
 62
    4
 10
1238.4789000000001
 20
1106.0147999999999
 11
1252.4746
 21
1109.2184999999999
  0
LINE
  8
_0-0_LAYER001
  6
CONTINUOUS
 62
    4
 10
1224.4253000000001
 20
1103.2092
 11
1238.4789000000001
 21
1106.0147999999999
  0
LINE
  8
_0-0_LAYER001
  6
CONTINUOUS
 62
    4
 10
1210.2976000000001
 20
1100.9131
 11
1224.4253000000001
 21
1103.2092
  0
LINE
  8
_0-0_LAYER001
  6
CONTINUOUS
 62
    4
 10
1202.0632000000001
 20
1099.8586
 11
1210.2976000000001
 21
1100.9131
  0
LINE
  8
_0-0_LAYER001
  6
CONTINUOUS
 62
    4
 10
1199.126
 20
1099.5374999999999
 11
1202.0632000000001
 21
1099.8586
  0
LINE
  8
_0-0_LAYER001
  6
CONTINUOUS
 62
    4
 10
1194.0527
 20
1099.0479
 11
1199.126
 21
1099.5374999999999
  0
LINE
  8
_0-0_LAYER001
  6
CONTINUOUS
 62
    4
 10
1188.9691
 20
1098.6324999999999
 11
1194.0527
 21
1099.0479
  0
LINE
  8
_0-0_LAYER001
  6
CONTINUOUS
 62
    4
 10
1183.8766000000001
 20
1098.2835
 11
1188.9691
 21
1098.6324999999999
  0
LINE
  8
_0-0_LAYER001
  6
CONTINUOUS
 62
    4
 10
1178.7766999999999
 20
1097.9929999999999
 11
1183.8766000000001
 21
1098.2835
  0
LINE
  8
_0-0_LAYER001
  6
CONTINUOUS
 62
    4
 10
1173.6706999999999
 20
1097.7532000000001
 11
1178.7766999999999
 21
1097.9929999999999
  0
LINE
  8
_0-0_LAYER001
  6
CONTINUOUS
 62
    4
 10
1170.7071000000001
 20
1097.6341
 11
1173.6706999999999
 21
1097.7532000000001
  0
LINE
  8
_0-0_LAYER001
  6
CONTINUOUS
 62
    4
 10
1168.0986
 20
1097.5409
 11
1170.7071000000001
 21
1097.6341
  0
LINE
  8
_0-0_LAYER001
  6
CONTINUOUS
 62
    4
 10
1163.6004
 20
1097.4142999999999
 11
1168.0986
 21
1097.5409
  0
LINE
  8
_0-0_LAYER001
  6
CONTINUOUS
 62
    4
 10
1159.1033
 20
1097.3477
 11
1163.6004
 21
1097.4142999999999
  0
LINE
  8
_0-0_LAYER001
  6
CONTINUOUS
 62
    4
 10
1154.6098
 20
1097.3602000000001
 11
1159.1033
 21
1097.3477
  0
LINE
  8
_0-0_LAYER001
  6
CONTINUOUS
 62
    4
 10
1150.1225999999999
 20
1097.4711
 11
1154.6098
 21
1097.3602000000001
  0
LINE
  8
_0-0_LAYER001
  6
CONTINUOUS
 62
    4
 10
1145.644
 20
1097.6994999999999
 11
1150.1225999999999
 21
1097.4711
  0
LINE
  8
_0-0_LAYER001
  6
CONTINUOUS
 62
    4
 10
1143.0514000000001
 20
1097.8933999999999
 11
1145.644
 21
1097.6994999999999
  0
LINE
  8
_0-0_LAYER001
  6
CONTINUOUS
 62
    4
 10
1140.4503999999999
 20
1098.1371999999999
 11
1143.0514000000001
 21
1097.8933999999999
  0
LINE
  8
_0-0_LAYER001
  6
CONTINUOUS
 62
    4
 10
1135.9757
 20
1098.6645000000001
 11
1140.4503999999999
 21
1098.1371999999999
  0
LINE
  8
_0-0_LAYER001
  6
CONTINUOUS
 62
    4
 10
1131.5124000000001
 20
1099.3107
 11
1135.9757
 21
1098.6645000000001
  0
LINE
  8
_0-0_LAYER001
  6
CONTINUOUS
 62
    4
 10
1127.0595000000001
 20
1100.0568000000001
 11
1131.5124000000001
 21
1099.3107
  0
LINE
  8
_0-0_LAYER001
  6
CONTINUOUS
 62
    4
 10
1122.6162999999999
 20
1100.8833
 11
1127.0595000000001
 21
1100.0568000000001
  0
LINE
  8
_0-0_LAYER001
  6
CONTINUOUS
 62
    4
 10
1118.1818000000001
 20
1101.7710999999999
 11
1122.6162999999999
 21
1100.8833
  0
LINE
  8
_0-0_LAYER001
  6
CONTINUOUS
 62
    4
 10
1115.6134
 20
1102.3065999999999
 11
1118.1818000000001
 21
1101.7710999999999
  0
LINE
  8
_0-0_LAYER001
  6
CONTINUOUS
 62
    4
 10
1112.3108
 20
1103.0125
 11
1115.6134
 21
1102.3065999999999
  0
LINE
  8
_0-0_LAYER001
  6
CONTINUOUS
 62
    4
 10
1106.6295
 20
1104.2786000000001
 11
1112.3108
 21
1103.0125
  0
LINE
  8
_0-0_LAYER001
  6
CONTINUOUS
 62
    4
 10
1100.9698000000001
 20
1105.6195
 11
1106.6295
 21
1104.2786000000001
  0
LINE
  8
_0-0_LAYER001
  6
CONTINUOUS
 62
    4
 10
1095.3375000000001
 20
1107.0503000000001
 11
1100.9698000000001
 21
1105.6195
  0
LINE
  8
_0-0_LAYER001
  6
CONTINUOUS
 62
    4
 10
1089.7387000000001
 20
1108.5859
 11
1095.3375000000001
 21
1107.0503000000001
  0
LINE
  8
_0-0_LAYER001
  6
CONTINUOUS
 62
    4
 10
1084.1794
 20
1110.2414000000001
 11
1089.7387000000001
 21
1108.5859
  0
LINE
  8
_0-0_LAYER001
  6
CONTINUOUS
 62
    4
 10
1080.9755
 20
1111.2623000000001
 11
1084.1794
 21
1110.2414000000001
  0
LINE
  8
_0-0_LAYER001
  6
CONTINUOUS
 62
    4
 10
1076.5170000000001
 20
1112.7705000000001
 11
1080.9755
 21
1111.2623000000001
  0
LINE
  8
_0-0_LAYER001
  6
CONTINUOUS
 62
    4
 10
1068.8969999999999
 20
1115.567
 11
1076.5170000000001
 21
1112.7705000000001
  0
LINE
  8
_0-0_LAYER001
  6
CONTINUOUS
 62
    4
 10
1061.3480999999999
 20
1118.5725
 11
1068.8969999999999
 21
1115.567
  0
LINE
  8
_0-0_LAYER001
  6
CONTINUOUS
 62
    4
 10
1053.855
 20
1121.7414000000001
 11
1061.3480999999999
 21
1118.5725
  0
LINE
  8
_0-0_LAYER001
  6
CONTINUOUS
 62
    4
 10
1052.6286
 20
1122.2823000000001
 11
1053.855
 21
1121.7414000000001
  0
ARC
  8
_0-0_LAYER001
  6
CONTINUOUS
 62
    4
 10
1035.9882
 20
1089.2326
 40
36.94905
 50
62.626221000000001
 51
91.897946000000005
  0
LINE
  8
_0-0_LAYER001
  6
CONTINUOUS
 62
    4
 10
1034.9771000000001
 20
1068.7465999999999
 11
1052.9771000000001
 21
1068.7465999999999
  0
LINE
  8
_0-0_LAYER001
  6
CONTINUOUS
 62
    4
 10
1052.9771000000001
 20
1122.0443
 11
1052.9771000000001
 21
1068.7465999999999
  0
LINE
  8
_0-0_LAYER001
  6
CONTINUOUS
 62
    4
 10
1034.9771000000001
 20
1150.2367999999999
 11
1034.9771000000001
 21
1068.7465999999999
  0
LINE
  8
_0-0_LAYER001
  6
CONTINUOUS
 62
    4
 10
1042.1112000000001
 20
1146.759
 11
1034.9771000000001
 21
1150.2367999999999
  0
LINE
  8
_0-0_LAYER001
  6
CONTINUOUS
 62
    4
 10
1031.3489999999999
 20
1127.4269999999999
 11
1034.9771000000001
 21
1070.6964
  0
LINE
  8
_0-0_LAYER001
  6
CONTINUOUS
 62
    4
 10
1034.9771000000001
 20
1125.6130000000001
 11
1031.3489999999999
 21
1127.4269999999999
  0
LINE
  8
_0-0_LAYER001
  6
CONTINUOUS
 62
    4
 10
1259.8427999999999
 20
1129.1874
 11
1259.8427999999999
 21
1111.6401000000001
  0
ARC
  8
_0-0_LAYER001
  6
CONTINUOUS
 62
    4
 10
1292.8184000000001
 20
1140.1066000000001
 40
1
 50
105.29948999999999
 51
176.99999999999997
  0
LINE
  8
_0-0_LAYER001
  6
CONTINUOUS
 62
    4
 10
1290.6909999999998
 20
1117.8792000000001
 11
1290.6316999999999
 21
1116.7487000000001
  0
ARC
  8
_0-0_LAYER001
  6
CONTINUOUS
 62
    4
 10
1291.6895999999999
 20
1117.8268
 40
1
 50
105.35783000000001
 51
177
  0
LINE
  8
_0-0_LAYER001
  6
CONTINUOUS
 62
    4
 10
1298.0914000000002
 20
1120.6221
 11
1291.4248
 21
1118.7910999999999
  0
ARC
  8
_0-0_LAYER001
  6
CONTINUOUS
 62
    4
 10
1298.3562999999999
 20
1119.6578999999999
 40
1
 50
0
 51
105.35783000000001
  0
LINE
  8
_0-0_LAYER001
  6
CONTINUOUS
 62
    4
 10
1298.2451000000001
 20
1142.6278
 11
1292.5545
 21
1141.0710999999999
  0
ARC
  8
_0-0_LAYER001
  6
CONTINUOUS
 62
    4
 10
1298.5088999999998
 20
1141.6632999999999
 40
1
 50
0
 51
105.29948999999999
  0
LINE
  8
_0-0_LAYER001
  6
CONTINUOUS
 62
    4
 10
1298.8053
 20
1120.9735000000001
 11
1297.3466000000003
 21
1120.5208
  0
LINE
  8
_0-0_LAYER001
  6
CONTINUOUS
 62
    4
 10
1299.5089000000003
 20
1121.9286
 11
1299.5089000000003
 21
1141.6632999999999
  0
ARC
  8
_0-0_LAYER001
  6
CONTINUOUS
 62
    4
 10
1298.5088999999998
 20
1121.9286
 40
1
 50
287.24145000000004
 51
0.0000000000000508
  0
LINE
  8
_0-0_LAYER001
  6
CONTINUOUS
 62
    4
 10
1291.0498000000002
 20
1138.1514999999999
 11
1281.5912000000001
 21
1135.3244
  0
LINE
  8
_0-0_LAYER001
  6
CONTINUOUS
 62
    4
 10
1291.7619999999999
 20
1139.0572999999999
 11
1291.8198000000002
 21
1140.1588999999999
  0
ARC
  8
_0-0_LAYER001
  6
CONTINUOUS
 62
    4
 10
1290.7634000000003
 20
1139.1097
 40
1
 50
286.64103
 51
357
  0
LINE
  8
_0-0_LAYER001
  6
CONTINUOUS
 62
    4
 10
1287.2863000000002
 20
1118.1741
 11
1299.2266
 21
1121.9827
  0
LINE
  8
_0-0_LAYER001
  6
CONTINUOUS
 62
    4
 10
1280.7788
 20
1114.3253999999999
 11
1290.5834
 21
1117.1267
  0
LINE
  8
_0-0_LAYER001
  6
CONTINUOUS
 62
    4
 10
1298.6570000000002
 20
1101.1599000000001
 11
1286.1621
 21
1097.2201
  0
LINE
  8
_0-0_LAYER001
  6
CONTINUOUS
 62
    4
 10
1299.3562999999999
 20
1102.1135999999999
 11
1299.3562999999999
 21
1119.6578999999999
  0
ARC
  8
_0-0_LAYER001
  6
CONTINUOUS
 62
    4
 10
1298.3562999999999
 20
1102.1135999999999
 40
1
 50
287.50085999999999
 51
0
  0
LINE
  8
_0-0_LAYER001
  6
DASHED1
 62
    2
 10
1365.9350999999997
 20
1114.6937
 11
1381.9351000000001
 21
1114.6937
  0
LINE
  8
_0-0_LAYER001
  6
DASHED1
 62
    2
 10
1381.9351000000001
 20
1114.6937
 11
1381.9351000000001
 21
1111.6937
  0
LINE
  8
_0-0_LAYER001
  6
DASHED1
 62
    2
 10
1365.9350999999997
 20
1114.6937
 11
1365.9350999999997
 21
1111.6937
  0
LINE
  8
_0-0_LAYER001
  6
DASHED1
 62
    2
 10
1365.9350999999997
 20
1111.6937
 11
1381.9351000000001
 21
1111.6937
  0
LINE
  8
_0-0_LAYER001
  6
DASHED1
 62
    2
 10
1376.9351000000001
 20
1056.7976000000001
 11
1373.885
 21
1042.2887000000001
  0
LINE
  8
_0-0_LAYER001
  6
DASHED1
 62
    2
 10
1376.9351000000001
 20
1111.6937
 11
1376.9351000000001
 21
1056.7976000000001
  0
LINE
  8
_0-0_LAYER001
  6
DASHED1
 62
    2
 10
1373.885
 20
1042.2887000000001
 11
1370.9350999999997
 21
1056.5462
  0
LINE
  8
_0-0_LAYER001
  6
DASHED1
 62
    2
 10
1370.9350999999997
 20
1111.6937
 11
1370.9350999999997
 21
1056.5462
  0
LINE
  8
_0-0_LAYER001
  6
DASHED1
 62
    2
 10
1628.6417000000001
 20
1109.9744000000001
 11
1644.6417000000001
 21
1109.9744000000001
  0
LINE
  8
_0-0_LAYER001
  6
DASHED1
 62
    2
 10
1644.6417000000001
 20
1109.9744000000001
 11
1644.6417000000001
 21
1106.9744000000001
  0
LINE
  8
_0-0_LAYER001
  6
DASHED1
 62
    2
 10
1628.6417000000001
 20
1109.9744000000001
 11
1628.6417000000001
 21
1106.9744000000001
  0
LINE
  8
_0-0_LAYER001
  6
DASHED1
 62
    2
 10
1628.6417000000001
 20
1106.9744000000001
 11
1644.6417000000001
 21
1106.9744000000001
  0
LINE
  8
_0-0_LAYER001
  6
DASHED1
 62
    2
 10
1639.6417000000001
 20
1052.0782999999999
 11
1636.5915
 21
1037.5694000000001
  0
LINE
  8
_0-0_LAYER001
  6
DASHED1
 62
    2
 10
1639.6417000000001
 20
1106.9744000000001
 11
1639.6417000000001
 21
1052.0782999999999
  0
LINE
  8
_0-0_LAYER001
  6
DASHED1
 62
    2
 10
1636.5915
 20
1037.5694000000001
 11
1633.6417000000001
 21
1051.8269
  0
LINE
  8
_0-0_LAYER001
  6
DASHED1
 62
    2
 10
1633.6417000000001
 20
1106.9744000000001
 11
1633.6417000000001
 21
1051.8269
  0
LINE
  8
_0-0_LAYER001
  6
DASHED1
 62
    2
 10
1892.9213
 20
1109.9744000000001
 11
1908.9213
 21
1109.9744000000001
  0
LINE
  8
_0-0_LAYER001
  6
DASHED1
 62
    2
 10
1908.9213
 20
1109.9744000000001
 11
1908.9213
 21
1106.9744000000001
  0
LINE
  8
_0-0_LAYER001
  6
DASHED1
 62
    2
 10
1892.9213
 20
1109.9744000000001
 11
1892.9213
 21
1106.9744000000001
  0
LINE
  8
_0-0_LAYER001
  6
DASHED1
 62
    2
 10
1892.9213
 20
1106.9744000000001
 11
1908.9213
 21
1106.9744000000001
  0
LINE
  8
_0-0_LAYER001
  6
DASHED1
 62
    2
 10
1903.9213
 20
1052.0782999999999
 11
1900.8710999999998
 21
1037.5694000000001
  0
LINE
  8
_0-0_LAYER001
  6
DASHED1
 62
    2
 10
1903.9213
 20
1106.9744000000001
 11
1903.9213
 21
1052.0782999999999
  0
LINE
  8
_0-0_LAYER001
  6
DASHED1
 62
    2
 10
1900.8710999999998
 20
1037.5694000000001
 11
1897.9213
 21
1051.8269
  0
LINE
  8
_0-0_LAYER001
  6
DASHED1
 62
    2
 10
1897.9213
 20
1106.9744000000001
 11
1897.9213
 21
1051.8269
  0
LINE
  8
_0-1_LAYER004
  6
CONTINUOUS
 62
    7
 10
1032.4659999999999
 20
1286.7554999999998
 11
1032.4659999999999
 21
1234.2555
  0
LINE
  8
_0-1_LAYER004
  6
CONTINUOUS
 62
    7
 10
1034.1659999999999
 20
1284.2554999999998
 11
1787.4659999999999
 21
1284.2554999999998
  0
LINE
  8
_0-1_LAYER004
  6
CONTINUOUS
 62
    7
 10
1787.4659999999999
 20
1234.2555
 11
1787.4659999999999
 21
1286.7554999999998
  0
LINE
  8
_0-1_LAYER004
  6
CONTINUOUS
 62
    7
 10
1522.4659999999999
 20
1234.2555
 11
1522.4659999999999
 21
1286.7554999999998
  0
LINE
  8
_0-1_LAYER004
  6
CONTINUOUS
 62
    7
 10
1257.4659999999999
 20
1234.2555
 11
1257.4659999999999
 21
1286.7554999999998
  0
LINE
  8
_0-1_LAYER004
  6
CONTINUOUS
 62
    7
 10
979.0612000000001
 20
1205.9459999999999
 11
1050.8440000000001
 21
1205.9459999999999
  0
LINE
  8
_0-1_LAYER004
  6
CONTINUOUS
 62
    7
 10
976.63709999999992
 20
1159.1631
 11
1032.3168000000001
 21
1159.1631
  0
LINE
  8
_0-1_LAYER004
  6
CONTINUOUS
 62
    7
 10
1102.5423000000001
 20
1203.1913
 11
1150.5423000000001
 21
1203.1913
  0
LINE
  8
_0-1_LAYER004
  6
CONTINUOUS
 62
    7
 10
1592.2682
 20
1203.0574999999999
 11
1632.7682
 21
1203.0574999999999
  0
LINE
  8
_0-1_LAYER004
  6
CONTINUOUS
 62
    7
 10
1489.7491
 20
890.30160000000001
 11
1694.5718000000002
 21
890.30160000000001
  0
LINE
  8
_0-1_LAYER004
  6
CONTINUOUS
 62
    7
 10
1498.3784999999998
 20
860.20630000000006
 11
1735.1385
 21
860.20630000000006
  0
LINE
  8
_0-1_LAYER004
  6
CONTINUOUS
 62
    7
 10
1507.9216000000001
 20
830.1108999999999
 11
1679.5929999999998
 21
830.1108999999999
  0
LINE
  8
_0-1_LAYER004
  6
CONTINUOUS
 62
    7
 10
1514.2653
 20
800.24440000000004
 11
1573.9612000000002
 21
800.24440000000004
  0
LINE
  8
_0-1_LAYER004
  6
CONTINUOUS
 62
    7
 10
1122.6881000000001
 20
826.26019999999994
 11
1201.1157000000001
 21
826.26019999999994
  0
LINE
  8
_0-1_LAYER004
  6
CONTINUOUS
 62
    7
 10
1400.9771000000001
 20
1041.221
 11
1400.9771000000001
 21
981.221
  0
LINE
  8
_0-1_LAYER004
  6
CONTINUOUS
 62
    7
 10
1400.9771000000001
 20
981.221
 11
1460.9771000000001
 21
981.221
  0
LINE
  8
_0-1_LAYER004
  6
CONTINUOUS
 62
    7
 10
1460.9771000000001
 20
981.221
 11
1460.9771000000001
 21
1041.221
  0
LINE
  8
_0-1_LAYER004
  6
CONTINUOUS
 62
    7
 10
1157.9771000000001
 20
1041.221
 11
1157.9771000000001
 21
981.221
  0
LINE
  8
_0-1_LAYER004
  6
CONTINUOUS
 62
    7
 10
1157.9771000000001
 20
981.221
 11
1097.9771000000001
 21
981.221
  0
LINE
  8
_0-1_LAYER004
  6
CONTINUOUS
 62
    7
 10
1703.9771000000001
 20
1041.221
 11
1703.9771000000001
 21
981.221
  0
LINE
  8
_0-1_LAYER004
  6
CONTINUOUS
 62
    7
 10
1703.9771000000001
 20
981.221
 11
1763.9771000000001
 21
981.221
  0
LINE
  8
_0-1_LAYER004
  6
CONTINUOUS
 62
    7
 10
1763.9771000000001
 20
981.221
 11
1763.9771000000001
 21
1041.221
  0
LINE
  8
_0-1_LAYER004
  6
CONTINUOUS
 62
    7
 10
1063.3741
 20
1061.221
 11
1063.3741
 21
1092.1560999999999
  0
LINE
  8
_0-1_LAYER004
  6
CONTINUOUS
 62
    7
 10
1098.3741
 20
1061.221
 11
1098.3741
 21
1078.8072
  0
LINE
  8
_0-1_LAYER004
  6
CONTINUOUS
 62
    7
 10
1110.1343999999999
 20
1074.221
 11
1110.1343999999999
 21
1061.221
  0
LINE
  8
_0-1_LAYER004
  6
CONTINUOUS
 62
    7
 10
1110.1343999999999
 20
1074.221
 11
2006.9623259343732
 21
1074.221
  0
LINE
  8
_0-1_LAYER004
  6
CONTINUOUS
 62
    7
 10
1990.8748000000001
 20
1059.221
 11
1144.9771000000001
 21
1059.221
  0
LINE
  8
_0-1_LAYER004
  6
CONTINUOUS
 62
    7
 10
1144.9771000000001
 20
1057.721
 11
1990.8748000000001
 21
1057.721
  0
LINE
  8
_0-1_LAYER004
  6
CONTINUOUS
 62
    7
 10
1990.8748000000001
 20
1056.221
 11
1144.5583999999999
 21
1056.221
  0
LINE
  8
_0-1_LAYER004
  6
CONTINUOUS
 62
    7
 10
1144.9771000000001
 20
1041.221
 11
1990.8748000000001
 21
1041.221
  0
LINE
  8
_0-1_LAYER004
  6
CONTINUOUS
 62
    7
 10
1034.9771000000001
 20
999.23450000000003
 11
1034.9771000000001
 21
972.53449999999998
  0
LINE
  8
_0-1_LAYER004
  6
CONTINUOUS
 62
    7
 10
1034.9771000000001
 20
974.23450000000003
 11
1054.9771000000001
 21
974.23450000000003
  0
LINE
  8
_0-1_LAYER004
  6
CONTINUOUS
 62
    7
 10
1054.9771000000001
 20
971.73450000000003
 11
1054.9771000000001
 21
999.23450000000003
  0
LINE
  8
_0-1_LAYER004
  6
CONTINUOUS
 62
    7
 10
974
 20
1091.7417
 11
1000.7
 21
1091.7417
  0
LINE
  8
_0-1_LAYER004
  6
CONTINUOUS
 62
    7
 10
975.70000000000005
 20
1091.7417
 11
975.70000000000005
 21
1041.221
  0
LINE
  8
_0-1_LAYER004
  6
CONTINUOUS
 62
    7
 10
974
 20
1041.221
 11
1000.7
 21
1041.221
  0
LINE
  8
_0-1_LAYER004
  6
CONTINUOUS
 62
    7
 10
974
 20
1061.221
 11
1000.7
 21
1061.221
  0
LINE
  8
_0-1_LAYER004
  6
CONTINUOUS
 62
    7
 10
1032.3168000000001
 20
1159.1631
 11
1061.7317
 21
1049.385
  0
LINE
  8
_0-1_LAYER004
  6
CONTINUOUS
 62
    7
 10
1061.7317
 20
1049.385
 11
1061.7317
 21
1056.885
  0
LINE
  8
_0-1_LAYER004
  6
CONTINUOUS
 62
    7
 10
1061.7317
 20
1056.885
 11
1061.7317
 21
1049.385
  0
LINE
  8
_0-1_LAYER004
  6
CONTINUOUS
 62
    7
 10
1061.7317
 20
1049.385
 11
1057.9817
 21
1055.8802000000001
  0
LINE
  8
_0-1_LAYER004
  6
CONTINUOUS
 62
    7
 10
1063.3741
 20
1061.221
 11
1098.3741
 21
1078.8072
  0
LINE
  8
_0-1_LAYER004
  6
CONTINUOUS
 62
    7
 10
1098.3741
 20
1078.8072
 11
1063.3741
 21
1092.1560999999999
  0
LINE
  8
_0-1_LAYER004
  6
CONTINUOUS
 62
    7
 10
1063.3741
 20
1092.1560999999999
 11
1098.3741
 21
1061.221
  0
LINE
  8
_0-1_LAYER004
  6
CONTINUOUS
 62
    7
 10
1082.3756000000001
 20
1080.7686000000001
 11
1086.1256000000001
 21
1074.2734
  0
LINE
  8
_0-1_LAYER004
  6
CONTINUOUS
 62
    7
 10
1086.1256000000001
 20
1074.2734
 11
1086.1256000000001
 21
1081.7734
  0
LINE
  8
_0-1_LAYER004
  6
CONTINUOUS
 62
    7
 10
1086.1256000000001
 20
1074.2734
 11
1050.8440000000001
 21
1205.9459999999999
  0
LINE
  8
_0-1_LAYER004
  6
CONTINUOUS
 62
    7
 10
1150.5423000000001
 20
1203.1913
 11
1181.0640000000001
 21
1089.2825
  0
LINE
  8
_0-1_LAYER004
  6
CONTINUOUS
 62
    7
 10
1181.0640000000001
 20
1089.2825
 11
1178.7766999999999
 21
1097.9929999999999
  0
LINE
  8
_0-1_LAYER004
  6
CONTINUOUS
 62
    7
 10
1181.0640000000001
 20
1089.2825
 11
1181.0640000000001
 21
1096.7825
  0
LINE
  8
_0-1_LAYER004
  6
CONTINUOUS
 62
    7
 10
1181.0640000000001
 20
1089.2825
 11
1177.3140000000001
 21
1095.7777000000001
  0
LINE
  8
_0-1_LAYER004
  6
CONTINUOUS
 62
    7
 10
1097.9771000000001
 20
1041.221
 11
1157.9771000000001
 21
981.221
  0
LINE
  8
_0-1_LAYER004
  6
CONTINUOUS
 62
    7
 10
1122.6881000000001
 20
826.26019999999994
 11
1090.7016000000001
 21
945.63539999999989
  0
LINE
  8
_0-1_LAYER004
  6
CONTINUOUS
 62
    7
 10
1090.7016000000001
 20
945.63539999999989
 11
1090.7016000000001
 21
938.13539999999989
  0
LINE
  8
_0-1_LAYER004
  6
CONTINUOUS
 62
    7
 10
1090.7016000000001
 20
945.63539999999989
 11
1094.4516000000001
 21
939.14020000000005
  0
LINE
  8
_0-1_LAYER004
  6
CONTINUOUS
 62
    7
 10
1444.6601999999998
 20
1060.0142000000001
 11
1444.6601999999998
 21
1052.5142000000001
  0
LINE
  8
_0-1_LAYER004
  6
CONTINUOUS
 62
    7
 10
1444.6601999999998
 20
1060.0142000000001
 11
1448.4101999999998
 21
1053.519
  0
LINE
  8
_0-1_LAYER004
  6
CONTINUOUS
 62
    7
 10
1444.6601999999998
 20
1060.0142000000001
 11
1514.2653
 21
800.24440000000004
  0
LINE
  8
_0-1_LAYER004
  6
CONTINUOUS
 62
    7
 10
1400.9771000000001
 20
1041.221
 11
1460.9771000000001
 21
981.221
  0
LINE
  8
_0-1_LAYER004
  6
CONTINUOUS
 62
    7
 10
1703.9771000000001
 20
1041.221
 11
1763.9771000000001
 21
981.221
  0
LINE
  8
_0-1_LAYER004
  6
CONTINUOUS
 62
    7
 10
1632.7682
 20
1203.0574999999999
 11
1662.7076999999999
 21
1091.3219999999999
  0
LINE
  8
_0-1_LAYER004
  6
CONTINUOUS
 62
    7
 10
1662.7076999999999
 20
1091.3219999999999
 11
1662.7076999999999
 21
1098.8219999999999
  0
LINE
  8
_0-1_LAYER004
  6
CONTINUOUS
 62
    7
 10
1658.9576999999999
 20
1097.8172
 11
1662.7076999999999
 21
1091.3219999999999
  0
TEXT
  8
_0-0_LAYER001
 62
    7
 10
1507.9216000000006
 20
832.61090000000024
 40
20
 41
1
 50
0
  1
　野地板：杉ｔ＝１２
  0
TEXT
  8
_0-0_LAYER001
 62
    7
 10
1515.0947999999994
 20
802.74440000000027
 40
20
 41
1
 50
0
  1
　垂木
  0
TEXT
  8
_0-1_LAYER004
 62
    7
 10
986.34400000000051
 20
1208.4459999999999
 40
20
 41
1
 50
0
  1
登瓦座　
  0
TEXT
  8
_0-1_LAYER004
 62
    7
 10
984.3168000000004
 20
1161.6631000000002
 40
20
 41
1
 50
0
  1
品板　
  0
TEXT
  8
_0-0_LAYER001
 62
    7
 10
1489.7491000000005
 20
892.80160000000024
 40
20
 41
1
 50
0
  1
　瓦桟：１５ｘ３０以上
  0
TEXT
  8
_0-1_LAYER004
 62
    7
 10
1102.5423000000005
 20
1205.6913
 40
20
 41
1
 50
0
  1
左袖瓦
  0
TEXT
  8
_0-1_LAYER004
 62
    7
 10
1589.1354865617036
 20
1207.6278782172915
 40
20
 41
1
 50
0
  1
桟　瓦
  0
TEXT
  8
_0-0_LAYER001
 62
    7
 10
1135.2715454829854
 20
1296.5393299021871
 40
20
 41
1
 50
0
  1
225
  0
TEXT
  8
_0-0_LAYER001
 62
    7
 10
1378.4642899659748
 20
1296.5393299021871
 40
20
 41
1
 50
0
  1
265
  0
TEXT
  8
_0-0_LAYER001
 62
    7
 10
1644.0429774557654
 20
1296.5393299021871
 40
20
 41
1
 50
0
  1
265
  0
TEXT
  8
_0-0_LAYER001
 62
    7
 10
1037.5874305442126
 20
949.55721329675134
 40
20
 41
1
 50
0
  1
20
  0
TEXT
  8
_0-0_LAYER001
 62
    7
 10
965.75717814226459
 20
1038.5297541111001
 40
20
 41
1
 50
90
  1
20
  0
TEXT
  8
_0-0_LAYER001
 62
    7
 10
971.75132806393935
 20
1068.5005037194735
 40
20
 41
1
 50
90
  1
31
  0
TEXT
  8
_0-1_LAYER004
 62
    7
 10
1115.610926184132
 20
829.93333683682067
 40
20
 41
1
 50
0
  1
　破風板　
  0
TEXT
  8
_0-0_LAYER001
 62
    7
 10
1498.3784999999993
 20
862.70630000000028
 40
20
 41
1
 50
0
  1
　下葺材：ルーフィング
  0
ENDSEC
  0
EOF
