  0
SECTION
  2
HEADER
  9
$ACADVER
  1
AC1009
  9
$INSBASE
 10
0
 20
0
 30
0
  9
$EXTMIN
 10
0
 20
0
  9
$EXTMAX
 10
2970
 20
2100
  9
$LIMMIN
 10
0
 20
0
  9
$LIMMAX
 10
2970
 20
2100
  9
$LTSCALE
 40
10
  0
ENDSEC
  0
SECTION
  2
TABLES
  0
TABLE
  2
LTYPE
 70
     9
  0
LTYPE
  2
CONTINUOUS
 70
    64
  3
実線
 72
    65
 73
     0
 40
0.0
  0
LTYPE
  2
DASHED1
 70
    64
  3
--  --  --  --  --  --  --  --  
 72
    65
 73
     2
 40
2.5
 49
1.25
 49
-1.25
  0
LTYPE
  2
DASHED2
 70
    64
  3
----    ----    ----    ----    
 72
    65
 73
     2
 40
5.0
 49
2.5
 49
-2.5
  0
LTYPE
  2
DASHED3
 70
    64
  3
------  ------  ------  ------  
 72
    65
 73
     2
 40
5.0
 49
3.75
 49
-1.25
  0
LTYPE
  2
CENTER1
 70
    64
  3
----- - ----- - ----- - ----- - 
 72
    65
 73
     4
 40
10.0
 49
6.25
 49
-1.25
 49
1.25
 49
-1.25
  0
LTYPE
  2
CENTER2
 70
    64
  3
----------  --  ----------  --  
 72
    65
 73
     4
 40
20.0
 49
12.5
 49
-2.5
 49
2.5
 49
-2.5
  0
LTYPE
  2
PHANTOM1
 70
    64
  3
--- - - --- - - --- - - --- - - 
 72
    65
 73
     6
 40
10.0
 49
3.25
 49
-1.25
 49
1.25
 49
-1.25
 49
1.25
 49
-1.25
  0
LTYPE
  2
PHANTOM2
 70
    64
  3
--------  -  -  --------  -  -  
 72
    65
 73
     6
 40
20.0
 49
10.0
 49
-2.5
 49
1.25
 49
-2.5
 49
1.25
 49
-2.5
  0
LTYPE
  2
DOT
 70
    64
  3
-   -   -   -   -   -   -   -   
 72
    65
 73
     2
 40
2.5
 49
0.625
 49
-1.875
  0
LTYPE
  2
DUMMY
 70
    64
  3
ダミー
 72
    65
 73
     0
 40
0.0
  0
LTYPE
  2
RAND1
 70
    64
  3
ランダム線1
 72
    65
 73
     4
 40
10.0
 49
1.0
 49
-2.0
 49
3.0
 49
-4.0
  0
LTYPE
  2
RAND2
 70
    64
  3
ランダム線2
 72
    65
 73
     4
 40
14.0
 49
2.0
 49
-3.0
 49
4.0
 49
-5.0
  0
LTYPE
  2
RAND3
 70
    64
  3
ランダム線3
 72
    65
 73
     4
 40
18.0
 49
3.0
 49
-4.0
 49
5.0
 49
-6.0
  0
LTYPE
  2
RAND4
 70
    64
  3
ランダム線4
 72
    65
 73
     4
 40
22.0
 49
4.0
 49
-5.0
 49
6.0
 49
-7.0
  0
LTYPE
  2
RAND5
 70
    64
  3
ランダム線5
 72
    65
 73
     4
 40
26.0
 49
5.0
 49
-6.0
 49
7.0
 49
-8.0
  0
LTYPE
  2
LONG1
 70
    64
  3
----------  --  ----------  --  
 72
    65
 73
     4
 40
40.0
 49
32.5
 49
-2.5
 49
2.5
 49
-2.5
  0
LTYPE
  2
LONG2
 70
    64
  3
--------  -  -  --------  -  -  
 72
    65
 73
     6
 40
40.0
 49
30.0
 49
-2.5
 49
1.25
 49
-2.5
 49
1.25
 49
-2.5
  0
LTYPE
  2
LONG3
 70
    64
  3
+++++++++++++++..+++++++++++++++
 72
    65
 73
     2
 40
40.0
 49
37.5
 49
-2.5
  0
LTYPE
  2
LONG4
 70
    64
  3
+++++++++++++++..+++++++++++++++
 72
    65
 73
     2
 40
80.0
 49
75.0
 49
-5.0
  0
LTYPE
  2
LONG5
 70
    64
  3
----------  --  ----------  --  
 72
    65
 73
     4
 40
60.0
 49
37.5
 49
-7.5
 49
7.5
 49
-7.5
  0
LTYPE
  2
dashed
 70
   64
  3
-------   -------------   ------
 72
   65
 73
    2
 40
7.5
 49
6
 49
-1.5
  0
LTYPE
  2
dashed_spaced
 70
   64
  3
----        --------        ----
 72
   65
 73
    2
 40
12
 49
6
 49
-6
  0
LTYPE
  2
long_dashed_dotted
 70
   64
  3
------------- --- --------------
 72
   65
 73
    4
 40
15.25
 49
12
 49
-1.5
 49
0.25
 49
-1.5
  0
LTYPE
  2
long_dashed_double-dotted
 70
   64
  3
----------- --- --- ------------
 72
   65
 73
    6
 40
17
 49
12
 49
-1.5
 49
0.25
 49
-1.5
 49
0.25
 49
-1.5
  0
LTYPE
  2
long_dashed_triplicate-dotted
 70
   64
  3
--------- --- --- --- ----------
 72
   65
 73
    8
 40
18.75
 49
12
 49
-1.5
 49
0.25
 49
-1.5
 49
0.25
 49
-1.5
 49
0.25
 49
-1.5
  0
LTYPE
  2
dotted
 70
   64
  3
   -       -       -       -    
 72
   65
 73
    2
 40
1.75
 49
0.25
 49
-1.5
  0
LTYPE
  2
chain
 70
   64
  3
-------------- -- --------------
 72
   65
 73
    4
 40
18.5
 49
12
 49
-1.5
 49
3.5
 49
-1.5
  0
LTYPE
  2
chain_double_dash
 70
   64
  3
------------ -- -- -------------
 72
   65
 73
    6
 40
23.5
 49
12
 49
-1.5
 49
3.5
 49
-1.5
 49
3.5
 49
-1.5
  0
LTYPE
  2
dashed_dotted
 70
   64
  3
-----------     -     ----------
 72
   65
 73
    4
 40
9.25
 49
6
 49
-1.5
 49
0.25
 49
-1.5
  0
LTYPE
  2
double-dashed_dotted
 70
   64
  3
------   -----------   -   -----
 72
   65
 73
    6
 40
16.75
 49
6
 49
-1.5
 49
6
 49
-1.5
 49
0.25
 49
-1.5
  0
LTYPE
  2
dashed_double-dotted
 70
   64
  3
---------    -    -    ---------
 72
   65
 73
    6
 40
11
 49
6
 49
-1.5
 49
0.25
 49
-1.5
 49
0.25
 49
-1.5
  0
LTYPE
  2
double-dashed_double-dotted
 70
   64
  3
-----   ---------   -   -   ----
 72
   65
 73
    8
 40
18.5
 49
6
 49
-1.5
 49
6
 49
-1.5
 49
0.25
 49
-1.5
 49
0.25
 49
-1.5
  0
LTYPE
  2
dashed_triplicate-dotted
 70
   64
  3
-------    -    -    -    ------
 72
   65
 73
    8
 40
12.75
 49
6
 49
-1.5
 49
0.25
 49
-1.5
 49
0.25
 49
-1.5
 49
0.25
 49
-1.5
  0
LTYPE
  2
double-dashed_triplicate-dotted
 70
   64
  3
-----  ---------  -  -  -  -----
 72
   65
 73
   10
 40
20.25
 49
6
 49
-1.5
 49
6
 49
-1.5
 49
0.25
 49
-1.5
 49
0.25
 49
-1.5
 49
0.25
 49
-1.5
  0
LTYPE
  2
undefined
 70
   64
  3
--------------------------------
 72
   65
 73
    0
 40
0
  0
ENDTAB
  0
TABLE
  2
STYLE
  5
3
100
AcDbSymbolTable
 70
     1
  0
STYLE
  5
10
100
AcDbSymbolTableRecord
100
AcDbTextStyleTableRecord
  2
STANDARD
 70
     0
 40
0.0
 41
1.0
 50
0.0
 71
     0
 42
0.2
  3
txt
  4
bigfont.shx
  0
STYLE
  5
26
100
AcDbSymbolTableRecord
100
AcDbTextStyleTableRecord
  2
TATEGAKI
 70
    68
 40
0.0
 41
1.0
 50
0.0
 71
     0
 42
1.0
  3
txt
  4
bigfont.shx
  0
ENDTAB
  0
TABLE
  2
LAYER
 70
    7
  0
LAYER
  2
_0-0_LAYER001
 70
   64
 62
    7
  6
CONTINUOUS
  0
LAYER
  2
_0-1_LAYER003
 70
   64
 62
    7
  6
CONTINUOUS
  0
LAYER
  2
_0-2_LAYER004
 70
   64
 62
    7
  6
CONTINUOUS
  0
LAYER
  2
_0-3_LAYER005
 70
   64
 62
    7
  6
CONTINUOUS
  0
LAYER
  2
_0-4_LAYER006
 70
   64
 62
    7
  6
CONTINUOUS
  0
LAYER
  2
_0-5_LAYER007
 70
   64
 62
    7
  6
CONTINUOUS
  0
LAYER
  2
ADD_LINE
 70
   64
 62
    7
  6
CONTINUOUS
  0
ENDTAB
  0
ENDSEC
  0
SECTION
  2
BLOCKS
  0
ENDSEC
  0
SECTION
  2
ENTITIES
  0
LINE
  8
_0-2_LAYER004
  6
CONTINUOUS
 62
    2
 10
1785.5816
 20
1043.4322
 11
1779.4259999999999
 21
1057.1112000000001
  0
LINE
  8
_0-2_LAYER004
  6
CONTINUOUS
 62
    2
 10
1748.9683
 20
1406.4211
 11
1750.9094
 21
1399.1767
  0
LINE
  8
_0-2_LAYER004
  6
CONTINUOUS
 62
    2
 10
1750.9094
 20
1399.1767
 11
1745.6061
 21
1404.48
  0
LINE
  8
_0-2_LAYER004
  6
CONTINUOUS
 62
    2
 10
1750.9094
 20
1399.1767
 11
1699.8726999999999
 21
1487.5749000000001
  0
LINE
  8
_0-2_LAYER004
  6
CONTINUOUS
 62
    2
 10
1699.8726999999999
 20
1487.5749000000001
 11
1527.3726999999999
 21
1487.5749000000001
  0
LINE
  8
_0-2_LAYER004
  6
CONTINUOUS
 62
    2
 10
1664.3451
 20
1172.2351000000001
 11
1666.2862
 21
1164.9907000000001
  0
LINE
  8
_0-2_LAYER004
  6
CONTINUOUS
 62
    2
 10
1666.2862
 20
1164.9907000000001
 11
1660.9829
 21
1170.2940000000001
  0
LINE
  8
_0-2_LAYER004
  6
CONTINUOUS
 62
    2
 10
1666.2862
 20
1164.9907000000001
 11
1564.3105999999998
 21
1341.6176
  0
LINE
  8
_0-2_LAYER004
  6
CONTINUOUS
 62
    2
 10
1564.3105999999998
 20
1341.6176
 11
1450.3105999999998
 21
1341.6176
  0
LINE
  8
_0-0_LAYER001
  6
CONTINUOUS
 62
    2
 10
1299.306
 20
847.19479999999999
 11
1299.306
 21
854.69479999999999
  0
LINE
  8
_0-0_LAYER001
  6
CONTINUOUS
 62
    2
 10
1299.306
 20
854.69479999999999
 11
1303.056
 21
848.19959999999992
  0
LINE
  8
_0-0_LAYER001
  6
CONTINUOUS
 62
    2
 10
1299.306
 20
854.69479999999999
 11
1368.9111
 21
594.92499999999995
  0
LINE
  8
_0-2_LAYER004
  6
CONTINUOUS
 62
    2
 10
1951.9214000000002
 20
1359.8812
 11
1899.4214000000002
 21
1359.8812
  0
CIRCLE
  8
_0-2_LAYER004
  6
CONTINUOUS
 62
    2
 10
1949.4214000000002
 20
1359.8812
 40
1.6999999999999997
  0
LINE
  8
_0-2_LAYER004
  6
CONTINUOUS
 62
    2
 10
1949.4214000000002
 20
1359.8812
 11
1949.4214000000002
 21
1062.8902
  0
CIRCLE
  8
_0-2_LAYER004
  6
CONTINUOUS
 62
    2
 10
1949.4214000000002
 20
1062.8902
 40
1.6999999999999997
  0
LINE
  8
_0-2_LAYER004
  6
CONTINUOUS
 62
    2
 10
1951.9214000000002
 20
1062.8902
 11
1899.4214000000002
 21
1062.8902
  0
LINE
  8
_0-0_LAYER001
  6
CONTINUOUS
 62
    3
 10
1742.3535999999999
 20
1159.9275
 11
1742.3863999999999
 21
1159.4629
  0
LINE
  8
_0-0_LAYER001
  6
CONTINUOUS
 62
    3
 10
1742.3863999999999
 20
1159.4629
 11
1742.4753000000001
 21
1158.2018
  0
LINE
  8
_0-0_LAYER001
  6
CONTINUOUS
 62
    3
 10
1742.4753000000001
 20
1158.2018
 11
1742.6064000000001
 21
1156.3433
  0
LINE
  8
_0-0_LAYER001
  6
CONTINUOUS
 62
    3
 10
1742.6064000000001
 20
1156.3433
 11
1742.7655
 21
1154.0864999999999
  0
LINE
  8
_0-0_LAYER001
  6
CONTINUOUS
 62
    3
 10
1742.7655
 20
1154.0864999999999
 11
1742.9387000000002
 21
1151.6306
  0
LINE
  8
_0-0_LAYER001
  6
CONTINUOUS
 62
    3
 10
1742.9387000000002
 20
1151.6306
 11
1743.1118999999999
 21
1149.1748
  0
LINE
  8
_0-0_LAYER001
  6
CONTINUOUS
 62
    3
 10
1743.1118999999999
 20
1149.1748
 11
1743.2710999999999
 21
1146.9179999999999
  0
LINE
  8
_0-0_LAYER001
  6
CONTINUOUS
 62
    3
 10
1743.2710999999999
 20
1146.9179999999999
 11
1743.4020999999998
 21
1145.0595000000001
  0
LINE
  8
_0-0_LAYER001
  6
CONTINUOUS
 62
    3
 10
1743.4020999999998
 20
1145.0595000000001
 11
1743.4911000000002
 21
1143.7983999999999
  0
LINE
  8
_0-0_LAYER001
  6
CONTINUOUS
 62
    3
 10
1743.4911000000002
 20
1143.7983999999999
 11
1743.5237999999999
 21
1143.3338000000001
  0
LINE
  8
_0-0_LAYER001
  6
CONTINUOUS
 62
    3
 10
1743.5237999999999
 20
1143.3338000000001
 11
1742.3778000000002
 21
1143.2728999999999
  0
LINE
  8
_0-0_LAYER001
  6
CONTINUOUS
 62
    3
 10
1742.3778000000002
 20
1143.2728999999999
 11
1739.0183000000002
 21
1142.9402
  0
LINE
  8
_0-0_LAYER001
  6
CONTINUOUS
 62
    3
 10
1739.0183000000002
 20
1142.9402
 11
1733.5632000000001
 21
1142.1105
  0
LINE
  8
_0-0_LAYER001
  6
CONTINUOUS
 62
    3
 10
1733.5632000000001
 20
1142.1105
 11
1726.1304
 21
1140.5586000000001
  0
LINE
  8
_0-0_LAYER001
  6
CONTINUOUS
 62
    3
 10
1726.1304
 20
1140.5586000000001
 11
1716.8377999999998
 21
1138.0594000000001
  0
LINE
  8
_0-0_LAYER001
  6
CONTINUOUS
 62
    3
 10
1716.8377999999998
 20
1138.0594000000001
 11
1705.8033
 21
1134.3878
  0
LINE
  8
_0-0_LAYER001
  6
CONTINUOUS
 62
    3
 10
1705.8033
 20
1134.3878
 11
1693.1448
 21
1129.3185000000001
  0
LINE
  8
_0-0_LAYER001
  6
CONTINUOUS
 62
    3
 10
1693.1448
 20
1129.3185000000001
 11
1678.9803000000002
 21
1122.6264000000001
  0
LINE
  8
_0-0_LAYER001
  6
CONTINUOUS
 62
    3
 10
1678.9803000000002
 20
1122.6264000000001
 11
1663.4274999999998
 21
1114.0864999999999
  0
LINE
  8
_0-0_LAYER001
  6
CONTINUOUS
 62
    3
 10
1663.4274999999998
 20
1114.0864999999999
 11
1646.6044000000002
 21
1103.4734000000001
  0
LINE
  8
_0-0_LAYER001
  6
CONTINUOUS
 62
    3
 10
1646.6044000000002
 20
1103.4734000000001
 11
1646.5511000000001
 21
1104.2295999999999
  0
LINE
  8
_0-0_LAYER001
  6
CONTINUOUS
 62
    3
 10
1646.5511000000001
 20
1104.2295999999999
 11
1646.4063000000001
 21
1106.2819999999999
  0
LINE
  8
_0-0_LAYER001
  6
CONTINUOUS
 62
    3
 10
1646.4063000000001
 20
1106.2819999999999
 11
1646.1930000000002
 21
1109.3067000000001
  0
LINE
  8
_0-0_LAYER001
  6
CONTINUOUS
 62
    3
 10
1646.1930000000002
 20
1109.3067000000001
 11
1645.9340000000002
 21
1112.9794999999999
  0
LINE
  8
_0-0_LAYER001
  6
CONTINUOUS
 62
    3
 10
1645.9340000000002
 20
1112.9794999999999
 11
1645.6522
 21
1116.9763
  0
LINE
  8
_0-0_LAYER001
  6
CONTINUOUS
 62
    3
 10
1645.6522
 20
1116.9763
 11
1645.3703
 21
1120.9731999999999
  0
LINE
  8
_0-0_LAYER001
  6
CONTINUOUS
 62
    3
 10
1645.3703
 20
1120.9731999999999
 11
1645.1113
 21
1124.646
  0
LINE
  8
_0-0_LAYER001
  6
CONTINUOUS
 62
    3
 10
1645.1113
 20
1124.646
 11
1644.8980000000001
 21
1127.6706999999999
  0
LINE
  8
_0-0_LAYER001
  6
CONTINUOUS
 62
    3
 10
1644.8980000000001
 20
1127.6706999999999
 11
1644.7532999999999
 21
1129.7230999999999
  0
LINE
  8
_0-0_LAYER001
  6
CONTINUOUS
 62
    3
 10
1644.7532999999999
 20
1129.7230999999999
 11
1644.6999000000001
 21
1130.4793
  0
LINE
  8
_0-0_LAYER001
  6
CONTINUOUS
 62
    3
 10
1644.6999000000001
 20
1130.4793
 11
1646.3217
 21
1131.1812
  0
LINE
  8
_0-0_LAYER001
  6
CONTINUOUS
 62
    3
 10
1646.3217
 20
1131.1812
 11
1650.9000999999998
 21
1133.106
  0
LINE
  8
_0-0_LAYER001
  6
CONTINUOUS
 62
    3
 10
1650.9000999999998
 20
1133.106
 11
1658.0050000000001
 21
1135.9819
  0
LINE
  8
_0-0_LAYER001
  6
CONTINUOUS
 62
    3
 10
1658.0050000000001
 20
1135.9819
 11
1667.2064999999998
 21
1139.5373999999999
  0
LINE
  8
_0-0_LAYER001
  6
CONTINUOUS
 62
    3
 10
1667.2064999999998
 20
1139.5373999999999
 11
1678.0742
 21
1143.5007000000001
  0
LINE
  8
_0-0_LAYER001
  6
CONTINUOUS
 62
    3
 10
1678.0742
 20
1143.5007000000001
 11
1690.1781999999998
 21
1147.6002000000001
  0
LINE
  8
_0-0_LAYER001
  6
CONTINUOUS
 62
    3
 10
1690.1781999999998
 20
1147.6002000000001
 11
1703.0882000000001
 21
1151.5643
  0
LINE
  8
_0-0_LAYER001
  6
CONTINUOUS
 62
    3
 10
1703.0882000000001
 20
1151.5643
 11
1716.3742000000002
 21
1155.1213
  0
LINE
  8
_0-0_LAYER001
  6
CONTINUOUS
 62
    3
 10
1716.3742000000002
 20
1155.1213
 11
1729.6061
 21
1157.9996000000001
  0
LINE
  8
_0-0_LAYER001
  6
CONTINUOUS
 62
    3
 10
1742.3535999999999
 20
1159.9275
 11
1729.4951000000001
 21
1157.9755
  0
LINE
  8
_0-0_LAYER001
  6
CONTINUOUS
 62
    2
 10
1671.0500000000002
 20
1179.0278000000001
 11
1694.6320000000001
 21
1187.6110000000001
  0
LINE
  8
_0-0_LAYER001
  6
CONTINUOUS
 62
    2
 10
1671.0500000000002
 20
1179.0278000000001
 11
1676.9625999999998
 21
1180.0481
  0
LINE
  8
_0-0_LAYER001
  6
CONTINUOUS
 62
    2
 10
1696.9488999999999
 20
1185.9887000000001
 11
1785.5816
 21
1201.6170999999999
  0
LINE
  8
_0-0_LAYER001
  6
CONTINUOUS
 62
    2
 10
1694.3442
 20
1200.7608
 11
1782.9769000000001
 21
1216.3892000000001
  0
LINE
  8
_0-0_LAYER001
  6
CONTINUOUS
 62
    2
 10
1694.3442
 20
1200.7608
 11
1696.9488999999999
 21
1185.9887000000001
  0
LINE
  8
_0-0_LAYER001
  6
CONTINUOUS
 62
    2
 10
1782.9769000000001
 20
1216.3892000000001
 11
1785.5816
 21
1201.6170999999999
  0
LINE
  8
_0-0_LAYER001
  6
CONTINUOUS
 62
    2
 10
1785.5816
 20
1201.6170999999999
 11
1694.3442
 21
1200.7608
  0
LINE
  8
_0-0_LAYER001
  6
CONTINUOUS
 62
    2
 10
1692.0273999999999
 20
1202.3831
 11
1694.6320000000001
 21
1187.6110000000001
  0
LINE
  8
_0-0_LAYER001
  6
DASHED1
 62
    2
 10
1833.5816
 20
1181.6170999999999
 11
1828.5814999999998
 21
1184.617
  0
LINE
  8
_0-0_LAYER001
  6
DASHED1
 62
    2
 10
1828.5814999999998
 20
1178.6170999999999
 11
1833.5816
 21
1181.6170999999999
  0
LINE
  8
_0-0_LAYER001
  6
CONTINUOUS
 62
    2
 10
1761.5814999999998
 20
1178.6170999999999
 11
1761.5814999999998
 21
1184.617
  0
LINE
  8
_0-0_LAYER001
  6
CONTINUOUS
 62
    2
 10
1755.5816
 20
1175.617
 11
1755.5816
 21
1187.6170999999999
  0
LINE
  8
_0-0_LAYER001
  6
CONTINUOUS
 62
    2
 10
1764.4684999999999
 20
1178.6170999999999
 11
1767.9315999999999
 21
1184.617
  0
LINE
  8
_0-0_LAYER001
  6
CONTINUOUS
 62
    2
 10
1755.5816
 20
1175.617
 11
1761.5814999999998
 21
1178.6170999999999
  0
LINE
  8
_0-0_LAYER001
  6
CONTINUOUS
 62
    2
 10
1761.5814999999998
 20
1184.617
 11
1755.5816
 21
1187.6170999999999
  0
LINE
  8
_0-0_LAYER001
  6
DASHED1
 62
    2
 10
1828.5814999999998
 20
1184.617
 11
1785.5816
 21
1184.617
  0
LINE
  8
_0-0_LAYER001
  6
DASHED1
 62
    2
 10
1828.5814999999998
 20
1178.6170999999999
 11
1785.5816
 21
1178.6170999999999
  0
LINE
  8
_0-0_LAYER001
  6
CONTINUOUS
 62
    2
 10
1785.5816
 20
1177.3670999999999
 11
1785.5816
 21
1185.8670999999999
  0
LINE
  8
_0-0_LAYER001
  6
CONTINUOUS
 62
    2
 10
1755.5816
 20
1161.6170999999999
 11
1785.5816
 21
1161.6170999999999
  0
LINE
  8
_0-0_LAYER001
  6
CONTINUOUS
 62
    2
 10
1785.5816
 20
1184.617
 11
1761.5814999999998
 21
1184.617
  0
LINE
  8
_0-0_LAYER001
  6
CONTINUOUS
 62
    2
 10
1785.5816
 20
1178.6170999999999
 11
1761.5814999999998
 21
1178.6170999999999
  0
LINE
  8
_0-0_LAYER001
  6
CONTINUOUS
 62
    2
 10
1770.1916000000001
 20
1178.6170999999999
 11
1773.6547
 21
1184.617
  0
LINE
  8
_0-0_LAYER001
  6
CONTINUOUS
 62
    2
 10
1775.9148
 20
1178.6170999999999
 11
1779.3778000000002
 21
1184.617
  0
LINE
  8
_0-0_LAYER001
  6
CONTINUOUS
 62
    2
 10
1781.6379000000002
 20
1178.6170999999999
 11
1785.1010000000001
 21
1184.617
  0
LINE
  8
_0-0_LAYER001
  6
CONTINUOUS
 62
    2
 10
1755.5816
 20
1161.6170999999999
 11
1755.5816
 21
1196.3271999999999
  0
LINE
  8
_0-0_LAYER001
  6
CONTINUOUS
 62
    2
 10
1785.5816
 20
1161.6170999999999
 11
1759.0855999999999
 21
1196.9450999999999
  0
LINE
  8
_0-0_LAYER001
  6
CONTINUOUS
 62
    2
 10
1692.0273999999999
 20
1202.3831
 11
1781.1876000000002
 21
1218.1043999999999
  0
LINE
  8
_0-0_LAYER001
  6
CONTINUOUS
 62
    2
 10
1764.7597000000001
 20
1213.1769999999999
 11
1773.5291999999999
 21
1214.7233000000001
  0
LINE
  8
_0-0_LAYER001
  6
CONTINUOUS
 62
    2
 10
1772.2854000000002
 20
1185.4649999999999
 11
1775.7271000000001
 21
1177.2261000000001
  0
LINE
  8
_0-0_LAYER001
  6
CONTINUOUS
 62
    2
 10
1771.2456000000002
 20
1212.7007000000001
 11
1775.9355
 21
1186.1088
  0
LINE
  8
_0-0_LAYER001
  6
CONTINUOUS
 62
    2
 10
1775.7271000000001
 20
1177.2261000000001
 11
1775.9355
 21
1186.1088
  0
LINE
  8
_0-0_LAYER001
  6
CONTINUOUS
 62
    2
 10
1767.5956999999999
 20
1212.0583999999999
 11
1764.7597000000001
 21
1213.1769999999999
  0
LINE
  8
_0-0_LAYER001
  6
CONTINUOUS
 62
    2
 10
1771.2456000000002
 20
1212.7007000000001
 11
1773.5291999999999
 21
1214.7233000000001
  0
LINE
  8
_0-0_LAYER001
  6
CONTINUOUS
 62
    2
 10
1767.5956999999999
 20
1212.0583999999999
 11
1772.2854000000002
 21
1185.4649999999999
  0
LINE
  8
_0-0_LAYER001
  6
CONTINUOUS
 62
    3
 10
1752.3099000000002
 20
1194.7525000000001
 11
1752.3425999999999
 21
1194.2879
  0
LINE
  8
_0-0_LAYER001
  6
CONTINUOUS
 62
    3
 10
1752.3425999999999
 20
1194.2879
 11
1752.4315999999999
 21
1193.0266999999999
  0
LINE
  8
_0-0_LAYER001
  6
CONTINUOUS
 62
    3
 10
1752.4315999999999
 20
1193.0266999999999
 11
1752.5626000000002
 21
1191.1682000000001
  0
LINE
  8
_0-0_LAYER001
  6
CONTINUOUS
 62
    3
 10
1752.5626000000002
 20
1191.1682000000001
 11
1752.7217999999998
 21
1188.9114999999999
  0
LINE
  8
_0-0_LAYER001
  6
CONTINUOUS
 62
    3
 10
1752.7217999999998
 20
1188.9114999999999
 11
1752.895
 21
1186.4556
  0
LINE
  8
_0-0_LAYER001
  6
CONTINUOUS
 62
    3
 10
1752.895
 20
1186.4556
 11
1753.2273
 21
1181.7429999999999
  0
LINE
  8
_0-0_LAYER001
  6
CONTINUOUS
 62
    3
 10
1753.2273
 20
1181.7429999999999
 11
1753.3584000000001
 21
1179.8844999999999
  0
LINE
  8
_0-0_LAYER001
  6
CONTINUOUS
 62
    3
 10
1753.3584000000001
 20
1179.8844999999999
 11
1753.4472999999998
 21
1178.6233
  0
LINE
  8
_0-0_LAYER001
  6
CONTINUOUS
 62
    3
 10
1753.4472999999998
 20
1178.6233
 11
1753.4801000000002
 21
1178.1587
  0
LINE
  8
_0-0_LAYER001
  6
CONTINUOUS
 62
    3
 10
1753.4801000000002
 20
1178.1587
 11
1752.3339999999998
 21
1178.0978
  0
LINE
  8
_0-0_LAYER001
  6
CONTINUOUS
 62
    3
 10
1752.3339999999998
 20
1178.0978
 11
1748.9744999999998
 21
1177.7651000000001
  0
LINE
  8
_0-0_LAYER001
  6
CONTINUOUS
 62
    3
 10
1748.9744999999998
 20
1177.7651000000001
 11
1743.5194000000001
 21
1176.9354000000001
  0
LINE
  8
_0-0_LAYER001
  6
CONTINUOUS
 62
    3
 10
1743.5194000000001
 20
1176.9354000000001
 11
1736.0866000000001
 21
1175.3834999999999
  0
LINE
  8
_0-0_LAYER001
  6
CONTINUOUS
 62
    3
 10
1736.0866000000001
 20
1175.3834999999999
 11
1726.7939999999999
 21
1172.8843999999999
  0
LINE
  8
_0-0_LAYER001
  6
CONTINUOUS
 62
    3
 10
1726.7939999999999
 20
1172.8843999999999
 11
1715.7595999999999
 21
1169.2127
  0
LINE
  8
_0-0_LAYER001
  6
CONTINUOUS
 62
    3
 10
1715.7595999999999
 20
1169.2127
 11
1703.1010999999999
 21
1164.1434999999999
  0
LINE
  8
_0-0_LAYER001
  6
CONTINUOUS
 62
    3
 10
1703.1010999999999
 20
1164.1434999999999
 11
1688.9364999999998
 21
1157.4513999999999
  0
LINE
  8
_0-0_LAYER001
  6
CONTINUOUS
 62
    3
 10
1688.9364999999998
 20
1157.4513999999999
 11
1673.3836999999999
 21
1148.9114
  0
LINE
  8
_0-0_LAYER001
  6
CONTINUOUS
 62
    3
 10
1673.3836999999999
 20
1148.9114
 11
1656.5607
 21
1138.2983999999999
  0
LINE
  8
_0-0_LAYER001
  6
CONTINUOUS
 62
    3
 10
1656.5607
 20
1138.2983999999999
 11
1656.5073000000002
 21
1139.0545
  0
LINE
  8
_0-0_LAYER001
  6
CONTINUOUS
 62
    3
 10
1656.5073000000002
 20
1139.0545
 11
1656.3625999999999
 21
1141.107
  0
LINE
  8
_0-0_LAYER001
  6
CONTINUOUS
 62
    3
 10
1656.3625999999999
 20
1141.107
 11
1656.1493
 21
1144.1315999999999
  0
LINE
  8
_0-0_LAYER001
  6
CONTINUOUS
 62
    3
 10
1656.1493
 20
1144.1315999999999
 11
1655.8903
 21
1147.8044
  0
LINE
  8
_0-0_LAYER001
  6
CONTINUOUS
 62
    3
 10
1655.8903
 20
1147.8044
 11
1655.6084000000001
 21
1151.8013000000001
  0
LINE
  8
_0-0_LAYER001
  6
CONTINUOUS
 62
    3
 10
1655.6084000000001
 20
1151.8013000000001
 11
1655.3265999999999
 21
1155.7982
  0
LINE
  8
_0-0_LAYER001
  6
CONTINUOUS
 62
    3
 10
1655.3265999999999
 20
1155.7982
 11
1655.0675000000001
 21
1159.471
  0
LINE
  8
_0-0_LAYER001
  6
CONTINUOUS
 62
    3
 10
1655.0675000000001
 20
1159.471
 11
1654.8542000000002
 21
1162.4956
  0
LINE
  8
_0-0_LAYER001
  6
CONTINUOUS
 62
    3
 10
1654.8542000000002
 20
1162.4956
 11
1654.7094999999999
 21
1164.5481
  0
LINE
  8
_0-0_LAYER001
  6
CONTINUOUS
 62
    3
 10
1654.7094999999999
 20
1164.5481
 11
1654.6561999999999
 21
1165.3042
  0
LINE
  8
_0-0_LAYER001
  6
CONTINUOUS
 62
    3
 10
1654.6561999999999
 20
1165.3042
 11
1656.2779
 21
1166.0062
  0
LINE
  8
_0-0_LAYER001
  6
CONTINUOUS
 62
    3
 10
1656.2779
 20
1166.0062
 11
1660.8562999999999
 21
1167.931
  0
LINE
  8
_0-0_LAYER001
  6
CONTINUOUS
 62
    3
 10
1660.8562999999999
 20
1167.931
 11
1667.9612999999999
 21
1170.8069
  0
LINE
  8
_0-0_LAYER001
  6
CONTINUOUS
 62
    3
 10
1667.9612999999999
 20
1170.8069
 11
1677.1626999999999
 21
1174.3623
  0
LINE
  8
_0-0_LAYER001
  6
CONTINUOUS
 62
    3
 10
1677.1626999999999
 20
1174.3623
 11
1688.0304999999998
 21
1178.3255999999999
  0
LINE
  8
_0-0_LAYER001
  6
CONTINUOUS
 62
    3
 10
1688.0304999999998
 20
1178.3255999999999
 11
1700.1343999999999
 21
1182.4251999999999
  0
LINE
  8
_0-0_LAYER001
  6
CONTINUOUS
 62
    3
 10
1700.1343999999999
 20
1182.4251999999999
 11
1713.0445
 21
1186.3893
  0
LINE
  8
_0-0_LAYER001
  6
CONTINUOUS
 62
    3
 10
1713.0445
 20
1186.3893
 11
1726.3305
 21
1189.9463000000001
  0
LINE
  8
_0-0_LAYER001
  6
CONTINUOUS
 62
    3
 10
1726.3305
 20
1189.9463000000001
 11
1739.5623000000001
 21
1192.8245999999999
  0
LINE
  8
_0-0_LAYER001
  6
CONTINUOUS
 62
    3
 10
1752.3099000000002
 20
1194.7525000000001
 11
1739.4513999999999
 21
1192.8004000000001
  0
LINE
  8
_0-2_LAYER004
  6
CONTINUOUS
 62
    2
 10
1731.6381999999999
 20
1215.8173999999999
 11
1733.5794000000001
 21
1208.5728999999999
  0
LINE
  8
_0-2_LAYER004
  6
CONTINUOUS
 62
    2
 10
1733.5794000000001
 20
1208.5728999999999
 11
1728.2761
 21
1213.8761999999999
  0
LINE
  8
_0-2_LAYER004
  6
CONTINUOUS
 62
    2
 10
1612.7604000000001
 20
1417.8376000000001
 11
1378.7603999999999
 21
1417.8376000000001
  0
LINE
  8
_0-0_LAYER001
  6
CONTINUOUS
 62
    2
 10
1684.1251000000002
 20
1154.8095000000001
 11
1683.7842999999998
 21
1145.4346
  0
LINE
  8
_0-2_LAYER004
  6
CONTINUOUS
 62
    2
 10
1865.7487999999998
 20
1218.0352
 11
1813.2487999999998
 21
1218.0352
  0
CIRCLE
  8
_0-2_LAYER004
  6
CONTINUOUS
 62
    2
 10
1863.2487999999998
 20
1218.0352
 40
1.6999999999999997
  0
LINE
  8
_0-2_LAYER004
  6
CONTINUOUS
 62
    2
 10
1863.2487999999998
 20
1218.0352
 11
1863.2487999999998
 21
1368.0351999999998
  0
CIRCLE
  8
_0-2_LAYER004
  6
CONTINUOUS
 62
    2
 10
1863.2487999999998
 20
1368.0351999999998
 40
1.6999999999999997
  0
LINE
  8
_0-2_LAYER004
  6
CONTINUOUS
 62
    2
 10
1865.7487999999998
 20
1368.0351999999998
 11
1813.2487999999998
 21
1368.0351999999998
  0
LINE
  8
_0-1_LAYER003
  6
CONTINUOUS
 62
    2
 10
1129.8306
 20
682.54919999999993
 11
1785.5816
 21
977.63719999999989
  0
LINE
  8
_0-1_LAYER003
  6
CONTINUOUS
 62
    2
 10
1105.2085999999999
 20
737.26420000000007
 11
1785.5816
 21
1043.4322
  0
LINE
  8
_0-1_LAYER003
  6
CONTINUOUS
 62
    2
 10
1099.0536
 20
750.94319999999993
 11
1779.4259999999999
 21
1057.1112000000001
  0
LINE
  8
_0-2_LAYER004
  6
DASHED3
 62
    2
 10
1097.4115999999999
 20
754.59120000000007
 11
1782.5205999999998
 21
1062.8902
  0
LINE
  8
_0-4_LAYER006
  6
DASHED3
 62
    2
 10
1782.5205999999998
 20
1062.8902
 11
1782.5205999999998
 21
1359.8812
  0
LINE
  8
_0-4_LAYER006
  6
CONTINUOUS
 62
    2
 10
1781.1876000000002
 20
1218.1043999999999
 11
1781.1876000000002
 21
1368.0351999999998
  0
LINE
  8
_0-4_LAYER006
  6
CONTINUOUS
 62
    2
 10
1758.1866
 20
1220.1441
 11
1746.1876000000002
 21
1220.1441
  0
LINE
  8
_0-4_LAYER006
  6
CONTINUOUS
 62
    2
 10
1758.1866
 20
1241.9321
 11
1758.1866
 21
1281.9321
  0
LINE
  8
_0-4_LAYER006
  6
CONTINUOUS
 62
    2
 10
1758.1866
 20
1281.9321
 11
1778.1876000000002
 21
1281.9321
  0
LINE
  8
_0-4_LAYER006
  6
CONTINUOUS
 62
    2
 10
1778.1876000000002
 20
1281.9321
 11
1778.1876000000002
 21
1241.9321
  0
LINE
  8
_0-4_LAYER006
  6
CONTINUOUS
 62
    2
 10
1778.1876000000002
 20
1241.9321
 11
1758.1866
 21
1241.9321
  0
LINE
  8
_0-4_LAYER006
  6
CONTINUOUS
 62
    2
 10
1778.1876000000002
 20
1281.9321
 11
1758.1866
 21
1241.9321
  0
LINE
  8
_0-3_LAYER005
  6
CONTINUOUS
 62
    2
 10
1725.5816
 20
950.63719999999989
 11
1785.5816
 21
950.63719999999989
  0
LINE
  8
_0-3_LAYER005
  6
CONTINUOUS
 62
    2
 10
1725.5816
 20
845.63719999999989
 11
1785.5816
 21
845.63719999999989
  0
LINE
  8
_0-3_LAYER005
  6
CONTINUOUS
 62
    2
 10
1725.5816
 20
950.63719999999989
 11
1725.5816
 21
845.63719999999989
  0
LINE
  8
_0-3_LAYER005
  6
CONTINUOUS
 62
    2
 10
1785.5816
 20
950.63719999999989
 11
1725.5816
 21
845.63719999999989
  0
LINE
  8
_0-1_LAYER003
  6
CONTINUOUS
 62
    3
 10
1785.5816
 20
1478.6402
 11
1785.5816
 21
644.94820000000004
  0
LINE
  8
_0-4_LAYER006
  6
CONTINUOUS
 62
    2
 10
1758.1866
 20
1220.1441
 11
1758.1866
 21
1478.6402
  0
LINE
  8
_0-4_LAYER006
  6
CONTINUOUS
 62
    2
 10
1746.1876000000002
 20
1220.1441
 11
1746.1876000000002
 21
1478.6402
  0
ARC
  8
_0-5_LAYER007
  6
CONTINUOUS
 62
    2
 10
1491.3096
 20
1079.0062
 40
196.005
 50
355.72559000000001
 51
13.400274000000044
  0
CIRCLE
  8
_0-3_LAYER005
  6
CONTINUOUS
 62
    2
 10
1726.3986
 20
1137.4045000000001
 40
1.018
  0
CIRCLE
  8
_0-3_LAYER005
  6
CONTINUOUS
 62
    2
 10
1718.7195999999999
 20
1136.3074999999999
 40
1.018
  0
CIRCLE
  8
_0-3_LAYER005
  6
CONTINUOUS
 62
    2
 10
1714.6976
 20
1128.2625
 40
1.018
  0
CIRCLE
  8
_0-3_LAYER005
  6
CONTINUOUS
 62
    2
 10
1712.1386000000002
 20
1122.7784999999999
 40
1.018
  0
CIRCLE
  8
_0-3_LAYER005
  6
CONTINUOUS
 62
    2
 10
1713.2345999999998
 20
1117.2935
 40
1.018
  0
CIRCLE
  8
_0-3_LAYER005
  6
CONTINUOUS
 62
    2
 10
1717.9886000000001
 20
1112.1745000000001
 40
1.018
  0
CIRCLE
  8
_0-3_LAYER005
  6
CONTINUOUS
 62
    2
 10
1718.7195999999999
 20
1106.3235
 40
1.018
  0
CIRCLE
  8
_0-3_LAYER005
  6
CONTINUOUS
 62
    2
 10
1715.0636
 20
1085.8362
 40
1.018
  0
CIRCLE
  8
_0-3_LAYER005
  6
CONTINUOUS
 62
    2
 10
1704.8256000000001
 20
1080.3512000000001
 40
1.018
  0
CIRCLE
  8
_0-3_LAYER005
  6
CONTINUOUS
 62
    2
 10
1695.6835999999998
 20
1085.4702
 40
1.018
  0
CIRCLE
  8
_0-3_LAYER005
  6
CONTINUOUS
 62
    2
 10
1692.7586000000001
 20
1078.1572000000001
 40
1.018
  0
CIRCLE
  8
_0-3_LAYER005
  6
CONTINUOUS
 62
    2
 10
1692.3926000000001
 20
1084.0082
 40
1.018
  0
CIRCLE
  8
_0-3_LAYER005
  6
CONTINUOUS
 62
    2
 10
1692.3926000000001
 20
1089.8581999999999
 40
1.018
  0
CIRCLE
  8
_0-3_LAYER005
  6
CONTINUOUS
 62
    2
 10
1691.6615999999999
 20
1109.6144999999999
 40
1.018
  0
CIRCLE
  8
_0-3_LAYER005
  6
CONTINUOUS
 62
    2
 10
1692.3926000000001
 20
1115.8305
 40
1.018
  0
CIRCLE
  8
_0-3_LAYER005
  6
CONTINUOUS
 62
    2
 10
1692.7586000000001
 20
1125.7035000000001
 40
1.018
  0
CIRCLE
  8
_0-3_LAYER005
  6
CONTINUOUS
 62
    2
 10
1693.8555999999999
 20
1130.4565
 40
1.018
  0
CIRCLE
  8
_0-3_LAYER005
  6
CONTINUOUS
 62
    2
 10
1707.7505999999998
 20
1137.4045000000001
 40
1.018
  0
CIRCLE
  8
_0-3_LAYER005
  6
CONTINUOUS
 62
    2
 10
1704.0936000000002
 20
1116.9275
 40
1.018
  0
CIRCLE
  8
_0-3_LAYER005
  6
CONTINUOUS
 62
    2
 10
1702.9965999999999
 20
1108.5174999999999
 40
1.018
  0
CIRCLE
  8
_0-3_LAYER005
  6
CONTINUOUS
 62
    2
 10
1711.7725999999998
 20
1104.1305
 40
1.018
  0
CIRCLE
  8
_0-3_LAYER005
  6
CONTINUOUS
 62
    2
 10
1724.5706
 20
1105.5925
 40
1.018
  0
CIRCLE
  8
_0-3_LAYER005
  6
CONTINUOUS
 62
    2
 10
1727.4956000000002
 20
1111.4435000000001
 40
1.018
  0
CIRCLE
  8
_0-3_LAYER005
  6
CONTINUOUS
 62
    2
 10
1739.9276
 20
1122.7784999999999
 40
1.018
  0
CIRCLE
  8
_0-3_LAYER005
  6
CONTINUOUS
 62
    2
 10
1735.1745999999998
 20
1138.5015000000001
 40
1.018
  0
CIRCLE
  8
_0-3_LAYER005
  6
CONTINUOUS
 62
    2
 10
1742.1215999999999
 20
1147.6424999999999
 40
1.018
  0
CIRCLE
  8
_0-3_LAYER005
  6
CONTINUOUS
 62
    3
 10
1738.0996
 20
1154.9555
 40
1.018
  0
CIRCLE
  8
_0-3_LAYER005
  6
CONTINUOUS
 62
    2
 10
1728.2266
 20
1151.6645000000001
 40
1.018
  0
CIRCLE
  8
_0-3_LAYER005
  6
CONTINUOUS
 62
    2
 10
1724.2046
 20
1142.1575
 40
1.018
  0
CIRCLE
  8
_0-3_LAYER005
  6
CONTINUOUS
 62
    2
 10
1717.2575999999999
 20
1143.9855
 40
1.018
  0
CIRCLE
  8
_0-3_LAYER005
  6
CONTINUOUS
 62
    2
 10
1709.2125999999998
 20
1144.7175
 40
1.018
  0
CIRCLE
  8
_0-3_LAYER005
  6
CONTINUOUS
 62
    2
 10
1696.7806
 20
1137.4045000000001
 40
1.018
  0
CIRCLE
  8
_0-3_LAYER005
  6
CONTINUOUS
 62
    2
 10
1700.8026
 20
1132.2855
 40
1.018
  0
CIRCLE
  8
_0-3_LAYER005
  6
CONTINUOUS
 62
    2
 10
1708.8476000000001
 20
1129.7255
 40
1.018
  0
CIRCLE
  8
_0-3_LAYER005
  6
CONTINUOUS
 62
    2
 10
1727.4956000000002
 20
1131.9195
 40
1.018
  0
CIRCLE
  8
_0-3_LAYER005
  6
CONTINUOUS
 62
    2
 10
1702.2656000000002
 20
1121.6814999999999
 40
1.018
  0
CIRCLE
  8
_0-3_LAYER005
  6
CONTINUOUS
 62
    2
 10
1734.4425999999999
 20
1123.5094999999999
 40
1.018
  0
CIRCLE
  8
_0-3_LAYER005
  6
CONTINUOUS
 62
    2
 10
1741.0246000000002
 20
1108.5174999999999
 40
1.018
  0
CIRCLE
  8
_0-3_LAYER005
  6
CONTINUOUS
 62
    2
 10
1743.2186000000002
 20
1104.1305
 40
1.018
  0
CIRCLE
  8
_0-3_LAYER005
  6
CONTINUOUS
 62
    2
 10
1753.8226
 20
1111.0775000000001
 40
1.018
  0
CIRCLE
  8
_0-3_LAYER005
  6
CONTINUOUS
 62
    2
 10
1758.5756000000001
 20
1122.0464999999999
 40
1.018
  0
CIRCLE
  8
_0-3_LAYER005
  6
CONTINUOUS
 62
    2
 10
1756.7476000000001
 20
1131.9195
 40
1.018
  0
CIRCLE
  8
_0-3_LAYER005
  6
CONTINUOUS
 62
    2
 10
1768.8136
 20
1153.8585
 40
1.018
  0
CIRCLE
  8
_0-3_LAYER005
  6
CONTINUOUS
 62
    2
 10
1764.7916
 20
1156.0525
 40
1.018
  0
CIRCLE
  8
_0-3_LAYER005
  6
CONTINUOUS
 62
    2
 10
1760.0385999999999
 20
1153.4925000000001
 40
1.018
  0
CIRCLE
  8
_0-3_LAYER005
  6
CONTINUOUS
 62
    2
 10
1755.6505999999999
 20
1160.0744999999999
 40
1.018
  0
CIRCLE
  8
_0-3_LAYER005
  6
CONTINUOUS
 62
    2
 10
1744.6140999999998
 20
1169.6941999999999
 40
1.018
  0
CIRCLE
  8
_0-3_LAYER005
  6
CONTINUOUS
 62
    2
 10
1735.1071000000002
 20
1171.1572000000001
 40
1.018
  0
CIRCLE
  8
_0-3_LAYER005
  6
CONTINUOUS
 62
    2
 10
1731.4501
 20
1168.9631999999999
 40
1.018
  0
CIRCLE
  8
_0-3_LAYER005
  6
CONTINUOUS
 62
    2
 10
1718.4292999999998
 20
1167.3399999999999
 40
1.018
  0
CIRCLE
  8
_0-3_LAYER005
  6
CONTINUOUS
 62
    2
 10
1709.4965999999999
 20
1161.1746000000001
 40
1.018
  0
CIRCLE
  8
_0-3_LAYER005
  6
CONTINUOUS
 62
    2
 10
1709.1306
 20
1155.6905999999999
 40
1.018
  0
CIRCLE
  8
_0-3_LAYER005
  6
CONTINUOUS
 62
    2
 10
1695.3020999999999
 20
1152.3268
 40
1.018
  0
CIRCLE
  8
_0-3_LAYER005
  6
CONTINUOUS
 62
    2
 10
1688.5056
 20
1152.5445
 40
1.018
  0
CIRCLE
  8
_0-3_LAYER005
  6
CONTINUOUS
 62
    2
 10
1694.3555999999999
 20
1157.6645000000001
 40
1.018
  0
CIRCLE
  8
_0-3_LAYER005
  6
CONTINUOUS
 62
    2
 10
1719.1603
 20
1160.758
 40
1.018
  0
CIRCLE
  8
_0-3_LAYER005
  6
CONTINUOUS
 62
    2
 10
1702.9146000000001
 20
1156.4215999999999
 40
1.018
  0
CIRCLE
  8
_0-3_LAYER005
  6
CONTINUOUS
 62
    2
 10
1726.1082999999999
 20
1165.511
 40
1.018
  0
CIRCLE
  8
_0-3_LAYER005
  6
CONTINUOUS
 62
    2
 10
1746.8746000000001
 20
1163.3655000000001
 40
1.018
  0
CIRCLE
  8
_0-3_LAYER005
  6
CONTINUOUS
 62
    2
 10
1753.0906
 20
1146.9114999999999
 40
1.018
  0
CIRCLE
  8
_0-3_LAYER005
  6
CONTINUOUS
 62
    2
 10
1747.2406000000001
 20
1135.5754999999999
 40
1.018
  0
CIRCLE
  8
_0-3_LAYER005
  6
CONTINUOUS
 62
    2
 10
1749.4346
 20
1123.1434999999999
 40
1.018
  0
CIRCLE
  8
_0-3_LAYER005
  6
CONTINUOUS
 62
    2
 10
1733.7116000000001
 20
1116.9275
 40
1.018
  0
CIRCLE
  8
_0-3_LAYER005
  6
CONTINUOUS
 62
    2
 10
1735.1745999999998
 20
1111.4435000000001
 40
1.018
  0
CIRCLE
  8
_0-3_LAYER005
  6
CONTINUOUS
 62
    2
 10
1740.6586000000002
 20
1087.2982
 40
1.018
  0
CIRCLE
  8
_0-3_LAYER005
  6
CONTINUOUS
 62
    2
 10
1758.5756000000001
 20
1121.6814999999999
 40
1.018
  0
CIRCLE
  8
_0-3_LAYER005
  6
CONTINUOUS
 62
    2
 10
1772.1046000000001
 20
1125.7035000000001
 40
1.018
  0
CIRCLE
  8
_0-3_LAYER005
  6
CONTINUOUS
 62
    2
 10
1768.8136
 20
1104.1305
 40
1.018
  0
CIRCLE
  8
_0-3_LAYER005
  6
CONTINUOUS
 62
    2
 10
1765.8886000000002
 20
1105.5925
 40
1.018
  0
CIRCLE
  8
_0-3_LAYER005
  6
CONTINUOUS
 62
    2
 10
1774.6646000000001
 20
1113.6365000000001
 40
1.018
  0
CIRCLE
  8
_0-3_LAYER005
  6
CONTINUOUS
 62
    2
 10
1761.8665999999998
 20
1124.9725000000001
 40
1.018
  0
CIRCLE
  8
_0-3_LAYER005
  6
CONTINUOUS
 62
    2
 10
1773.5675999999999
 20
1134.8444999999999
 40
1.018
  0
CIRCLE
  8
_0-3_LAYER005
  6
CONTINUOUS
 62
    2
 10
1779.4176000000002
 20
1145.0825
 40
1.018
  0
CIRCLE
  8
_0-3_LAYER005
  6
CONTINUOUS
 62
    2
 10
1776.4926
 20
1159.7085
 40
1.018
  0
CIRCLE
  8
_0-3_LAYER005
  6
CONTINUOUS
 62
    2
 10
1729.6615999999999
 20
1144.3655000000001
 40
1.018
  0
CIRCLE
  8
_0-3_LAYER005
  6
CONTINUOUS
 62
    2
 10
1746.7626
 20
1122.7655
 40
1.018
  0
CIRCLE
  8
_0-3_LAYER005
  6
CONTINUOUS
 62
    2
 10
1742.2626
 20
1129.9655
 40
1.018
  0
CIRCLE
  8
_0-3_LAYER005
  6
CONTINUOUS
 62
    2
 10
1750.3625999999999
 20
1111.9645
 40
1.018
  0
CIRCLE
  8
_0-3_LAYER005
  6
CONTINUOUS
 62
    2
 10
1740.4625999999998
 20
1115.5645
 40
1.018
  0
CIRCLE
  8
_0-3_LAYER005
  6
CONTINUOUS
 62
    2
 10
1760.2626
 20
1116.4645
 40
1.018
  0
CIRCLE
  8
_0-3_LAYER005
  6
CONTINUOUS
 62
    2
 10
1770.1635999999999
 20
1114.6645000000001
 40
1.018
  0
CIRCLE
  8
_0-3_LAYER005
  6
CONTINUOUS
 62
    2
 10
1762.9625999999998
 20
1140.7655
 40
1.018
  0
LINE
  8
_0-2_LAYER004
  6
CONTINUOUS
 62
    2
 10
1770.3161
 20
1282.9765
 11
1765.0128
 21
1277.6732
  0
LINE
  8
_0-2_LAYER004
  6
CONTINUOUS
 62
    2
 10
1765.0128
 20
1277.6732
 11
1766.9540000000002
 21
1284.9176
  0
LINE
  8
_0-2_LAYER004
  6
CONTINUOUS
 62
    2
 10
1765.0128
 20
1277.6732
 11
1846.4848999999999
 21
1418.787
  0
LINE
  8
_0-2_LAYER004
  6
CONTINUOUS
 62
    2
 10
1846.4848999999999
 20
1418.787
 11
1886.9848999999999
 21
1418.787
  0
LINE
  8
_0-0_LAYER001
  6
CONTINUOUS
 62
    2
 10
1746.1876000000002
 20
1363.1373000000003
 11
1746.1876000000002
 21
1345.6373000000003
  0
CIRCLE
  8
_0-0_LAYER001
  6
CONTINUOUS
 62
    2
 10
1746.1876000000002
 20
1360.6373000000003
 40
1.6999999999999997
  0
LINE
  8
_0-0_LAYER001
  6
CONTINUOUS
 62
    2
 10
1746.1876000000002
 20
1360.6373000000003
 11
1671.0500000000002
 21
1360.6373000000003
  0
CIRCLE
  8
_0-0_LAYER001
  6
CONTINUOUS
 62
    2
 10
1671.0500000000002
 20
1360.6373000000003
 40
1.6999999999999997
  0
LINE
  8
_0-0_LAYER001
  6
CONTINUOUS
 62
    2
 10
1671.0500000000002
 20
1363.1373000000003
 11
1671.0500000000002
 21
1275.8134
  0
LINE
  8
_0-0_LAYER001
  6
CONTINUOUS
 62
    2
 10
1442.6554000000001
 20
957.5471
 11
1444.5965000000001
 21
950.30259999999998
  0
LINE
  8
_0-0_LAYER001
  6
CONTINUOUS
 62
    2
 10
1444.5965000000001
 20
950.30259999999998
 11
1439.2932000000001
 21
955.60590000000002
  0
LINE
  8
_0-0_LAYER001
  6
CONTINUOUS
 62
    2
 10
1444.5965000000001
 20
950.30259999999998
 11
1387.1222
 21
1049.8510000000001
  0
LINE
  8
_0-0_LAYER001
  6
CONTINUOUS
 62
    2
 10
1387.1222
 20
1049.8510000000001
 11
1346.6221999999998
 21
1049.8510000000001
  0
LINE
  8
_0-0_LAYER001
  6
CONTINUOUS
 62
    2
 10
1744.9166
 20
1048.5374999999999
 11
1772.2736
 21
1060.8498999999999
  0
LINE
  8
_0-0_LAYER001
  6
CONTINUOUS
 62
    2
 10
1772.2736
 20
1060.8498999999999
 11
1766.1174000000001
 21
1074.5283999999999
  0
LINE
  8
_0-0_LAYER001
  6
CONTINUOUS
 62
    2
 10
1766.1174000000001
 20
1074.5283999999999
 11
1738.7604000000001
 21
1062.2159999999999
  0
LINE
  8
_0-0_LAYER001
  6
CONTINUOUS
 62
    2
 10
1738.7604000000001
 20
1062.2159999999999
 11
1744.9166
 21
1048.5374999999999
  0
LINE
  8
_0-0_LAYER001
  6
CONTINUOUS
 62
    2
 10
1766.1174000000001
 20
1074.5283999999999
 11
1744.9166
 21
1048.5374999999999
  0
LINE
  8
_0-0_LAYER001
  6
CONTINUOUS
 62
    4
 10
1778.8973999999998
 20
1066.3957
 11
1768.5520999999999
 21
1094.7260000000001
  0
LINE
  8
_0-0_LAYER001
  6
CONTINUOUS
 62
    4
 10
1778.8973999999998
 20
1066.3957
 11
1771.8029999999999
 21
1063.8217999999999
  0
LINE
  8
_0-0_LAYER001
  6
CONTINUOUS
 62
    4
 10
1767.5466999999999
 20
1075.5536
 11
1771.8029999999999
 21
1063.8217999999999
  0
LINE
  8
_0-0_LAYER001
  6
CONTINUOUS
 62
    4
 10
1768.5520999999999
 20
1094.7260000000001
 11
1748.8622
 21
1141.6052
  0
LINE
  8
_0-0_LAYER001
  6
CONTINUOUS
 62
    2
 10
1099.2915
 20
757.96540000000005
 11
1126.6485
 21
770.27780000000007
  0
LINE
  8
_0-0_LAYER001
  6
CONTINUOUS
 62
    2
 10
1126.6485
 20
770.27780000000007
 11
1120.4922999999999
 21
783.95630000000006
  0
LINE
  8
_0-0_LAYER001
  6
CONTINUOUS
 62
    2
 10
1120.4922999999999
 20
783.95630000000006
 11
1093.1352999999999
 21
771.64390000000003
  0
LINE
  8
_0-0_LAYER001
  6
CONTINUOUS
 62
    2
 10
1093.1352999999999
 20
771.64390000000003
 11
1099.2915
 21
757.96540000000005
  0
LINE
  8
_0-0_LAYER001
  6
CONTINUOUS
 62
    2
 10
1120.4922999999999
 20
783.95630000000006
 11
1099.2915
 21
757.96540000000005
  0
LINE
  8
_0-0_LAYER001
  6
CONTINUOUS
 62
    4
 10
1134.3578
 20
776.13200000000006
 11
1124.0125
 21
804.46229999999991
  0
LINE
  8
_0-0_LAYER001
  6
CONTINUOUS
 62
    2
 10
1314.4999000000003
 20
854.82279999999992
 11
1341.8569
 21
867.13519999999994
  0
LINE
  8
_0-0_LAYER001
  6
CONTINUOUS
 62
    2
 10
1341.8569
 20
867.13519999999994
 11
1335.7007000000001
 21
880.81369999999993
  0
LINE
  8
_0-0_LAYER001
  6
CONTINUOUS
 62
    2
 10
1335.7007000000001
 20
880.81369999999993
 11
1308.3436999999999
 21
868.5012999999999
  0
LINE
  8
_0-0_LAYER001
  6
CONTINUOUS
 62
    2
 10
1308.3436999999999
 20
868.5012999999999
 11
1314.4999000000003
 21
854.82279999999992
  0
LINE
  8
_0-0_LAYER001
  6
CONTINUOUS
 62
    2
 10
1335.7007000000001
 20
880.81369999999993
 11
1314.4999000000003
 21
854.82279999999992
  0
LINE
  8
_0-0_LAYER001
  6
CONTINUOUS
 62
    4
 10
1349.2043000000001
 20
872.88660000000004
 11
1338.8590999999999
 21
901.2168999999999
  0
LINE
  8
_0-0_LAYER001
  6
CONTINUOUS
 62
    2
 10
1529.7082
 20
951.68020000000001
 11
1557.0652
 21
963.99250000000006
  0
LINE
  8
_0-0_LAYER001
  6
CONTINUOUS
 62
    2
 10
1557.0652
 20
963.99250000000006
 11
1550.9090000000001
 21
977.67100000000005
  0
LINE
  8
_0-0_LAYER001
  6
CONTINUOUS
 62
    2
 10
1550.9090000000001
 20
977.67100000000005
 11
1523.5520999999999
 21
965.3587
  0
LINE
  8
_0-0_LAYER001
  6
CONTINUOUS
 62
    2
 10
1523.5520999999999
 20
965.3587
 11
1529.7082
 21
951.68020000000001
  0
LINE
  8
_0-0_LAYER001
  6
CONTINUOUS
 62
    2
 10
1550.9090000000001
 20
977.67100000000005
 11
1529.7082
 21
951.68020000000001
  0
LINE
  8
_0-0_LAYER001
  6
CONTINUOUS
 62
    4
 10
1564.0509000000002
 20
969.64110000000005
 11
1553.7055999999998
 21
997.9713999999999
  0
LINE
  8
_0-0_LAYER001
  6
CONTINUOUS
 62
    4
 10
1564.0509000000002
 20
969.64110000000005
 11
1556.6037999999999
 21
966.9393
  0
LINE
  8
_0-0_LAYER001
  6
CONTINUOUS
 62
    4
 10
1552.3474000000001
 20
978.67100000000005
 11
1556.6037999999999
 21
966.9393
  0
LINE
  8
_0-0_LAYER001
  6
CONTINUOUS
 62
    4
 10
1349.2043000000001
 20
872.88660000000004
 11
1341.4045000000001
 21
870.05680000000007
  0
LINE
  8
_0-0_LAYER001
  6
CONTINUOUS
 62
    4
 10
1337.1482000000001
 20
881.78850000000011
 11
1341.4045000000001
 21
870.05680000000007
  0
LINE
  8
_0-0_LAYER001
  6
CONTINUOUS
 62
    4
 10
1134.3578
 20
776.13200000000006
 11
1126.2052000000001
 21
773.17419999999993
  0
LINE
  8
_0-0_LAYER001
  6
CONTINUOUS
 62
    4
 10
1121.9489000000001
 20
784.90599999999995
 11
1126.2052000000001
 21
773.17419999999993
  0
LINE
  8
_0-0_LAYER001
  6
CONTINUOUS
 62
    4
 10
1276.8278
 20
897.51939999999991
 11
1767.5466999999999
 21
1075.5536
  0
LINE
  8
_0-0_LAYER001
  6
CONTINUOUS
 62
    4
 10
1259.5079000000001
 20
945.25849999999991
 11
1470.4828000000002
 21
1021.8008
  0
LINE
  8
_0-0_LAYER001
  6
CONTINUOUS
 62
    4
 10
1468.0996
 20
1028.6804999999999
 11
1487.9023000000002
 21
974.09780000000001
  0
ARC
  8
_0-0_LAYER001
  6
CONTINUOUS
 62
    4
 10
1477.8760000000002
 20
1032.2274
 40
10.4
 50
109.94091000000002
 51
199.94091
  0
ARC
  8
_0-0_LAYER001
  6
CONTINUOUS
 62
    4
 10
1280.3494000000001
 20
887.7337
 40
10.4
 50
109.94091000000002
 51
199.94091
  0
ARC
  8
_0-0_LAYER001
  6
CONTINUOUS
 62
    4
 10
1495.1959000000002
 20
984.48820000000001
 40
10.4
 50
109.94091000000002
 51
199.94091
  0
LINE
  8
_0-0_LAYER001
  6
CONTINUOUS
 62
    4
 10
1490.7685000000001
 20
993.94530000000009
 11
1768.5520999999999
 21
1094.7260000000001
  0
LINE
  8
_0-0_LAYER001
  6
CONTINUOUS
 62
    4
 10
1468.0996
 20
1028.6804999999999
 11
1481.8724999999999
 21
990.7177999999999
  0
LINE
  8
_0-0_LAYER001
  6
CONTINUOUS
 62
    4
 10
1124.0125
 20
804.46229999999991
 11
1337.1482000000001
 21
881.78850000000011
  0
LINE
  8
_0-0_LAYER001
  6
CONTINUOUS
 62
    4
 10
1087.7213999999999
 20
772.48820000000001
 11
1121.9489000000001
 21
784.90599999999995
  0
LINE
  8
_0-0_LAYER001
  6
CONTINUOUS
 62
    4
 10
1080.4458
 20
788.6561999999999
 11
1124.0125
 21
804.46229999999991
  0
LINE
  8
_0-0_LAYER001
  6
CONTINUOUS
 62
    4
 10
1052.2718
 20
851.2650000000001
 11
1255.6361999999999
 21
925.0462
  0
LINE
  8
_0-0_LAYER001
  6
CONTINUOUS
 62
    4
 10
1259.2828
 20
915.30590000000007
 11
1273.0558000000001
 21
877.34320000000002
  0
LINE
  8
_0-0_LAYER001
  6
CONTINUOUS
 62
    4
 10
1073.1702
 20
804.82420000000002
 11
1552.3474000000001
 21
978.67100000000005
  0
LINE
  8
_0-0_LAYER001
  6
CONTINUOUS
 62
    4
 10
1473.4486000000002
 20
1041.6844000000001
 11
1748.8622
 21
1141.6052
  0
LINE
  8
_0-0_LAYER001
  6
CONTINUOUS
 62
    4
 10
1253.2529999999999
 20
931.92589999999996
 11
1273.0558000000001
 21
877.34320000000002
  0
ARC
  8
_0-0_LAYER001
  6
CONTINUOUS
 62
    4
 10
1263.0295000000001
 20
935.47280000000001
 40
10.4
 50
109.94091000000002
 51
199.94091
  0
LINE
  8
_0-0_LAYER001
  6
CONTINUOUS
 62
    2
 10
999.34529999999995
 20
959.83320000000003
 11
1214.2733000000001
 21
1038.3177000000001
  0
CIRCLE
  8
_0-0_LAYER001
  6
CONTINUOUS
 62
    2
 10
1214.2733000000001
 20
1038.3177000000001
 40
1.6999999999999997
  0
LINE
  8
_0-0_LAYER001
  6
CONTINUOUS
 62
    2
 10
1213.4157
 20
1040.6660999999999
 11
1231.4239
 21
991.35120000000006
  0
LINE
  8
_0-0_LAYER001
  6
CONTINUOUS
 62
    2
 10
1199.6952000000001
 20
1078.2393
 11
1217.7034000000001
 21
1028.9244000000001
  0
CIRCLE
  8
_0-0_LAYER001
  6
CONTINUOUS
 62
    2
 10
1200.5527999999999
 20
1075.8910000000001
 40
1.6999999999999997
  0
LINE
  8
_0-0_LAYER001
  6
CONTINUOUS
 62
    2
 10
1200.5527999999999
 20
1075.8910000000001
 11
1421.2954999999999
 21
1156.4989
  0
CIRCLE
  8
_0-0_LAYER001
  6
CONTINUOUS
 62
    2
 10
1421.2954999999999
 20
1156.4989
 40
1.6999999999999997
  0
LINE
  8
_0-0_LAYER001
  6
CONTINUOUS
 62
    2
 10
1420.4380000000001
 20
1158.8471999999999
 11
1438.4461000000001
 21
1109.5323000000001
  0
LINE
  8
_0-0_LAYER001
  6
CONTINUOUS
 62
    2
 10
1693.2134000000001
 20
1301.0391999999999
 11
1711.2215999999999
 21
1251.7243000000001
  0
CIRCLE
  8
_0-0_LAYER001
  6
CONTINUOUS
 62
    2
 10
1694.0709999999999
 20
1298.6909000000001
 40
1.6999999999999997
  0
LINE
  8
_0-0_LAYER001
  6
CONTINUOUS
 62
    2
 10
1694.0709999999999
 20
1298.6909000000001
 11
1407.5749999999998
 21
1194.0721000000001
  0
CIRCLE
  8
_0-0_LAYER001
  6
CONTINUOUS
 62
    2
 10
1407.5749999999998
 20
1194.0721000000001
 40
1.6999999999999997
  0
LINE
  8
_0-0_LAYER001
  6
CONTINUOUS
 62
    2
 10
1406.7175
 20
1196.4204
 11
1424.7257
 21
1147.1056000000001
  0
LINE
  8
_0-0_LAYER001
  6
CONTINUOUS
 62
    2
 10
1183.1189999999999
 20
644.80539999999996
 11
1171.8326
 21
669.88259999999991
  0
CIRCLE
  8
_0-0_LAYER001
  6
CONTINUOUS
 62
    2
 10
1182.0929000000001
 20
647.08510000000001
 40
1.6999999999999997
  0
LINE
  8
_0-0_LAYER001
  6
CONTINUOUS
 62
    2
 10
1182.0929000000001
 20
647.08510000000001
 11
1397.3013000000001
 21
743.94250000000011
  0
CIRCLE
  8
_0-0_LAYER001
  6
CONTINUOUS
 62
    2
 10
1397.3013000000001
 20
743.94250000000011
 40
1.6999999999999997
  0
LINE
  8
_0-0_LAYER001
  6
CONTINUOUS
 62
    2
 10
1398.3274000000001
 20
741.66280000000006
 11
1387.0409999999997
 21
766.74000000000001
  0
CIRCLE
  8
_0-0_LAYER001
  6
CONTINUOUS
 62
    2
 10
1397.3013000000001
 20
743.94250000000011
 40
1.6999999999999997
  0
LINE
  8
_0-0_LAYER001
  6
CONTINUOUS
 62
    2
 10
1397.3013000000001
 20
743.94250000000011
 11
1612.5097000000001
 21
840.79989999999998
  0
CIRCLE
  8
_0-0_LAYER001
  6
CONTINUOUS
 62
    2
 10
1612.5097000000001
 20
840.79989999999998
 40
1.6999999999999997
  0
LINE
  8
_0-0_LAYER001
  6
CONTINUOUS
 62
    2
 10
1613.5356999999999
 20
838.52019999999993
 11
1602.2494000000002
 21
863.59740000000011
  0
CIRCLE
  8
_0-0_LAYER001
  6
CONTINUOUS
 62
    2
 10
1612.5097000000001
 20
840.79989999999998
 40
1.6999999999999997
  0
LINE
  8
_0-0_LAYER001
  6
CONTINUOUS
 62
    2
 10
1612.5097000000001
 20
840.79989999999998
 11
1827.7181
 21
937.65730000000008
  0
CIRCLE
  8
_0-0_LAYER001
  6
CONTINUOUS
 62
    2
 10
1827.7181
 20
937.65730000000008
 40
1.6999999999999997
  0
LINE
  8
_0-0_LAYER001
  6
CONTINUOUS
 62
    2
 10
1828.7440999999999
 20
935.37750000000005
 11
1817.4578000000001
 21
960.45479999999998
  0
LINE
  8
_0-2_LAYER004
  6
CONTINUOUS
 62
    2
 10
1700.4286000000002
 20
1203.5247999999999
 11
1702.3697000000002
 21
1196.2804000000001
  0
LINE
  8
_0-2_LAYER004
  6
CONTINUOUS
 62
    2
 10
1702.3697000000002
 20
1196.2804000000001
 11
1697.0664000000002
 21
1201.5836999999999
  0
LINE
  8
_0-2_LAYER004
  6
CONTINUOUS
 62
    2
 10
1702.3697000000002
 20
1196.2804000000001
 11
1600.0729000000001
 21
1373.4636
  0
LINE
  8
_0-2_LAYER004
  6
CONTINUOUS
 62
    2
 10
1600.0729000000001
 20
1373.4636
 11
1469.5729000000001
 21
1373.4636
  0
LINE
  8
_0-0_LAYER001
  6
CONTINUOUS
 62
    2
 10
1362.5675000000001
 20
624.79150000000004
 11
1534.2388999999998
 21
624.79150000000004
  0
LINE
  8
_0-0_LAYER001
  6
CONTINUOUS
 62
    2
 10
1760.1487999999999
 20
1091.6727000000001
 11
1758.2076999999999
 21
1098.9172000000001
  0
LINE
  8
_0-0_LAYER001
  6
CONTINUOUS
 62
    2
 10
1758.2076999999999
 20
1098.9172000000001
 11
1763.511
 21
1093.6139000000001
  0
LINE
  8
_0-0_LAYER001
  6
CONTINUOUS
 62
    2
 10
1758.2076999999999
 20
1098.9172000000001
 11
1847.4034999999999
 21
944.42550000000006
  0
LINE
  8
_0-0_LAYER001
  6
CONTINUOUS
 62
    2
 10
1847.4034999999999
 20
944.42550000000006
 11
1925.2163
 21
944.42550000000006
  0
LINE
  8
_0-0_LAYER001
  6
CONTINUOUS
 62
    2
 10
1353.0243999999998
 20
654.88689999999997
 11
1591.0401999999999
 21
654.88689999999997
  0
LINE
  8
_0-0_LAYER001
  6
CONTINUOUS
 62
    2
 10
1368.9111
 20
594.92499999999995
 11
1430.1858999999999
 21
594.92499999999995
  0
LINE
  8
_0-0_LAYER001
  6
CONTINUOUS
 62
    2
 10
1745.7813999999998
 20
1194.5214000000001
 11
1745.7813999999998
 21
1176.3279
  0
LINE
  8
_0-0_LAYER001
  6
CONTINUOUS
 62
    2
 10
1745.7813999999998
 20
1176.3279
 11
1759.2966000000001
 21
1176.3279
  0
LINE
  8
_0-0_LAYER001
  6
CONTINUOUS
 62
    2
 10
1745.7813999999998
 20
1194.5214000000001
 11
1760.163
 21
1194.5214000000001
  0
LINE
  8
_0-0_LAYER001
  6
CONTINUOUS
 62
    2
 10
1760.163
 20
1194.5214000000001
 11
1760.163
 21
1176.3279
  0
LINE
  8
_0-0_LAYER001
  6
CONTINUOUS
 62
    2
 10
1736.2514999999999
 20
1159.867
 11
1736.2514999999999
 21
1141.1536000000001
  0
LINE
  8
_0-0_LAYER001
  6
CONTINUOUS
 62
    2
 10
1736.2514999999999
 20
1141.1536000000001
 11
1743.5237999999999
 21
1143.3338000000001
  0
LINE
  8
_0-0_LAYER001
  6
CONTINUOUS
 62
    2
 10
1743.5237999999999
 20
1143.3338000000001
 11
1762.2422999999999
 21
1164.8919000000001
  0
LINE
  8
_0-0_LAYER001
  6
CONTINUOUS
 62
    2
 10
1736.2514999999999
 20
1159.0011999999999
 11
1758.6035999999999
 21
1168.0108
  0
LINE
  8
_0-0_LAYER001
  6
CONTINUOUS
 62
    2
 10
1758.6035999999999
 20
1168.0108
 11
1762.2422999999999
 21
1164.8919000000001
  0
LINE
  8
_0-0_LAYER001
  6
CONTINUOUS
 62
    2
 10
1344.395
 20
684.98219999999992
 11
1549.2177000000001
 21
684.98219999999992
  0
LINE
  8
_0-1_LAYER003
  6
CONTINUOUS
 62
    7
 10
1527.3726999999999
 20
1487.5749000000001
 11
1699.8726999999999
 21
1487.5749000000001
  0
LINE
  8
_0-1_LAYER003
  6
CONTINUOUS
 62
    7
 10
1378.7603999999999
 20
1417.8376000000001
 11
1612.7604000000001
 21
1417.8376000000001
  0
LINE
  8
_0-1_LAYER003
  6
CONTINUOUS
 62
    7
 10
1469.5729000000001
 20
1373.4636
 11
1600.0729000000001
 21
1373.4636
  0
LINE
  8
_0-1_LAYER003
  6
CONTINUOUS
 62
    7
 10
1450.3105999999998
 20
1341.6176
 11
1564.3105999999998
 21
1341.6176
  0
LINE
  8
_0-1_LAYER003
  6
CONTINUOUS
 62
    7
 10
1671.0500000000002
 20
1363.1373000000003
 11
1671.0500000000002
 21
1283.3619738361353
  0
LINE
  8
_0-1_LAYER003
  6
CONTINUOUS
 62
    7
 10
1746.1876000000002
 20
1478.6402
 11
1746.1876000000002
 21
1220.1441
  0
LINE
  8
_0-1_LAYER003
  6
CONTINUOUS
 62
    7
 10
1746.1876000000002
 20
1220.1441
 11
1758.1866
 21
1220.1441
  0
LINE
  8
_0-1_LAYER003
  6
CONTINUOUS
 62
    7
 10
1758.1866
 20
1220.1441
 11
1758.1866
 21
1478.6402
  0
LINE
  8
_0-1_LAYER003
  6
CONTINUOUS
 62
    7
 10
1671.0500000000002
 20
1360.6373000000003
 11
1746.1876000000002
 21
1360.6373000000003
  0
LINE
  8
_0-1_LAYER003
  6
CONTINUOUS
 62
    7
 10
1813.2487999999998
 20
1368.0351999999998
 11
1864.9487999999999
 21
1368.0351999999998
  0
LINE
  8
_0-1_LAYER003
  6
CONTINUOUS
 62
    7
 10
1846.4848999999999
 20
1418.787
 11
1886.9848999999999
 21
1418.787
  0
LINE
  8
_0-1_LAYER003
  6
CONTINUOUS
 62
    7
 10
1899.4214000000002
 20
1359.8812
 11
1949.4214000000002
 21
1359.8812
  0
LINE
  8
_0-1_LAYER003
  6
CONTINUOUS
 62
    7
 10
1949.4214000000002
 20
1359.8812
 11
1951.1214
 21
1359.8812
  0
LINE
  8
_0-1_LAYER003
  6
CONTINUOUS
 62
    7
 10
1863.2487999999998
 20
1368.0351999999998
 11
1863.2487999999998
 21
1218.0352
  0
LINE
  8
_0-1_LAYER003
  6
CONTINUOUS
 62
    7
 10
1813.2487999999998
 20
1218.0352
 11
1864.9487999999999
 21
1218.0352
  0
LINE
  8
_0-1_LAYER003
  6
CONTINUOUS
 62
    7
 10
1758.1866
 20
1281.9321
 11
1778.1876000000002
 21
1281.9321
  0
LINE
  8
_0-1_LAYER003
  6
CONTINUOUS
 62
    7
 10
1778.1876000000002
 20
1281.9321
 11
1778.1876000000002
 21
1241.9321
  0
LINE
  8
_0-1_LAYER003
  6
CONTINUOUS
 62
    7
 10
1758.1866
 20
1241.9321
 11
1778.1876000000002
 21
1241.9321
  0
LINE
  8
_0-1_LAYER003
  6
CONTINUOUS
 62
    7
 10
1781.1876000000002
 20
1368.0351999999998
 11
1781.1876000000002
 21
1218.1043999999999
  0
LINE
  8
_0-1_LAYER003
  6
CONTINUOUS
 62
    7
 10
1782.5205999999998
 20
1359.8812
 11
1782.5205999999998
 21
1061.6354700929492
  0
LINE
  8
_0-1_LAYER003
  6
CONTINUOUS
 62
    7
 10
1899.4214000000002
 20
1062.8902
 11
1951.9214000000002
 21
1062.8902
  0
LINE
  8
_0-1_LAYER003
  6
CONTINUOUS
 62
    7
 10
1949.4214000000002
 20
1062.8902
 11
1949.4214000000002
 21
1359.8812
  0
LINE
  8
_0-1_LAYER003
  6
CONTINUOUS
 62
    7
 10
1847.4034999999999
 20
944.42550000000006
 11
1925.2163
 21
944.42550000000006
  0
LINE
  8
_0-1_LAYER003
  6
CONTINUOUS
 62
    7
 10
1925.2163
 20
944.42550000000006
 11
1847.4034999999999
 21
944.42550000000006
  0
LINE
  8
_0-1_LAYER003
  6
CONTINUOUS
 62
    7
 10
1725.5816
 20
845.63719999999989
 11
1785.5816
 21
845.63719999999989
  0
LINE
  8
_0-1_LAYER003
  6
CONTINUOUS
 62
    7
 10
1725.5816
 20
845.63719999999989
 11
1725.5816
 21
950.63719999999989
  0
LINE
  8
_0-1_LAYER003
  6
CONTINUOUS
 62
    7
 10
1725.5816
 20
950.63719999999989
 11
1785.5816
 21
950.63719999999989
  0
LINE
  8
_0-1_LAYER003
  6
CONTINUOUS
 62
    7
 10
1344.7803488052114
 20
684.98219999999992
 11
1549.2177000000001
 21
684.98219999999992
  0
LINE
  8
_0-1_LAYER003
  6
CONTINUOUS
 62
    7
 10
1353.0243999999998
 20
654.88689999999997
 11
1591.0401999999999
 21
654.88689999999997
  0
LINE
  8
_0-1_LAYER003
  6
CONTINUOUS
 62
    7
 10
1591.0401999999999
 20
654.88689999999997
 11
1353.0243999999998
 21
654.88689999999997
  0
LINE
  8
_0-1_LAYER003
  6
CONTINUOUS
 62
    7
 10
1362.5675000000001
 20
624.79150000000004
 11
1534.2388999999998
 21
624.79150000000004
  0
LINE
  8
_0-1_LAYER003
  6
CONTINUOUS
 62
    7
 10
1368.9111
 20
594.92499999999995
 11
1430.1858999999999
 21
594.92499999999995
  0
LINE
  8
_0-1_LAYER003
  6
CONTINUOUS
 62
    7
 10
1785.5816
 20
1161.6170999999999
 11
1755.5816
 21
1161.6170999999999
  0
LINE
  8
_0-1_LAYER003
  6
CONTINUOUS
 62
    7
 10
1755.5816
 20
1161.6170999999999
 11
1755.5816
 21
1196.3271999999999
  0
LINE
  8
_0-1_LAYER003
  6
CONTINUOUS
 62
    7
 10
1847.4034999999999
 20
944.42550000000006
 11
1758.2076999999999
 21
1098.9172000000001
  0
LINE
  8
_0-1_LAYER003
  6
CONTINUOUS
 62
    7
 10
1758.2076999999999
 20
1098.9172000000001
 11
1760.1476868625718
 21
1091.6768544094066
  0
LINE
  8
_0-1_LAYER003
  6
CONTINUOUS
 62
    7
 10
1758.2076999999999
 20
1098.9172000000001
 11
1763.511
 21
1093.6139000000001
  0
LINE
  8
_0-1_LAYER003
  6
CONTINUOUS
 62
    7
 10
1766.1174000000001
 20
1074.5283999999999
 11
1772.2736
 21
1060.8498999999999
  0
LINE
  8
_0-1_LAYER003
  6
CONTINUOUS
 62
    7
 10
1772.2736
 20
1060.8498999999999
 11
1744.9166
 21
1048.5374999999999
  0
LINE
  8
_0-1_LAYER003
  6
CONTINUOUS
 62
    7
 10
1744.9166
 20
1048.5374999999999
 11
1738.7604000000001
 21
1062.2159999999999
  0
LINE
  8
_0-1_LAYER003
  6
CONTINUOUS
 62
    7
 10
1738.7604000000001
 20
1062.2159999999999
 11
1766.1174000000001
 21
1074.5283999999999
  0
LINE
  8
_0-1_LAYER003
  6
CONTINUOUS
 62
    7
 10
1766.1174000000001
 20
1074.5283999999999
 11
1744.9166
 21
1048.5374999999999
  0
LINE
  8
_0-1_LAYER003
  6
CONTINUOUS
 62
    7
 10
1782.5205999999998
 20
1062.8902
 11
1097.4115999999999
 21
754.59120000000007
  0
LINE
  8
_0-1_LAYER003
  6
CONTINUOUS
 62
    7
 10
1099.0536
 20
750.94319999999993
 11
1779.4259999999999
 21
1057.1112000000001
  0
LINE
  8
_0-1_LAYER003
  6
CONTINUOUS
 62
    7
 10
1779.4259999999999
 20
1057.1112000000001
 11
1785.5816
 21
1043.4322
  0
LINE
  8
_0-1_LAYER003
  6
CONTINUOUS
 62
    7
 10
1785.5816
 20
1043.4322
 11
1105.2085999999999
 21
737.26420000000007
  0
LINE
  8
_0-1_LAYER003
  6
CONTINUOUS
 62
    7
 10
1093.1352999999999
 20
771.64390000000003
 11
1099.2915
 21
757.96540000000005
  0
LINE
  8
_0-1_LAYER003
  6
CONTINUOUS
 62
    7
 10
1099.2915
 20
757.96540000000005
 11
1126.6485
 21
770.27780000000007
  0
LINE
  8
_0-1_LAYER003
  6
CONTINUOUS
 62
    7
 10
1126.6485
 20
770.27780000000007
 11
1120.4922999999999
 21
783.95630000000006
  0
LINE
  8
_0-1_LAYER003
  6
CONTINUOUS
 62
    7
 10
1120.4922999999999
 20
783.95630000000006
 11
1093.1352999999999
 21
771.64390000000003
  0
LINE
  8
_0-1_LAYER003
  6
CONTINUOUS
 62
    7
 10
1099.2915
 20
757.96540000000005
 11
1120.4922999999999
 21
783.95630000000006
  0
LINE
  8
_0-1_LAYER003
  6
CONTINUOUS
 62
    7
 10
1299.306
 20
854.69479999999999
 11
1299.306
 21
847.19479999999999
  0
LINE
  8
_0-1_LAYER003
  6
CONTINUOUS
 62
    7
 10
1299.306
 20
854.69479999999999
 11
1303.056
 21
848.19959999999992
  0
LINE
  8
_0-1_LAYER003
  6
CONTINUOUS
 62
    7
 10
1308.3436999999999
 20
868.5012999999999
 11
1314.4999000000003
 21
854.82279999999992
  0
LINE
  8
_0-1_LAYER003
  6
CONTINUOUS
 62
    7
 10
1314.4999000000003
 20
854.82279999999992
 11
1341.8569
 21
867.13519999999994
  0
LINE
  8
_0-1_LAYER003
  6
CONTINUOUS
 62
    7
 10
1341.8569
 20
867.13519999999994
 11
1335.7007000000001
 21
880.81369999999993
  0
LINE
  8
_0-1_LAYER003
  6
CONTINUOUS
 62
    7
 10
1335.7007000000001
 20
880.81369999999993
 11
1308.3436999999999
 21
868.5012999999999
  0
LINE
  8
_0-1_LAYER003
  6
CONTINUOUS
 62
    7
 10
1314.4999000000003
 20
854.82279999999992
 11
1335.7007000000001
 21
880.81369999999993
  0
LINE
  8
_0-1_LAYER003
  6
CONTINUOUS
 62
    7
 10
1299.306
 20
854.69479999999999
 11
1368.9111
 21
594.92499999999995
  0
LINE
  8
_0-1_LAYER003
  6
CONTINUOUS
 62
    7
 10
1129.8306
 20
682.54919999999993
 11
1785.5816
 21
977.63719999999989
  0
LINE
  8
_0-1_LAYER003
  6
CONTINUOUS
 62
    7
 10
1817.4578000000001
 20
960.45479999999998
 11
1828.4157581429397
 21
936.10705062793443
  0
LINE
  8
_0-1_LAYER003
  6
CONTINUOUS
 62
    7
 10
1827.7180603095142
 20
937.65728213676948
 11
1182.0929699291835
 21
647.08513147255815
  0
LINE
  8
_0-1_LAYER003
  6
CONTINUOUS
 62
    7
 10
1182.7906752162332
 20
645.53490331970079
 11
1171.8326
 21
669.88259999999991
  0
LINE
  8
_0-1_LAYER003
  6
CONTINUOUS
 62
    7
 10
1397.9990752162335
 20
742.39230331970089
 11
1387.0409999999997
 21
766.74000000000001
  0
LINE
  8
_0-1_LAYER003
  6
CONTINUOUS
 62
    7
 10
1613.2073944798749
 20
839.2496669811436
 11
1602.2494000000002
 21
863.59740000000011
  0
LINE
  8
_0-1_LAYER003
  6
CONTINUOUS
 62
    7
 10
1785.5816
 20
950.63719999999989
 11
1725.5816
 21
845.63719999999989
  0
LINE
  8
_0-1_LAYER003
  6
CONTINUOUS
 62
    7
 10
1785.5816
 20
644.94820000000004
 11
1785.5816
 21
1478.6402
  0
LINE
  8
_0-1_LAYER003
  6
CONTINUOUS
 62
    7
 10
1846.4848999999999
 20
1418.787
 11
1765.0128
 21
1277.6732
  0
LINE
  8
_0-1_LAYER003
  6
CONTINUOUS
 62
    7
 10
1765.0128
 20
1277.6732
 11
1770.3161
 21
1282.9765
  0
LINE
  8
_0-1_LAYER003
  6
CONTINUOUS
 62
    7
 10
1765.0128
 20
1277.6732
 11
1766.9540000000002
 21
1284.9176
  0
LINE
  8
_0-1_LAYER003
  6
CONTINUOUS
 62
    7
 10
1778.1876000000002
 20
1281.9321
 11
1758.1866
 21
1241.9321
  0
LINE
  8
_0-1_LAYER003
  6
CONTINUOUS
 62
    7
 10
1781.1876000000002
 20
1218.1043999999999
 11
1692.0273999999999
 21
1202.3831
  0
LINE
  8
_0-1_LAYER003
  6
CONTINUOUS
 62
    7
 10
1692.0273999999999
 20
1202.3831
 11
1694.6320000000001
 21
1187.6110000000001
  0
LINE
  8
_0-1_LAYER003
  6
CONTINUOUS
 62
    7
 10
1694.6320000000001
 20
1187.6110000000001
 11
1671.0500000000002
 21
1179.0278000000001
  0
LINE
  8
_0-1_LAYER003
  6
CONTINUOUS
 62
    7
 10
1671.0500000000002
 20
1179.0278000000001
 11
1676.9625999999998
 21
1180.0481
  0
LINE
  8
_0-1_LAYER003
  6
CONTINUOUS
 62
    7
 10
1694.3442
 20
1200.7608
 11
1696.9488999999999
 21
1185.9887000000001
  0
LINE
  8
_0-1_LAYER003
  6
CONTINUOUS
 62
    7
 10
1696.9488999999999
 20
1185.9887000000001
 11
1785.5816
 21
1201.6170999999999
  0
LINE
  8
_0-1_LAYER003
  6
CONTINUOUS
 62
    7
 10
1785.5816
 20
1201.6170999999999
 11
1782.9769000000001
 21
1216.3892000000001
  0
LINE
  8
_0-1_LAYER003
  6
CONTINUOUS
 62
    7
 10
1782.9769000000001
 20
1216.3892000000001
 11
1694.3442
 21
1200.7608
  0
LINE
  8
_0-1_LAYER003
  6
CONTINUOUS
 62
    7
 10
1694.3442
 20
1200.7608
 11
1785.5816
 21
1201.6170999999999
  0
LINE
  8
_0-1_LAYER003
  6
CONTINUOUS
 62
    7
 10
1748.9683
 20
1406.4211
 11
1750.9094
 21
1399.1767
  0
LINE
  8
_0-1_LAYER003
  6
CONTINUOUS
 62
    7
 10
1750.9094
 20
1399.1767
 11
1745.6061
 21
1404.48
  0
LINE
  8
_0-1_LAYER003
  6
CONTINUOUS
 62
    7
 10
1750.9094
 20
1399.1767
 11
1699.8726999999999
 21
1487.5749000000001
  0
LINE
  8
_0-1_LAYER003
  6
CONTINUOUS
 62
    7
 10
1600.0729000000001
 20
1373.4636
 11
1702.3697000000002
 21
1196.2804000000001
  0
LINE
  8
_0-1_LAYER003
  6
CONTINUOUS
 62
    7
 10
1702.3697000000002
 20
1196.2804000000001
 11
1700.4286000000002
 21
1203.5247999999999
  0
LINE
  8
_0-1_LAYER003
  6
CONTINUOUS
 62
    7
 10
1702.3697000000002
 20
1196.2804000000001
 11
1697.0664000000002
 21
1201.5836999999999
  0
LINE
  8
_0-1_LAYER003
  6
CONTINUOUS
 62
    7
 10
1728.2761
 20
1213.8761999999999
 11
1733.5794000000001
 21
1208.5728999999999
  0
LINE
  8
_0-1_LAYER003
  6
CONTINUOUS
 62
    7
 10
1733.5794000000001
 20
1208.5728999999999
 11
1731.6381999999999
 21
1215.8173999999999
  0
LINE
  8
_0-1_LAYER003
  6
CONTINUOUS
 62
    7
 10
1733.5794000000001
 20
1208.5728999999999
 11
1731.6381999999999
 21
1215.8173999999999
  0
LINE
  8
_0-1_LAYER003
  6
CONTINUOUS
 62
    7
 10
1733.5794000000001
 20
1208.5728999999999
 11
1612.7604000000001
 21
1417.8376000000001
  0
LINE
  8
_0-1_LAYER003
  6
CONTINUOUS
 62
    7
 10
1711.2215999999999
 20
1251.7243000000001
 11
1693.2134000000001
 21
1301.0391999999999
  0
LINE
  8
_0-1_LAYER003
  6
CONTINUOUS
 62
    7
 10
1694.0709999999999
 20
1298.6909000000001
 11
1407.5749999999998
 21
1194.0721000000001
  0
LINE
  8
_0-1_LAYER003
  6
CONTINUOUS
 62
    7
 10
1407.5750217398945
 20
1194.0721079386858
 11
1406.9918985196375
 21
1195.6689696451494
  0
LINE
  8
_0-1_LAYER003
  6
CONTINUOUS
 62
    7
 10
1406.9918985196375
 20
1195.6689696451494
 11
1438.4461000000001
 21
1109.5323000000001
  0
LINE
  8
_0-1_LAYER003
  6
CONTINUOUS
 62
    7
 10
1421.2954863471148
 20
1156.49889501442
 11
1200.5527999999999
 21
1075.8910000000001
  0
LINE
  8
_0-1_LAYER003
  6
CONTINUOUS
 62
    7
 10
1199.9696097949591
 20
1077.4878372442877
 11
1231.4239
 21
991.35120000000006
  0
LINE
  8
_0-1_LAYER003
  6
CONTINUOUS
 62
    7
 10
1214.2733000000001
 20
1038.3177000000001
 11
999.34529999999995
 21
959.83320000000003
  0
LINE
  8
_0-1_LAYER003
  6
CONTINUOUS
 62
    7
 10
1564.3105999999998
 20
1341.6176
 11
1666.2862
 21
1164.9907000000001
  0
LINE
  8
_0-1_LAYER003
  6
CONTINUOUS
 62
    7
 10
1666.2862
 20
1164.9907000000001
 11
1664.3451
 21
1172.2351000000001
  0
LINE
  8
_0-1_LAYER003
  6
CONTINUOUS
 62
    7
 10
1666.2862
 20
1164.9907000000001
 11
1660.9829
 21
1170.2940000000001
  0
LINE
  8
_0-1_LAYER003
  6
CONTINUOUS
 62
    7
 10
1745.7813999999998
 20
1194.5214000000001
 11
1760.163
 21
1194.5214000000001
  0
LINE
  8
_0-1_LAYER003
  6
CONTINUOUS
 62
    7
 10
1760.163
 20
1194.5214000000001
 11
1760.163
 21
1176.3279
  0
LINE
  8
_0-1_LAYER003
  6
CONTINUOUS
 62
    7
 10
1760.163
 20
1176.3279
 11
1745.7813999999998
 21
1176.3279
  0
LINE
  8
_0-1_LAYER003
  6
CONTINUOUS
 62
    7
 10
1745.7813999999998
 20
1176.3279
 11
1745.7813999999998
 21
1194.5214000000001
  0
LINE
  8
_0-1_LAYER003
  6
CONTINUOUS
 62
    7
 10
1736.2514999999999
 20
1159.867
 11
1736.2514999999999
 21
1141.1536000000001
  0
LINE
  8
_0-1_LAYER003
  6
CONTINUOUS
 62
    7
 10
1759.0855999999999
 20
1196.9450999999999
 11
1785.5816
 21
1161.6170999999999
  0
LINE
  8
_0-1_LAYER003
  6
CONTINUOUS
 62
    7
 10
1755.5816
 20
1187.6170999999999
 11
1761.5814999999998
 21
1184.617
  0
LINE
  8
_0-1_LAYER003
  6
CONTINUOUS
 62
    7
 10
1761.5814999999998
 20
1184.617
 11
1761.5814999999998
 21
1178.6170999999999
  0
LINE
  8
_0-1_LAYER003
  6
CONTINUOUS
 62
    7
 10
1761.5814999999998
 20
1178.6170999999999
 11
1755.5816
 21
1175.617
  0
LINE
  8
_0-1_LAYER003
  6
CONTINUOUS
 62
    7
 10
1736.2514999999999
 20
1159.0011633977524
 11
1758.6035999999999
 21
1168.0108
  0
LINE
  8
_0-1_LAYER003
  6
CONTINUOUS
 62
    7
 10
1758.6035999999999
 20
1168.0108
 11
1762.2422999999999
 21
1164.8919000000001
  0
LINE
  8
_0-1_LAYER003
  6
CONTINUOUS
 62
    7
 10
1762.2422999999999
 20
1164.8919000000001
 11
1743.5237999999999
 21
1143.3338000000001
  0
LINE
  8
_0-1_LAYER003
  6
CONTINUOUS
 62
    7
 10
1743.5237999999999
 20
1143.3338000000001
 11
1736.2514999999999
 21
1141.1536000000001
  0
LINE
  8
_0-1_LAYER003
  6
CONTINUOUS
 62
    7
 10
1761.5814999999998
 20
1184.617
 11
1828.5814999999998
 21
1184.617
  0
LINE
  8
_0-1_LAYER003
  6
CONTINUOUS
 62
    7
 10
1828.5814999999998
 20
1184.617
 11
1833.5816
 21
1181.6170999999999
  0
LINE
  8
_0-1_LAYER003
  6
CONTINUOUS
 62
    7
 10
1833.5816
 20
1181.6170999999999
 11
1828.5814999999998
 21
1178.6170999999999
  0
LINE
  8
_0-1_LAYER003
  6
CONTINUOUS
 62
    7
 10
1828.5814999999998
 20
1178.6170999999999
 11
1761.5814999999998
 21
1178.6170999999999
  0
LINE
  8
_0-1_LAYER003
  6
CONTINUOUS
 62
    7
 10
1772.2854000000002
 20
1185.4649999999999
 11
1775.7271000000001
 21
1177.2261000000001
  0
LINE
  8
_0-1_LAYER003
  6
CONTINUOUS
 62
    7
 10
1775.7271000000001
 20
1177.2261000000001
 11
1775.9355
 21
1186.1088
  0
LINE
  8
_0-1_LAYER003
  6
CONTINUOUS
 62
    7
 10
1775.9355
 20
1186.1088
 11
1771.2456000000002
 21
1212.7007000000001
  0
LINE
  8
_0-1_LAYER003
  6
CONTINUOUS
 62
    7
 10
1771.2456000000002
 20
1212.7007000000001
 11
1773.5291999999999
 21
1214.7233000000001
  0
LINE
  8
_0-1_LAYER003
  6
CONTINUOUS
 62
    7
 10
1764.7597000000001
 20
1213.1769999999999
 11
1767.5956999999999
 21
1212.0583999999999
  0
LINE
  8
_0-1_LAYER003
  6
CONTINUOUS
 62
    7
 10
1767.5956999999999
 20
1212.0583999999999
 11
1772.2854000000002
 21
1185.4649999999999
  0
LINE
  8
_0-1_LAYER003
  6
CONTINUOUS
 62
    7
 10
1346.6221999999998
 20
1049.8510000000001
 11
1387.1222
 21
1049.8510000000001
  0
LINE
  8
_0-1_LAYER003
  6
CONTINUOUS
 62
    7
 10
1387.1222
 20
1049.8510000000001
 11
1444.5965000000001
 21
950.30259999999998
  0
LINE
  8
_0-1_LAYER003
  6
CONTINUOUS
 62
    7
 10
1444.5965000000001
 20
950.30259999999998
 11
1442.6554000000001
 21
957.5471
  0
LINE
  8
_0-1_LAYER003
  6
CONTINUOUS
 62
    7
 10
1439.2932000000001
 20
955.60590000000002
 11
1444.5965000000001
 21
950.30259999999998
  0
LINE
  8
_0-1_LAYER003
  6
CONTINUOUS
 62
    7
 10
1523.5520999999999
 20
965.3587
 11
1529.7082
 21
951.68020000000001
  0
LINE
  8
_0-1_LAYER003
  6
CONTINUOUS
 62
    7
 10
1529.7082
 20
951.68020000000001
 11
1557.0652
 21
963.99250000000006
  0
LINE
  8
_0-1_LAYER003
  6
CONTINUOUS
 62
    7
 10
1557.0652
 20
963.99250000000006
 11
1550.9090000000001
 21
977.67100000000005
  0
LINE
  8
_0-1_LAYER003
  6
CONTINUOUS
 62
    7
 10
1550.9090000000001
 20
977.67100000000005
 11
1523.5520999999999
 21
965.3587
  0
LINE
  8
_0-1_LAYER003
  6
CONTINUOUS
 62
    7
 10
1529.7082
 20
951.68020000000001
 11
1550.9090000000001
 21
977.67100000000005
  0
ARC
  8
_0-1_LAYER003
  6
CONTINUOUS
 62
    7
 10
1671.3970155393527
 20
1150.5785645833139
 40
13.412855541097672
 50
337.44897151004358
 51
18.387185223974807
  0
ARC
  8
_0-1_LAYER003
  6
CONTINUOUS
 62
    7
 10
1572.4695061156808
 20
1085.549754922321
 40
116.16819077196381
 50
349.84748243662739
 51
19.371573405245236
  0
TEXT
  8
_0-2_LAYER004
 62
    7
 10
1527.3726999999999
 20
1490.0748999999996
 40
20
 41
1
 50
0
  1
外壁　防火サイディング
  0
TEXT
  8
_0-2_LAYER004
 62
    7
 10
1450.3106000000002
 20
1344.1175999999996
 40
20
 41
1
 50
0
  1
熨斗瓦２段積み
  0
TEXT
  8
_0-2_LAYER004
 62
    7
 10
1846.4849000000004
 20
1421.2869999999996
 40
20
 41
1
 50
0
  1
胴　縁
  0
TEXT
  8
_0-0_LAYER001
 62
    7
 10
1369.7407000000003
 20
597.42499999999961
 40
20
 41
1
 50
0
  1
　垂木
  0
TEXT
  8
_0-0_LAYER001
 62
    7
 10
1344.3950000000004
 20
687.48219999999958
 40
20
 41
1
 50
0
  1
　瓦桟：１５ｘ３０以上
  0
TEXT
  8
_0-0_LAYER001
 62
    7
 10
1343.7439550867844
 20
1055.3997162175308
 40
20
 41
1
 50
0
  1
桟　瓦
  0
TEXT
  8
_0-0_LAYER001
 62
    7
 10
1856.9162472731502
 20
953.78144053706262
 40
20
 41
1
 50
0
  1
　葺　土
  0
TEXT
  8
_0-2_LAYER004
 62
    7
 10
1378.7604000000006
 20
1420.3375999999998
 40
20
 41
1
 50
0
  1
雨押水切カラー鋼板0.35ｍｍ以上
  0
TEXT
  8
_0-2_LAYER004
 62
    7
 10
1439.6769207030379
 20
1377.6325967437697
 40
20
 41
1
 50
0
  1
笠木：１５ｘ９０
  0
TEXT
  8
_0-2_LAYER004
 62
    7
 10
1897.4904986543254
 20
1185.5009968166719
 40
20
 41
1
 50
90
  1
水切り立上がり寸法
  0
TEXT
  8
_0-1_LAYER003
 62
    7
 10
1987.5521861201526
 20
1104.4454780974274
 40
20
 41
1
 50
90
  1
下葺き材立上がり寸法
  0
TEXT
  8
_0-2_LAYER004
 62
    7
 10
1938.0069210223235
 20
1199.4485249863149
 40
20
 41
1
 50
90
  1
300
  0
TEXT
  8
_0-2_LAYER004
 62
    7
 10
1847.6900195145424
 20
1281.8428912741147
 40
20
 41
1
 50
90
  1
150
  0
TEXT
  8
_0-0_LAYER001
 62
    7
 10
1702.3568424783666
 20
1370.1274561216173
 40
20
 41
1
 50
0
  1
75
  0
TEXT
  8
_0-0_LAYER001
 62
    7
 10
1537.126638891295
 20
1254.9062715261807
 40
20
 41
1
 50
20.060506999999962
  1
305
  0
TEXT
  8
_0-0_LAYER001
 62
    7
 10
1297.8660752478754
 20
1120.2231727865069
 40
20
 41
1
 50
20.060507000000005
  1
235
  0
TEXT
  8
_0-0_LAYER001
 62
    7
 10
1087.1266383963853
 20
1010.8921867507717
 40
20
 41
1
 50
20.060507000000005
  1
235
  0
TEXT
  8
_0-0_LAYER001
 62
    7
 10
1274.0984695879324
 20
703.49782021551755
 40
20
 41
1
 50
24.230758000000019
  1
236
  0
TEXT
  8
_0-0_LAYER001
 62
    7
 10
1489.5914275714103
 20
798.5682428552866
 40
20
 41
1
 50
24.230758000000005
  1
236
  0
TEXT
  8
_0-0_LAYER001
 62
    7
 10
1697.1618503349075
 20
896.80767958304853
 40
20
 41
1
 50
24.230758000000019
  1
236
  0
TEXT
  8
_0-0_LAYER001
 62
    7
 10
1362.5675000000003
 20
627.29149999999959
 40
20
 41
1
 50
0
  1
　野地板：杉ｔ＝１２
  0
TEXT
  8
_0-0_LAYER001
 62
    7
 10
1353.0244000000005
 20
657.38689999999963
 40
20
 41
1
 50
0
  1
　下葺材：ルーフィング
  0
ENDSEC
  0
EOF
