  0
SECTION
  2
HEADER
  9
$ACADVER
  1
AC1009
  9
$INSBASE
 10
0
 20
0
 30
0
  9
$EXTMIN
 10
0
 20
0
  9
$EXTMAX
 10
2970
 20
2100
  9
$LIMMIN
 10
0
 20
0
  9
$LIMMAX
 10
2970
 20
2100
  9
$LTSCALE
 40
10
  0
ENDSEC
  0
SECTION
  2
TABLES
  0
TABLE
  2
LTYPE
 70
     9
  0
LTYPE
  2
CONTINUOUS
 70
    64
  3
実線
 72
    65
 73
     0
 40
0.0
  0
LTYPE
  2
DASHED1
 70
    64
  3
--  --  --  --  --  --  --  --  
 72
    65
 73
     2
 40
2.5
 49
1.25
 49
-1.25
  0
LTYPE
  2
DASHED2
 70
    64
  3
----    ----    ----    ----    
 72
    65
 73
     2
 40
5.0
 49
2.5
 49
-2.5
  0
LTYPE
  2
DASHED3
 70
    64
  3
------  ------  ------  ------  
 72
    65
 73
     2
 40
5.0
 49
3.75
 49
-1.25
  0
LTYPE
  2
CENTER1
 70
    64
  3
----- - ----- - ----- - ----- - 
 72
    65
 73
     4
 40
10.0
 49
6.25
 49
-1.25
 49
1.25
 49
-1.25
  0
LTYPE
  2
CENTER2
 70
    64
  3
----------  --  ----------  --  
 72
    65
 73
     4
 40
20.0
 49
12.5
 49
-2.5
 49
2.5
 49
-2.5
  0
LTYPE
  2
PHANTOM1
 70
    64
  3
--- - - --- - - --- - - --- - - 
 72
    65
 73
     6
 40
10.0
 49
3.25
 49
-1.25
 49
1.25
 49
-1.25
 49
1.25
 49
-1.25
  0
LTYPE
  2
PHANTOM2
 70
    64
  3
--------  -  -  --------  -  -  
 72
    65
 73
     6
 40
20.0
 49
10.0
 49
-2.5
 49
1.25
 49
-2.5
 49
1.25
 49
-2.5
  0
LTYPE
  2
DOT
 70
    64
  3
-   -   -   -   -   -   -   -   
 72
    65
 73
     2
 40
2.5
 49
0.625
 49
-1.875
  0
LTYPE
  2
DUMMY
 70
    64
  3
ダミー
 72
    65
 73
     0
 40
0.0
  0
LTYPE
  2
RAND1
 70
    64
  3
ランダム線1
 72
    65
 73
     4
 40
10.0
 49
1.0
 49
-2.0
 49
3.0
 49
-4.0
  0
LTYPE
  2
RAND2
 70
    64
  3
ランダム線2
 72
    65
 73
     4
 40
14.0
 49
2.0
 49
-3.0
 49
4.0
 49
-5.0
  0
LTYPE
  2
RAND3
 70
    64
  3
ランダム線3
 72
    65
 73
     4
 40
18.0
 49
3.0
 49
-4.0
 49
5.0
 49
-6.0
  0
LTYPE
  2
RAND4
 70
    64
  3
ランダム線4
 72
    65
 73
     4
 40
22.0
 49
4.0
 49
-5.0
 49
6.0
 49
-7.0
  0
LTYPE
  2
RAND5
 70
    64
  3
ランダム線5
 72
    65
 73
     4
 40
26.0
 49
5.0
 49
-6.0
 49
7.0
 49
-8.0
  0
LTYPE
  2
LONG1
 70
    64
  3
----------  --  ----------  --  
 72
    65
 73
     4
 40
40.0
 49
32.5
 49
-2.5
 49
2.5
 49
-2.5
  0
LTYPE
  2
LONG2
 70
    64
  3
--------  -  -  --------  -  -  
 72
    65
 73
     6
 40
40.0
 49
30.0
 49
-2.5
 49
1.25
 49
-2.5
 49
1.25
 49
-2.5
  0
LTYPE
  2
LONG3
 70
    64
  3
+++++++++++++++..+++++++++++++++
 72
    65
 73
     2
 40
40.0
 49
37.5
 49
-2.5
  0
LTYPE
  2
LONG4
 70
    64
  3
+++++++++++++++..+++++++++++++++
 72
    65
 73
     2
 40
80.0
 49
75.0
 49
-5.0
  0
LTYPE
  2
LONG5
 70
    64
  3
----------  --  ----------  --  
 72
    65
 73
     4
 40
60.0
 49
37.5
 49
-7.5
 49
7.5
 49
-7.5
  0
LTYPE
  2
dashed
 70
   64
  3
-------   -------------   ------
 72
   65
 73
    2
 40
7.5
 49
6
 49
-1.5
  0
LTYPE
  2
dashed_spaced
 70
   64
  3
----        --------        ----
 72
   65
 73
    2
 40
12
 49
6
 49
-6
  0
LTYPE
  2
long_dashed_dotted
 70
   64
  3
------------- --- --------------
 72
   65
 73
    4
 40
15.25
 49
12
 49
-1.5
 49
0.25
 49
-1.5
  0
LTYPE
  2
long_dashed_double-dotted
 70
   64
  3
----------- --- --- ------------
 72
   65
 73
    6
 40
17
 49
12
 49
-1.5
 49
0.25
 49
-1.5
 49
0.25
 49
-1.5
  0
LTYPE
  2
long_dashed_triplicate-dotted
 70
   64
  3
--------- --- --- --- ----------
 72
   65
 73
    8
 40
18.75
 49
12
 49
-1.5
 49
0.25
 49
-1.5
 49
0.25
 49
-1.5
 49
0.25
 49
-1.5
  0
LTYPE
  2
dotted
 70
   64
  3
   -       -       -       -    
 72
   65
 73
    2
 40
1.75
 49
0.25
 49
-1.5
  0
LTYPE
  2
chain
 70
   64
  3
-------------- -- --------------
 72
   65
 73
    4
 40
18.5
 49
12
 49
-1.5
 49
3.5
 49
-1.5
  0
LTYPE
  2
chain_double_dash
 70
   64
  3
------------ -- -- -------------
 72
   65
 73
    6
 40
23.5
 49
12
 49
-1.5
 49
3.5
 49
-1.5
 49
3.5
 49
-1.5
  0
LTYPE
  2
dashed_dotted
 70
   64
  3
-----------     -     ----------
 72
   65
 73
    4
 40
9.25
 49
6
 49
-1.5
 49
0.25
 49
-1.5
  0
LTYPE
  2
double-dashed_dotted
 70
   64
  3
------   -----------   -   -----
 72
   65
 73
    6
 40
16.75
 49
6
 49
-1.5
 49
6
 49
-1.5
 49
0.25
 49
-1.5
  0
LTYPE
  2
dashed_double-dotted
 70
   64
  3
---------    -    -    ---------
 72
   65
 73
    6
 40
11
 49
6
 49
-1.5
 49
0.25
 49
-1.5
 49
0.25
 49
-1.5
  0
LTYPE
  2
double-dashed_double-dotted
 70
   64
  3
-----   ---------   -   -   ----
 72
   65
 73
    8
 40
18.5
 49
6
 49
-1.5
 49
6
 49
-1.5
 49
0.25
 49
-1.5
 49
0.25
 49
-1.5
  0
LTYPE
  2
dashed_triplicate-dotted
 70
   64
  3
-------    -    -    -    ------
 72
   65
 73
    8
 40
12.75
 49
6
 49
-1.5
 49
0.25
 49
-1.5
 49
0.25
 49
-1.5
 49
0.25
 49
-1.5
  0
LTYPE
  2
double-dashed_triplicate-dotted
 70
   64
  3
-----  ---------  -  -  -  -----
 72
   65
 73
   10
 40
20.25
 49
6
 49
-1.5
 49
6
 49
-1.5
 49
0.25
 49
-1.5
 49
0.25
 49
-1.5
 49
0.25
 49
-1.5
  0
LTYPE
  2
undefined
 70
   64
  3
--------------------------------
 72
   65
 73
    0
 40
0
  0
ENDTAB
  0
TABLE
  2
STYLE
  5
3
100
AcDbSymbolTable
 70
     1
  0
STYLE
  5
10
100
AcDbSymbolTableRecord
100
AcDbTextStyleTableRecord
  2
STANDARD
 70
     0
 40
0.0
 41
1.0
 50
0.0
 71
     0
 42
0.2
  3
txt
  4
bigfont.shx
  0
STYLE
  5
26
100
AcDbSymbolTableRecord
100
AcDbTextStyleTableRecord
  2
TATEGAKI
 70
    68
 40
0.0
 41
1.0
 50
0.0
 71
     0
 42
1.0
  3
txt
  4
bigfont.shx
  0
ENDTAB
  0
TABLE
  2
LAYER
 70
    7
  0
LAYER
  2
_0-0_LAYER001
 70
   64
 62
    7
  6
CONTINUOUS
  0
LAYER
  2
_0-1_LAYER003
 70
   64
 62
    7
  6
CONTINUOUS
  0
LAYER
  2
_0-2_LAYER004
 70
   64
 62
    7
  6
CONTINUOUS
  0
LAYER
  2
_0-3_LAYER005
 70
   64
 62
    7
  6
CONTINUOUS
  0
LAYER
  2
_0-4_LAYER006
 70
   64
 62
    7
  6
CONTINUOUS
  0
LAYER
  2
_0-5_LAYER007
 70
   64
 62
    7
  6
CONTINUOUS
  0
LAYER
  2
ADD_LINE
 70
   64
 62
    7
  6
CONTINUOUS
  0
ENDTAB
  0
ENDSEC
  0
SECTION
  2
BLOCKS
  0
ENDSEC
  0
SECTION
  2
ENTITIES
  0
LINE
  8
_0-0_LAYER001
  6
CONTINUOUS
 62
    2
 10
1090.1995999999999
 20
1022.0831000000001
 11
1095.5029
 21
1027.3864000000001
  0
LINE
  8
_0-0_LAYER001
  6
CONTINUOUS
 62
    2
 10
1095.5029
 20
1027.3864000000001
 11
1093.5617999999999
 21
1020.1420000000001
  0
LINE
  8
_0-0_LAYER001
  6
CONTINUOUS
 62
    2
 10
1095.5029
 20
1027.3864000000001
 11
1036.6576
 21
925.46329999999989
  0
LINE
  8
_0-0_LAYER001
  6
CONTINUOUS
 62
    2
 10
1036.6576
 20
925.46329999999989
 11
848.44000000000005
 21
925.46329999999989
  0
LINE
  8
_0-4_LAYER006
  6
CONTINUOUS
 62
    2
 10
1083.9267
 20
1114.0340000000001
 11
1100.2564
 21
1114.0340000000001
  0
LINE
  8
_0-4_LAYER006
  6
CONTINUOUS
 62
    2
 10
1113.9267
 20
1111.53
 11
1113.9267
 21
1084.0340000000001
  0
LINE
  8
_0-4_LAYER006
  6
CONTINUOUS
 62
    2
 10
1113.9267
 20
1084.0340000000001
 11
1083.9267
 21
1084.0340000000001
  0
LINE
  8
_0-4_LAYER006
  6
CONTINUOUS
 62
    2
 10
1083.9267
 20
1084.0340000000001
 11
1083.9267
 21
1114.0340000000001
  0
LINE
  8
_0-4_LAYER006
  6
CONTINUOUS
 62
    2
 10
1083.9267
 20
1114.0340000000001
 11
1113.9267
 21
1084.0340000000001
  0
LINE
  8
_0-0_LAYER001
  6
CONTINUOUS
 62
    2
 10
1118.9267
 20
1212.4145000000001
 11
1118.9267
 21
1194.9145000000001
  0
CIRCLE
  8
_0-0_LAYER001
  6
CONTINUOUS
 62
    2
 10
1118.9267
 20
1209.9145000000001
 40
1.6999999999999997
  0
LINE
  8
_0-0_LAYER001
  6
CONTINUOUS
 62
    2
 10
1118.9267
 20
1209.9145000000001
 11
1193.9267
 21
1209.9145000000001
  0
CIRCLE
  8
_0-0_LAYER001
  6
CONTINUOUS
 62
    2
 10
1193.9267
 20
1209.9145000000001
 40
1.6999999999999997
  0
LINE
  8
_0-0_LAYER001
  6
CONTINUOUS
 62
    2
 10
1193.9267
 20
1212.4145000000001
 11
1193.9267
 21
1194.9145000000001
  0
LINE
  8
_0-0_LAYER001
  6
CONTINUOUS
 62
    2
 10
1106.2637
 20
1084.0340000000001
 11
1114.6021000000001
 21
1073.5432000000001
  0
LINE
  8
_0-0_LAYER001
  6
CONTINUOUS
 62
    2
 10
1088.7327
 20
1084.0340000000001
 11
1103.7327
 21
992.93039999999996
  0
LINE
  8
_0-0_LAYER001
  6
CONTINUOUS
 62
    2
 10
828.70659999999998
 20
988.6844000000001
 11
881.20659999999998
 21
988.6844000000001
  0
CIRCLE
  8
_0-0_LAYER001
  6
CONTINUOUS
 62
    2
 10
831.20659999999998
 20
988.6844000000001
 40
1.6999999999999997
  0
LINE
  8
_0-0_LAYER001
  6
CONTINUOUS
 62
    2
 10
831.20659999999998
 20
988.6844000000001
 11
831.20659999999998
 21
1133.6844000000001
  0
CIRCLE
  8
_0-0_LAYER001
  6
CONTINUOUS
 62
    2
 10
831.20659999999998
 20
1133.6844000000001
 40
1.6999999999999997
  0
LINE
  8
_0-0_LAYER001
  6
CONTINUOUS
 62
    2
 10
828.70659999999998
 20
1133.6844000000001
 11
881.20659999999998
 21
1133.6844000000001
  0
CIRCLE
  8
_0-0_LAYER001
  6
CONTINUOUS
 62
    2
 10
831.20659999999998
 20
1133.6844000000001
 40
1.6999999999999997
  0
LINE
  8
_0-0_LAYER001
  6
CONTINUOUS
 62
    2
 10
831.20659999999998
 20
1133.6844000000001
 11
831.20659999999998
 21
1283.6844000000001
  0
CIRCLE
  8
_0-0_LAYER001
  6
CONTINUOUS
 62
    2
 10
831.20659999999998
 20
1283.6844000000001
 40
1.6999999999999997
  0
LINE
  8
_0-0_LAYER001
  6
CONTINUOUS
 62
    2
 10
828.70659999999998
 20
1283.6844000000001
 11
881.20659999999998
 21
1283.6844000000001
  0
LINE
  8
_0-0_LAYER001
  6
CONTINUOUS
 62
    2
 10
982.05439999999999
 20
988.6844000000001
 11
1034.5544
 21
988.6844000000001
  0
CIRCLE
  8
_0-0_LAYER001
  6
CONTINUOUS
 62
    2
 10
984.55439999999999
 20
988.6844000000001
 40
1.6999999999999997
  0
LINE
  8
_0-0_LAYER001
  6
CONTINUOUS
 62
    2
 10
984.55439999999999
 20
988.6844000000001
 11
984.55439999999999
 21
1084.0340000000001
  0
CIRCLE
  8
_0-0_LAYER001
  6
CONTINUOUS
 62
    2
 10
984.55439999999999
 20
1084.0340000000001
 40
1.6999999999999997
  0
LINE
  8
_0-0_LAYER001
  6
CONTINUOUS
 62
    2
 10
982.05439999999999
 20
1084.0340000000001
 11
1034.5544
 21
1084.0340000000001
  0
LINE
  8
_0-4_LAYER006
  6
CONTINUOUS
 62
    2
 10
1085.6242
 20
1106.212
 11
1087.5653
 21
1098.9675
  0
LINE
  8
_0-4_LAYER006
  6
CONTINUOUS
 62
    2
 10
1087.5653
 20
1098.9675
 11
1082.2619999999999
 21
1104.2708
  0
LINE
  8
_0-4_LAYER006
  6
CONTINUOUS
 62
    2
 10
1087.5653
 20
1098.9675
 11
1043.7157
 21
1174.9172000000001
  0
LINE
  8
_0-4_LAYER006
  6
CONTINUOUS
 62
    2
 10
1043.7157
 20
1174.9172000000001
 11
962.71569999999997
 21
1174.9172000000001
  0
LINE
  8
_0-0_LAYER001
  6
CONTINUOUS
 62
    2
 10
1090.0912000000001
 20
1172.6777
 11
1092.0323000000001
 21
1165.4331999999999
  0
LINE
  8
_0-0_LAYER001
  6
CONTINUOUS
 62
    2
 10
1092.0323000000001
 20
1165.4331999999999
 11
1086.729
 21
1170.7365
  0
LINE
  8
_0-0_LAYER001
  6
CONTINUOUS
 62
    2
 10
1092.0323000000001
 20
1165.4331999999999
 11
1047.7215000000001
 21
1242.1818000000001
  0
LINE
  8
_0-0_LAYER001
  6
CONTINUOUS
 62
    2
 10
1047.7215000000001
 20
1242.1818000000001
 11
1007.2215000000001
 21
1242.1818000000001
  0
LINE
  8
_0-0_LAYER001
  6
CONTINUOUS
 62
    2
 10
1118.0094999999999
 20
1293.4034999999999
 11
1112.7062000000001
 21
1288.1002000000001
  0
LINE
  8
_0-0_LAYER001
  6
CONTINUOUS
 62
    2
 10
1112.7062000000001
 20
1288.1002000000001
 11
1114.6474000000001
 21
1295.3445999999999
  0
LINE
  8
_0-0_LAYER001
  6
CONTINUOUS
 62
    2
 10
1112.7062000000001
 20
1288.1002000000001
 11
1161.2697000000001
 21
1372.2147
  0
LINE
  8
_0-0_LAYER001
  6
CONTINUOUS
 62
    2
 10
1161.2697000000001
 20
1372.2147
 11
1333.7697000000001
 21
1372.2147
  0
LINE
  8
_0-0_LAYER001
  6
CONTINUOUS
 62
    2
 10
1162.886
 20
1127.4137000000001
 11
1157.5826999999999
 21
1122.1104
  0
LINE
  8
_0-0_LAYER001
  6
CONTINUOUS
 62
    2
 10
1157.5826999999999
 20
1122.1104
 11
1159.5237999999999
 21
1129.3548000000001
  0
LINE
  8
_0-0_LAYER001
  6
CONTINUOUS
 62
    2
 10
1157.5826999999999
 20
1122.1104
 11
1238.8338000000001
 21
1262.8414
  0
LINE
  8
_0-0_LAYER001
  6
CONTINUOUS
 62
    2
 10
1238.8338000000001
 20
1262.8414
 11
1472.8337999999999
 21
1262.8414
  0
LINE
  8
_0-0_LAYER001
  6
CONTINUOUS
 62
    2
 10
1134.1626000000001
 20
987.97610000000009
 11
1139.4658999999999
 21
993.2793999999999
  0
LINE
  8
_0-0_LAYER001
  6
CONTINUOUS
 62
    2
 10
1139.4658999999999
 20
993.2793999999999
 11
1137.5247999999999
 21
986.03500000000008
  0
LINE
  8
_0-0_LAYER001
  6
CONTINUOUS
 62
    2
 10
1139.4658999999999
 20
993.2793999999999
 11
1034.8144
 21
812.0177000000001
  0
LINE
  8
_0-0_LAYER001
  6
CONTINUOUS
 62
    2
 10
1034.8144
 20
812.0177000000001
 11
833.81439999999998
 21
812.0177000000001
  0
LINE
  8
_0-0_LAYER001
  6
CONTINUOUS
 62
    2
 10
1106.2637
 20
878.41020000000003
 11
1106.2637
 21
930.91020000000003
  0
CIRCLE
  8
_0-0_LAYER001
  6
CONTINUOUS
 62
    2
 10
1106.2637
 20
880.91020000000003
 40
1.6999999999999997
  0
LINE
  8
_0-0_LAYER001
  6
CONTINUOUS
 62
    2
 10
1106.2637
 20
880.91020000000003
 11
1225.8377
 21
880.91020000000003
  0
CIRCLE
  8
_0-0_LAYER001
  6
CONTINUOUS
 62
    2
 10
1225.8377
 20
880.91020000000003
 40
1.6999999999999997
  0
LINE
  8
_0-0_LAYER001
  6
CONTINUOUS
 62
    2
 10
1225.8377
 20
878.41020000000003
 11
1225.8377
 21
930.91020000000003
  0
LINE
  8
_0-0_LAYER001
  6
CONTINUOUS
 62
    2
 10
1129.5868
 20
1125.3777
 11
1124.2835
 21
1120.0744
  0
LINE
  8
_0-0_LAYER001
  6
CONTINUOUS
 62
    2
 10
1124.2835
 20
1120.0744
 11
1126.2247
 21
1127.3189
  0
LINE
  8
_0-0_LAYER001
  6
CONTINUOUS
 62
    2
 10
1124.2835
 20
1120.0744
 11
1235.5748000000001
 21
1312.8366000000001
  0
LINE
  8
_0-0_LAYER001
  6
CONTINUOUS
 62
    2
 10
1235.5748000000001
 20
1312.8366000000001
 11
1382.5748000000001
 21
1312.8366000000001
  0
LINE
  8
_0-0_LAYER001
  6
CONTINUOUS
 62
    2
 10
1869.0680000000002
 20
724.35400000000004
 11
2040.7393000000002
 21
724.35400000000004
  0
LINE
  8
_0-0_LAYER001
  6
CONTINUOUS
 62
    2
 10
1886.3114
 20
694.48749999999995
 11
1947.3595999999998
 21
694.48749999999995
  0
LINE
  8
_0-0_LAYER001
  6
CONTINUOUS
 62
    2
 10
1851.6923999999999
 20
754.44939999999997
 11
2097.3377
 21
754.44939999999997
  0
LINE
  8
_0-0_LAYER001
  6
CONTINUOUS
 62
    2
 10
1674.6900000000001
 20
1064.3353999999999
 11
1669.3867
 21
1059.0319999999999
  0
LINE
  8
_0-0_LAYER001
  6
CONTINUOUS
 62
    2
 10
1669.3867
 20
1059.0319999999999
 11
1671.3278
 21
1066.2764999999999
  0
LINE
  8
_0-0_LAYER001
  6
CONTINUOUS
 62
    2
 10
1669.3867
 20
1059.0319999999999
 11
1707.2067999999999
 21
1124.5383999999999
  0
LINE
  8
_0-0_LAYER001
  6
CONTINUOUS
 62
    2
 10
1707.2067999999999
 20
1124.5383999999999
 11
1747.7067999999999
 21
1124.5383999999999
  0
LINE
  8
_0-0_LAYER001
  6
CONTINUOUS
 62
    2
 10
1707.0124000000001
 20
1001.1603
 11
1705.0711999999999
 21
1008.4047
  0
LINE
  8
_0-0_LAYER001
  6
CONTINUOUS
 62
    2
 10
1705.0711999999999
 20
1008.4047
 11
1710.3744999999999
 21
1003.1014
  0
LINE
  8
_0-0_LAYER001
  6
CONTINUOUS
 62
    2
 10
1705.0711999999999
 20
1008.4047
 11
1886.3114
 21
694.48749999999995
  0
LINE
  8
_0-0_LAYER001
  6
CONTINUOUS
 62
    2
 10
1834.3829000000001
 20
784.43029999999999
 11
2039.2055999999998
 21
784.43029999999999
  0
LINE
  8
_0-2_LAYER004
  6
CONTINUOUS
 62
    2
 10
1958.5666999999999
 20
916.6844000000001
 11
1958.5666999999999
 21
976.6844000000001
  0
LINE
  8
_0-2_LAYER004
  6
CONTINUOUS
 62
    2
 10
1958.5666999999999
 20
976.6844000000001
 11
2018.5666999999999
 21
976.6844000000001
  0
LINE
  8
_0-2_LAYER004
  6
CONTINUOUS
 62
    2
 10
2018.5666999999999
 20
916.6844000000001
 11
1958.5666999999999
 21
916.6844000000001
  0
LINE
  8
_0-2_LAYER004
  6
CONTINUOUS
 62
    2
 10
2018.5666999999999
 20
976.6844000000001
 11
1958.5666999999999
 21
916.6844000000001
  0
LINE
  8
_0-2_LAYER004
  6
CONTINUOUS
 62
    2
 10
1655.5666999999999
 20
916.6844000000001
 11
1655.5666999999999
 21
976.6844000000001
  0
LINE
  8
_0-2_LAYER004
  6
CONTINUOUS
 62
    2
 10
1655.5666999999999
 20
976.6844000000001
 11
1715.5666999999999
 21
976.6844000000001
  0
LINE
  8
_0-2_LAYER004
  6
CONTINUOUS
 62
    2
 10
1715.5666999999999
 20
976.6844000000001
 11
1715.5666999999999
 21
916.6844000000001
  0
LINE
  8
_0-2_LAYER004
  6
CONTINUOUS
 62
    2
 10
1715.5666999999999
 20
916.6844000000001
 11
1655.5666999999999
 21
916.6844000000001
  0
LINE
  8
_0-2_LAYER004
  6
CONTINUOUS
 62
    2
 10
1715.5666999999999
 20
976.6844000000001
 11
1655.5666999999999
 21
916.6844000000001
  0
LINE
  8
_0-2_LAYER004
  6
CONTINUOUS
 62
    2
 10
1352.5667000000001
 20
916.6844000000001
 11
1352.5667000000001
 21
976.6844000000001
  0
LINE
  8
_0-2_LAYER004
  6
CONTINUOUS
 62
    2
 10
1352.5667000000001
 20
976.6844000000001
 11
1412.5667000000001
 21
976.6844000000001
  0
LINE
  8
_0-2_LAYER004
  6
CONTINUOUS
 62
    2
 10
1412.5667000000001
 20
976.6844000000001
 11
1412.5667000000001
 21
916.6844000000001
  0
LINE
  8
_0-2_LAYER004
  6
CONTINUOUS
 62
    2
 10
1412.5667000000001
 20
916.6844000000001
 11
1352.5667000000001
 21
916.6844000000001
  0
LINE
  8
_0-2_LAYER004
  6
CONTINUOUS
 62
    2
 10
1412.5667000000001
 20
976.6844000000001
 11
1352.5667000000001
 21
916.6844000000001
  0
LINE
  8
_0-2_LAYER004
  6
CONTINUOUS
 62
    2
 10
1083.9267
 20
1327.6404
 11
1083.9267
 21
910.91840000000002
  0
LINE
  8
_0-2_LAYER004
  6
CONTINUOUS
 62
    2
 10
1103.7327
 20
992.93039999999996
 11
1103.7327
 21
1084.0340000000001
  0
LINE
  8
_0-2_LAYER004
  6
CONTINUOUS
 62
    2
 10
1088.7327
 20
1084.0340000000001
 11
1088.7327
 21
992.93039999999996
  0
LINE
  8
_0-2_LAYER004
  6
CONTINUOUS
 62
    2
 10
1231.1126999999999
 20
1008.5645
 11
1231.1126999999999
 21
993.56449999999995
  0
LINE
  8
_0-2_LAYER004
  6
CONTINUOUS
 62
    2
 10
1225.8377
 20
993.55639999999994
 11
1225.8377
 21
1008.5645
  0
LINE
  8
_0-2_LAYER004
  6
CONTINUOUS
 62
    2
 10
1225.8377
 20
1008.5645
 11
1205.2936999999999
 21
1008.5645
  0
LINE
  8
_0-2_LAYER004
  6
CONTINUOUS
 62
    2
 10
1106.2637
 20
993.55639999999994
 11
1106.2637
 21
1084.0340000000001
  0
LINE
  8
_0-2_LAYER004
  6
CONTINUOUS
 62
    2
 10
1225.8377
 20
993.55639999999994
 11
1106.2637
 21
993.55639999999994
  0
LINE
  8
_0-2_LAYER004
  6
DASHED3
 62
    2
 10
1086.2497000000001
 20
991.18139999999994
 11
1086.2497000000001
 21
1288.6844000000001
  0
LINE
  8
_0-2_LAYER004
  6
CONTINUOUS
 62
    2
 10
1088.7327
 20
992.93039999999996
 11
1103.7327
 21
992.93039999999996
  0
LINE
  8
_0-2_LAYER004
  6
CONTINUOUS
 62
    3
 10
1083.9267
 20
910.91840000000002
 11
1083.9267
 21
756.8284000000001
  0
LINE
  8
_0-2_LAYER004
  6
CONTINUOUS
 62
    2
 10
1143.9267
 20
916.6844000000001
 11
1143.9267
 21
976.6844000000001
  0
LINE
  8
_0-2_LAYER004
  6
CONTINUOUS
 62
    2
 10
1143.9267
 20
976.6844000000001
 11
1083.9267
 21
976.6844000000001
  0
LINE
  8
_0-2_LAYER004
  6
CONTINUOUS
 62
    2
 10
1083.9267
 20
976.6844000000001
 11
1083.9267
 21
916.6844000000001
  0
LINE
  8
_0-2_LAYER004
  6
CONTINUOUS
 62
    2
 10
1083.9267
 20
916.6844000000001
 11
1143.9267
 21
916.6844000000001
  0
LINE
  8
_0-2_LAYER004
  6
CONTINUOUS
 62
    2
 10
1181.9476999999999
 20
1099.1954000000001
 11
1184.6506999999999
 21
1113.9494
  0
LINE
  8
_0-2_LAYER004
  6
CONTINUOUS
 62
    2
 10
1184.6506999999999
 20
1113.9494
 11
1096.1237000000001
 21
1130.1654000000001
  0
LINE
  8
_0-2_LAYER004
  6
CONTINUOUS
 62
    2
 10
1096.1237000000001
 20
1130.1654000000001
 11
1093.4206999999999
 21
1115.4104
  0
LINE
  8
_0-2_LAYER004
  6
CONTINUOUS
 62
    2
 10
1093.4206999999999
 20
1115.4104
 11
1181.9476999999999
 21
1099.1954000000001
  0
LINE
  8
_0-2_LAYER004
  6
CONTINUOUS
 62
    2
 10
1184.6506999999999
 20
1113.9494
 11
1093.4206999999999
 21
1115.4104
  0
LINE
  8
_0-2_LAYER004
  6
CONTINUOUS
 62
    2
 10
1193.9267
 20
1114.1928
 11
1194.4747
 21
1096.1138000000001
  0
LINE
  8
_0-2_LAYER004
  6
CONTINUOUS
 62
    2
 10
1118.9267
 20
1133.1614
 11
1106.9267
 21
1133.1614
  0
LINE
  8
_0-2_LAYER004
  6
CONTINUOUS
 62
    2
 10
1106.9267
 20
1140.9703999999999
 11
1106.9267
 21
1180.9703999999999
  0
LINE
  8
_0-2_LAYER004
  6
CONTINUOUS
 62
    2
 10
1106.9267
 20
1180.9703999999999
 11
1088.9267
 21
1180.9703999999999
  0
LINE
  8
_0-2_LAYER004
  6
CONTINUOUS
 62
    2
 10
1088.9267
 20
1180.9703999999999
 11
1088.9267
 21
1140.9703999999999
  0
LINE
  8
_0-2_LAYER004
  6
CONTINUOUS
 62
    2
 10
1088.9267
 20
1140.9703999999999
 11
1106.9267
 21
1140.9703999999999
  0
LINE
  8
_0-2_LAYER004
  6
CONTINUOUS
 62
    2
 10
1088.9267
 20
1180.9703999999999
 11
1106.9267
 21
1140.9703999999999
  0
LINE
  8
_0-2_LAYER004
  6
CONTINUOUS
 62
    2
 10
1193.9267
 20
1114.1928
 11
1087.5127
 21
1133.6844000000001
  0
LINE
  8
_0-2_LAYER004
  6
CONTINUOUS
 62
    2
 10
1087.5127
 20
1164.625
 11
1087.5127
 21
1283.6844000000001
  0
LINE
  8
_0-5_LAYER007
  6
CONTINUOUS
 62
    3
 10
1083.9267
 20
1405.5124000000001
 11
1083.9267
 21
894.18540000000007
  0
LINE
  8
_0-2_LAYER004
  6
CONTINUOUS
 62
    3
 10
1083.9267
 20
1327.6404
 11
1083.9267
 21
1405.5124000000001
  0
LINE
  8
_0-2_LAYER004
  6
CONTINUOUS
 62
    2
 10
1106.9267
 20
1133.1614
 11
1106.9267
 21
1405.5124000000001
  0
LINE
  8
_0-2_LAYER004
  6
CONTINUOUS
 62
    2
 10
1118.9267
 20
1133.1614
 11
1118.9267
 21
1405.5124000000001
  0
LINE
  8
_0-2_LAYER004
  6
CONTINUOUS
 62
    2
 10
2176.1477
 20
1008.5645
 11
1231.1126999999999
 21
1008.5645
  0
LINE
  8
_0-2_LAYER004
  6
CONTINUOUS
 62
    2
 10
1109.5667000000001
 20
916.6844000000001
 11
1083.9267
 21
916.6844000000001
  0
LINE
  8
_0-2_LAYER004
  6
CONTINUOUS
 62
    2
 10
1143.9267
 20
976.6844000000001
 11
1083.9267
 21
916.6844000000001
  0
LINE
  8
_0-2_LAYER004
  6
CONTINUOUS
 62
    2
 10
1083.9267
 20
976.6844000000001
 11
1109.5667000000001
 21
976.6844000000001
  0
LINE
  8
_0-2_LAYER004
  6
CONTINUOUS
 62
    2
 10
1231.1126999999999
 20
993.56449999999995
 11
2176.1477
 21
993.56449999999995
  0
LINE
  8
_0-2_LAYER004
  6
DASHED3
 62
    2
 10
2176.1477
 20
991.18139999999994
 11
1086.2497000000001
 21
991.18139999999994
  0
LINE
  8
_0-2_LAYER004
  6
CONTINUOUS
 62
    2
 10
2176.1477
 20
988.6844000000001
 11
1083.9267
 21
988.6844000000001
  0
LINE
  8
_0-2_LAYER004
  6
CONTINUOUS
 62
    2
 10
2176.1477
 20
976.6844000000001
 11
1083.9267
 21
976.6844000000001
  0
LINE
  8
_0-2_LAYER004
  6
CONTINUOUS
 62
    2
 10
2018.5666999999999
 20
976.6844000000001
 11
2018.5666999999999
 21
916.6844000000001
  0
LINE
  8
_0-3_LAYER005
  6
CONTINUOUS
 62
    2
 10
1194.4747
 20
1096.1138000000001
 11
1190.4793
 21
1102.3733
  0
LINE
  8
_0-0_LAYER001
  6
CONTINUOUS
 62
    4
 10
2129.2206999999999
 20
1048.8918000000001
 11
2129.2206999999999
 21
1066.0891999999999
  0
LINE
  8
_0-0_LAYER001
  6
CONTINUOUS
 62
    4
 10
1989.4940999999999
 20
1005.0524
 11
1980.9585999999999
 21
1019.5858000000001
  0
LINE
  8
_0-0_LAYER001
  6
CONTINUOUS
 62
    4
 10
1997.6619000000001
 20
1004.4021
 11
2005.9681
 21
1014.4675999999999
  0
ARC
  8
_0-0_LAYER001
  6
CONTINUOUS
 62
    4
 10
1993.8054999999999
 20
1007.5844999999999
 40
5
 50
210.42578
 51
320.47001
  0
LINE
  8
_0-0_LAYER001
  6
CONTINUOUS
 62
    4
 10
2073.6075000000001
 20
1003.9322999999999
 11
2066.2822000000001
 21
1015.2383
  0
LINE
  8
_0-0_LAYER001
  6
CONTINUOUS
 62
    4
 10
2082.1170999999999
 20
1004.1222
 11
2091.0554999999999
 21
1019.3679
  0
ARC
  8
_0-0_LAYER001
  6
CONTINUOUS
 62
    4
 10
2077.8038000000001
 20
1006.6511
 40
5
 50
212.93986000000001
 51
329.61716000000001
  0
LINE
  8
_0-0_LAYER001
  6
CONTINUOUS
 62
    4
 10
2121.3991000000001
 20
1043.6797999999999
 11
2123.8272000000002
 21
1044.0836999999999
  0
LINE
  8
_0-0_LAYER001
  6
CONTINUOUS
 62
    4
 10
2117.2100999999998
 20
1042.9836
 11
2121.3991000000001
 21
1043.6797999999999
  0
LINE
  8
_0-0_LAYER001
  6
CONTINUOUS
 62
    4
 10
2113.0162999999998
 20
1042.288
 11
2117.2100999999998
 21
1042.9836
  0
LINE
  8
_0-0_LAYER001
  6
CONTINUOUS
 62
    4
 10
2108.8175000000001
 20
1041.5940000000001
 11
2113.0162999999998
 21
1042.288
  0
LINE
  8
_0-0_LAYER001
  6
CONTINUOUS
 62
    4
 10
2104.6134999999999
 20
1040.9025999999999
 11
2108.8175000000001
 21
1041.5940000000001
  0
LINE
  8
_0-0_LAYER001
  6
CONTINUOUS
 62
    4
 10
2100.4065999999998
 20
1040.2148999999999
 11
2104.6134999999999
 21
1040.9025999999999
  0
LINE
  8
_0-0_LAYER001
  6
CONTINUOUS
 62
    4
 10
2097.9542999999999
 20
1039.8163999999999
 11
2100.4065999999998
 21
1040.2148999999999
  0
LINE
  8
_0-0_LAYER001
  6
CONTINUOUS
 62
    4
 10
2093.2215999999999
 20
1039.0539000000001
 11
2097.9542999999999
 21
1039.8163999999999
  0
LINE
  8
_0-0_LAYER001
  6
CONTINUOUS
 62
    4
 10
2085.0171
 20
1037.7701
 11
2093.2215999999999
 21
1039.0539000000001
  0
LINE
  8
_0-0_LAYER001
  6
CONTINUOUS
 62
    4
 10
2076.7096999999999
 20
1036.5501999999999
 11
2085.0171
 21
1037.7701
  0
LINE
  8
_0-0_LAYER001
  6
CONTINUOUS
 62
    4
 10
2068.3013999999998
 20
1035.4339
 11
2076.7096999999999
 21
1036.5501999999999
  0
LINE
  8
_0-0_LAYER001
  6
CONTINUOUS
 62
    4
 10
2059.7887999999998
 20
1034.4604999999999
 11
2068.3013999999998
 21
1035.4339
  0
LINE
  8
_0-0_LAYER001
  6
CONTINUOUS
 62
    4
 10
2051.2296999999999
 20
1033.6765
 11
2059.7887999999998
 21
1034.4604999999999
  0
LINE
  8
_0-0_LAYER001
  6
CONTINUOUS
 62
    4
 10
2046.1680999999999
 20
1033.3185000000001
 11
2051.2296999999999
 21
1033.6765
  0
LINE
  8
_0-0_LAYER001
  6
CONTINUOUS
 62
    4
 10
2043.3656000000001
 20
1033.1569
 11
2046.1680999999999
 21
1033.3185000000001
  0
LINE
  8
_0-0_LAYER001
  6
CONTINUOUS
 62
    4
 10
2038.6444999999999
 20
1032.9529
 11
2043.3656000000001
 21
1033.1569
  0
LINE
  8
_0-0_LAYER001
  6
CONTINUOUS
 62
    4
 10
2033.8153000000002
 20
1032.8475000000001
 11
2038.6444999999999
 21
1032.9529
  0
LINE
  8
_0-0_LAYER001
  6
CONTINUOUS
 62
    4
 10
2028.9137000000001
 20
1032.8628000000001
 11
2033.8153000000002
 21
1032.8475000000001
  0
LINE
  8
_0-0_LAYER001
  6
CONTINUOUS
 62
    4
 10
2023.9425999999999
 20
1033.0207
 11
2028.9137000000001
 21
1032.8628000000001
  0
LINE
  8
_0-0_LAYER001
  6
CONTINUOUS
 62
    4
 10
2018.9852000000001
 20
1033.3385000000001
 11
2023.9425999999999
 21
1033.0207
  0
LINE
  8
_0-0_LAYER001
  6
CONTINUOUS
 62
    4
 10
2015.9335999999998
 20
1033.6198999999999
 11
2018.9852000000001
 21
1033.3385000000001
  0
LINE
  8
_0-0_LAYER001
  6
CONTINUOUS
 62
    4
 10
2012.0047
 20
1034.0821000000001
 11
2015.9335999999998
 21
1033.6198999999999
  0
LINE
  8
_0-0_LAYER001
  6
CONTINUOUS
 62
    4
 10
2005.4908
 20
1035.1047000000001
 11
2012.0047
 21
1034.0821000000001
  0
LINE
  8
_0-0_LAYER001
  6
CONTINUOUS
 62
    4
 10
1998.9441999999999
 20
1036.4567999999999
 11
2005.4908
 21
1035.1047000000001
  0
LINE
  8
_0-0_LAYER001
  6
CONTINUOUS
 62
    4
 10
1992.4812000000002
 20
1038.1126999999999
 11
1998.9441999999999
 21
1036.4567999999999
  0
LINE
  8
_0-0_LAYER001
  6
CONTINUOUS
 62
    4
 10
1986.1152999999999
 20
1040.0634
 11
1992.4812000000002
 21
1038.1126999999999
  0
LINE
  8
_0-0_LAYER001
  6
CONTINUOUS
 62
    4
 10
1979.9504999999999
 20
1042.2683999999999
 11
1986.1152999999999
 21
1040.0634
  0
LINE
  8
_0-0_LAYER001
  6
CONTINUOUS
 62
    4
 10
1976.2638999999999
 20
1043.7401
 11
1979.9504999999999
 21
1042.2683999999999
  0
LINE
  8
_0-0_LAYER001
  6
CONTINUOUS
 62
    4
 10
1971.8996000000002
 20
1045.6325999999999
 11
1976.2638999999999
 21
1043.7401
  0
LINE
  8
_0-0_LAYER001
  6
CONTINUOUS
 62
    4
 10
1964.8305999999998
 20
1049.0476000000001
 11
1971.8996000000002
 21
1045.6325999999999
  0
LINE
  8
_0-0_LAYER001
  6
CONTINUOUS
 62
    4
 10
1957.9376999999999
 20
1052.7772
 11
1964.8305999999998
 21
1049.0476000000001
  0
LINE
  8
_0-0_LAYER001
  6
CONTINUOUS
 62
    4
 10
1951.3006999999998
 20
1056.7109
 11
1957.9376999999999
 21
1052.7772
  0
LINE
  8
_0-0_LAYER001
  6
CONTINUOUS
 62
    4
 10
1944.8912999999998
 20
1060.7934
 11
1951.3006999999998
 21
1056.7109
  0
LINE
  8
_0-0_LAYER001
  6
CONTINUOUS
 62
    4
 10
1938.7071000000001
 20
1064.9555
 11
1944.8912999999998
 21
1060.7934
  0
LINE
  8
_0-0_LAYER001
  6
CONTINUOUS
 62
    4
 10
1935.1648
 20
1067.4192
 11
1938.7071000000001
 21
1064.9555
  0
LINE
  8
_0-0_LAYER001
  6
CONTINUOUS
 62
    4
 10
1932.9328
 20
1068.9927
 11
1935.1648
 21
1067.4192
  0
LINE
  8
_0-0_LAYER001
  6
CONTINUOUS
 62
    4
 10
1929.3092000000001
 20
1071.5319
 11
1932.9328
 21
1068.9927
  0
LINE
  8
_0-0_LAYER001
  6
CONTINUOUS
 62
    4
 10
1925.9396000000002
 20
1073.7973999999999
 11
1929.3092000000001
 21
1071.5319
  0
LINE
  8
_0-0_LAYER001
  6
CONTINUOUS
 62
    4
 10
1922.8245999999999
 20
1075.7244000000001
 11
1925.9396000000002
 21
1073.7973999999999
  0
LINE
  8
_0-0_LAYER001
  6
CONTINUOUS
 62
    4
 10
1919.9573999999998
 20
1077.2801999999999
 11
1922.8245999999999
 21
1075.7244000000001
  0
LINE
  8
_0-0_LAYER001
  6
CONTINUOUS
 62
    4
 10
1917.1262000000002
 20
1078.5486000000001
 11
1919.9573999999998
 21
1077.2801999999999
  0
LINE
  8
_0-0_LAYER001
  6
CONTINUOUS
 62
    4
 10
1915.663
 20
1079.0807
 11
1917.1262000000002
 21
1078.5486000000001
  0
LINE
  8
_0-0_LAYER001
  6
CONTINUOUS
 62
    4
 10
1915.4819000000002
 20
1079.1387
 11
1915.663
 21
1079.0807
  0
LINE
  8
_0-0_LAYER001
  6
CONTINUOUS
 62
    4
 10
1914.6936999999998
 20
1079.3667
 11
1915.4819000000002
 21
1079.1387
  0
LINE
  8
_0-0_LAYER001
  6
CONTINUOUS
 62
    4
 10
1914.0365000000002
 20
1079.5293999999999
 11
1914.6936999999998
 21
1079.3667
  0
LINE
  8
_0-0_LAYER001
  6
CONTINUOUS
 62
    4
 10
1913.4546999999998
 20
1079.6473000000001
 11
1914.0365000000002
 21
1079.5293999999999
  0
LINE
  8
_0-0_LAYER001
  6
CONTINUOUS
 62
    4
 10
1913.4146999999998
 20
1079.6534999999999
 11
1913.4546999999998
 21
1079.6473000000001
  0
LINE
  8
_0-0_LAYER001
  6
CONTINUOUS
 62
    4
 10
2117.3885
 20
1024.4922999999999
 11
2119.0025999999998
 21
1024.7608
  0
LINE
  8
_0-0_LAYER001
  6
CONTINUOUS
 62
    4
 10
2113.1999000000001
 20
1023.7962
 11
2117.3885
 21
1024.4922999999999
  0
LINE
  8
_0-0_LAYER001
  6
CONTINUOUS
 62
    4
 10
2109.0070000000001
 20
1023.1007
 11
2113.1999000000001
 21
1023.7962
  0
LINE
  8
_0-0_LAYER001
  6
CONTINUOUS
 62
    4
 10
2104.8096
 20
1022.4069999999999
 11
2109.0070000000001
 21
1023.1007
  0
LINE
  8
_0-0_LAYER001
  6
CONTINUOUS
 62
    4
 10
2100.6073000000001
 20
1021.7157999999999
 11
2104.8096
 21
1022.4069999999999
  0
LINE
  8
_0-0_LAYER001
  6
CONTINUOUS
 62
    4
 10
2096.4023000000002
 20
1021.0284999999999
 11
2100.6073000000001
 21
1021.7157999999999
  0
LINE
  8
_0-0_LAYER001
  6
CONTINUOUS
 62
    4
 10
2093.9522999999999
 20
1020.6303
 11
2096.4023000000002
 21
1021.0284999999999
  0
LINE
  8
_0-0_LAYER001
  6
CONTINUOUS
 62
    4
 10
2089.2253000000001
 20
1019.8688
 11
2093.9522999999999
 21
1020.6303
  0
LINE
  8
_0-0_LAYER001
  6
CONTINUOUS
 62
    4
 10
2081.0347000000002
 20
1018.5871
 11
2089.2253000000001
 21
1019.8688
  0
LINE
  8
_0-0_LAYER001
  6
CONTINUOUS
 62
    4
 10
2072.7501999999999
 20
1017.3706
 11
2081.0347000000002
 21
1018.5871
  0
LINE
  8
_0-0_LAYER001
  6
CONTINUOUS
 62
    4
 10
2064.3735999999999
 20
1016.2583999999999
 11
2072.7501999999999
 21
1017.3706
  0
LINE
  8
_0-0_LAYER001
  6
CONTINUOUS
 62
    4
 10
2055.9014000000002
 20
1015.2897
 11
2064.3735999999999
 21
1016.2583999999999
  0
LINE
  8
_0-0_LAYER001
  6
CONTINUOUS
 62
    4
 10
2047.3852999999999
 20
1014.5096000000001
 11
2055.9014000000002
 21
1015.2897
  0
LINE
  8
_0-0_LAYER001
  6
CONTINUOUS
 62
    4
 10
2042.3573999999999
 20
1014.154
 11
2047.3852999999999
 21
1014.5096000000001
  0
LINE
  8
_0-0_LAYER001
  6
CONTINUOUS
 62
    4
 10
2039.5821999999998
 20
1013.9939999999999
 11
2042.3573999999999
 21
1014.154
  0
LINE
  8
_0-0_LAYER001
  6
CONTINUOUS
 62
    4
 10
2034.8969000000002
 20
1013.7916
 11
2039.5821999999998
 21
1013.9939999999999
  0
LINE
  8
_0-0_LAYER001
  6
CONTINUOUS
 62
    4
 10
2030.114
 20
1013.6871000000001
 11
2034.8969000000002
 21
1013.7916
  0
LINE
  8
_0-0_LAYER001
  6
CONTINUOUS
 62
    4
 10
2025.2660000000001
 20
1013.7022999999999
 11
2030.114
 21
1013.6871000000001
  0
LINE
  8
_0-0_LAYER001
  6
CONTINUOUS
 62
    4
 10
2020.3557999999998
 20
1013.8583000000001
 11
2025.2660000000001
 21
1013.7022999999999
  0
LINE
  8
_0-0_LAYER001
  6
CONTINUOUS
 62
    4
 10
2015.4585000000002
 20
1014.1722
 11
2020.3557999999998
 21
1013.8583000000001
  0
LINE
  8
_0-0_LAYER001
  6
CONTINUOUS
 62
    4
 10
2012.4596999999999
 20
1014.4486999999999
 11
2015.4585000000002
 21
1014.1722
  0
LINE
  8
_0-0_LAYER001
  6
CONTINUOUS
 62
    4
 10
2008.5942
 20
1014.9034999999999
 11
2012.4596999999999
 21
1014.4486999999999
  0
LINE
  8
_0-0_LAYER001
  6
CONTINUOUS
 62
    4
 10
2002.1658000000002
 20
1015.9127000000001
 11
2008.5942
 21
1014.9034999999999
  0
LINE
  8
_0-0_LAYER001
  6
CONTINUOUS
 62
    4
 10
1995.7123000000001
 20
1017.2455
 11
2002.1658000000002
 21
1015.9127000000001
  0
LINE
  8
_0-0_LAYER001
  6
CONTINUOUS
 62
    4
 10
1989.3400999999999
 20
1018.8782000000001
 11
1995.7123000000001
 21
1017.2455
  0
LINE
  8
_0-0_LAYER001
  6
CONTINUOUS
 62
    4
 10
1983.0628000000002
 20
1020.8017
 11
1989.3400999999999
 21
1018.8782000000001
  0
LINE
  8
_0-0_LAYER001
  6
CONTINUOUS
 62
    4
 10
1976.9757
 20
1022.9789000000001
 11
1983.0628000000002
 21
1020.8017
  0
LINE
  8
_0-0_LAYER001
  6
CONTINUOUS
 62
    4
 10
1973.3501000000001
 20
1024.4263000000001
 11
1976.9757
 21
1022.9789000000001
  0
LINE
  8
_0-0_LAYER001
  6
CONTINUOUS
 62
    4
 10
1969.0502000000001
 20
1026.2909
 11
1973.3501000000001
 21
1024.4263000000001
  0
LINE
  8
_0-0_LAYER001
  6
CONTINUOUS
 62
    4
 10
1962.0592999999999
 20
1029.6681000000001
 11
1969.0502000000001
 21
1026.2909
  0
LINE
  8
_0-0_LAYER001
  6
CONTINUOUS
 62
    4
 10
1955.2411999999999
 20
1033.3572999999999
 11
1962.0592999999999
 21
1029.6681000000001
  0
LINE
  8
_0-0_LAYER001
  6
CONTINUOUS
 62
    4
 10
1948.6653999999999
 20
1037.2546
 11
1955.2411999999999
 21
1033.3572999999999
  0
LINE
  8
_0-0_LAYER001
  6
CONTINUOUS
 62
    4
 10
1942.3045000000002
 20
1041.3063
 11
1948.6653999999999
 21
1037.2546
  0
LINE
  8
_0-0_LAYER001
  6
CONTINUOUS
 62
    4
 10
1936.1538999999998
 20
1045.4457
 11
1942.3045000000002
 21
1041.3063
  0
LINE
  8
_0-0_LAYER001
  6
CONTINUOUS
 62
    4
 10
1932.6293999999998
 20
1047.8970999999999
 11
1936.1538999999998
 21
1045.4457
  0
LINE
  8
_0-0_LAYER001
  6
CONTINUOUS
 62
    4
 10
1930.4002999999998
 20
1049.4684999999999
 11
1932.6293999999998
 21
1047.8970999999999
  0
LINE
  8
_0-0_LAYER001
  6
CONTINUOUS
 62
    4
 10
1926.7586000000001
 20
1052.0204000000001
 11
1930.4002999999998
 21
1049.4684999999999
  0
LINE
  8
_0-0_LAYER001
  6
CONTINUOUS
 62
    4
 10
1923.3413999999998
 20
1054.3179
 11
1926.7586000000001
 21
1052.0204000000001
  0
LINE
  8
_0-0_LAYER001
  6
CONTINUOUS
 62
    4
 10
1920.1457999999998
 20
1056.2947999999999
 11
1923.3413999999998
 21
1054.3179
  0
LINE
  8
_0-0_LAYER001
  6
CONTINUOUS
 62
    4
 10
1917.1619000000001
 20
1057.9139
 11
1920.1457999999998
 21
1056.2947999999999
  0
LINE
  8
_0-0_LAYER001
  6
CONTINUOUS
 62
    4
 10
1914.1952999999999
 20
1059.2429999999999
 11
1917.1619000000001
 21
1057.9139
  0
LINE
  8
_0-0_LAYER001
  6
CONTINUOUS
 62
    4
 10
1913.4452999999999
 20
1059.5157999999999
 11
1914.1952999999999
 21
1059.2429999999999
  0
LINE
  8
_0-0_LAYER001
  6
CONTINUOUS
 62
    4
 10
1913.7784000000001
 20
1079.5589
 11
1913.6024000000002
 21
1059.3855000000001
  0
LINE
  8
_0-0_LAYER001
  6
CONTINUOUS
 62
    4
 10
2114.1039999999998
 20
1014.0710999999999
 11
2111.8586
 21
1022.6445000000001
  0
ARC
  8
_0-0_LAYER001
  6
CONTINUOUS
 62
    4
 10
2117.0061000000001
 20
1014.8312000000001
 40
3
 50
194.67639000000003
 51
270.00000000000006
  0
LINE
  8
_0-0_LAYER001
  6
CONTINUOUS
 62
    4
 10
2120.4486000000002
 20
1011.8269
 11
2117.0308
 21
1011.8269
  0
LINE
  8
_0-0_LAYER001
  6
CONTINUOUS
 62
    4
 10
2123.4078
 20
1014.3336999999999
 11
2125.3418000000001
 21
1025.9377999999999
  0
ARC
  8
_0-0_LAYER001
  6
CONTINUOUS
 62
    4
 10
2120.4486000000002
 20
1014.8269
 40
3
 50
270
 51
350.53766999999999
  0
LINE
  8
_0-0_LAYER001
  6
CONTINUOUS
 62
    4
 10
1866.6822000000002
 20
1088.9491
 11
1867.4962
 21
1089.2556999999999
  0
LINE
  8
_0-0_LAYER001
  6
CONTINUOUS
 62
    4
 10
1867.4962
 20
1089.2556999999999
 11
1871.0454
 21
1090.5953
  0
LINE
  8
_0-0_LAYER001
  6
CONTINUOUS
 62
    4
 10
1871.0454
 20
1090.5953
 11
1874.6019999999999
 21
1091.9441999999999
  0
LINE
  8
_0-0_LAYER001
  6
CONTINUOUS
 62
    4
 10
1874.6019999999999
 20
1091.9441999999999
 11
1878.1707000000001
 21
1093.3081999999999
  0
LINE
  8
_0-0_LAYER001
  6
CONTINUOUS
 62
    4
 10
1878.1707000000001
 20
1093.3081999999999
 11
1881.7559999999999
 21
1094.6932999999999
  0
LINE
  8
_0-0_LAYER001
  6
CONTINUOUS
 62
    4
 10
1881.7559999999999
 20
1094.6932999999999
 11
1885.3627999999999
 21
1096.1052999999999
  0
LINE
  8
_0-0_LAYER001
  6
CONTINUOUS
 62
    4
 10
1885.3627999999999
 20
1096.1052999999999
 11
1887.4663
 21
1096.9389000000001
  0
LINE
  8
_0-0_LAYER001
  6
CONTINUOUS
 62
    4
 10
1887.4663
 20
1096.9389000000001
 11
1889.5455999999999
 21
1097.7678000000001
  0
LINE
  8
_0-0_LAYER001
  6
CONTINUOUS
 62
    4
 10
1889.5455999999999
 20
1097.7678000000001
 11
1893.1522
 21
1099.1692
  0
LINE
  8
_0-0_LAYER001
  6
CONTINUOUS
 62
    4
 10
1893.1522
 20
1099.1692
 11
1896.7849000000001
 21
1100.4519
  0
LINE
  8
_0-0_LAYER001
  6
CONTINUOUS
 62
    4
 10
1896.7849000000001
 20
1100.4519
 11
1900.4427999999998
 21
1101.5186000000001
  0
LINE
  8
_0-0_LAYER001
  6
CONTINUOUS
 62
    4
 10
1900.4427999999998
 20
1101.5186000000001
 11
1904.125
 21
1102.2718
  0
LINE
  8
_0-0_LAYER001
  6
CONTINUOUS
 62
    4
 10
1904.125
 20
1102.2718
 11
1907.8301999999999
 21
1102.6143
  0
LINE
  8
_0-0_LAYER001
  6
CONTINUOUS
 62
    4
 10
1907.8301999999999
 20
1102.6143
 11
1909.9895000000001
 21
1102.5863999999999
  0
LINE
  8
_0-0_LAYER001
  6
CONTINUOUS
 62
    4
 10
1909.9895000000001
 20
1102.5863999999999
 11
1910.8386999999998
 21
1102.5250000000001
  0
LINE
  8
_0-0_LAYER001
  6
CONTINUOUS
 62
    4
 10
1910.8386999999998
 20
1102.5250000000001
 11
1912.3029999999999
 21
1102.3544999999999
  0
LINE
  8
_0-0_LAYER001
  6
CONTINUOUS
 62
    4
 10
1912.3029999999999
 20
1102.3544999999999
 11
1913.7640999999999
 21
1102.1077
  0
LINE
  8
_0-0_LAYER001
  6
CONTINUOUS
 62
    4
 10
1913.7640999999999
 20
1102.1077
 11
1915.2177999999999
 21
1101.7917
  0
LINE
  8
_0-0_LAYER001
  6
CONTINUOUS
 62
    4
 10
1915.2177999999999
 20
1101.7917
 11
1916.6599000000001
 21
1101.4132
  0
LINE
  8
_0-0_LAYER001
  6
CONTINUOUS
 62
    4
 10
1916.6599000000001
 20
1101.4132
 11
1918.0864000000001
 21
1100.9791
  0
LINE
  8
_0-0_LAYER001
  6
CONTINUOUS
 62
    4
 10
1918.0864000000001
 20
1100.9791
 11
1918.9047999999998
 21
1100.7045000000001
  0
LINE
  8
_0-0_LAYER001
  6
CONTINUOUS
 62
    4
 10
1918.9047999999998
 20
1100.7045000000001
 11
1921.4031
 21
1099.7562
  0
LINE
  8
_0-0_LAYER001
  6
CONTINUOUS
 62
    4
 10
1921.4031
 20
1099.7562
 11
1925.5619999999999
 21
1097.8226999999999
  0
LINE
  8
_0-0_LAYER001
  6
CONTINUOUS
 62
    4
 10
1925.5619999999999
 20
1097.8226999999999
 11
1929.5657999999999
 21
1095.5772999999999
  0
LINE
  8
_0-0_LAYER001
  6
CONTINUOUS
 62
    4
 10
1929.5657999999999
 20
1095.5772999999999
 11
1933.4526999999998
 21
1093.097
  0
LINE
  8
_0-0_LAYER001
  6
CONTINUOUS
 62
    4
 10
1933.4526999999998
 20
1093.097
 11
1937.2606999999998
 21
1090.4589000000001
  0
LINE
  8
_0-0_LAYER001
  6
CONTINUOUS
 62
    4
 10
1937.2606999999998
 20
1090.4589000000001
 11
1941.0279
 21
1087.7398000000001
  0
LINE
  8
_0-0_LAYER001
  6
CONTINUOUS
 62
    4
 10
1941.0279
 20
1087.7398000000001
 11
1943.2093
 21
1086.1559999999999
  0
LINE
  8
_0-0_LAYER001
  6
CONTINUOUS
 62
    4
 10
1943.2093
 20
1086.1559999999999
 11
1946.5408000000002
 21
1083.7692
  0
LINE
  8
_0-0_LAYER001
  6
CONTINUOUS
 62
    4
 10
1946.5408000000002
 20
1083.7692
 11
1952.3330999999998
 21
1079.7521999999999
  0
LINE
  8
_0-0_LAYER001
  6
CONTINUOUS
 62
    4
 10
1952.3330999999998
 20
1079.7521999999999
 11
1958.2051999999999
 21
1075.8956000000001
  0
LINE
  8
_0-0_LAYER001
  6
CONTINUOUS
 62
    4
 10
1958.2051999999999
 20
1075.8956000000001
 11
1964.1794
 21
1072.2411
  0
LINE
  8
_0-0_LAYER001
  6
CONTINUOUS
 62
    4
 10
1964.1794
 20
1072.2411
 11
1970.2775999999999
 21
1068.8306
  0
LINE
  8
_0-0_LAYER001
  6
CONTINUOUS
 62
    4
 10
1970.2775999999999
 20
1068.8306
 11
1976.5219000000002
 21
1065.7058
  0
LINE
  8
_0-0_LAYER001
  6
CONTINUOUS
 62
    4
 10
1976.5219000000002
 20
1065.7058
 11
1980.2192
 21
1064.0408
  0
LINE
  8
_0-0_LAYER001
  6
CONTINUOUS
 62
    4
 10
1980.2192
 20
1064.0408
 11
1983.2784000000001
 21
1062.7697000000001
  0
LINE
  8
_0-0_LAYER001
  6
CONTINUOUS
 62
    4
 10
1983.2784000000001
 20
1062.7697000000001
 11
1988.6388999999999
 21
1060.7674999999999
  0
LINE
  8
_0-0_LAYER001
  6
CONTINUOUS
 62
    4
 10
1988.6388999999999
 20
1060.7674999999999
 11
1994.0945999999999
 21
1059.0120999999999
  0
LINE
  8
_0-0_LAYER001
  6
CONTINUOUS
 62
    4
 10
1994.0945999999999
 20
1059.0120999999999
 11
1999.6296000000002
 21
1057.5112999999999
  0
LINE
  8
_0-0_LAYER001
  6
CONTINUOUS
 62
    4
 10
1999.6296000000002
 20
1057.5112999999999
 11
2005.2278999999999
 21
1056.2733000000001
  0
LINE
  8
_0-0_LAYER001
  6
CONTINUOUS
 62
    4
 10
2005.2278999999999
 20
1056.2733000000001
 11
2010.8735999999999
 21
1055.3061
  0
LINE
  8
_0-0_LAYER001
  6
CONTINUOUS
 62
    4
 10
2010.8735999999999
 20
1055.3061
 11
2014.1635999999999
 21
1054.8723
  0
LINE
  8
_0-0_LAYER001
  6
CONTINUOUS
 62
    4
 10
2014.1635999999999
 20
1054.8723
 11
2016.6828999999998
 21
1054.6044999999999
  0
LINE
  8
_0-0_LAYER001
  6
CONTINUOUS
 62
    4
 10
2016.6828999999998
 20
1054.6044999999999
 11
2021.0349999999999
 21
1054.2644
  0
LINE
  8
_0-0_LAYER001
  6
CONTINUOUS
 62
    4
 10
2021.0349999999999
 20
1054.2644
 11
2025.3951999999999
 21
1054.0650000000001
  0
LINE
  8
_0-0_LAYER001
  6
CONTINUOUS
 62
    4
 10
2025.3951999999999
 20
1054.0650000000001
 11
2029.7604000000001
 21
1053.9903999999999
  0
LINE
  8
_0-0_LAYER001
  6
CONTINUOUS
 62
    4
 10
2029.7604000000001
 20
1053.9903999999999
 11
2034.1275000000001
 21
1054.0246999999999
  0
LINE
  8
_0-0_LAYER001
  6
CONTINUOUS
 62
    4
 10
2034.1275000000001
 20
1054.0246999999999
 11
2038.4933999999998
 21
1054.1523
  0
LINE
  8
_0-0_LAYER001
  6
CONTINUOUS
 62
    4
 10
2038.4933999999998
 20
1054.1523
 11
2041.0239000000001
 21
1054.2628
  0
LINE
  8
_0-0_LAYER001
  6
CONTINUOUS
 62
    4
 10
2041.0239000000001
 20
1054.2628
 11
2045.7530000000002
 21
1054.5309999999999
  0
LINE
  8
_0-0_LAYER001
  6
CONTINUOUS
 62
    4
 10
2045.7530000000002
 20
1054.5309999999999
 11
2053.8910999999998
 21
1055.162
  0
LINE
  8
_0-0_LAYER001
  6
CONTINUOUS
 62
    4
 10
2053.8910999999998
 20
1055.162
 11
2062.0119
 21
1055.9757999999999
  0
LINE
  8
_0-0_LAYER001
  6
CONTINUOUS
 62
    4
 10
2062.0119
 20
1055.9757999999999
 11
2070.1176999999998
 21
1056.9371000000001
  0
LINE
  8
_0-0_LAYER001
  6
CONTINUOUS
 62
    4
 10
2070.1176999999998
 20
1056.9371000000001
 11
2078.2112000000002
 21
1058.0102999999999
  0
LINE
  8
_0-0_LAYER001
  6
CONTINUOUS
 62
    4
 10
2078.2112000000002
 20
1058.0102999999999
 11
2086.2946999999999
 21
1059.1599000000001
  0
LINE
  8
_0-0_LAYER001
  6
CONTINUOUS
 62
    4
 10
2086.2946999999999
 20
1059.1599000000001
 11
2090.9796000000001
 21
1059.8477
  0
LINE
  8
_0-0_LAYER001
  6
CONTINUOUS
 62
    4
 10
2090.9796000000001
 20
1059.8477
 11
2093.4144999999999
 21
1060.2085
  0
LINE
  8
_0-0_LAYER001
  6
CONTINUOUS
 62
    4
 10
2093.4144999999999
 20
1060.2085
 11
2097.6115
 21
1060.8344999999999
  0
LINE
  8
_0-0_LAYER001
  6
CONTINUOUS
 62
    4
 10
2097.6115
 20
1060.8344999999999
 11
2101.8072999999999
 21
1061.4646
  0
LINE
  8
_0-0_LAYER001
  6
CONTINUOUS
 62
    4
 10
2101.8072999999999
 20
1061.4646
 11
2106.0021000000002
 21
1062.0979
  0
LINE
  8
_0-0_LAYER001
  6
CONTINUOUS
 62
    4
 10
2106.0021000000002
 20
1062.0979
 11
2110.1963000000001
 21
1062.7335
  0
LINE
  8
_0-0_LAYER001
  6
CONTINUOUS
 62
    4
 10
2110.1963000000001
 20
1062.7335
 11
2114.3899999999999
 21
1063.3705
  0
LINE
  8
_0-0_LAYER001
  6
CONTINUOUS
 62
    4
 10
2114.3899999999999
 20
1063.3705
 11
2116.8222999999998
 21
1063.7402
  0
LINE
  8
_0-0_LAYER001
  6
CONTINUOUS
 62
    4
 10
1871.7855
 20
1071.6366
 11
1873.8474000000001
 21
1072.4135000000001
  0
LINE
  8
_0-0_LAYER001
  6
CONTINUOUS
 62
    4
 10
1873.8474000000001
 20
1072.4135000000001
 11
1877.415
 21
1073.76
  0
LINE
  8
_0-0_LAYER001
  6
CONTINUOUS
 62
    4
 10
1877.415
 20
1073.76
 11
1881.0068999999999
 21
1075.1222
  0
LINE
  8
_0-0_LAYER001
  6
CONTINUOUS
 62
    4
 10
1881.0068999999999
 20
1075.1222
 11
1884.6271999999999
 21
1076.5060000000001
  0
LINE
  8
_0-0_LAYER001
  6
CONTINUOUS
 62
    4
 10
1884.6271999999999
 20
1076.5060000000001
 11
1888.2802000000001
 21
1077.9172000000001
  0
LINE
  8
_0-0_LAYER001
  6
CONTINUOUS
 62
    4
 10
1888.2802000000001
 20
1077.9172000000001
 11
1891.9594000000002
 21
1079.3576
  0
LINE
  8
_0-0_LAYER001
  6
CONTINUOUS
 62
    4
 10
1891.9594000000002
 20
1079.3576
 11
1894.1145999999999
 21
1080.2116000000001
  0
LINE
  8
_0-0_LAYER001
  6
CONTINUOUS
 62
    4
 10
1894.1145999999999
 20
1080.2116000000001
 11
1896.1381999999999
 21
1081.0183
  0
LINE
  8
_0-0_LAYER001
  6
CONTINUOUS
 62
    4
 10
1896.1381999999999
 20
1081.0183
 11
1899.4099999999999
 21
1082.2897
  0
LINE
  8
_0-0_LAYER001
  6
CONTINUOUS
 62
    4
 10
1899.4099999999999
 20
1082.2897
 11
1902.3051999999998
 21
1083.3119999999999
  0
LINE
  8
_0-0_LAYER001
  6
CONTINUOUS
 62
    4
 10
1902.3051999999998
 20
1083.3119999999999
 11
1904.7732999999998
 21
1084.0317
  0
LINE
  8
_0-0_LAYER001
  6
CONTINUOUS
 62
    4
 10
1904.7732999999998
 20
1084.0317
 11
1906.7649999999999
 21
1084.4391000000001
  0
LINE
  8
_0-0_LAYER001
  6
CONTINUOUS
 62
    4
 10
1906.7649999999999
 20
1084.4391000000001
 11
1908.5443
 21
1084.6035999999999
  0
LINE
  8
_0-0_LAYER001
  6
CONTINUOUS
 62
    4
 10
1908.5443
 20
1084.6035999999999
 11
1909.2239
 21
1084.5948000000001
  0
LINE
  8
_0-0_LAYER001
  6
CONTINUOUS
 62
    4
 10
1909.2239
 20
1084.5948000000001
 11
1909.1478000000002
 21
1084.6003000000001
  0
LINE
  8
_0-0_LAYER001
  6
CONTINUOUS
 62
    4
 10
1909.1478000000002
 20
1084.6003000000001
 11
1909.7613999999999
 21
1084.5288
  0
LINE
  8
_0-0_LAYER001
  6
CONTINUOUS
 62
    4
 10
1909.7613999999999
 20
1084.5288
 11
1910.3517999999999
 21
1084.4291000000001
  0
LINE
  8
_0-0_LAYER001
  6
CONTINUOUS
 62
    4
 10
1910.3517999999999
 20
1084.4291000000001
 11
1911.0192999999999
 21
1084.2840000000001
  0
LINE
  8
_0-0_LAYER001
  6
CONTINUOUS
 62
    4
 10
1911.0192999999999
 20
1084.2840000000001
 11
1911.7528000000002
 21
1084.0915
  0
LINE
  8
_0-0_LAYER001
  6
CONTINUOUS
 62
    4
 10
1911.7528000000002
 20
1084.0915
 11
1912.6019999999999
 21
1083.8330000000001
  0
LINE
  8
_0-0_LAYER001
  6
CONTINUOUS
 62
    4
 10
1912.6019999999999
 20
1083.8330000000001
 11
1912.8461000000002
 21
1083.7511
  0
LINE
  8
_0-0_LAYER001
  6
CONTINUOUS
 62
    4
 10
1912.8461000000002
 20
1083.7511
 11
1914.4059999999999
 21
1083.1591000000001
  0
LINE
  8
_0-0_LAYER001
  6
CONTINUOUS
 62
    4
 10
1914.4059999999999
 20
1083.1591000000001
 11
1917.3537000000001
 21
1081.7886000000001
  0
LINE
  8
_0-0_LAYER001
  6
CONTINUOUS
 62
    4
 10
1917.3537000000001
 20
1081.7886000000001
 11
1920.3146999999999
 21
1080.1279999999999
  0
LINE
  8
_0-0_LAYER001
  6
CONTINUOUS
 62
    4
 10
1920.3146999999999
 20
1080.1279999999999
 11
1923.4823999999999
 21
1078.1067
  0
LINE
  8
_0-0_LAYER001
  6
CONTINUOUS
 62
    4
 10
1923.4823999999999
 20
1078.1067
 11
1926.8670999999999
 21
1075.7618
  0
LINE
  8
_0-0_LAYER001
  6
CONTINUOUS
 62
    4
 10
1926.8670999999999
 20
1075.7618
 11
1930.4729000000002
 21
1073.1593
  0
LINE
  8
_0-0_LAYER001
  6
CONTINUOUS
 62
    4
 10
1930.4729000000002
 20
1073.1593
 11
1932.6797999999999
 21
1071.5569
  0
LINE
  8
_0-0_LAYER001
  6
CONTINUOUS
 62
    4
 10
1932.6797999999999
 20
1071.5569
 11
1936.1698000000001
 21
1069.0564999999999
  0
LINE
  8
_0-0_LAYER001
  6
CONTINUOUS
 62
    4
 10
1936.1698000000001
 20
1069.0564999999999
 11
1942.2620000000002
 21
1064.8316
  0
LINE
  8
_0-0_LAYER001
  6
CONTINUOUS
 62
    4
 10
1942.2620000000002
 20
1064.8316
 11
1948.5657000000001
 21
1060.6914999999999
  0
LINE
  8
_0-0_LAYER001
  6
CONTINUOUS
 62
    4
 10
1948.5657000000001
 20
1060.6914999999999
 11
1955.0864000000001
 21
1056.7027
  0
LINE
  8
_0-0_LAYER001
  6
CONTINUOUS
 62
    4
 10
1955.0864000000001
 20
1056.7027
 11
1961.8524000000002
 21
1052.9186999999999
  0
LINE
  8
_0-0_LAYER001
  6
CONTINUOUS
 62
    4
 10
1961.8524000000002
 20
1052.9186999999999
 11
1968.7954
 21
1049.4441999999999
  0
LINE
  8
_0-0_LAYER001
  6
CONTINUOUS
 62
    4
 10
1968.7954
 20
1049.4441999999999
 11
1973.0689000000002
 21
1047.5198
  0
LINE
  8
_0-0_LAYER001
  6
CONTINUOUS
 62
    4
 10
1973.0689000000002
 20
1047.5198
 11
1976.6738999999998
 21
1046.0219
  0
LINE
  8
_0-0_LAYER001
  6
CONTINUOUS
 62
    4
 10
1976.6738999999998
 20
1046.0219
 11
1982.73
 21
1043.76
  0
LINE
  8
_0-0_LAYER001
  6
CONTINUOUS
 62
    4
 10
1982.73
 20
1043.76
 11
1988.9798999999998
 21
1041.7489
  0
LINE
  8
_0-0_LAYER001
  6
CONTINUOUS
 62
    4
 10
1988.9798999999998
 20
1041.7489
 11
1995.3285999999998
 21
1040.0274999999999
  0
LINE
  8
_0-0_LAYER001
  6
CONTINUOUS
 62
    4
 10
1995.3285999999998
 20
1040.0274999999999
 11
2001.7629000000002
 21
1038.6047000000001
  0
LINE
  8
_0-0_LAYER001
  6
CONTINUOUS
 62
    4
 10
2001.7629000000002
 20
1038.6047000000001
 11
2008.1765999999998
 21
1037.5059000000001
  0
LINE
  8
_0-0_LAYER001
  6
CONTINUOUS
 62
    4
 10
2008.1765999999998
 20
1037.5059000000001
 11
2012.0354000000002
 21
1036.9971
  0
LINE
  8
_0-0_LAYER001
  6
CONTINUOUS
 62
    4
 10
2012.0354000000002
 20
1036.9971
 11
2015.0300000000002
 21
1036.6787999999999
  0
LINE
  8
_0-0_LAYER001
  6
CONTINUOUS
 62
    4
 10
2015.0300000000002
 20
1036.6787999999999
 11
2019.9223999999999
 21
1036.2964999999999
  0
LINE
  8
_0-0_LAYER001
  6
CONTINUOUS
 62
    4
 10
2019.9223999999999
 20
1036.2964999999999
 11
2024.8299999999999
 21
1036.0719999999999
  0
LINE
  8
_0-0_LAYER001
  6
CONTINUOUS
 62
    4
 10
2024.8299999999999
 20
1036.0719999999999
 11
2029.6772999999998
 21
1035.9891
  0
LINE
  8
_0-0_LAYER001
  6
CONTINUOUS
 62
    4
 10
2029.6772999999998
 20
1035.9891
 11
2034.4612000000002
 21
1036.0268000000001
  0
LINE
  8
_0-0_LAYER001
  6
CONTINUOUS
 62
    4
 10
2034.4612000000002
 20
1036.0268000000001
 11
2039.1489000000001
 21
1036.1638
  0
LINE
  8
_0-0_LAYER001
  6
CONTINUOUS
 62
    4
 10
2039.1489000000001
 20
1036.1638
 11
2041.9261000000001
 21
1036.2850000000001
  0
LINE
  8
_0-0_LAYER001
  6
CONTINUOUS
 62
    4
 10
2041.9261000000001
 20
1036.2850000000001
 11
2046.9584
 21
1036.5704000000001
  0
LINE
  8
_0-0_LAYER001
  6
CONTINUOUS
 62
    4
 10
2046.9584
 20
1036.5704000000001
 11
2055.4845
 21
1037.2315000000001
  0
LINE
  8
_0-0_LAYER001
  6
CONTINUOUS
 62
    4
 10
2055.4845
 20
1037.2315000000001
 11
2063.9694
 21
1038.0818999999999
  0
LINE
  8
_0-0_LAYER001
  6
CONTINUOUS
 62
    4
 10
2063.9694
 20
1038.0818999999999
 11
2072.3607000000002
 21
1039.077
  0
LINE
  8
_0-0_LAYER001
  6
CONTINUOUS
 62
    4
 10
2072.3607000000002
 20
1039.077
 11
2080.6614
 21
1040.1776
  0
LINE
  8
_0-0_LAYER001
  6
CONTINUOUS
 62
    4
 10
2080.6614
 20
1040.1776
 11
2088.8692000000001
 21
1041.3449000000001
  0
LINE
  8
_0-0_LAYER001
  6
CONTINUOUS
 62
    4
 10
2088.8692000000001
 20
1041.3449000000001
 11
2093.6062999999999
 21
1042.0402999999999
  0
LINE
  8
_0-0_LAYER001
  6
CONTINUOUS
 62
    4
 10
2093.6062999999999
 20
1042.0402999999999
 11
2096.0617000000002
 21
1042.4041999999999
  0
LINE
  8
_0-0_LAYER001
  6
CONTINUOUS
 62
    4
 10
2096.0617000000002
 20
1042.4041999999999
 11
2100.2757999999999
 21
1043.0328
  0
LINE
  8
_0-0_LAYER001
  6
CONTINUOUS
 62
    4
 10
2100.2757999999999
 20
1043.0328
 11
2104.4872999999998
 21
1043.6651999999999
  0
LINE
  8
_0-0_LAYER001
  6
CONTINUOUS
 62
    4
 10
2104.4872999999998
 20
1043.6651999999999
 11
2108.6941000000002
 21
1044.3003000000001
  0
LINE
  8
_0-0_LAYER001
  6
CONTINUOUS
 62
    4
 10
2108.6941000000002
 20
1044.3003000000001
 11
2112.8962999999999
 21
1044.9371000000001
  0
LINE
  8
_0-0_LAYER001
  6
CONTINUOUS
 62
    4
 10
2112.8962999999999
 20
1044.9371000000001
 11
2117.0942
 21
1045.5746999999999
  0
LINE
  8
_0-0_LAYER001
  6
CONTINUOUS
 62
    4
 10
2117.0942
 20
1045.5746999999999
 11
2118.7118999999998
 21
1045.8207
  0
LINE
  8
_0-0_LAYER001
  6
CONTINUOUS
 62
    4
 10
1866.2566000000002
 20
1088.7867000000001
 11
1866.6826000000001
 21
1088.9498000000001
  0
ARC
  8
_0-0_LAYER001
  6
CONTINUOUS
 62
    4
 10
1867.3292000000001
 20
1085.9849999999999
 40
3
 50
110.94902000000002
 51
178.70000000000002
  0
LINE
  8
_0-0_LAYER001
  6
CONTINUOUS
 62
    4
 10
1864.2206999999999
 20
1070.2139999999999
 11
1864.2206999999999
 21
1085.9365
  0
LINE
  8
_0-0_LAYER001
  6
CONTINUOUS
 62
    4
 10
1865.5747000000001
 20
1069.2787000000001
 11
1871.7494999999999
 21
1071.6159
  0
ARC
  8
_0-0_LAYER001
  6
CONTINUOUS
 62
    4
 10
1865.2206999999999
 20
1070.2139999999999
 40
1
 50
180
 51
290.73165999999998
  0
LINE
  8
_0-0_LAYER001
  6
CONTINUOUS
 62
    4
 10
2116.9472000000001
 20
1063.7755999999999
 11
2161.4014999999999
 21
1073.4235000000001
  0
LINE
  8
_0-0_LAYER001
  6
CONTINUOUS
 62
    4
 10
2123.6925000000001
 20
1043.9419
 11
2162.3643000000002
 21
1052.9918
  0
LINE
  8
_0-0_LAYER001
  6
CONTINUOUS
 62
    4
 10
2162.3643000000002
 20
1053.9483
 11
2162.3643000000002
 21
1052.9918
  0
ARC
  8
_0-0_LAYER001
  6
CONTINUOUS
 62
    4
 10
2163.3643000000002
 20
1053.9483
 40
1
 50
102.72435
 51
180
  0
LINE
  8
_0-0_LAYER001
  6
CONTINUOUS
 62
    4
 10
2168.1813000000002
 20
1056.0612000000001
 11
2163.1439999999998
 21
1054.9238
  0
ARC
  8
_0-0_LAYER001
  6
CONTINUOUS
 62
    4
 10
2168.4014999999999
 20
1055.0858000000001
 40
1
 50
0
 51
102.72435
  0
LINE
  8
_0-0_LAYER001
  6
CONTINUOUS
 62
    4
 10
2168.6136000000001
 20
1056.5697
 11
2118.4796999999999
 21
1045.6891000000001
  0
ARC
  8
_0-0_LAYER001
  6
CONTINUOUS
 62
    4
 10
2168.4014999999999
 20
1057.5469000000001
 40
1
 50
282.24497000000002
 51
0
  0
LINE
  8
_0-0_LAYER001
  6
CONTINUOUS
 62
    4
 10
2168.6194
 20
1035.829
 11
2119.0354000000002
 21
1024.7610999999999
  0
LINE
  8
_0-0_LAYER001
  6
CONTINUOUS
 62
    4
 10
2169.4014999999999
 20
1036.8049000000001
 11
2169.4014999999999
 21
1055.0858000000001
  0
ARC
  8
_0-0_LAYER001
  6
CONTINUOUS
 62
    4
 10
2168.4014999999999
 20
1036.8049000000001
 40
1
 50
282.58296000000001
 51
0.0000000000000254
  0
LINE
  8
_0-0_LAYER001
  6
CONTINUOUS
 62
    4
 10
2161.4014999999999
 20
1074.8805
 11
2161.4014999999999
 21
1073.4235000000001
  0
ARC
  8
_0-0_LAYER001
  6
CONTINUOUS
 62
    4
 10
2162.4014999999999
 20
1074.8805
 40
1
 50
101.73308
 51
180
  0
LINE
  8
_0-0_LAYER001
  6
CONTINUOUS
 62
    4
 10
2168.1981999999998
 20
1077.1058
 11
2162.1981999999998
 21
1075.8596
  0
LINE
  8
_0-0_LAYER001
  6
CONTINUOUS
 62
    4
 10
2169.4014999999999
 20
1076.1267
 11
2169.4014999999999
 21
1057.5469000000001
  0
ARC
  8
_0-0_LAYER001
  6
CONTINUOUS
 62
    4
 10
2168.4014999999999
 20
1076.1267
 40
1
 50
0
 51
101.73308
  0
LINE
  8
_0-0_LAYER001
  6
CONTINUOUS
 62
    4
 10
1724.6709000000001
 20
1005.2367999999999
 11
1716.1354999999999
 21
1019.7701
  0
LINE
  8
_0-0_LAYER001
  6
CONTINUOUS
 62
    4
 10
1732.8388
 20
1004.5864999999999
 11
1741.145
 21
1014.652
  0
ARC
  8
_0-0_LAYER001
  6
CONTINUOUS
 62
    4
 10
1728.9823000000001
 20
1007.7689
 40
5
 50
210.42578
 51
320.47001
  0
LINE
  8
_0-0_LAYER001
  6
CONTINUOUS
 62
    4
 10
1808.7844
 20
1004.1166000000001
 11
1801.4589999999998
 21
1015.4227000000001
  0
LINE
  8
_0-0_LAYER001
  6
CONTINUOUS
 62
    4
 10
1817.2939000000001
 20
1004.3064999999999
 11
1826.2323999999999
 21
1019.5522000000001
  0
ARC
  8
_0-0_LAYER001
  6
CONTINUOUS
 62
    4
 10
1812.9805999999999
 20
1006.8353999999999
 40
5
 50
212.93986000000001
 51
329.61716000000001
  0
LINE
  8
_0-0_LAYER001
  6
CONTINUOUS
 62
    4
 10
1856.576
 20
1043.8642
 11
1859.0041000000001
 21
1044.268
  0
LINE
  8
_0-0_LAYER001
  6
CONTINUOUS
 62
    4
 10
1852.3869
 20
1043.1678999999999
 11
1856.576
 21
1043.8642
  0
LINE
  8
_0-0_LAYER001
  6
CONTINUOUS
 62
    4
 10
1848.1932000000002
 20
1042.4724000000001
 11
1852.3869
 21
1043.1678999999999
  0
LINE
  8
_0-0_LAYER001
  6
CONTINUOUS
 62
    4
 10
1843.9944
 20
1041.7783999999999
 11
1848.1932000000002
 21
1042.4724000000001
  0
LINE
  8
_0-0_LAYER001
  6
CONTINUOUS
 62
    4
 10
1839.7903000000001
 20
1041.0869
 11
1843.9944
 21
1041.7783999999999
  0
LINE
  8
_0-0_LAYER001
  6
CONTINUOUS
 62
    4
 10
1835.5835000000002
 20
1040.3992000000001
 11
1839.7903000000001
 21
1041.0869
  0
LINE
  8
_0-0_LAYER001
  6
CONTINUOUS
 62
    4
 10
1833.1311999999998
 20
1040.0007000000001
 11
1835.5835000000002
 21
1040.3992000000001
  0
LINE
  8
_0-0_LAYER001
  6
CONTINUOUS
 62
    4
 10
1828.3984
 20
1039.2383
 11
1833.1311999999998
 21
1040.0007000000001
  0
LINE
  8
_0-0_LAYER001
  6
CONTINUOUS
 62
    4
 10
1820.194
 20
1037.9544000000001
 11
1828.3984
 21
1039.2383
  0
LINE
  8
_0-0_LAYER001
  6
CONTINUOUS
 62
    4
 10
1811.8865000000001
 20
1036.7346
 11
1820.194
 21
1037.9544000000001
  0
LINE
  8
_0-0_LAYER001
  6
CONTINUOUS
 62
    4
 10
1803.4782
 20
1035.6181999999999
 11
1811.8865000000001
 21
1036.7346
  0
LINE
  8
_0-0_LAYER001
  6
CONTINUOUS
 62
    4
 10
1794.9657000000002
 20
1034.6448
 11
1803.4782
 21
1035.6181999999999
  0
LINE
  8
_0-0_LAYER001
  6
CONTINUOUS
 62
    4
 10
1786.4065000000001
 20
1033.8607999999999
 11
1794.9657000000002
 21
1034.6448
  0
LINE
  8
_0-0_LAYER001
  6
CONTINUOUS
 62
    4
 10
1781.3449999999998
 20
1033.5028
 11
1786.4065000000001
 21
1033.8607999999999
  0
LINE
  8
_0-0_LAYER001
  6
CONTINUOUS
 62
    4
 10
1778.5423999999998
 20
1033.3412000000001
 11
1781.3449999999998
 21
1033.5028
  0
LINE
  8
_0-0_LAYER001
  6
CONTINUOUS
 62
    4
 10
1773.8213999999998
 20
1033.1373000000001
 11
1778.5423999999998
 21
1033.3412000000001
  0
LINE
  8
_0-0_LAYER001
  6
CONTINUOUS
 62
    4
 10
1768.9922000000001
 20
1033.0318
 11
1773.8213999999998
 21
1033.1373000000001
  0
LINE
  8
_0-0_LAYER001
  6
CONTINUOUS
 62
    4
 10
1764.0904999999998
 20
1033.0472
 11
1768.9922000000001
 21
1033.0318
  0
LINE
  8
_0-0_LAYER001
  6
CONTINUOUS
 62
    4
 10
1759.1194999999998
 20
1033.2050999999999
 11
1764.0904999999998
 21
1033.0472
  0
LINE
  8
_0-0_LAYER001
  6
CONTINUOUS
 62
    4
 10
1754.1621
 20
1033.5228
 11
1759.1194999999998
 21
1033.2050999999999
  0
LINE
  8
_0-0_LAYER001
  6
CONTINUOUS
 62
    4
 10
1751.1104999999998
 20
1033.8042
 11
1754.1621
 21
1033.5228
  0
LINE
  8
_0-0_LAYER001
  6
CONTINUOUS
 62
    4
 10
1747.1815999999999
 20
1034.2665
 11
1751.1104999999998
 21
1033.8042
  0
LINE
  8
_0-0_LAYER001
  6
CONTINUOUS
 62
    4
 10
1740.6677
 20
1035.289
 11
1747.1815999999999
 21
1034.2665
  0
LINE
  8
_0-0_LAYER001
  6
CONTINUOUS
 62
    4
 10
1734.1210000000001
 20
1036.6412
 11
1740.6677
 21
1035.289
  0
LINE
  8
_0-0_LAYER001
  6
CONTINUOUS
 62
    4
 10
1727.6581000000001
 20
1038.297
 11
1734.1210000000001
 21
1036.6412
  0
LINE
  8
_0-0_LAYER001
  6
CONTINUOUS
 62
    4
 10
1721.2921999999999
 20
1040.2476999999999
 11
1727.6581000000001
 21
1038.297
  0
LINE
  8
_0-0_LAYER001
  6
CONTINUOUS
 62
    4
 10
1715.1273999999999
 20
1042.4527
 11
1721.2921999999999
 21
1040.2476999999999
  0
LINE
  8
_0-0_LAYER001
  6
CONTINUOUS
 62
    4
 10
1711.4407000000001
 20
1043.9245000000001
 11
1715.1273999999999
 21
1042.4527
  0
LINE
  8
_0-0_LAYER001
  6
CONTINUOUS
 62
    4
 10
1707.0765000000001
 20
1045.817
 11
1711.4407000000001
 21
1043.9245000000001
  0
LINE
  8
_0-0_LAYER001
  6
CONTINUOUS
 62
    4
 10
1700.0074
 20
1049.232
 11
1707.0765000000001
 21
1045.817
  0
LINE
  8
_0-0_LAYER001
  6
CONTINUOUS
 62
    4
 10
1693.1145000000001
 20
1052.9616000000001
 11
1700.0074
 21
1049.232
  0
LINE
  8
_0-0_LAYER001
  6
CONTINUOUS
 62
    4
 10
1686.4775
 20
1056.8951999999999
 11
1693.1145000000001
 21
1052.9616000000001
  0
LINE
  8
_0-0_LAYER001
  6
CONTINUOUS
 62
    4
 10
1680.0682000000002
 20
1060.9776999999999
 11
1686.4775
 21
1056.8951999999999
  0
LINE
  8
_0-0_LAYER001
  6
CONTINUOUS
 62
    4
 10
1673.884
 20
1065.1397999999999
 11
1680.0682000000002
 21
1060.9776999999999
  0
LINE
  8
_0-0_LAYER001
  6
CONTINUOUS
 62
    4
 10
1670.3416999999999
 20
1067.6034999999999
 11
1673.884
 21
1065.1397999999999
  0
LINE
  8
_0-0_LAYER001
  6
CONTINUOUS
 62
    4
 10
1668.1095999999998
 20
1069.1769999999999
 11
1670.3416999999999
 21
1067.6034999999999
  0
LINE
  8
_0-0_LAYER001
  6
CONTINUOUS
 62
    4
 10
1664.4861000000001
 20
1071.7162000000001
 11
1668.1095999999998
 21
1069.1769999999999
  0
LINE
  8
_0-0_LAYER001
  6
CONTINUOUS
 62
    4
 10
1661.1163999999999
 20
1073.9817
 11
1664.4861000000001
 21
1071.7162000000001
  0
LINE
  8
_0-0_LAYER001
  6
CONTINUOUS
 62
    4
 10
1658.0014000000001
 20
1075.9087999999999
 11
1661.1163999999999
 21
1073.9817
  0
LINE
  8
_0-0_LAYER001
  6
CONTINUOUS
 62
    4
 10
1655.1342
 20
1077.4645
 11
1658.0014000000001
 21
1075.9087999999999
  0
LINE
  8
_0-0_LAYER001
  6
CONTINUOUS
 62
    4
 10
1652.3031000000001
 20
1078.7329999999999
 11
1655.1342
 21
1077.4645
  0
LINE
  8
_0-0_LAYER001
  6
CONTINUOUS
 62
    4
 10
1650.8398999999999
 20
1079.2651000000001
 11
1652.3031000000001
 21
1078.7329999999999
  0
LINE
  8
_0-0_LAYER001
  6
CONTINUOUS
 62
    4
 10
1650.6588000000002
 20
1079.3230000000001
 11
1650.8398999999999
 21
1079.2651000000001
  0
LINE
  8
_0-0_LAYER001
  6
CONTINUOUS
 62
    4
 10
1649.8705
 20
1079.5509999999999
 11
1650.6588000000002
 21
1079.3230000000001
  0
LINE
  8
_0-0_LAYER001
  6
CONTINUOUS
 62
    4
 10
1649.2134000000001
 20
1079.7137
 11
1649.8705
 21
1079.5509999999999
  0
LINE
  8
_0-0_LAYER001
  6
CONTINUOUS
 62
    4
 10
1648.6316000000002
 20
1079.8317
 11
1649.2134000000001
 21
1079.7137
  0
LINE
  8
_0-0_LAYER001
  6
CONTINUOUS
 62
    4
 10
1648.5915
 20
1079.8379
 11
1648.6316000000002
 21
1079.8317
  0
LINE
  8
_0-0_LAYER001
  6
CONTINUOUS
 62
    4
 10
1852.5654
 20
1024.6767
 11
1854.1795000000002
 21
1024.9452000000001
  0
LINE
  8
_0-0_LAYER001
  6
CONTINUOUS
 62
    4
 10
1848.3768
 20
1023.9804999999999
 11
1852.5654
 21
1024.6767
  0
LINE
  8
_0-0_LAYER001
  6
CONTINUOUS
 62
    4
 10
1844.1839
 20
1023.2851000000001
 11
1848.3768
 21
1023.9804999999999
  0
LINE
  8
_0-0_LAYER001
  6
CONTINUOUS
 62
    4
 10
1839.9863999999998
 20
1022.5913
 11
1844.1839
 21
1023.2851000000001
  0
LINE
  8
_0-0_LAYER001
  6
CONTINUOUS
 62
    4
 10
1835.7840999999999
 20
1021.9001000000001
 11
1839.9863999999998
 21
1022.5913
  0
LINE
  8
_0-0_LAYER001
  6
CONTINUOUS
 62
    4
 10
1831.5792000000001
 20
1021.2128
 11
1835.7840999999999
 21
1021.9001000000001
  0
LINE
  8
_0-0_LAYER001
  6
CONTINUOUS
 62
    4
 10
1829.1291999999999
 20
1020.8146999999999
 11
1831.5792000000001
 21
1021.2128
  0
LINE
  8
_0-0_LAYER001
  6
CONTINUOUS
 62
    4
 10
1824.4022
 20
1020.0531000000001
 11
1829.1291999999999
 21
1020.8146999999999
  0
LINE
  8
_0-0_LAYER001
  6
CONTINUOUS
 62
    4
 10
1816.2114999999999
 20
1018.7714000000001
 11
1824.4022
 21
1020.0531000000001
  0
LINE
  8
_0-0_LAYER001
  6
CONTINUOUS
 62
    4
 10
1807.9270000000001
 20
1017.5550000000001
 11
1816.2114999999999
 21
1018.7714000000001
  0
LINE
  8
_0-0_LAYER001
  6
CONTINUOUS
 62
    4
 10
1799.5504000000001
 20
1016.4428
 11
1807.9270000000001
 21
1017.5550000000001
  0
LINE
  8
_0-0_LAYER001
  6
CONTINUOUS
 62
    4
 10
1791.0781999999999
 20
1015.4739999999999
 11
1799.5504000000001
 21
1016.4428
  0
LINE
  8
_0-0_LAYER001
  6
CONTINUOUS
 62
    4
 10
1782.5621000000001
 20
1014.694
 11
1791.0781999999999
 21
1015.4739999999999
  0
LINE
  8
_0-0_LAYER001
  6
CONTINUOUS
 62
    4
 10
1777.5342999999998
 20
1014.3384000000001
 11
1782.5621000000001
 21
1014.694
  0
LINE
  8
_0-0_LAYER001
  6
CONTINUOUS
 62
    4
 10
1774.7591000000002
 20
1014.1783
 11
1777.5342999999998
 21
1014.3384000000001
  0
LINE
  8
_0-0_LAYER001
  6
CONTINUOUS
 62
    4
 10
1770.0738000000001
 20
1013.9758999999999
 11
1774.7591000000002
 21
1014.1783
  0
LINE
  8
_0-0_LAYER001
  6
CONTINUOUS
 62
    4
 10
1765.2909
 20
1013.8715
 11
1770.0738000000001
 21
1013.9758999999999
  0
LINE
  8
_0-0_LAYER001
  6
CONTINUOUS
 62
    4
 10
1760.4427999999998
 20
1013.8867
 11
1765.2909
 21
1013.8715
  0
LINE
  8
_0-0_LAYER001
  6
CONTINUOUS
 62
    4
 10
1755.5326
 20
1014.0426
 11
1760.4427999999998
 21
1013.8867
  0
LINE
  8
_0-0_LAYER001
  6
CONTINUOUS
 62
    4
 10
1750.6354000000001
 20
1014.3565000000001
 11
1755.5326
 21
1014.0426
  0
LINE
  8
_0-0_LAYER001
  6
CONTINUOUS
 62
    4
 10
1747.6365999999998
 20
1014.6331
 11
1750.6354000000001
 21
1014.3565000000001
  0
LINE
  8
_0-0_LAYER001
  6
CONTINUOUS
 62
    4
 10
1743.7710000000002
 20
1015.0879
 11
1747.6365999999998
 21
1014.6331
  0
LINE
  8
_0-0_LAYER001
  6
CONTINUOUS
 62
    4
 10
1737.3425999999999
 20
1016.097
 11
1743.7710000000002
 21
1015.0879
  0
LINE
  8
_0-0_LAYER001
  6
CONTINUOUS
 62
    4
 10
1730.8892000000001
 20
1017.4299000000001
 11
1737.3425999999999
 21
1016.097
  0
LINE
  8
_0-0_LAYER001
  6
CONTINUOUS
 62
    4
 10
1724.5169999999998
 20
1019.0625
 11
1730.8892000000001
 21
1017.4299000000001
  0
LINE
  8
_0-0_LAYER001
  6
CONTINUOUS
 62
    4
 10
1718.2397000000001
 20
1020.9861000000001
 11
1724.5169999999998
 21
1019.0625
  0
LINE
  8
_0-0_LAYER001
  6
CONTINUOUS
 62
    4
 10
1712.1525999999999
 20
1023.1632
 11
1718.2397000000001
 21
1020.9861000000001
  0
LINE
  8
_0-0_LAYER001
  6
CONTINUOUS
 62
    4
 10
1708.5268999999998
 20
1024.6107
 11
1712.1525999999999
 21
1023.1632
  0
LINE
  8
_0-0_LAYER001
  6
CONTINUOUS
 62
    4
 10
1704.2271000000001
 20
1026.4752000000001
 11
1708.5268999999998
 21
1024.6107
  0
LINE
  8
_0-0_LAYER001
  6
CONTINUOUS
 62
    4
 10
1697.2361999999998
 20
1029.8524
 11
1704.2271000000001
 21
1026.4752000000001
  0
LINE
  8
_0-0_LAYER001
  6
CONTINUOUS
 62
    4
 10
1690.4180999999999
 20
1033.5416
 11
1697.2361999999998
 21
1029.8524
  0
LINE
  8
_0-0_LAYER001
  6
CONTINUOUS
 62
    4
 10
1683.8422999999998
 20
1037.4390000000001
 11
1690.4180999999999
 21
1033.5416
  0
LINE
  8
_0-0_LAYER001
  6
CONTINUOUS
 62
    4
 10
1677.4814000000001
 20
1041.4906000000001
 11
1683.8422999999998
 21
1037.4390000000001
  0
LINE
  8
_0-0_LAYER001
  6
CONTINUOUS
 62
    4
 10
1671.3308000000002
 20
1045.6301000000001
 11
1677.4814000000001
 21
1041.4906000000001
  0
LINE
  8
_0-0_LAYER001
  6
CONTINUOUS
 62
    4
 10
1667.8062
 20
1048.0814
 11
1671.3308000000002
 21
1045.6301000000001
  0
LINE
  8
_0-0_LAYER001
  6
CONTINUOUS
 62
    4
 10
1665.5771
 20
1049.6529
 11
1667.8062
 21
1048.0814
  0
LINE
  8
_0-0_LAYER001
  6
CONTINUOUS
 62
    4
 10
1661.9353999999998
 20
1052.2048
 11
1665.5771
 21
1049.6529
  0
LINE
  8
_0-0_LAYER001
  6
CONTINUOUS
 62
    4
 10
1658.5183000000002
 20
1054.5021999999999
 11
1661.9353999999998
 21
1052.2048
  0
LINE
  8
_0-0_LAYER001
  6
CONTINUOUS
 62
    4
 10
1655.3227000000002
 20
1056.4791
 11
1658.5183000000002
 21
1054.5021999999999
  0
LINE
  8
_0-0_LAYER001
  6
CONTINUOUS
 62
    4
 10
1652.3386999999998
 20
1058.0981999999999
 11
1655.3227000000002
 21
1056.4791
  0
LINE
  8
_0-0_LAYER001
  6
CONTINUOUS
 62
    4
 10
1649.3721999999998
 20
1059.4274
 11
1652.3386999999998
 21
1058.0981999999999
  0
LINE
  8
_0-0_LAYER001
  6
CONTINUOUS
 62
    4
 10
1648.6221999999998
 20
1059.7001
 11
1649.3721999999998
 21
1059.4274
  0
LINE
  8
_0-0_LAYER001
  6
CONTINUOUS
 62
    4
 10
1648.9553000000001
 20
1079.7431999999999
 11
1648.7791999999999
 21
1059.5698
  0
LINE
  8
_0-0_LAYER001
  6
CONTINUOUS
 62
    4
 10
1849.2809000000002
 20
1014.2555
 11
1847.0355
 21
1022.8289
  0
ARC
  8
_0-0_LAYER001
  6
CONTINUOUS
 62
    4
 10
1852.183
 20
1015.0155
 40
3
 50
194.67639000000003
 51
270.00000000000006
  0
LINE
  8
_0-0_LAYER001
  6
CONTINUOUS
 62
    4
 10
1855.6255000000001
 20
1012.0111999999999
 11
1852.2076999999999
 21
1012.0111999999999
  0
LINE
  8
_0-0_LAYER001
  6
CONTINUOUS
 62
    4
 10
1858.5846999999999
 20
1014.518
 11
1860.5187000000001
 21
1026.1222
  0
ARC
  8
_0-0_LAYER001
  6
CONTINUOUS
 62
    4
 10
1855.6255000000001
 20
1015.0111999999999
 40
3
 50
270
 51
350.53766999999999
  0
LINE
  8
_0-0_LAYER001
  6
CONTINUOUS
 62
    4
 10
1601.8591000000001
 20
1089.1333999999999
 11
1602.6729999999998
 21
1089.4401
  0
LINE
  8
_0-0_LAYER001
  6
CONTINUOUS
 62
    4
 10
1602.6729999999998
 20
1089.4401
 11
1606.2222999999999
 21
1090.7797
  0
LINE
  8
_0-0_LAYER001
  6
CONTINUOUS
 62
    4
 10
1606.2222999999999
 20
1090.7797
 11
1609.7788999999998
 21
1092.1285
  0
LINE
  8
_0-0_LAYER001
  6
CONTINUOUS
 62
    4
 10
1609.7788999999998
 20
1092.1285
 11
1613.3474999999999
 21
1093.4926
  0
LINE
  8
_0-0_LAYER001
  6
CONTINUOUS
 62
    4
 10
1613.3474999999999
 20
1093.4926
 11
1616.9328999999998
 21
1094.8777
  0
LINE
  8
_0-0_LAYER001
  6
CONTINUOUS
 62
    4
 10
1616.9328999999998
 20
1094.8777
 11
1620.5396000000001
 21
1096.2896000000001
  0
LINE
  8
_0-0_LAYER001
  6
CONTINUOUS
 62
    4
 10
1620.5396000000001
 20
1096.2896000000001
 11
1622.6430999999998
 21
1097.1232
  0
LINE
  8
_0-0_LAYER001
  6
CONTINUOUS
 62
    4
 10
1622.6430999999998
 20
1097.1232
 11
1624.7224999999999
 21
1097.9521
  0
LINE
  8
_0-0_LAYER001
  6
CONTINUOUS
 62
    4
 10
1624.7224999999999
 20
1097.9521
 11
1628.3290000000002
 21
1099.3535999999999
  0
LINE
  8
_0-0_LAYER001
  6
CONTINUOUS
 62
    4
 10
1628.3290000000002
 20
1099.3535999999999
 11
1631.9618
 21
1100.6362999999999
  0
LINE
  8
_0-0_LAYER001
  6
CONTINUOUS
 62
    4
 10
1631.9618
 20
1100.6362999999999
 11
1635.6197000000002
 21
1101.7029
  0
LINE
  8
_0-0_LAYER001
  6
CONTINUOUS
 62
    4
 10
1635.6197000000002
 20
1101.7029
 11
1639.3018000000002
 21
1102.4561000000001
  0
LINE
  8
_0-0_LAYER001
  6
CONTINUOUS
 62
    4
 10
1639.3018000000002
 20
1102.4561000000001
 11
1643.0070999999998
 21
1102.7986000000001
  0
LINE
  8
_0-0_LAYER001
  6
CONTINUOUS
 62
    4
 10
1643.0070999999998
 20
1102.7986000000001
 11
1645.1664000000001
 21
1102.7707
  0
LINE
  8
_0-0_LAYER001
  6
CONTINUOUS
 62
    4
 10
1645.1664000000001
 20
1102.7707
 11
1646.0155
 21
1102.7094
  0
LINE
  8
_0-0_LAYER001
  6
CONTINUOUS
 62
    4
 10
1646.0155
 20
1102.7094
 11
1647.4798999999998
 21
1102.5388
  0
LINE
  8
_0-0_LAYER001
  6
CONTINUOUS
 62
    4
 10
1647.4798999999998
 20
1102.5388
 11
1648.9409999999998
 21
1102.2920999999999
  0
LINE
  8
_0-0_LAYER001
  6
CONTINUOUS
 62
    4
 10
1648.9409999999998
 20
1102.2920999999999
 11
1650.3946999999998
 21
1101.9760000000001
  0
LINE
  8
_0-0_LAYER001
  6
CONTINUOUS
 62
    4
 10
1650.3946999999998
 20
1101.9760000000001
 11
1651.8368
 21
1101.5975000000001
  0
LINE
  8
_0-0_LAYER001
  6
CONTINUOUS
 62
    4
 10
1651.8368
 20
1101.5975000000001
 11
1653.2631999999999
 21
1101.1633999999999
  0
LINE
  8
_0-0_LAYER001
  6
CONTINUOUS
 62
    4
 10
1653.2631999999999
 20
1101.1633999999999
 11
1654.0817000000002
 21
1100.8887999999999
  0
LINE
  8
_0-0_LAYER001
  6
CONTINUOUS
 62
    4
 10
1654.0817000000002
 20
1100.8887999999999
 11
1656.5799000000002
 21
1099.9405999999999
  0
LINE
  8
_0-0_LAYER001
  6
CONTINUOUS
 62
    4
 10
1656.5799000000002
 20
1099.9405999999999
 11
1660.7388999999998
 21
1098.0070000000001
  0
LINE
  8
_0-0_LAYER001
  6
CONTINUOUS
 62
    4
 10
1660.7388999999998
 20
1098.0070000000001
 11
1664.7426999999998
 21
1095.7616
  0
LINE
  8
_0-0_LAYER001
  6
CONTINUOUS
 62
    4
 10
1664.7426999999998
 20
1095.7616
 11
1668.6295
 21
1093.2814000000001
  0
LINE
  8
_0-0_LAYER001
  6
CONTINUOUS
 62
    4
 10
1668.6295
 20
1093.2814000000001
 11
1672.4375
 21
1090.6432
  0
LINE
  8
_0-0_LAYER001
  6
CONTINUOUS
 62
    4
 10
1672.4375
 20
1090.6432
 11
1676.2048
 21
1087.9241
  0
LINE
  8
_0-0_LAYER001
  6
CONTINUOUS
 62
    4
 10
1676.2048
 20
1087.9241
 11
1678.3861000000002
 21
1086.3403000000001
  0
LINE
  8
_0-0_LAYER001
  6
CONTINUOUS
 62
    4
 10
1678.3861000000002
 20
1086.3403000000001
 11
1681.7177000000001
 21
1083.9535000000001
  0
LINE
  8
_0-0_LAYER001
  6
CONTINUOUS
 62
    4
 10
1681.7177000000001
 20
1083.9535000000001
 11
1687.5099
 21
1079.9366
  0
LINE
  8
_0-0_LAYER001
  6
CONTINUOUS
 62
    4
 10
1687.5099
 20
1079.9366
 11
1693.3820999999998
 21
1076.0799999999999
  0
LINE
  8
_0-0_LAYER001
  6
CONTINUOUS
 62
    4
 10
1693.3820999999998
 20
1076.0799999999999
 11
1699.3562999999999
 21
1072.4255000000001
  0
LINE
  8
_0-0_LAYER001
  6
CONTINUOUS
 62
    4
 10
1699.3562999999999
 20
1072.4255000000001
 11
1705.4544000000001
 21
1069.0148999999999
  0
LINE
  8
_0-0_LAYER001
  6
CONTINUOUS
 62
    4
 10
1705.4544000000001
 20
1069.0148999999999
 11
1711.6986999999999
 21
1065.8901000000001
  0
LINE
  8
_0-0_LAYER001
  6
CONTINUOUS
 62
    4
 10
1711.6986999999999
 20
1065.8901000000001
 11
1715.3960000000002
 21
1064.2251000000001
  0
LINE
  8
_0-0_LAYER001
  6
CONTINUOUS
 62
    4
 10
1715.3960000000002
 20
1064.2251000000001
 11
1718.4553000000001
 21
1062.954
  0
LINE
  8
_0-0_LAYER001
  6
CONTINUOUS
 62
    4
 10
1718.4553000000001
 20
1062.954
 11
1723.8157999999999
 21
1060.9519
  0
LINE
  8
_0-0_LAYER001
  6
CONTINUOUS
 62
    4
 10
1723.8157999999999
 20
1060.9519
 11
1729.2714999999998
 21
1059.1964
  0
LINE
  8
_0-0_LAYER001
  6
CONTINUOUS
 62
    4
 10
1729.2714999999998
 20
1059.1964
 11
1734.8065000000001
 21
1057.6956
  0
LINE
  8
_0-0_LAYER001
  6
CONTINUOUS
 62
    4
 10
1734.8065000000001
 20
1057.6956
 11
1740.4047999999998
 21
1056.4576
  0
LINE
  8
_0-0_LAYER001
  6
CONTINUOUS
 62
    4
 10
1740.4047999999998
 20
1056.4576
 11
1746.0504999999998
 21
1055.4903999999999
  0
LINE
  8
_0-0_LAYER001
  6
CONTINUOUS
 62
    4
 10
1746.0504999999998
 20
1055.4903999999999
 11
1749.3404999999998
 21
1055.0567000000001
  0
LINE
  8
_0-0_LAYER001
  6
CONTINUOUS
 62
    4
 10
1749.3404999999998
 20
1055.0567000000001
 11
1751.8597
 21
1054.7888
  0
LINE
  8
_0-0_LAYER001
  6
CONTINUOUS
 62
    4
 10
1751.8597
 20
1054.7888
 11
1756.2118
 21
1054.4487999999999
  0
LINE
  8
_0-0_LAYER001
  6
CONTINUOUS
 62
    4
 10
1756.2118
 20
1054.4487999999999
 11
1760.5720999999999
 21
1054.2492999999999
  0
LINE
  8
_0-0_LAYER001
  6
CONTINUOUS
 62
    4
 10
1760.5720999999999
 20
1054.2492999999999
 11
1764.9373000000001
 21
1054.1747
  0
LINE
  8
_0-0_LAYER001
  6
CONTINUOUS
 62
    4
 10
1764.9373000000001
 20
1054.1747
 11
1769.3044
 21
1054.2091
  0
LINE
  8
_0-0_LAYER001
  6
CONTINUOUS
 62
    4
 10
1769.3044
 20
1054.2091
 11
1773.6703000000002
 21
1054.3366000000001
  0
LINE
  8
_0-0_LAYER001
  6
CONTINUOUS
 62
    4
 10
1773.6703000000002
 20
1054.3366000000001
 11
1776.2006999999999
 21
1054.4471000000001
  0
LINE
  8
_0-0_LAYER001
  6
CONTINUOUS
 62
    4
 10
1776.2006999999999
 20
1054.4471000000001
 11
1780.9297999999999
 21
1054.7153000000001
  0
LINE
  8
_0-0_LAYER001
  6
CONTINUOUS
 62
    4
 10
1780.9297999999999
 20
1054.7153000000001
 11
1789.0680000000002
 21
1055.3462999999999
  0
LINE
  8
_0-0_LAYER001
  6
CONTINUOUS
 62
    4
 10
1789.0680000000002
 20
1055.3462999999999
 11
1797.1887000000002
 21
1056.1602
  0
LINE
  8
_0-0_LAYER001
  6
CONTINUOUS
 62
    4
 10
1797.1887000000002
 20
1056.1602
 11
1805.2946000000002
 21
1057.1215
  0
LINE
  8
_0-0_LAYER001
  6
CONTINUOUS
 62
    4
 10
1805.2946000000002
 20
1057.1215
 11
1813.3881000000001
 21
1058.1946
  0
LINE
  8
_0-0_LAYER001
  6
CONTINUOUS
 62
    4
 10
1813.3881000000001
 20
1058.1946
 11
1821.4715999999999
 21
1059.3442
  0
LINE
  8
_0-0_LAYER001
  6
CONTINUOUS
 62
    4
 10
1821.4715999999999
 20
1059.3442
 11
1826.1565000000001
 21
1060.0319999999999
  0
LINE
  8
_0-0_LAYER001
  6
CONTINUOUS
 62
    4
 10
1826.1565000000001
 20
1060.0319999999999
 11
1828.5913999999998
 21
1060.3929000000001
  0
LINE
  8
_0-0_LAYER001
  6
CONTINUOUS
 62
    4
 10
1828.5913999999998
 20
1060.3929000000001
 11
1832.7883999999999
 21
1061.0189
  0
LINE
  8
_0-0_LAYER001
  6
CONTINUOUS
 62
    4
 10
1832.7883999999999
 20
1061.0189
 11
1836.9841000000001
 21
1061.6488999999999
  0
LINE
  8
_0-0_LAYER001
  6
CONTINUOUS
 62
    4
 10
1836.9841000000001
 20
1061.6488999999999
 11
1841.1790000000001
 21
1062.2822000000001
  0
LINE
  8
_0-0_LAYER001
  6
CONTINUOUS
 62
    4
 10
1841.1790000000001
 20
1062.2822000000001
 11
1845.3730999999998
 21
1062.9177999999999
  0
LINE
  8
_0-0_LAYER001
  6
CONTINUOUS
 62
    4
 10
1845.3730999999998
 20
1062.9177999999999
 11
1849.5668999999998
 21
1063.5547999999999
  0
LINE
  8
_0-0_LAYER001
  6
CONTINUOUS
 62
    4
 10
1849.5668999999998
 20
1063.5547999999999
 11
1851.9992000000002
 21
1063.9246000000001
  0
LINE
  8
_0-0_LAYER001
  6
CONTINUOUS
 62
    4
 10
1606.9623000000001
 20
1071.8209999999999
 11
1609.0241999999998
 21
1072.5978
  0
LINE
  8
_0-0_LAYER001
  6
CONTINUOUS
 62
    4
 10
1609.0241999999998
 20
1072.5978
 11
1612.5918000000001
 21
1073.9443000000001
  0
LINE
  8
_0-0_LAYER001
  6
CONTINUOUS
 62
    4
 10
1612.5918000000001
 20
1073.9443000000001
 11
1616.1837
 21
1075.3065999999999
  0
LINE
  8
_0-0_LAYER001
  6
CONTINUOUS
 62
    4
 10
1616.1837
 20
1075.3065999999999
 11
1619.8040999999998
 21
1076.6904
  0
LINE
  8
_0-0_LAYER001
  6
CONTINUOUS
 62
    4
 10
1619.8040999999998
 20
1076.6904
 11
1623.4571000000001
 21
1078.1016
  0
LINE
  8
_0-0_LAYER001
  6
CONTINUOUS
 62
    4
 10
1623.4571000000001
 20
1078.1016
 11
1627.1363000000001
 21
1079.5418999999999
  0
LINE
  8
_0-0_LAYER001
  6
CONTINUOUS
 62
    4
 10
1627.1363000000001
 20
1079.5418999999999
 11
1629.2914000000001
 21
1080.396
  0
LINE
  8
_0-0_LAYER001
  6
CONTINUOUS
 62
    4
 10
1629.2914000000001
 20
1080.396
 11
1631.3150000000001
 21
1081.2026000000001
  0
LINE
  8
_0-0_LAYER001
  6
CONTINUOUS
 62
    4
 10
1631.3150000000001
 20
1081.2026000000001
 11
1634.5868999999998
 21
1082.4739999999999
  0
LINE
  8
_0-0_LAYER001
  6
CONTINUOUS
 62
    4
 10
1634.5868999999998
 20
1082.4739999999999
 11
1637.482
 21
1083.4963
  0
LINE
  8
_0-0_LAYER001
  6
CONTINUOUS
 62
    4
 10
1637.482
 20
1083.4963
 11
1639.9501
 21
1084.2159999999999
  0
LINE
  8
_0-0_LAYER001
  6
CONTINUOUS
 62
    4
 10
1639.9501
 20
1084.2159999999999
 11
1641.9418999999998
 21
1084.6233999999999
  0
LINE
  8
_0-0_LAYER001
  6
CONTINUOUS
 62
    4
 10
1641.9418999999998
 20
1084.6233999999999
 11
1643.7212
 21
1084.7879
  0
LINE
  8
_0-0_LAYER001
  6
CONTINUOUS
 62
    4
 10
1643.7212
 20
1084.7879
 11
1644.4007000000001
 21
1084.7791
  0
LINE
  8
_0-0_LAYER001
  6
CONTINUOUS
 62
    4
 10
1644.4007000000001
 20
1084.7791
 11
1644.3245999999999
 21
1084.7846
  0
LINE
  8
_0-0_LAYER001
  6
CONTINUOUS
 62
    4
 10
1644.3245999999999
 20
1084.7846
 11
1644.9382999999998
 21
1084.7130999999999
  0
LINE
  8
_0-0_LAYER001
  6
CONTINUOUS
 62
    4
 10
1644.9382999999998
 20
1084.7130999999999
 11
1645.5286999999998
 21
1084.6134999999999
  0
LINE
  8
_0-0_LAYER001
  6
CONTINUOUS
 62
    4
 10
1645.5286999999998
 20
1084.6134999999999
 11
1646.1961000000001
 21
1084.4684
  0
LINE
  8
_0-0_LAYER001
  6
CONTINUOUS
 62
    4
 10
1646.1961000000001
 20
1084.4684
 11
1646.9297000000001
 21
1084.2757999999999
  0
LINE
  8
_0-0_LAYER001
  6
CONTINUOUS
 62
    4
 10
1646.9297000000001
 20
1084.2757999999999
 11
1647.7788
 21
1084.0174
  0
LINE
  8
_0-0_LAYER001
  6
CONTINUOUS
 62
    4
 10
1647.7788
 20
1084.0174
 11
1648.0228999999999
 21
1083.9355
  0
LINE
  8
_0-0_LAYER001
  6
CONTINUOUS
 62
    4
 10
1648.0228999999999
 20
1083.9355
 11
1649.5828000000001
 21
1083.3434
  0
LINE
  8
_0-0_LAYER001
  6
CONTINUOUS
 62
    4
 10
1649.5828000000001
 20
1083.3434
 11
1652.5304999999998
 21
1081.973
  0
LINE
  8
_0-0_LAYER001
  6
CONTINUOUS
 62
    4
 10
1652.5304999999998
 20
1081.973
 11
1655.4915999999998
 21
1080.3124
  0
LINE
  8
_0-0_LAYER001
  6
CONTINUOUS
 62
    4
 10
1655.4915999999998
 20
1080.3124
 11
1658.6592999999998
 21
1078.2909999999999
  0
LINE
  8
_0-0_LAYER001
  6
CONTINUOUS
 62
    4
 10
1658.6592999999998
 20
1078.2909999999999
 11
1662.0439999999999
 21
1075.9460999999999
  0
LINE
  8
_0-0_LAYER001
  6
CONTINUOUS
 62
    4
 10
1662.0439999999999
 20
1075.9460999999999
 11
1665.6496999999999
 21
1073.3435999999999
  0
LINE
  8
_0-0_LAYER001
  6
CONTINUOUS
 62
    4
 10
1665.6496999999999
 20
1073.3435999999999
 11
1667.8566999999998
 21
1071.7411999999999
  0
LINE
  8
_0-0_LAYER001
  6
CONTINUOUS
 62
    4
 10
1667.8566999999998
 20
1071.7411999999999
 11
1671.3467000000001
 21
1069.2409
  0
LINE
  8
_0-0_LAYER001
  6
CONTINUOUS
 62
    4
 10
1671.3467000000001
 20
1069.2409
 11
1677.4389000000001
 21
1065.0159000000001
  0
LINE
  8
_0-0_LAYER001
  6
CONTINUOUS
 62
    4
 10
1677.4389000000001
 20
1065.0159000000001
 11
1683.7426
 21
1060.8759
  0
LINE
  8
_0-0_LAYER001
  6
CONTINUOUS
 62
    4
 10
1683.7426
 20
1060.8759
 11
1690.2633000000001
 21
1056.8870999999999
  0
LINE
  8
_0-0_LAYER001
  6
CONTINUOUS
 62
    4
 10
1690.2633000000001
 20
1056.8870999999999
 11
1697.0293000000001
 21
1053.1031
  0
LINE
  8
_0-0_LAYER001
  6
CONTINUOUS
 62
    4
 10
1697.0293000000001
 20
1053.1031
 11
1703.9722999999999
 21
1049.6286
  0
LINE
  8
_0-0_LAYER001
  6
CONTINUOUS
 62
    4
 10
1703.9722999999999
 20
1049.6286
 11
1708.2456999999999
 21
1047.7041999999999
  0
LINE
  8
_0-0_LAYER001
  6
CONTINUOUS
 62
    4
 10
1708.2456999999999
 20
1047.7041999999999
 11
1711.8508000000002
 21
1046.2062000000001
  0
LINE
  8
_0-0_LAYER001
  6
CONTINUOUS
 62
    4
 10
1711.8508000000002
 20
1046.2062000000001
 11
1717.9069
 21
1043.9443000000001
  0
LINE
  8
_0-0_LAYER001
  6
CONTINUOUS
 62
    4
 10
1717.9069
 20
1043.9443000000001
 11
1724.1567
 21
1041.9332999999999
  0
LINE
  8
_0-0_LAYER001
  6
CONTINUOUS
 62
    4
 10
1724.1567
 20
1041.9332999999999
 11
1730.5055000000002
 21
1040.2119
  0
LINE
  8
_0-0_LAYER001
  6
CONTINUOUS
 62
    4
 10
1730.5055000000002
 20
1040.2119
 11
1736.9396999999999
 21
1038.789
  0
LINE
  8
_0-0_LAYER001
  6
CONTINUOUS
 62
    4
 10
1736.9396999999999
 20
1038.789
 11
1743.3534
 21
1037.6902
  0
LINE
  8
_0-0_LAYER001
  6
CONTINUOUS
 62
    4
 10
1743.3534
 20
1037.6902
 11
1747.2123000000001
 21
1037.1814999999999
  0
LINE
  8
_0-0_LAYER001
  6
CONTINUOUS
 62
    4
 10
1747.2123000000001
 20
1037.1814999999999
 11
1750.2069000000001
 21
1036.8631
  0
LINE
  8
_0-0_LAYER001
  6
CONTINUOUS
 62
    4
 10
1750.2069000000001
 20
1036.8631
 11
1755.0992999999999
 21
1036.4809
  0
LINE
  8
_0-0_LAYER001
  6
CONTINUOUS
 62
    4
 10
1755.0992999999999
 20
1036.4809
 11
1760.0068000000001
 21
1036.2564
  0
LINE
  8
_0-0_LAYER001
  6
CONTINUOUS
 62
    4
 10
1760.0068000000001
 20
1036.2564
 11
1764.8542000000002
 21
1036.1735000000001
  0
LINE
  8
_0-0_LAYER001
  6
CONTINUOUS
 62
    4
 10
1764.8542000000002
 20
1036.1735000000001
 11
1769.6381000000001
 21
1036.2111
  0
LINE
  8
_0-0_LAYER001
  6
CONTINUOUS
 62
    4
 10
1769.6381000000001
 20
1036.2111
 11
1774.3258000000001
 21
1036.3480999999999
  0
LINE
  8
_0-0_LAYER001
  6
CONTINUOUS
 62
    4
 10
1774.3258000000001
 20
1036.3480999999999
 11
1777.1028999999999
 21
1036.4694
  0
LINE
  8
_0-0_LAYER001
  6
CONTINUOUS
 62
    4
 10
1777.1028999999999
 20
1036.4694
 11
1782.1352999999999
 21
1036.7547999999999
  0
LINE
  8
_0-0_LAYER001
  6
CONTINUOUS
 62
    4
 10
1782.1352999999999
 20
1036.7547999999999
 11
1790.6614
 21
1037.4158
  0
LINE
  8
_0-0_LAYER001
  6
CONTINUOUS
 62
    4
 10
1790.6614
 20
1037.4158
 11
1799.1462999999999
 21
1038.2662
  0
LINE
  8
_0-0_LAYER001
  6
CONTINUOUS
 62
    4
 10
1799.1462999999999
 20
1038.2662
 11
1807.5376000000001
 21
1039.2612999999999
  0
LINE
  8
_0-0_LAYER001
  6
CONTINUOUS
 62
    4
 10
1807.5376000000001
 20
1039.2612999999999
 11
1815.8382999999999
 21
1040.3620000000001
  0
LINE
  8
_0-0_LAYER001
  6
CONTINUOUS
 62
    4
 10
1815.8382999999999
 20
1040.3620000000001
 11
1824.0459999999998
 21
1041.5291999999999
  0
LINE
  8
_0-0_LAYER001
  6
CONTINUOUS
 62
    4
 10
1824.0459999999998
 20
1041.5291999999999
 11
1828.7831999999999
 21
1042.2247
  0
LINE
  8
_0-0_LAYER001
  6
CONTINUOUS
 62
    4
 10
1828.7831999999999
 20
1042.2247
 11
1831.2384999999999
 21
1042.5886
  0
LINE
  8
_0-0_LAYER001
  6
CONTINUOUS
 62
    4
 10
1831.2384999999999
 20
1042.5886
 11
1835.4526000000001
 21
1043.2171000000001
  0
LINE
  8
_0-0_LAYER001
  6
CONTINUOUS
 62
    4
 10
1835.4526000000001
 20
1043.2171000000001
 11
1839.6642000000002
 21
1043.8496
  0
LINE
  8
_0-0_LAYER001
  6
CONTINUOUS
 62
    4
 10
1839.6642000000002
 20
1043.8496
 11
1843.8708999999999
 21
1044.4847
  0
LINE
  8
_0-0_LAYER001
  6
CONTINUOUS
 62
    4
 10
1843.8708999999999
 20
1044.4847
 11
1848.0731000000001
 21
1045.1215
  0
LINE
  8
_0-0_LAYER001
  6
CONTINUOUS
 62
    4
 10
1848.0731000000001
 20
1045.1215
 11
1852.2710000000002
 21
1045.7591
  0
LINE
  8
_0-0_LAYER001
  6
CONTINUOUS
 62
    4
 10
1852.2710000000002
 20
1045.7591
 11
1853.8887
 21
1046.0050000000001
  0
LINE
  8
_0-0_LAYER001
  6
CONTINUOUS
 62
    4
 10
1601.4335000000001
 20
1088.9711
 11
1601.8595
 21
1089.1342
  0
ARC
  8
_0-0_LAYER001
  6
CONTINUOUS
 62
    4
 10
1602.5061000000001
 20
1086.1694
 40
3
 50
110.94902000000002
 51
178.70000000000002
  0
LINE
  8
_0-0_LAYER001
  6
CONTINUOUS
 62
    4
 10
1599.3975
 20
1070.3983000000001
 11
1599.3975
 21
1086.1207999999999
  0
LINE
  8
_0-0_LAYER001
  6
CONTINUOUS
 62
    4
 10
1600.7514999999999
 20
1069.4630999999999
 11
1606.9263999999998
 21
1071.8003000000001
  0
ARC
  8
_0-0_LAYER001
  6
CONTINUOUS
 62
    4
 10
1600.3975
 20
1070.3983000000001
 40
1
 50
180
 51
290.73165999999998
  0
LINE
  8
_0-0_LAYER001
  6
CONTINUOUS
 62
    4
 10
1864.3975
 20
1049.0761
 11
1864.3975
 21
1066.2735
  0
LINE
  8
_0-0_LAYER001
  6
CONTINUOUS
 62
    4
 10
1852.1241
 20
1063.9599000000001
 11
1896.5783999999999
 21
1073.6078
  0
LINE
  8
_0-0_LAYER001
  6
CONTINUOUS
 62
    4
 10
1858.8692999999998
 20
1044.1261999999999
 11
1897.5410999999999
 21
1053.1762000000001
  0
LINE
  8
_0-0_LAYER001
  6
CONTINUOUS
 62
    4
 10
1897.5410999999999
 20
1054.1327000000001
 11
1897.5410999999999
 21
1053.1762000000001
  0
ARC
  8
_0-0_LAYER001
  6
CONTINUOUS
 62
    4
 10
1898.5410999999999
 20
1054.1327000000001
 40
1
 50
102.72435
 51
180
  0
LINE
  8
_0-0_LAYER001
  6
CONTINUOUS
 62
    4
 10
1903.3580999999999
 20
1056.2456
 11
1898.3209000000002
 21
1055.1080999999999
  0
ARC
  8
_0-0_LAYER001
  6
CONTINUOUS
 62
    4
 10
1903.5783999999999
 20
1055.2701
 40
1
 50
0
 51
102.72435
  0
LINE
  8
_0-0_LAYER001
  6
CONTINUOUS
 62
    4
 10
1903.7905000000001
 20
1056.7539999999999
 11
1853.6565000000001
 21
1045.8734999999999
  0
ARC
  8
_0-0_LAYER001
  6
CONTINUOUS
 62
    4
 10
1903.5783999999999
 20
1057.7312999999999
 40
1
 50
282.24497000000002
 51
0
  0
LINE
  8
_0-0_LAYER001
  6
CONTINUOUS
 62
    4
 10
1903.7962000000002
 20
1036.0133000000001
 11
1854.2123000000001
 21
1024.9454000000001
  0
LINE
  8
_0-0_LAYER001
  6
CONTINUOUS
 62
    4
 10
1904.5783999999999
 20
1036.9893
 11
1904.5783999999999
 21
1055.2701
  0
ARC
  8
_0-0_LAYER001
  6
CONTINUOUS
 62
    4
 10
1903.5783999999999
 20
1036.9893
 40
1
 50
282.58296000000001
 51
0.0000000000000254
  0
LINE
  8
_0-0_LAYER001
  6
CONTINUOUS
 62
    4
 10
1896.5783999999999
 20
1075.0649000000001
 11
1896.5783999999999
 21
1073.6078
  0
ARC
  8
_0-0_LAYER001
  6
CONTINUOUS
 62
    4
 10
1897.5783999999999
 20
1075.0649000000001
 40
1
 50
101.73308
 51
180
  0
LINE
  8
_0-0_LAYER001
  6
CONTINUOUS
 62
    4
 10
1903.375
 20
1077.2900999999999
 11
1897.375
 21
1076.0440000000001
  0
LINE
  8
_0-0_LAYER001
  6
CONTINUOUS
 62
    4
 10
1904.5783999999999
 20
1076.3109999999999
 11
1904.5783999999999
 21
1057.7312999999999
  0
ARC
  8
_0-0_LAYER001
  6
CONTINUOUS
 62
    4
 10
1903.5783999999999
 20
1076.3109999999999
 40
1
 50
0
 51
101.73308
  0
LINE
  8
_0-0_LAYER001
  6
DASHED1
 62
    2
 10
1703.7892999999999
 20
1048.8291999999999
 11
1719.7892999999999
 21
1048.8291999999999
  0
LINE
  8
_0-0_LAYER001
  6
DASHED1
 62
    2
 10
1719.7892999999999
 20
1048.8291999999999
 11
1719.7892999999999
 21
1045.8291999999999
  0
LINE
  8
_0-0_LAYER001
  6
DASHED1
 62
    2
 10
1703.7892999999999
 20
1048.8291999999999
 11
1703.7892999999999
 21
1045.8291999999999
  0
LINE
  8
_0-0_LAYER001
  6
DASHED1
 62
    2
 10
1703.7892999999999
 20
1045.8291999999999
 11
1719.7892999999999
 21
1045.8291999999999
  0
LINE
  8
_0-0_LAYER001
  6
DASHED1
 62
    2
 10
1714.7892999999999
 20
990.93309999999997
 11
1711.7390999999998
 21
976.42419999999993
  0
LINE
  8
_0-0_LAYER001
  6
DASHED1
 62
    2
 10
1714.7892999999999
 20
1045.8291999999999
 11
1714.7892999999999
 21
990.93309999999997
  0
LINE
  8
_0-0_LAYER001
  6
DASHED1
 62
    2
 10
1711.7390999999998
 20
976.42419999999993
 11
1708.7892999999999
 21
990.68170000000009
  0
LINE
  8
_0-0_LAYER001
  6
DASHED1
 62
    2
 10
1708.7892999999999
 20
1045.8291999999999
 11
1708.7892999999999
 21
990.68170000000009
  0
LINE
  8
_0-0_LAYER001
  6
DASHED1
 62
    2
 10
1968.7955000000002
 20
1046.098
 11
1984.7955000000002
 21
1046.098
  0
LINE
  8
_0-0_LAYER001
  6
DASHED1
 62
    2
 10
1984.7955000000002
 20
1046.098
 11
1984.7955000000002
 21
1043.098
  0
LINE
  8
_0-0_LAYER001
  6
DASHED1
 62
    2
 10
1968.7955000000002
 20
1046.098
 11
1968.7955000000002
 21
1043.098
  0
LINE
  8
_0-0_LAYER001
  6
DASHED1
 62
    2
 10
1968.7955000000002
 20
1043.098
 11
1984.7955000000002
 21
1043.098
  0
LINE
  8
_0-0_LAYER001
  6
DASHED1
 62
    2
 10
1979.7955000000002
 20
988.20190000000002
 11
1976.7453
 21
973.69299999999998
  0
LINE
  8
_0-0_LAYER001
  6
DASHED1
 62
    2
 10
1979.7955000000002
 20
1043.098
 11
1979.7955000000002
 21
988.20190000000002
  0
LINE
  8
_0-0_LAYER001
  6
DASHED1
 62
    2
 10
1976.7453
 20
973.69299999999998
 11
1973.7955000000002
 21
987.95049999999992
  0
LINE
  8
_0-0_LAYER001
  6
DASHED1
 62
    2
 10
1973.7955000000002
 20
1043.098
 11
1973.7955000000002
 21
987.95049999999992
  0
LINE
  8
_0-0_LAYER001
  6
CONTINUOUS
 62
    4
 10
1116.047
 20
1100.0229999999999
 11
1116.047
 21
1081.818
  0
LINE
  8
_0-0_LAYER001
  6
CONTINUOUS
 62
    4
 10
1116.047
 20
1077.6732
 11
1116.047
 21
1058.2344000000001
  0
LINE
  8
_0-0_LAYER001
  6
CONTINUOUS
 62
    4
 10
1599.2206999999999
 20
1046.2090000000001
 11
1599.2206999999999
 21
1063.4064000000001
  0
LINE
  8
_0-0_LAYER001
  6
CONTINUOUS
 62
    4
 10
1459.4940999999999
 20
1002.3697
 11
1450.9585999999999
 21
1016.903
  0
LINE
  8
_0-0_LAYER001
  6
CONTINUOUS
 62
    4
 10
1467.6619000000001
 20
1001.7194
 11
1475.9681
 21
1011.7849000000001
  0
ARC
  8
_0-0_LAYER001
  6
CONTINUOUS
 62
    4
 10
1463.8054999999999
 20
1004.9018000000001
 40
5
 50
210.42578
 51
320.47001
  0
LINE
  8
_0-0_LAYER001
  6
CONTINUOUS
 62
    4
 10
1543.6075000000001
 20
1001.2494999999999
 11
1536.2822000000001
 21
1012.5555999999999
  0
LINE
  8
_0-0_LAYER001
  6
CONTINUOUS
 62
    4
 10
1552.1170999999999
 20
1001.4394
 11
1561.0554999999999
 21
1016.6850999999999
  0
ARC
  8
_0-0_LAYER001
  6
CONTINUOUS
 62
    4
 10
1547.8038000000001
 20
1003.9683
 40
5
 50
212.93986000000001
 51
329.61716000000001
  0
LINE
  8
_0-0_LAYER001
  6
CONTINUOUS
 62
    4
 10
1591.3991000000001
 20
1040.9971
 11
1593.8272000000002
 21
1041.4010000000001
  0
LINE
  8
_0-0_LAYER001
  6
CONTINUOUS
 62
    4
 10
1587.2100999999998
 20
1040.3008
 11
1591.3991000000001
 21
1040.9971
  0
LINE
  8
_0-0_LAYER001
  6
CONTINUOUS
 62
    4
 10
1583.0162999999998
 20
1039.6052999999999
 11
1587.2100999999998
 21
1040.3008
  0
LINE
  8
_0-0_LAYER001
  6
CONTINUOUS
 62
    4
 10
1578.8175000000001
 20
1038.9113
 11
1583.0162999999998
 21
1039.6052999999999
  0
LINE
  8
_0-0_LAYER001
  6
CONTINUOUS
 62
    4
 10
1574.6134999999999
 20
1038.2198000000001
 11
1578.8175000000001
 21
1038.9113
  0
LINE
  8
_0-0_LAYER001
  6
CONTINUOUS
 62
    4
 10
1570.4065999999998
 20
1037.5322000000001
 11
1574.6134999999999
 21
1038.2198000000001
  0
LINE
  8
_0-0_LAYER001
  6
CONTINUOUS
 62
    4
 10
1567.9542999999999
 20
1037.1337000000001
 11
1570.4065999999998
 21
1037.5322000000001
  0
LINE
  8
_0-0_LAYER001
  6
CONTINUOUS
 62
    4
 10
1563.2215999999999
 20
1036.3712
 11
1567.9542999999999
 21
1037.1337000000001
  0
LINE
  8
_0-0_LAYER001
  6
CONTINUOUS
 62
    4
 10
1555.0171
 20
1035.0872999999999
 11
1563.2215999999999
 21
1036.3712
  0
LINE
  8
_0-0_LAYER001
  6
CONTINUOUS
 62
    4
 10
1546.7096999999999
 20
1033.8675000000001
 11
1555.0171
 21
1035.0872999999999
  0
LINE
  8
_0-0_LAYER001
  6
CONTINUOUS
 62
    4
 10
1538.3013999999998
 20
1032.7511
 11
1546.7096999999999
 21
1033.8675000000001
  0
LINE
  8
_0-0_LAYER001
  6
CONTINUOUS
 62
    4
 10
1529.7887999999998
 20
1031.7777000000001
 11
1538.3013999999998
 21
1032.7511
  0
LINE
  8
_0-0_LAYER001
  6
CONTINUOUS
 62
    4
 10
1521.2296999999999
 20
1030.9937
 11
1529.7887999999998
 21
1031.7777000000001
  0
LINE
  8
_0-0_LAYER001
  6
CONTINUOUS
 62
    4
 10
1516.1680999999999
 20
1030.6357
 11
1521.2296999999999
 21
1030.9937
  0
LINE
  8
_0-0_LAYER001
  6
CONTINUOUS
 62
    4
 10
1513.3656000000001
 20
1030.4740999999999
 11
1516.1680999999999
 21
1030.6357
  0
LINE
  8
_0-0_LAYER001
  6
CONTINUOUS
 62
    4
 10
1508.6444999999999
 20
1030.2701999999999
 11
1513.3656000000001
 21
1030.4740999999999
  0
LINE
  8
_0-0_LAYER001
  6
CONTINUOUS
 62
    4
 10
1503.8153000000002
 20
1030.1647
 11
1508.6444999999999
 21
1030.2701999999999
  0
LINE
  8
_0-0_LAYER001
  6
CONTINUOUS
 62
    4
 10
1498.9137000000001
 20
1030.1801
 11
1503.8153000000002
 21
1030.1647
  0
LINE
  8
_0-0_LAYER001
  6
CONTINUOUS
 62
    4
 10
1493.9425999999999
 20
1030.338
 11
1498.9137000000001
 21
1030.1801
  0
LINE
  8
_0-0_LAYER001
  6
CONTINUOUS
 62
    4
 10
1488.9852000000001
 20
1030.6557
 11
1493.9425999999999
 21
1030.338
  0
LINE
  8
_0-0_LAYER001
  6
CONTINUOUS
 62
    4
 10
1485.9335999999998
 20
1030.9371000000001
 11
1488.9852000000001
 21
1030.6557
  0
LINE
  8
_0-0_LAYER001
  6
CONTINUOUS
 62
    4
 10
1482.0047
 20
1031.3994
 11
1485.9335999999998
 21
1030.9371000000001
  0
LINE
  8
_0-0_LAYER001
  6
CONTINUOUS
 62
    4
 10
1475.4908
 20
1032.4219000000001
 11
1482.0047
 21
1031.3994
  0
LINE
  8
_0-0_LAYER001
  6
CONTINUOUS
 62
    4
 10
1468.9441999999999
 20
1033.7741000000001
 11
1475.4908
 21
1032.4219000000001
  0
LINE
  8
_0-0_LAYER001
  6
CONTINUOUS
 62
    4
 10
1462.4812000000002
 20
1035.4299000000001
 11
1468.9441999999999
 21
1033.7741000000001
  0
LINE
  8
_0-0_LAYER001
  6
CONTINUOUS
 62
    4
 10
1456.1152999999999
 20
1037.3806999999999
 11
1462.4812000000002
 21
1035.4299000000001
  0
LINE
  8
_0-0_LAYER001
  6
CONTINUOUS
 62
    4
 10
1449.9504999999999
 20
1039.5856000000001
 11
1456.1152999999999
 21
1037.3806999999999
  0
LINE
  8
_0-0_LAYER001
  6
CONTINUOUS
 62
    4
 10
1446.2638999999999
 20
1041.0573999999999
 11
1449.9504999999999
 21
1039.5856000000001
  0
LINE
  8
_0-0_LAYER001
  6
CONTINUOUS
 62
    4
 10
1441.8996000000002
 20
1042.9499000000001
 11
1446.2638999999999
 21
1041.0573999999999
  0
LINE
  8
_0-0_LAYER001
  6
CONTINUOUS
 62
    4
 10
1434.8305999999998
 20
1046.3649
 11
1441.8996000000002
 21
1042.9499000000001
  0
LINE
  8
_0-0_LAYER001
  6
CONTINUOUS
 62
    4
 10
1427.9376999999999
 20
1050.0944999999999
 11
1434.8305999999998
 21
1046.3649
  0
LINE
  8
_0-0_LAYER001
  6
CONTINUOUS
 62
    4
 10
1421.3006999999998
 20
1054.0282
 11
1427.9376999999999
 21
1050.0944999999999
  0
LINE
  8
_0-0_LAYER001
  6
CONTINUOUS
 62
    4
 10
1414.8912999999998
 20
1058.1106
 11
1421.3006999999998
 21
1054.0282
  0
LINE
  8
_0-0_LAYER001
  6
CONTINUOUS
 62
    4
 10
1408.7071000000001
 20
1062.2727
 11
1414.8912999999998
 21
1058.1106
  0
LINE
  8
_0-0_LAYER001
  6
CONTINUOUS
 62
    4
 10
1405.1648
 20
1064.7365
 11
1408.7071000000001
 21
1062.2727
  0
LINE
  8
_0-0_LAYER001
  6
CONTINUOUS
 62
    4
 10
1402.9328
 20
1066.3099
 11
1405.1648
 21
1064.7365
  0
LINE
  8
_0-0_LAYER001
  6
CONTINUOUS
 62
    4
 10
1399.3091999999999
 20
1068.8490999999999
 11
1402.9328
 21
1066.3099
  0
LINE
  8
_0-0_LAYER001
  6
CONTINUOUS
 62
    4
 10
1395.9395999999997
 20
1071.1146000000001
 11
1399.3091999999999
 21
1068.8490999999999
  0
LINE
  8
_0-0_LAYER001
  6
CONTINUOUS
 62
    4
 10
1392.8245999999999
 20
1073.0417
 11
1395.9395999999997
 21
1071.1146000000001
  0
LINE
  8
_0-0_LAYER001
  6
CONTINUOUS
 62
    4
 10
1389.9574000000002
 20
1074.5974000000001
 11
1392.8245999999999
 21
1073.0417
  0
LINE
  8
_0-0_LAYER001
  6
CONTINUOUS
 62
    4
 10
1387.1261999999999
 20
1075.8659
 11
1389.9574000000002
 21
1074.5974000000001
  0
LINE
  8
_0-0_LAYER001
  6
CONTINUOUS
 62
    4
 10
1385.663
 20
1076.3979999999999
 11
1387.1261999999999
 21
1075.8659
  0
LINE
  8
_0-0_LAYER001
  6
CONTINUOUS
 62
    4
 10
1385.4819
 20
1076.4559999999999
 11
1385.663
 21
1076.3979999999999
  0
LINE
  8
_0-0_LAYER001
  6
CONTINUOUS
 62
    4
 10
1384.6937
 20
1076.6839
 11
1385.4819
 21
1076.4559999999999
  0
LINE
  8
_0-0_LAYER001
  6
CONTINUOUS
 62
    4
 10
1384.0364999999999
 20
1076.8466000000001
 11
1384.6937
 21
1076.6839
  0
LINE
  8
_0-0_LAYER001
  6
CONTINUOUS
 62
    4
 10
1383.4547
 20
1076.9646
 11
1384.0364999999999
 21
1076.8466000000001
  0
LINE
  8
_0-0_LAYER001
  6
CONTINUOUS
 62
    4
 10
1383.4147000000003
 20
1076.9708000000001
 11
1383.4547
 21
1076.9646
  0
LINE
  8
_0-0_LAYER001
  6
CONTINUOUS
 62
    4
 10
1587.3885
 20
1021.8096
 11
1589.0025999999998
 21
1022.0780999999999
  0
LINE
  8
_0-0_LAYER001
  6
CONTINUOUS
 62
    4
 10
1583.1999000000001
 20
1021.1134
 11
1587.3885
 21
1021.8096
  0
LINE
  8
_0-0_LAYER001
  6
CONTINUOUS
 62
    4
 10
1579.0070000000001
 20
1020.4179999999999
 11
1583.1999000000001
 21
1021.1134
  0
LINE
  8
_0-0_LAYER001
  6
CONTINUOUS
 62
    4
 10
1574.8096
 20
1019.7243000000001
 11
1579.0070000000001
 21
1020.4179999999999
  0
LINE
  8
_0-0_LAYER001
  6
CONTINUOUS
 62
    4
 10
1570.6073000000001
 20
1019.0331000000001
 11
1574.8096
 21
1019.7243000000001
  0
LINE
  8
_0-0_LAYER001
  6
CONTINUOUS
 62
    4
 10
1566.4023000000002
 20
1018.3457000000001
 11
1570.6073000000001
 21
1019.0331000000001
  0
LINE
  8
_0-0_LAYER001
  6
CONTINUOUS
 62
    4
 10
1563.9522999999999
 20
1017.9476
 11
1566.4023000000002
 21
1018.3457000000001
  0
LINE
  8
_0-0_LAYER001
  6
CONTINUOUS
 62
    4
 10
1559.2253000000001
 20
1017.1860999999999
 11
1563.9522999999999
 21
1017.9476
  0
LINE
  8
_0-0_LAYER001
  6
CONTINUOUS
 62
    4
 10
1551.0347000000002
 20
1015.9042999999999
 11
1559.2253000000001
 21
1017.1860999999999
  0
LINE
  8
_0-0_LAYER001
  6
CONTINUOUS
 62
    4
 10
1542.7501999999999
 20
1014.6878999999999
 11
1551.0347000000002
 21
1015.9042999999999
  0
LINE
  8
_0-0_LAYER001
  6
CONTINUOUS
 62
    4
 10
1534.3735999999999
 20
1013.5757000000001
 11
1542.7501999999999
 21
1014.6878999999999
  0
LINE
  8
_0-0_LAYER001
  6
CONTINUOUS
 62
    4
 10
1525.9014000000002
 20
1012.607
 11
1534.3735999999999
 21
1013.5757000000001
  0
LINE
  8
_0-0_LAYER001
  6
CONTINUOUS
 62
    4
 10
1517.3852999999999
 20
1011.8269
 11
1525.9014000000002
 21
1012.607
  0
LINE
  8
_0-0_LAYER001
  6
CONTINUOUS
 62
    4
 10
1512.3573999999999
 20
1011.4712999999999
 11
1517.3852999999999
 21
1011.8269
  0
LINE
  8
_0-0_LAYER001
  6
CONTINUOUS
 62
    4
 10
1509.5821999999998
 20
1011.3113000000001
 11
1512.3573999999999
 21
1011.4712999999999
  0
LINE
  8
_0-0_LAYER001
  6
CONTINUOUS
 62
    4
 10
1504.8969000000002
 20
1011.1088
 11
1509.5821999999998
 21
1011.3113000000001
  0
LINE
  8
_0-0_LAYER001
  6
CONTINUOUS
 62
    4
 10
1500.114
 20
1011.0044
 11
1504.8969000000002
 21
1011.1088
  0
LINE
  8
_0-0_LAYER001
  6
CONTINUOUS
 62
    4
 10
1495.2660000000001
 20
1011.0196000000001
 11
1500.114
 21
1011.0044
  0
LINE
  8
_0-0_LAYER001
  6
CONTINUOUS
 62
    4
 10
1490.3557999999998
 20
1011.1755000000001
 11
1495.2660000000001
 21
1011.0196000000001
  0
LINE
  8
_0-0_LAYER001
  6
CONTINUOUS
 62
    4
 10
1485.4585000000002
 20
1011.4893999999999
 11
1490.3557999999998
 21
1011.1755000000001
  0
LINE
  8
_0-0_LAYER001
  6
CONTINUOUS
 62
    4
 10
1482.4596999999999
 20
1011.7660000000001
 11
1485.4585000000002
 21
1011.4893999999999
  0
LINE
  8
_0-0_LAYER001
  6
CONTINUOUS
 62
    4
 10
1478.5942
 20
1012.2208000000001
 11
1482.4596999999999
 21
1011.7660000000001
  0
LINE
  8
_0-0_LAYER001
  6
CONTINUOUS
 62
    4
 10
1472.1658000000002
 20
1013.2299
 11
1478.5942
 21
1012.2208000000001
  0
LINE
  8
_0-0_LAYER001
  6
CONTINUOUS
 62
    4
 10
1465.7123000000001
 20
1014.5627999999999
 11
1472.1658000000002
 21
1013.2299
  0
LINE
  8
_0-0_LAYER001
  6
CONTINUOUS
 62
    4
 10
1459.3400999999999
 20
1016.1954000000001
 11
1465.7123000000001
 21
1014.5627999999999
  0
LINE
  8
_0-0_LAYER001
  6
CONTINUOUS
 62
    4
 10
1453.0628000000002
 20
1018.1189999999999
 11
1459.3400999999999
 21
1016.1954000000001
  0
LINE
  8
_0-0_LAYER001
  6
CONTINUOUS
 62
    4
 10
1446.9757
 20
1020.2961
 11
1453.0628000000002
 21
1018.1189999999999
  0
LINE
  8
_0-0_LAYER001
  6
CONTINUOUS
 62
    4
 10
1443.3501000000001
 20
1021.7436
 11
1446.9757
 21
1020.2961
  0
LINE
  8
_0-0_LAYER001
  6
CONTINUOUS
 62
    4
 10
1439.0502000000001
 20
1023.6080999999999
 11
1443.3501000000001
 21
1021.7436
  0
LINE
  8
_0-0_LAYER001
  6
CONTINUOUS
 62
    4
 10
1432.0592999999999
 20
1026.9854
 11
1439.0502000000001
 21
1023.6080999999999
  0
LINE
  8
_0-0_LAYER001
  6
CONTINUOUS
 62
    4
 10
1425.2411999999999
 20
1030.6745000000001
 11
1432.0592999999999
 21
1026.9854
  0
LINE
  8
_0-0_LAYER001
  6
CONTINUOUS
 62
    4
 10
1418.6654000000001
 20
1034.5718999999999
 11
1425.2411999999999
 21
1030.6745000000001
  0
LINE
  8
_0-0_LAYER001
  6
CONTINUOUS
 62
    4
 10
1412.3045
 20
1038.6234999999999
 11
1418.6654000000001
 21
1034.5718999999999
  0
LINE
  8
_0-0_LAYER001
  6
CONTINUOUS
 62
    4
 10
1406.1538999999998
 20
1042.7629999999999
 11
1412.3045
 21
1038.6234999999999
  0
LINE
  8
_0-0_LAYER001
  6
CONTINUOUS
 62
    4
 10
1402.6294000000003
 20
1045.2144000000001
 11
1406.1538999999998
 21
1042.7629999999999
  0
LINE
  8
_0-0_LAYER001
  6
CONTINUOUS
 62
    4
 10
1400.4003
 20
1046.7858000000001
 11
1402.6294000000003
 21
1045.2144000000001
  0
LINE
  8
_0-0_LAYER001
  6
CONTINUOUS
 62
    4
 10
1396.7586000000001
 20
1049.3377
 11
1400.4003
 21
1046.7858000000001
  0
LINE
  8
_0-0_LAYER001
  6
CONTINUOUS
 62
    4
 10
1393.3413999999998
 20
1051.6351
 11
1396.7586000000001
 21
1049.3377
  0
LINE
  8
_0-0_LAYER001
  6
CONTINUOUS
 62
    4
 10
1390.1458
 20
1053.6121000000001
 11
1393.3413999999998
 21
1051.6351
  0
LINE
  8
_0-0_LAYER001
  6
CONTINUOUS
 62
    4
 10
1387.1619000000001
 20
1055.2311
 11
1390.1458
 21
1053.6121000000001
  0
LINE
  8
_0-0_LAYER001
  6
CONTINUOUS
 62
    4
 10
1384.1953000000001
 20
1056.5603000000001
 11
1387.1619000000001
 21
1055.2311
  0
LINE
  8
_0-0_LAYER001
  6
CONTINUOUS
 62
    4
 10
1383.4453000000003
 20
1056.8330000000001
 11
1384.1953000000001
 21
1056.5603000000001
  0
LINE
  8
_0-0_LAYER001
  6
CONTINUOUS
 62
    4
 10
1383.7783999999999
 20
1076.8761999999999
 11
1383.6024
 21
1056.7027
  0
LINE
  8
_0-0_LAYER001
  6
CONTINUOUS
 62
    4
 10
1584.1039999999998
 20
1011.3884
 11
1581.8586
 21
1019.9618
  0
ARC
  8
_0-0_LAYER001
  6
CONTINUOUS
 62
    4
 10
1587.0061000000001
 20
1012.1484
 40
3
 50
194.67639000000003
 51
270.00000000000006
  0
LINE
  8
_0-0_LAYER001
  6
CONTINUOUS
 62
    4
 10
1590.4486000000002
 20
1009.1441
 11
1587.0308
 21
1009.1441
  0
LINE
  8
_0-0_LAYER001
  6
CONTINUOUS
 62
    4
 10
1593.4078
 20
1011.6509000000001
 11
1595.3418000000001
 21
1023.2551000000001
  0
ARC
  8
_0-0_LAYER001
  6
CONTINUOUS
 62
    4
 10
1590.4486000000002
 20
1012.1441
 40
3
 50
270
 51
350.53766999999999
  0
LINE
  8
_0-0_LAYER001
  6
CONTINUOUS
 62
    4
 10
1336.6822
 20
1086.2663
 11
1337.4962
 21
1086.5730000000001
  0
LINE
  8
_0-0_LAYER001
  6
CONTINUOUS
 62
    4
 10
1337.4962
 20
1086.5730000000001
 11
1341.0454
 21
1087.9126000000001
  0
LINE
  8
_0-0_LAYER001
  6
CONTINUOUS
 62
    4
 10
1341.0454
 20
1087.9126000000001
 11
1344.6020000000001
 21
1089.2615000000001
  0
LINE
  8
_0-0_LAYER001
  6
CONTINUOUS
 62
    4
 10
1344.6020000000001
 20
1089.2615000000001
 11
1348.1707000000001
 21
1090.6255000000001
  0
LINE
  8
_0-0_LAYER001
  6
CONTINUOUS
 62
    4
 10
1348.1707000000001
 20
1090.6255000000001
 11
1351.7560000000001
 21
1092.0106000000001
  0
LINE
  8
_0-0_LAYER001
  6
CONTINUOUS
 62
    4
 10
1351.7560000000001
 20
1092.0106000000001
 11
1355.3628000000001
 21
1093.4224999999999
  0
LINE
  8
_0-0_LAYER001
  6
CONTINUOUS
 62
    4
 10
1355.3628000000001
 20
1093.4224999999999
 11
1357.4663
 21
1094.2561000000001
  0
LINE
  8
_0-0_LAYER001
  6
CONTINUOUS
 62
    4
 10
1357.4663
 20
1094.2561000000001
 11
1359.5455999999999
 21
1095.085
  0
LINE
  8
_0-0_LAYER001
  6
CONTINUOUS
 62
    4
 10
1359.5455999999999
 20
1095.085
 11
1363.1522
 21
1096.4865
  0
LINE
  8
_0-0_LAYER001
  6
CONTINUOUS
 62
    4
 10
1363.1522
 20
1096.4865
 11
1366.7849000000001
 21
1097.7692
  0
LINE
  8
_0-0_LAYER001
  6
CONTINUOUS
 62
    4
 10
1366.7849000000001
 20
1097.7692
 11
1370.4428000000003
 21
1098.8358000000001
  0
LINE
  8
_0-0_LAYER001
  6
CONTINUOUS
 62
    4
 10
1370.4428000000003
 20
1098.8358000000001
 11
1374.125
 21
1099.5890999999999
  0
LINE
  8
_0-0_LAYER001
  6
CONTINUOUS
 62
    4
 10
1374.125
 20
1099.5890999999999
 11
1377.8302000000003
 21
1099.9315999999999
  0
LINE
  8
_0-0_LAYER001
  6
CONTINUOUS
 62
    4
 10
1377.8302000000003
 20
1099.9315999999999
 11
1379.9894999999997
 21
1099.9037000000001
  0
LINE
  8
_0-0_LAYER001
  6
CONTINUOUS
 62
    4
 10
1379.9894999999997
 20
1099.9037000000001
 11
1380.8386999999998
 21
1099.8423
  0
LINE
  8
_0-0_LAYER001
  6
CONTINUOUS
 62
    4
 10
1380.8386999999998
 20
1099.8423
 11
1382.3029999999999
 21
1099.6717000000001
  0
LINE
  8
_0-0_LAYER001
  6
CONTINUOUS
 62
    4
 10
1382.3029999999999
 20
1099.6717000000001
 11
1383.7641000000003
 21
1099.425
  0
LINE
  8
_0-0_LAYER001
  6
CONTINUOUS
 62
    4
 10
1383.7641000000003
 20
1099.425
 11
1385.2177999999999
 21
1099.1089999999999
  0
LINE
  8
_0-0_LAYER001
  6
CONTINUOUS
 62
    4
 10
1385.2177999999999
 20
1099.1089999999999
 11
1386.6599000000001
 21
1098.7304999999999
  0
LINE
  8
_0-0_LAYER001
  6
CONTINUOUS
 62
    4
 10
1386.6599000000001
 20
1098.7304999999999
 11
1388.0863999999999
 21
1098.2963
  0
LINE
  8
_0-0_LAYER001
  6
CONTINUOUS
 62
    4
 10
1388.0863999999999
 20
1098.2963
 11
1388.9048
 21
1098.0217
  0
LINE
  8
_0-0_LAYER001
  6
CONTINUOUS
 62
    4
 10
1388.9048
 20
1098.0217
 11
1391.4031
 21
1097.0735
  0
LINE
  8
_0-0_LAYER001
  6
CONTINUOUS
 62
    4
 10
1391.4031
 20
1097.0735
 11
1395.5619999999999
 21
1095.1398999999999
  0
LINE
  8
_0-0_LAYER001
  6
CONTINUOUS
 62
    4
 10
1395.5619999999999
 20
1095.1398999999999
 11
1399.5658000000001
 21
1092.8945000000001
  0
LINE
  8
_0-0_LAYER001
  6
CONTINUOUS
 62
    4
 10
1399.5658000000001
 20
1092.8945000000001
 11
1403.4527
 21
1090.4142999999999
  0
LINE
  8
_0-0_LAYER001
  6
CONTINUOUS
 62
    4
 10
1403.4527
 20
1090.4142999999999
 11
1407.2606999999998
 21
1087.7761
  0
LINE
  8
_0-0_LAYER001
  6
CONTINUOUS
 62
    4
 10
1407.2606999999998
 20
1087.7761
 11
1411.0279
 21
1085.0571
  0
LINE
  8
_0-0_LAYER001
  6
CONTINUOUS
 62
    4
 10
1411.0279
 20
1085.0571
 11
1413.2093
 21
1083.4731999999999
  0
LINE
  8
_0-0_LAYER001
  6
CONTINUOUS
 62
    4
 10
1413.2093
 20
1083.4731999999999
 11
1416.5408
 21
1081.0863999999999
  0
LINE
  8
_0-0_LAYER001
  6
CONTINUOUS
 62
    4
 10
1416.5408
 20
1081.0863999999999
 11
1422.3331000000003
 21
1077.0695000000001
  0
LINE
  8
_0-0_LAYER001
  6
CONTINUOUS
 62
    4
 10
1422.3331000000003
 20
1077.0695000000001
 11
1428.2052000000001
 21
1073.2129
  0
LINE
  8
_0-0_LAYER001
  6
CONTINUOUS
 62
    4
 10
1428.2052000000001
 20
1073.2129
 11
1434.1794
 21
1069.5583999999999
  0
LINE
  8
_0-0_LAYER001
  6
CONTINUOUS
 62
    4
 10
1434.1794
 20
1069.5583999999999
 11
1440.2775999999999
 21
1066.1478999999999
  0
LINE
  8
_0-0_LAYER001
  6
CONTINUOUS
 62
    4
 10
1440.2775999999999
 20
1066.1478999999999
 11
1446.5219000000002
 21
1063.0229999999999
  0
LINE
  8
_0-0_LAYER001
  6
CONTINUOUS
 62
    4
 10
1446.5219000000002
 20
1063.0229999999999
 11
1450.2192
 21
1061.3579999999999
  0
LINE
  8
_0-0_LAYER001
  6
CONTINUOUS
 62
    4
 10
1450.2192
 20
1061.3579999999999
 11
1453.2784000000001
 21
1060.0869
  0
LINE
  8
_0-0_LAYER001
  6
CONTINUOUS
 62
    4
 10
1453.2784000000001
 20
1060.0869
 11
1458.6388999999999
 21
1058.0848000000001
  0
LINE
  8
_0-0_LAYER001
  6
CONTINUOUS
 62
    4
 10
1458.6388999999999
 20
1058.0848000000001
 11
1464.0945999999999
 21
1056.3293000000001
  0
LINE
  8
_0-0_LAYER001
  6
CONTINUOUS
 62
    4
 10
1464.0945999999999
 20
1056.3293000000001
 11
1469.6296000000002
 21
1054.8285000000001
  0
LINE
  8
_0-0_LAYER001
  6
CONTINUOUS
 62
    4
 10
1469.6296000000002
 20
1054.8285000000001
 11
1475.2278999999999
 21
1053.5905
  0
LINE
  8
_0-0_LAYER001
  6
CONTINUOUS
 62
    4
 10
1475.2278999999999
 20
1053.5905
 11
1480.8735999999999
 21
1052.6233
  0
LINE
  8
_0-0_LAYER001
  6
CONTINUOUS
 62
    4
 10
1480.8735999999999
 20
1052.6233
 11
1484.1635999999999
 21
1052.1895999999999
  0
LINE
  8
_0-0_LAYER001
  6
CONTINUOUS
 62
    4
 10
1484.1635999999999
 20
1052.1895999999999
 11
1486.6828999999998
 21
1051.9217000000001
  0
LINE
  8
_0-0_LAYER001
  6
CONTINUOUS
 62
    4
 10
1486.6828999999998
 20
1051.9217000000001
 11
1491.0349999999999
 21
1051.5817
  0
LINE
  8
_0-0_LAYER001
  6
CONTINUOUS
 62
    4
 10
1491.0349999999999
 20
1051.5817
 11
1495.3951999999999
 21
1051.3823
  0
LINE
  8
_0-0_LAYER001
  6
CONTINUOUS
 62
    4
 10
1495.3951999999999
 20
1051.3823
 11
1499.7604000000001
 21
1051.3076000000001
  0
LINE
  8
_0-0_LAYER001
  6
CONTINUOUS
 62
    4
 10
1499.7604000000001
 20
1051.3076000000001
 11
1504.1275000000001
 21
1051.3420000000001
  0
LINE
  8
_0-0_LAYER001
  6
CONTINUOUS
 62
    4
 10
1504.1275000000001
 20
1051.3420000000001
 11
1508.4933999999998
 21
1051.4695999999999
  0
LINE
  8
_0-0_LAYER001
  6
CONTINUOUS
 62
    4
 10
1508.4933999999998
 20
1051.4695999999999
 11
1511.0239000000001
 21
1051.5799999999999
  0
LINE
  8
_0-0_LAYER001
  6
CONTINUOUS
 62
    4
 10
1511.0239000000001
 20
1051.5799999999999
 11
1515.7530000000002
 21
1051.8481999999999
  0
LINE
  8
_0-0_LAYER001
  6
CONTINUOUS
 62
    4
 10
1515.7530000000002
 20
1051.8481999999999
 11
1523.8910999999998
 21
1052.4792
  0
LINE
  8
_0-0_LAYER001
  6
CONTINUOUS
 62
    4
 10
1523.8910999999998
 20
1052.4792
 11
1532.0119
 21
1053.2931000000001
  0
LINE
  8
_0-0_LAYER001
  6
CONTINUOUS
 62
    4
 10
1532.0119
 20
1053.2931000000001
 11
1540.1176999999998
 21
1054.2544
  0
LINE
  8
_0-0_LAYER001
  6
CONTINUOUS
 62
    4
 10
1540.1176999999998
 20
1054.2544
 11
1548.2112000000002
 21
1055.3275000000001
  0
LINE
  8
_0-0_LAYER001
  6
CONTINUOUS
 62
    4
 10
1548.2112000000002
 20
1055.3275000000001
 11
1556.2946999999999
 21
1056.4771000000001
  0
LINE
  8
_0-0_LAYER001
  6
CONTINUOUS
 62
    4
 10
1556.2946999999999
 20
1056.4771000000001
 11
1560.9796000000001
 21
1057.1649
  0
LINE
  8
_0-0_LAYER001
  6
CONTINUOUS
 62
    4
 10
1560.9796000000001
 20
1057.1649
 11
1563.4144999999999
 21
1057.5257999999999
  0
LINE
  8
_0-0_LAYER001
  6
CONTINUOUS
 62
    4
 10
1563.4144999999999
 20
1057.5257999999999
 11
1567.6115
 21
1058.1518000000001
  0
LINE
  8
_0-0_LAYER001
  6
CONTINUOUS
 62
    4
 10
1567.6115
 20
1058.1518000000001
 11
1571.8072999999999
 21
1058.7819
  0
LINE
  8
_0-0_LAYER001
  6
CONTINUOUS
 62
    4
 10
1571.8072999999999
 20
1058.7819
 11
1576.0021000000002
 21
1059.4150999999999
  0
LINE
  8
_0-0_LAYER001
  6
CONTINUOUS
 62
    4
 10
1576.0021000000002
 20
1059.4150999999999
 11
1580.1963000000001
 21
1060.0507
  0
LINE
  8
_0-0_LAYER001
  6
CONTINUOUS
 62
    4
 10
1580.1963000000001
 20
1060.0507
 11
1584.3899999999999
 21
1060.6876999999999
  0
LINE
  8
_0-0_LAYER001
  6
CONTINUOUS
 62
    4
 10
1584.3899999999999
 20
1060.6876999999999
 11
1586.8222999999998
 21
1061.0574999999999
  0
LINE
  8
_0-0_LAYER001
  6
CONTINUOUS
 62
    4
 10
1341.7855
 20
1068.9539
 11
1343.8474000000001
 21
1069.7307000000001
  0
LINE
  8
_0-0_LAYER001
  6
CONTINUOUS
 62
    4
 10
1343.8474000000001
 20
1069.7307000000001
 11
1347.415
 21
1071.0771999999999
  0
LINE
  8
_0-0_LAYER001
  6
CONTINUOUS
 62
    4
 10
1347.415
 20
1071.0771999999999
 11
1351.0069000000001
 21
1072.4395
  0
LINE
  8
_0-0_LAYER001
  6
CONTINUOUS
 62
    4
 10
1351.0069000000001
 20
1072.4395
 11
1354.6271999999999
 21
1073.8233
  0
LINE
  8
_0-0_LAYER001
  6
CONTINUOUS
 62
    4
 10
1354.6271999999999
 20
1073.8233
 11
1358.2801999999997
 21
1075.2345
  0
LINE
  8
_0-0_LAYER001
  6
CONTINUOUS
 62
    4
 10
1358.2801999999997
 20
1075.2345
 11
1361.9594000000002
 21
1076.6748
  0
LINE
  8
_0-0_LAYER001
  6
CONTINUOUS
 62
    4
 10
1361.9594000000002
 20
1076.6748
 11
1364.1146000000001
 21
1077.5289
  0
LINE
  8
_0-0_LAYER001
  6
CONTINUOUS
 62
    4
 10
1364.1146000000001
 20
1077.5289
 11
1366.1382000000001
 21
1078.3356000000001
  0
LINE
  8
_0-0_LAYER001
  6
CONTINUOUS
 62
    4
 10
1366.1382000000001
 20
1078.3356000000001
 11
1369.4100000000001
 21
1079.607
  0
LINE
  8
_0-0_LAYER001
  6
CONTINUOUS
 62
    4
 10
1369.4100000000001
 20
1079.607
 11
1372.3052000000002
 21
1080.6292000000001
  0
LINE
  8
_0-0_LAYER001
  6
CONTINUOUS
 62
    4
 10
1372.3052000000002
 20
1080.6292000000001
 11
1374.7732999999998
 21
1081.3489
  0
LINE
  8
_0-0_LAYER001
  6
CONTINUOUS
 62
    4
 10
1374.7732999999998
 20
1081.3489
 11
1376.7650000000001
 21
1081.7564
  0
LINE
  8
_0-0_LAYER001
  6
CONTINUOUS
 62
    4
 10
1376.7650000000001
 20
1081.7564
 11
1378.5443
 21
1081.9208000000001
  0
LINE
  8
_0-0_LAYER001
  6
CONTINUOUS
 62
    4
 10
1378.5443
 20
1081.9208000000001
 11
1379.2239
 21
1081.9121
  0
LINE
  8
_0-0_LAYER001
  6
CONTINUOUS
 62
    4
 10
1379.2239
 20
1081.9121
 11
1379.1478000000002
 21
1081.9176
  0
LINE
  8
_0-0_LAYER001
  6
CONTINUOUS
 62
    4
 10
1379.1478000000002
 20
1081.9176
 11
1379.7614000000001
 21
1081.8461
  0
LINE
  8
_0-0_LAYER001
  6
CONTINUOUS
 62
    4
 10
1379.7614000000001
 20
1081.8461
 11
1380.3517999999999
 21
1081.7464
  0
LINE
  8
_0-0_LAYER001
  6
CONTINUOUS
 62
    4
 10
1380.3517999999999
 20
1081.7464
 11
1381.0192999999999
 21
1081.6013
  0
LINE
  8
_0-0_LAYER001
  6
CONTINUOUS
 62
    4
 10
1381.0192999999999
 20
1081.6013
 11
1381.7527999999998
 21
1081.4087
  0
LINE
  8
_0-0_LAYER001
  6
CONTINUOUS
 62
    4
 10
1381.7527999999998
 20
1081.4087
 11
1382.6019999999999
 21
1081.1503
  0
LINE
  8
_0-0_LAYER001
  6
CONTINUOUS
 62
    4
 10
1382.6019999999999
 20
1081.1503
 11
1382.8460999999998
 21
1081.0684000000001
  0
LINE
  8
_0-0_LAYER001
  6
CONTINUOUS
 62
    4
 10
1382.8460999999998
 20
1081.0684000000001
 11
1384.4059999999999
 21
1080.4763
  0
LINE
  8
_0-0_LAYER001
  6
CONTINUOUS
 62
    4
 10
1384.4059999999999
 20
1080.4763
 11
1387.3536999999999
 21
1079.1059
  0
LINE
  8
_0-0_LAYER001
  6
CONTINUOUS
 62
    4
 10
1387.3536999999999
 20
1079.1059
 11
1390.3146999999999
 21
1077.4453000000001
  0
LINE
  8
_0-0_LAYER001
  6
CONTINUOUS
 62
    4
 10
1390.3146999999999
 20
1077.4453000000001
 11
1393.4824000000001
 21
1075.4239
  0
LINE
  8
_0-0_LAYER001
  6
CONTINUOUS
 62
    4
 10
1393.4824000000001
 20
1075.4239
 11
1396.8670999999999
 21
1073.079
  0
LINE
  8
_0-0_LAYER001
  6
CONTINUOUS
 62
    4
 10
1396.8670999999999
 20
1073.079
 11
1400.4729
 21
1070.4765
  0
LINE
  8
_0-0_LAYER001
  6
CONTINUOUS
 62
    4
 10
1400.4729
 20
1070.4765
 11
1402.6797999999999
 21
1068.8741
  0
LINE
  8
_0-0_LAYER001
  6
CONTINUOUS
 62
    4
 10
1402.6797999999999
 20
1068.8741
 11
1406.1697999999999
 21
1066.3738000000001
  0
LINE
  8
_0-0_LAYER001
  6
CONTINUOUS
 62
    4
 10
1406.1697999999999
 20
1066.3738000000001
 11
1412.2620000000002
 21
1062.1487999999999
  0
LINE
  8
_0-0_LAYER001
  6
CONTINUOUS
 62
    4
 10
1412.2620000000002
 20
1062.1487999999999
 11
1418.5657000000001
 21
1058.0088000000001
  0
LINE
  8
_0-0_LAYER001
  6
CONTINUOUS
 62
    4
 10
1418.5657000000001
 20
1058.0088000000001
 11
1425.0863999999999
 21
1054.02
  0
LINE
  8
_0-0_LAYER001
  6
CONTINUOUS
 62
    4
 10
1425.0863999999999
 20
1054.02
 11
1431.8524000000002
 21
1050.2360000000001
  0
LINE
  8
_0-0_LAYER001
  6
CONTINUOUS
 62
    4
 10
1431.8524000000002
 20
1050.2360000000001
 11
1438.7954
 21
1046.7615000000001
  0
LINE
  8
_0-0_LAYER001
  6
CONTINUOUS
 62
    4
 10
1438.7954
 20
1046.7615000000001
 11
1443.0689000000002
 21
1044.8371
  0
LINE
  8
_0-0_LAYER001
  6
CONTINUOUS
 62
    4
 10
1443.0689000000002
 20
1044.8371
 11
1446.6738999999998
 21
1043.3391999999999
  0
LINE
  8
_0-0_LAYER001
  6
CONTINUOUS
 62
    4
 10
1446.6738999999998
 20
1043.3391999999999
 11
1452.73
 21
1041.0771999999999
  0
LINE
  8
_0-0_LAYER001
  6
CONTINUOUS
 62
    4
 10
1452.73
 20
1041.0771999999999
 11
1458.9798999999998
 21
1039.0662
  0
LINE
  8
_0-0_LAYER001
  6
CONTINUOUS
 62
    4
 10
1458.9798999999998
 20
1039.0662
 11
1465.3285999999998
 21
1037.3448000000001
  0
LINE
  8
_0-0_LAYER001
  6
CONTINUOUS
 62
    4
 10
1465.3285999999998
 20
1037.3448000000001
 11
1471.7629000000002
 21
1035.9219000000001
  0
LINE
  8
_0-0_LAYER001
  6
CONTINUOUS
 62
    4
 10
1471.7629000000002
 20
1035.9219000000001
 11
1478.1765999999998
 21
1034.8231000000001
  0
LINE
  8
_0-0_LAYER001
  6
CONTINUOUS
 62
    4
 10
1478.1765999999998
 20
1034.8231000000001
 11
1482.0354000000002
 21
1034.3144
  0
LINE
  8
_0-0_LAYER001
  6
CONTINUOUS
 62
    4
 10
1482.0354000000002
 20
1034.3144
 11
1485.0300000000002
 21
1033.9960000000001
  0
LINE
  8
_0-0_LAYER001
  6
CONTINUOUS
 62
    4
 10
1485.0300000000002
 20
1033.9960000000001
 11
1489.9223999999999
 21
1033.6138000000001
  0
LINE
  8
_0-0_LAYER001
  6
CONTINUOUS
 62
    4
 10
1489.9223999999999
 20
1033.6138000000001
 11
1494.8299999999999
 21
1033.3893
  0
LINE
  8
_0-0_LAYER001
  6
CONTINUOUS
 62
    4
 10
1494.8299999999999
 20
1033.3893
 11
1499.6772999999998
 21
1033.3063999999999
  0
LINE
  8
_0-0_LAYER001
  6
CONTINUOUS
 62
    4
 10
1499.6772999999998
 20
1033.3063999999999
 11
1504.4612000000002
 21
1033.3440000000001
  0
LINE
  8
_0-0_LAYER001
  6
CONTINUOUS
 62
    4
 10
1504.4612000000002
 20
1033.3440000000001
 11
1509.1489000000001
 21
1033.481
  0
LINE
  8
_0-0_LAYER001
  6
CONTINUOUS
 62
    4
 10
1509.1489000000001
 20
1033.481
 11
1511.9261000000001
 21
1033.6023
  0
LINE
  8
_0-0_LAYER001
  6
CONTINUOUS
 62
    4
 10
1511.9261000000001
 20
1033.6023
 11
1516.9584
 21
1033.8877
  0
LINE
  8
_0-0_LAYER001
  6
CONTINUOUS
 62
    4
 10
1516.9584
 20
1033.8877
 11
1525.4845
 21
1034.5487000000001
  0
LINE
  8
_0-0_LAYER001
  6
CONTINUOUS
 62
    4
 10
1525.4845
 20
1034.5487000000001
 11
1533.9694
 21
1035.3991000000001
  0
LINE
  8
_0-0_LAYER001
  6
CONTINUOUS
 62
    4
 10
1533.9694
 20
1035.3991000000001
 11
1542.3607000000002
 21
1036.3942
  0
LINE
  8
_0-0_LAYER001
  6
CONTINUOUS
 62
    4
 10
1542.3607000000002
 20
1036.3942
 11
1550.6614
 21
1037.4948999999999
  0
LINE
  8
_0-0_LAYER001
  6
CONTINUOUS
 62
    4
 10
1550.6614
 20
1037.4948999999999
 11
1558.8692000000001
 21
1038.6621
  0
LINE
  8
_0-0_LAYER001
  6
CONTINUOUS
 62
    4
 10
1558.8692000000001
 20
1038.6621
 11
1563.6062999999999
 21
1039.3576
  0
LINE
  8
_0-0_LAYER001
  6
CONTINUOUS
 62
    4
 10
1563.6062999999999
 20
1039.3576
 11
1566.0617000000002
 21
1039.7215000000001
  0
LINE
  8
_0-0_LAYER001
  6
CONTINUOUS
 62
    4
 10
1566.0617000000002
 20
1039.7215000000001
 11
1570.2757999999999
 21
1040.3499999999999
  0
LINE
  8
_0-0_LAYER001
  6
CONTINUOUS
 62
    4
 10
1570.2757999999999
 20
1040.3499999999999
 11
1574.4872999999998
 21
1040.9825000000001
  0
LINE
  8
_0-0_LAYER001
  6
CONTINUOUS
 62
    4
 10
1574.4872999999998
 20
1040.9825000000001
 11
1578.6941000000002
 21
1041.6176
  0
LINE
  8
_0-0_LAYER001
  6
CONTINUOUS
 62
    4
 10
1578.6941000000002
 20
1041.6176
 11
1582.8962999999999
 21
1042.2544
  0
LINE
  8
_0-0_LAYER001
  6
CONTINUOUS
 62
    4
 10
1582.8962999999999
 20
1042.2544
 11
1587.0942
 21
1042.8920000000001
  0
LINE
  8
_0-0_LAYER001
  6
CONTINUOUS
 62
    4
 10
1587.0942
 20
1042.8920000000001
 11
1588.7118999999998
 21
1043.1378999999999
  0
LINE
  8
_0-0_LAYER001
  6
CONTINUOUS
 62
    4
 10
1336.2565999999997
 20
1086.104
 11
1336.6826000000001
 21
1086.2671
  0
ARC
  8
_0-0_LAYER001
  6
CONTINUOUS
 62
    4
 10
1337.3291999999997
 20
1083.3023000000001
 40
3
 50
110.94902000000002
 51
178.70000000000002
  0
LINE
  8
_0-0_LAYER001
  6
CONTINUOUS
 62
    4
 10
1334.2207000000003
 20
1067.5313000000001
 11
1334.2207000000003
 21
1083.2538
  0
LINE
  8
_0-0_LAYER001
  6
CONTINUOUS
 62
    4
 10
1335.5746999999999
 20
1066.596
 11
1341.7494999999999
 21
1068.9331999999999
  0
ARC
  8
_0-0_LAYER001
  6
CONTINUOUS
 62
    4
 10
1335.2207000000001
 20
1067.5313000000001
 40
1
 50
180
 51
290.73165999999998
  0
LINE
  8
_0-0_LAYER001
  6
CONTINUOUS
 62
    4
 10
1586.9472000000001
 20
1061.0929000000001
 11
1631.4014999999999
 21
1070.7407000000001
  0
LINE
  8
_0-0_LAYER001
  6
CONTINUOUS
 62
    4
 10
1593.6925000000001
 20
1041.2591
 11
1632.3643000000002
 21
1050.3090999999999
  0
LINE
  8
_0-0_LAYER001
  6
CONTINUOUS
 62
    4
 10
1632.3643000000002
 20
1051.2655999999999
 11
1632.3643000000002
 21
1050.3090999999999
  0
ARC
  8
_0-0_LAYER001
  6
CONTINUOUS
 62
    4
 10
1633.3643000000002
 20
1051.2655999999999
 40
1
 50
102.72435
 51
180
  0
LINE
  8
_0-0_LAYER001
  6
CONTINUOUS
 62
    4
 10
1638.1813000000002
 20
1053.3785
 11
1633.1439999999998
 21
1052.241
  0
ARC
  8
_0-0_LAYER001
  6
CONTINUOUS
 62
    4
 10
1638.4014999999999
 20
1052.403
 40
1
 50
0
 51
102.72435
  0
LINE
  8
_0-0_LAYER001
  6
CONTINUOUS
 62
    4
 10
1638.6136000000001
 20
1053.8869
 11
1588.4796999999999
 21
1043.0064
  0
ARC
  8
_0-0_LAYER001
  6
CONTINUOUS
 62
    4
 10
1638.4014999999999
 20
1054.8642
 40
1
 50
282.24497000000002
 51
0
  0
LINE
  8
_0-0_LAYER001
  6
CONTINUOUS
 62
    4
 10
1638.6194
 20
1033.1461999999999
 11
1589.0354000000002
 21
1022.0784000000001
  0
LINE
  8
_0-0_LAYER001
  6
CONTINUOUS
 62
    4
 10
1639.4014999999999
 20
1034.1222
 11
1639.4014999999999
 21
1052.403
  0
ARC
  8
_0-0_LAYER001
  6
CONTINUOUS
 62
    4
 10
1638.4014999999999
 20
1034.1222
 40
1
 50
282.58296000000001
 51
0.0000000000000254
  0
LINE
  8
_0-0_LAYER001
  6
CONTINUOUS
 62
    4
 10
1631.4014999999999
 20
1072.1977999999999
 11
1631.4014999999999
 21
1070.7407000000001
  0
ARC
  8
_0-0_LAYER001
  6
CONTINUOUS
 62
    4
 10
1632.4014999999999
 20
1072.1977999999999
 40
1
 50
101.73308
 51
180
  0
LINE
  8
_0-0_LAYER001
  6
CONTINUOUS
 62
    4
 10
1638.1981999999998
 20
1074.423
 11
1632.1981999999998
 21
1073.1768999999999
  0
LINE
  8
_0-0_LAYER001
  6
CONTINUOUS
 62
    4
 10
1639.4014999999999
 20
1073.4439
 11
1639.4014999999999
 21
1054.8642
  0
ARC
  8
_0-0_LAYER001
  6
CONTINUOUS
 62
    4
 10
1638.4014999999999
 20
1073.4439
 40
1
 50
0
 51
101.73308
  0
LINE
  8
_0-0_LAYER001
  6
CONTINUOUS
 62
    4
 10
1194.6709000000001
 20
1002.5540000000001
 11
1186.1355000000001
 21
1017.0873999999999
  0
LINE
  8
_0-0_LAYER001
  6
CONTINUOUS
 62
    4
 10
1202.8388
 20
1001.9037000000001
 11
1211.145
 21
1011.9692
  0
ARC
  8
_0-0_LAYER001
  6
CONTINUOUS
 62
    4
 10
1198.9822999999999
 20
1005.0861
 40
5
 50
210.42578
 51
320.47001
  0
LINE
  8
_0-0_LAYER001
  6
CONTINUOUS
 62
    4
 10
1278.7844
 20
1001.4339
 11
1271.4590000000001
 21
1012.7399
  0
LINE
  8
_0-0_LAYER001
  6
CONTINUOUS
 62
    4
 10
1287.2938999999999
 20
1001.6238000000001
 11
1296.2324000000001
 21
1016.8695
  0
ARC
  8
_0-0_LAYER001
  6
CONTINUOUS
 62
    4
 10
1282.9806000000003
 20
1004.1527000000001
 40
5
 50
212.93986000000001
 51
329.61716000000001
  0
LINE
  8
_0-0_LAYER001
  6
CONTINUOUS
 62
    4
 10
1326.576
 20
1041.1813999999999
 11
1329.0041000000001
 21
1041.5853
  0
LINE
  8
_0-0_LAYER001
  6
CONTINUOUS
 62
    4
 10
1322.3869
 20
1040.4852000000001
 11
1326.576
 21
1041.1813999999999
  0
LINE
  8
_0-0_LAYER001
  6
CONTINUOUS
 62
    4
 10
1318.1932000000002
 20
1039.7896000000001
 11
1322.3869
 21
1040.4852000000001
  0
LINE
  8
_0-0_LAYER001
  6
CONTINUOUS
 62
    4
 10
1313.9944
 20
1039.0956000000001
 11
1318.1932000000002
 21
1039.7896000000001
  0
LINE
  8
_0-0_LAYER001
  6
CONTINUOUS
 62
    4
 10
1309.7902999999999
 20
1038.4041999999999
 11
1313.9944
 21
1039.0956000000001
  0
LINE
  8
_0-0_LAYER001
  6
CONTINUOUS
 62
    4
 10
1305.5835
 20
1037.7165
 11
1309.7902999999999
 21
1038.4041999999999
  0
LINE
  8
_0-0_LAYER001
  6
CONTINUOUS
 62
    4
 10
1303.1312
 20
1037.318
 11
1305.5835
 21
1037.7165
  0
LINE
  8
_0-0_LAYER001
  6
CONTINUOUS
 62
    4
 10
1298.3984
 20
1036.5554999999999
 11
1303.1312
 21
1037.318
  0
LINE
  8
_0-0_LAYER001
  6
CONTINUOUS
 62
    4
 10
1290.194
 20
1035.2717
 11
1298.3984
 21
1036.5554999999999
  0
LINE
  8
_0-0_LAYER001
  6
CONTINUOUS
 62
    4
 10
1281.8865000000001
 20
1034.0518
 11
1290.194
 21
1035.2717
  0
LINE
  8
_0-0_LAYER001
  6
CONTINUOUS
 62
    4
 10
1273.4782
 20
1032.9355
 11
1281.8865000000001
 21
1034.0518
  0
LINE
  8
_0-0_LAYER001
  6
CONTINUOUS
 62
    4
 10
1264.9657
 20
1031.9621
 11
1273.4782
 21
1032.9355
  0
LINE
  8
_0-0_LAYER001
  6
CONTINUOUS
 62
    4
 10
1256.4065000000001
 20
1031.1781000000001
 11
1264.9657
 21
1031.9621
  0
LINE
  8
_0-0_LAYER001
  6
CONTINUOUS
 62
    4
 10
1251.345
 20
1030.8200999999999
 11
1256.4065000000001
 21
1031.1781000000001
  0
LINE
  8
_0-0_LAYER001
  6
CONTINUOUS
 62
    4
 10
1248.5424
 20
1030.6585
 11
1251.345
 21
1030.8200999999999
  0
LINE
  8
_0-0_LAYER001
  6
CONTINUOUS
 62
    4
 10
1243.8214
 20
1030.4545000000001
 11
1248.5424
 21
1030.6585
  0
LINE
  8
_0-0_LAYER001
  6
CONTINUOUS
 62
    4
 10
1238.9921999999999
 20
1030.3490999999999
 11
1243.8214
 21
1030.4545000000001
  0
LINE
  8
_0-0_LAYER001
  6
CONTINUOUS
 62
    4
 10
1234.0905
 20
1030.3643999999999
 11
1238.9921999999999
 21
1030.3490999999999
  0
LINE
  8
_0-0_LAYER001
  6
CONTINUOUS
 62
    4
 10
1229.1195
 20
1030.5223000000001
 11
1234.0905
 21
1030.3643999999999
  0
LINE
  8
_0-0_LAYER001
  6
CONTINUOUS
 62
    4
 10
1224.1621
 20
1030.8400999999999
 11
1229.1195
 21
1030.5223000000001
  0
LINE
  8
_0-0_LAYER001
  6
CONTINUOUS
 62
    4
 10
1221.1105
 20
1031.1215
 11
1224.1621
 21
1030.8400999999999
  0
LINE
  8
_0-0_LAYER001
  6
CONTINUOUS
 62
    4
 10
1217.1815999999999
 20
1031.5836999999999
 11
1221.1105
 21
1031.1215
  0
LINE
  8
_0-0_LAYER001
  6
CONTINUOUS
 62
    4
 10
1210.6677
 20
1032.6062999999999
 11
1217.1815999999999
 21
1031.5836999999999
  0
LINE
  8
_0-0_LAYER001
  6
CONTINUOUS
 62
    4
 10
1204.1210000000001
 20
1033.9584
 11
1210.6677
 21
1032.6062999999999
  0
LINE
  8
_0-0_LAYER001
  6
CONTINUOUS
 62
    4
 10
1197.6581000000001
 20
1035.6143
 11
1204.1210000000001
 21
1033.9584
  0
LINE
  8
_0-0_LAYER001
  6
CONTINUOUS
 62
    4
 10
1191.2922000000001
 20
1037.5650000000001
 11
1197.6581000000001
 21
1035.6143
  0
LINE
  8
_0-0_LAYER001
  6
CONTINUOUS
 62
    4
 10
1185.1274000000001
 20
1039.77
 11
1191.2922000000001
 21
1037.5650000000001
  0
LINE
  8
_0-0_LAYER001
  6
CONTINUOUS
 62
    4
 10
1181.4407000000001
 20
1041.2417
 11
1185.1274000000001
 21
1039.77
  0
LINE
  8
_0-0_LAYER001
  6
CONTINUOUS
 62
    4
 10
1177.0764999999999
 20
1043.1342
 11
1181.4407000000001
 21
1041.2417
  0
LINE
  8
_0-0_LAYER001
  6
CONTINUOUS
 62
    4
 10
1170.0074
 20
1046.5491999999999
 11
1177.0764999999999
 21
1043.1342
  0
LINE
  8
_0-0_LAYER001
  6
CONTINUOUS
 62
    4
 10
1163.1144999999999
 20
1050.2788
 11
1170.0074
 21
1046.5491999999999
  0
LINE
  8
_0-0_LAYER001
  6
CONTINUOUS
 62
    4
 10
1156.4775
 20
1054.2125000000001
 11
1163.1144999999999
 21
1050.2788
  0
LINE
  8
_0-0_LAYER001
  6
CONTINUOUS
 62
    4
 10
1150.0681999999999
 20
1058.2950000000001
 11
1156.4775
 21
1054.2125000000001
  0
LINE
  8
_0-0_LAYER001
  6
CONTINUOUS
 62
    4
 10
1143.884
 20
1062.4571000000001
 11
1150.0681999999999
 21
1058.2950000000001
  0
LINE
  8
_0-0_LAYER001
  6
CONTINUOUS
 62
    4
 10
1140.3416999999999
 20
1064.9208000000001
 11
1143.884
 21
1062.4571000000001
  0
LINE
  8
_0-0_LAYER001
  6
CONTINUOUS
 62
    4
 10
1138.1096
 20
1066.4943000000001
 11
1140.3416999999999
 21
1064.9208000000001
  0
LINE
  8
_0-0_LAYER001
  6
CONTINUOUS
 62
    4
 10
1134.4861000000001
 20
1069.0335
 11
1138.1096
 21
1066.4943000000001
  0
LINE
  8
_0-0_LAYER001
  6
CONTINUOUS
 62
    4
 10
1131.1164000000001
 20
1071.299
 11
1134.4861000000001
 21
1069.0335
  0
LINE
  8
_0-0_LAYER001
  6
CONTINUOUS
 62
    4
 10
1128.0014000000001
 20
1073.2260000000001
 11
1131.1164000000001
 21
1071.299
  0
LINE
  8
_0-0_LAYER001
  6
CONTINUOUS
 62
    4
 10
1125.1342
 20
1074.7818
 11
1128.0014000000001
 21
1073.2260000000001
  0
LINE
  8
_0-0_LAYER001
  6
CONTINUOUS
 62
    4
 10
1122.3031000000001
 20
1076.0501999999999
 11
1125.1342
 21
1074.7818
  0
LINE
  8
_0-0_LAYER001
  6
CONTINUOUS
 62
    4
 10
1120.8398999999999
 20
1076.5823
 11
1122.3031000000001
 21
1076.0501999999999
  0
LINE
  8
_0-0_LAYER001
  6
CONTINUOUS
 62
    4
 10
1120.6587999999999
 20
1076.6403
 11
1120.8398999999999
 21
1076.5823
  0
LINE
  8
_0-0_LAYER001
  6
CONTINUOUS
 62
    4
 10
1119.8705
 20
1076.8683000000001
 11
1120.6587999999999
 21
1076.6403
  0
LINE
  8
_0-0_LAYER001
  6
CONTINUOUS
 62
    4
 10
1119.2134000000001
 20
1077.0309999999999
 11
1119.8705
 21
1076.8683000000001
  0
LINE
  8
_0-0_LAYER001
  6
CONTINUOUS
 62
    4
 10
1116.047
 20
1077.6732
 11
1119.2134000000001
 21
1077.0309999999999
  0
LINE
  8
_0-0_LAYER001
  6
CONTINUOUS
 62
    4
 10
1322.5654
 20
1021.9938999999999
 11
1324.1795
 21
1022.2624000000001
  0
LINE
  8
_0-0_LAYER001
  6
CONTINUOUS
 62
    4
 10
1318.3768
 20
1021.2978000000001
 11
1322.5654
 21
1021.9938999999999
  0
LINE
  8
_0-0_LAYER001
  6
CONTINUOUS
 62
    4
 10
1314.1839
 20
1020.6024
 11
1318.3768
 21
1021.2978000000001
  0
LINE
  8
_0-0_LAYER001
  6
CONTINUOUS
 62
    4
 10
1309.9864
 20
1019.9086
 11
1314.1839
 21
1020.6024
  0
LINE
  8
_0-0_LAYER001
  6
CONTINUOUS
 62
    4
 10
1305.7841000000003
 20
1019.2174
 11
1309.9864
 21
1019.9086
  0
LINE
  8
_0-0_LAYER001
  6
CONTINUOUS
 62
    4
 10
1301.5791999999999
 20
1018.5300999999999
 11
1305.7841000000003
 21
1019.2174
  0
LINE
  8
_0-0_LAYER001
  6
CONTINUOUS
 62
    4
 10
1299.1292000000001
 20
1018.1319000000001
 11
1301.5791999999999
 21
1018.5300999999999
  0
LINE
  8
_0-0_LAYER001
  6
CONTINUOUS
 62
    4
 10
1294.4022
 20
1017.3704
 11
1299.1292000000001
 21
1018.1319000000001
  0
LINE
  8
_0-0_LAYER001
  6
CONTINUOUS
 62
    4
 10
1286.2114999999999
 20
1016.0887
 11
1294.4022
 21
1017.3704
  0
LINE
  8
_0-0_LAYER001
  6
CONTINUOUS
 62
    4
 10
1277.9269999999999
 20
1014.8722
 11
1286.2114999999999
 21
1016.0887
  0
LINE
  8
_0-0_LAYER001
  6
CONTINUOUS
 62
    4
 10
1269.5504000000001
 20
1013.76
 11
1277.9269999999999
 21
1014.8722
  0
LINE
  8
_0-0_LAYER001
  6
CONTINUOUS
 62
    4
 10
1261.0781999999999
 20
1012.7913000000001
 11
1269.5504000000001
 21
1013.76
  0
LINE
  8
_0-0_LAYER001
  6
CONTINUOUS
 62
    4
 10
1252.5621000000001
 20
1012.0111999999999
 11
1261.0781999999999
 21
1012.7913000000001
  0
LINE
  8
_0-0_LAYER001
  6
CONTINUOUS
 62
    4
 10
1247.5343
 20
1011.6556
 11
1252.5621000000001
 21
1012.0111999999999
  0
LINE
  8
_0-0_LAYER001
  6
CONTINUOUS
 62
    4
 10
1244.7591
 20
1011.4956
 11
1247.5343
 21
1011.6556
  0
LINE
  8
_0-0_LAYER001
  6
CONTINUOUS
 62
    4
 10
1240.0737999999999
 20
1011.2932000000001
 11
1244.7591
 21
1011.4956
  0
LINE
  8
_0-0_LAYER001
  6
CONTINUOUS
 62
    4
 10
1235.2909
 20
1011.1887999999999
 11
1240.0737999999999
 21
1011.2932000000001
  0
LINE
  8
_0-0_LAYER001
  6
CONTINUOUS
 62
    4
 10
1230.4428
 20
1011.204
 11
1235.2909
 21
1011.1887999999999
  0
LINE
  8
_0-0_LAYER001
  6
CONTINUOUS
 62
    4
 10
1225.5326
 20
1011.3598999999999
 11
1230.4428
 21
1011.204
  0
LINE
  8
_0-0_LAYER001
  6
CONTINUOUS
 62
    4
 10
1220.6353999999999
 20
1011.6738
 11
1225.5326
 21
1011.3598999999999
  0
LINE
  8
_0-0_LAYER001
  6
CONTINUOUS
 62
    4
 10
1217.6366
 20
1011.9503
 11
1220.6353999999999
 21
1011.6738
  0
LINE
  8
_0-0_LAYER001
  6
CONTINUOUS
 62
    4
 10
1213.771
 20
1012.4050999999999
 11
1217.6366
 21
1011.9503
  0
LINE
  8
_0-0_LAYER001
  6
CONTINUOUS
 62
    4
 10
1207.3425999999999
 20
1013.4142999999999
 11
1213.771
 21
1012.4050999999999
  0
LINE
  8
_0-0_LAYER001
  6
CONTINUOUS
 62
    4
 10
1200.8892000000001
 20
1014.7471
 11
1207.3425999999999
 21
1013.4142999999999
  0
LINE
  8
_0-0_LAYER001
  6
CONTINUOUS
 62
    4
 10
1194.5170000000001
 20
1016.3797999999999
 11
1200.8892000000001
 21
1014.7471
  0
LINE
  8
_0-0_LAYER001
  6
CONTINUOUS
 62
    4
 10
1188.2397000000001
 20
1018.3033
 11
1194.5170000000001
 21
1016.3797999999999
  0
LINE
  8
_0-0_LAYER001
  6
CONTINUOUS
 62
    4
 10
1182.1525999999999
 20
1020.4804999999999
 11
1188.2397000000001
 21
1018.3033
  0
LINE
  8
_0-0_LAYER001
  6
CONTINUOUS
 62
    4
 10
1178.5269000000001
 20
1021.9278999999999
 11
1182.1525999999999
 21
1020.4804999999999
  0
LINE
  8
_0-0_LAYER001
  6
CONTINUOUS
 62
    4
 10
1174.2271000000001
 20
1023.7925
 11
1178.5269000000001
 21
1021.9278999999999
  0
LINE
  8
_0-0_LAYER001
  6
CONTINUOUS
 62
    4
 10
1167.2362000000001
 20
1027.1696999999999
 11
1174.2271000000001
 21
1023.7925
  0
LINE
  8
_0-0_LAYER001
  6
CONTINUOUS
 62
    4
 10
1160.4181000000001
 20
1030.8588999999999
 11
1167.2362000000001
 21
1027.1696999999999
  0
LINE
  8
_0-0_LAYER001
  6
CONTINUOUS
 62
    4
 10
1153.8423
 20
1034.7562
 11
1160.4181000000001
 21
1030.8588999999999
  0
LINE
  8
_0-0_LAYER001
  6
CONTINUOUS
 62
    4
 10
1147.4813999999999
 20
1038.8079
 11
1153.8423
 21
1034.7562
  0
LINE
  8
_0-0_LAYER001
  6
CONTINUOUS
 62
    4
 10
1141.3308
 20
1042.9474
 11
1147.4813999999999
 21
1038.8079
  0
LINE
  8
_0-0_LAYER001
  6
CONTINUOUS
 62
    4
 10
1137.8062
 20
1045.3987
 11
1141.3308
 21
1042.9474
  0
LINE
  8
_0-0_LAYER001
  6
CONTINUOUS
 62
    4
 10
1135.5771
 20
1046.9701
 11
1137.8062
 21
1045.3987
  0
LINE
  8
_0-0_LAYER001
  6
CONTINUOUS
 62
    4
 10
1131.9354000000001
 20
1049.5219999999999
 11
1135.5771
 21
1046.9701
  0
LINE
  8
_0-0_LAYER001
  6
CONTINUOUS
 62
    4
 10
1128.5183
 20
1051.8195000000001
 11
1131.9354000000001
 21
1049.5219999999999
  0
LINE
  8
_0-0_LAYER001
  6
CONTINUOUS
 62
    4
 10
1125.3226999999999
 20
1053.7963999999999
 11
1128.5183
 21
1051.8195000000001
  0
LINE
  8
_0-0_LAYER001
  6
CONTINUOUS
 62
    4
 10
1122.3387
 20
1055.4155000000001
 11
1125.3226999999999
 21
1053.7963999999999
  0
LINE
  8
_0-0_LAYER001
  6
CONTINUOUS
 62
    4
 10
1116.047
 20
1058.2344000000001
 11
1122.3387
 21
1055.4155000000001
  0
LINE
  8
_0-0_LAYER001
  6
CONTINUOUS
 62
    4
 10
1319.2809
 20
1011.5726999999999
 11
1317.0355
 21
1020.1460999999999
  0
ARC
  8
_0-0_LAYER001
  6
CONTINUOUS
 62
    4
 10
1322.183
 20
1012.3327999999999
 40
3
 50
194.67639000000003
 51
270.00000000000006
  0
LINE
  8
_0-0_LAYER001
  6
CONTINUOUS
 62
    4
 10
1325.6255000000001
 20
1009.3285000000001
 11
1322.2076999999999
 21
1009.3285000000001
  0
LINE
  8
_0-0_LAYER001
  6
CONTINUOUS
 62
    4
 10
1328.5847000000001
 20
1011.8353
 11
1330.5187000000001
 21
1023.4394
  0
ARC
  8
_0-0_LAYER001
  6
CONTINUOUS
 62
    4
 10
1325.6255000000001
 20
1012.3285000000001
 40
3
 50
270
 51
350.53766999999999
  0
LINE
  8
_0-0_LAYER001
  6
CONTINUOUS
 62
    4
 10
1116.0155
 20
1100.0265999999999
 11
1117.4799
 21
1099.8561
  0
LINE
  8
_0-0_LAYER001
  6
CONTINUOUS
 62
    4
 10
1117.4799
 20
1099.8561
 11
1118.941
 21
1099.6093000000001
  0
LINE
  8
_0-0_LAYER001
  6
CONTINUOUS
 62
    4
 10
1118.941
 20
1099.6093000000001
 11
1120.3947000000001
 21
1099.2933
  0
LINE
  8
_0-0_LAYER001
  6
CONTINUOUS
 62
    4
 10
1120.3947000000001
 20
1099.2933
 11
1121.8368
 21
1098.9148
  0
LINE
  8
_0-0_LAYER001
  6
CONTINUOUS
 62
    4
 10
1121.8368
 20
1098.9148
 11
1123.2632000000001
 21
1098.4807000000001
  0
LINE
  8
_0-0_LAYER001
  6
CONTINUOUS
 62
    4
 10
1123.2632000000001
 20
1098.4807000000001
 11
1124.0817
 21
1098.2061000000001
  0
LINE
  8
_0-0_LAYER001
  6
CONTINUOUS
 62
    4
 10
1124.0817
 20
1098.2061000000001
 11
1126.5799
 21
1097.2578000000001
  0
LINE
  8
_0-0_LAYER001
  6
CONTINUOUS
 62
    4
 10
1126.5799
 20
1097.2578000000001
 11
1130.7389000000001
 21
1095.3243
  0
LINE
  8
_0-0_LAYER001
  6
CONTINUOUS
 62
    4
 10
1130.7389000000001
 20
1095.3243
 11
1134.7427
 21
1093.0789
  0
LINE
  8
_0-0_LAYER001
  6
CONTINUOUS
 62
    4
 10
1134.7427
 20
1093.0789
 11
1138.6295
 21
1090.5986
  0
LINE
  8
_0-0_LAYER001
  6
CONTINUOUS
 62
    4
 10
1138.6295
 20
1090.5986
 11
1142.4375
 21
1087.9604999999999
  0
LINE
  8
_0-0_LAYER001
  6
CONTINUOUS
 62
    4
 10
1142.4375
 20
1087.9604999999999
 11
1146.2048
 21
1085.2414000000001
  0
LINE
  8
_0-0_LAYER001
  6
CONTINUOUS
 62
    4
 10
1146.2048
 20
1085.2414000000001
 11
1148.3860999999999
 21
1083.6576
  0
LINE
  8
_0-0_LAYER001
  6
CONTINUOUS
 62
    4
 10
1148.3860999999999
 20
1083.6576
 11
1151.7176999999999
 21
1081.2708
  0
LINE
  8
_0-0_LAYER001
  6
CONTINUOUS
 62
    4
 10
1151.7176999999999
 20
1081.2708
 11
1157.5099
 21
1077.2538
  0
LINE
  8
_0-0_LAYER001
  6
CONTINUOUS
 62
    4
 10
1157.5099
 20
1077.2538
 11
1163.3821
 21
1073.3972000000001
  0
LINE
  8
_0-0_LAYER001
  6
CONTINUOUS
 62
    4
 10
1163.3821
 20
1073.3972000000001
 11
1169.3562999999999
 21
1069.7427
  0
LINE
  8
_0-0_LAYER001
  6
CONTINUOUS
 62
    4
 10
1169.3562999999999
 20
1069.7427
 11
1175.4544000000001
 21
1066.3322000000001
  0
LINE
  8
_0-0_LAYER001
  6
CONTINUOUS
 62
    4
 10
1175.4544000000001
 20
1066.3322000000001
 11
1181.6986999999999
 21
1063.2074
  0
LINE
  8
_0-0_LAYER001
  6
CONTINUOUS
 62
    4
 10
1181.6986999999999
 20
1063.2074
 11
1185.396
 21
1061.5424
  0
LINE
  8
_0-0_LAYER001
  6
CONTINUOUS
 62
    4
 10
1185.396
 20
1061.5424
 11
1188.4553000000001
 21
1060.2713000000001
  0
LINE
  8
_0-0_LAYER001
  6
CONTINUOUS
 62
    4
 10
1188.4553000000001
 20
1060.2713000000001
 11
1193.8158000000001
 21
1058.2691
  0
LINE
  8
_0-0_LAYER001
  6
CONTINUOUS
 62
    4
 10
1193.8158000000001
 20
1058.2691
 11
1199.2715000000001
 21
1056.5137
  0
LINE
  8
_0-0_LAYER001
  6
CONTINUOUS
 62
    4
 10
1199.2715000000001
 20
1056.5137
 11
1204.8064999999999
 21
1055.0128999999999
  0
LINE
  8
_0-0_LAYER001
  6
CONTINUOUS
 62
    4
 10
1204.8064999999999
 20
1055.0128999999999
 11
1210.4048
 21
1053.7748999999999
  0
LINE
  8
_0-0_LAYER001
  6
CONTINUOUS
 62
    4
 10
1210.4048
 20
1053.7748999999999
 11
1216.0505000000001
 21
1052.8077000000001
  0
LINE
  8
_0-0_LAYER001
  6
CONTINUOUS
 62
    4
 10
1216.0505000000001
 20
1052.8077000000001
 11
1219.3405
 21
1052.3739
  0
LINE
  8
_0-0_LAYER001
  6
CONTINUOUS
 62
    4
 10
1219.3405
 20
1052.3739
 11
1221.8597
 21
1052.1061
  0
LINE
  8
_0-0_LAYER001
  6
CONTINUOUS
 62
    4
 10
1221.8597
 20
1052.1061
 11
1226.2118
 21
1051.7660000000001
  0
LINE
  8
_0-0_LAYER001
  6
CONTINUOUS
 62
    4
 10
1226.2118
 20
1051.7660000000001
 11
1230.5721000000001
 21
1051.5666000000001
  0
LINE
  8
_0-0_LAYER001
  6
CONTINUOUS
 62
    4
 10
1230.5721000000001
 20
1051.5666000000001
 11
1234.9373000000001
 21
1051.492
  0
LINE
  8
_0-0_LAYER001
  6
CONTINUOUS
 62
    4
 10
1234.9373000000001
 20
1051.492
 11
1239.3044
 21
1051.5263
  0
LINE
  8
_0-0_LAYER001
  6
CONTINUOUS
 62
    4
 10
1239.3044
 20
1051.5263
 11
1243.6703
 21
1051.6539
  0
LINE
  8
_0-0_LAYER001
  6
CONTINUOUS
 62
    4
 10
1243.6703
 20
1051.6539
 11
1246.2007000000001
 21
1051.7644
  0
LINE
  8
_0-0_LAYER001
  6
CONTINUOUS
 62
    4
 10
1246.2007000000001
 20
1051.7644
 11
1250.9297999999999
 21
1052.0326
  0
LINE
  8
_0-0_LAYER001
  6
CONTINUOUS
 62
    4
 10
1250.9297999999999
 20
1052.0326
 11
1259.068
 21
1052.6636000000001
  0
LINE
  8
_0-0_LAYER001
  6
CONTINUOUS
 62
    4
 10
1259.068
 20
1052.6636000000001
 11
1267.1886999999999
 21
1053.4774
  0
LINE
  8
_0-0_LAYER001
  6
CONTINUOUS
 62
    4
 10
1267.1886999999999
 20
1053.4774
 11
1275.2945999999999
 21
1054.4386999999999
  0
LINE
  8
_0-0_LAYER001
  6
CONTINUOUS
 62
    4
 10
1275.2945999999999
 20
1054.4386999999999
 11
1283.3880999999999
 21
1055.5119
  0
LINE
  8
_0-0_LAYER001
  6
CONTINUOUS
 62
    4
 10
1283.3880999999999
 20
1055.5119
 11
1291.4716000000001
 21
1056.6614999999999
  0
LINE
  8
_0-0_LAYER001
  6
CONTINUOUS
 62
    4
 10
1291.4716000000001
 20
1056.6614999999999
 11
1296.1565000000001
 21
1057.3493000000001
  0
LINE
  8
_0-0_LAYER001
  6
CONTINUOUS
 62
    4
 10
1296.1565000000001
 20
1057.3493000000001
 11
1298.5914
 21
1057.7101
  0
LINE
  8
_0-0_LAYER001
  6
CONTINUOUS
 62
    4
 10
1298.5914
 20
1057.7101
 11
1302.7883999999999
 21
1058.3361
  0
LINE
  8
_0-0_LAYER001
  6
CONTINUOUS
 62
    4
 10
1302.7883999999999
 20
1058.3361
 11
1306.9840999999999
 21
1058.9662000000001
  0
LINE
  8
_0-0_LAYER001
  6
CONTINUOUS
 62
    4
 10
1306.9840999999999
 20
1058.9662000000001
 11
1311.1790000000001
 21
1059.5995
  0
LINE
  8
_0-0_LAYER001
  6
CONTINUOUS
 62
    4
 10
1311.1790000000001
 20
1059.5995
 11
1315.3730999999998
 21
1060.2351000000001
  0
LINE
  8
_0-0_LAYER001
  6
CONTINUOUS
 62
    4
 10
1315.3730999999998
 20
1060.2351000000001
 11
1319.5669
 21
1060.8721
  0
LINE
  8
_0-0_LAYER001
  6
CONTINUOUS
 62
    4
 10
1319.5669
 20
1060.8721
 11
1321.9992
 21
1061.2418
  0
LINE
  8
_0-0_LAYER001
  6
CONTINUOUS
 62
    4
 10
1116.047
 20
1081.818
 11
1116.1960999999999
 21
1081.7855999999999
  0
LINE
  8
_0-0_LAYER001
  6
CONTINUOUS
 62
    4
 10
1116.1960999999999
 20
1081.7855999999999
 11
1116.9296999999999
 21
1081.5931
  0
LINE
  8
_0-0_LAYER001
  6
CONTINUOUS
 62
    4
 10
1116.9296999999999
 20
1081.5931
 11
1117.7788
 21
1081.3345999999999
  0
LINE
  8
_0-0_LAYER001
  6
CONTINUOUS
 62
    4
 10
1117.7788
 20
1081.3345999999999
 11
1118.0228999999999
 21
1081.2527
  0
LINE
  8
_0-0_LAYER001
  6
CONTINUOUS
 62
    4
 10
1118.0228999999999
 20
1081.2527
 11
1119.5827999999999
 21
1080.6606999999999
  0
LINE
  8
_0-0_LAYER001
  6
CONTINUOUS
 62
    4
 10
1119.5827999999999
 20
1080.6606999999999
 11
1122.5305000000001
 21
1079.2901999999999
  0
LINE
  8
_0-0_LAYER001
  6
CONTINUOUS
 62
    4
 10
1122.5305000000001
 20
1079.2901999999999
 11
1125.4916000000001
 21
1077.6296
  0
LINE
  8
_0-0_LAYER001
  6
CONTINUOUS
 62
    4
 10
1125.4916000000001
 20
1077.6296
 11
1128.6593
 21
1075.6083000000001
  0
LINE
  8
_0-0_LAYER001
  6
CONTINUOUS
 62
    4
 10
1128.6593
 20
1075.6083000000001
 11
1132.0440000000001
 21
1073.2634
  0
LINE
  8
_0-0_LAYER001
  6
CONTINUOUS
 62
    4
 10
1132.0440000000001
 20
1073.2634
 11
1135.6496999999999
 21
1070.6609000000001
  0
LINE
  8
_0-0_LAYER001
  6
CONTINUOUS
 62
    4
 10
1135.6496999999999
 20
1070.6609000000001
 11
1137.8567
 21
1069.0585000000001
  0
LINE
  8
_0-0_LAYER001
  6
CONTINUOUS
 62
    4
 10
1137.8567
 20
1069.0585000000001
 11
1141.3467000000001
 21
1066.5581
  0
LINE
  8
_0-0_LAYER001
  6
CONTINUOUS
 62
    4
 10
1141.3467000000001
 20
1066.5581
 11
1147.4389000000001
 21
1062.3332
  0
LINE
  8
_0-0_LAYER001
  6
CONTINUOUS
 62
    4
 10
1147.4389000000001
 20
1062.3332
 11
1153.7426
 21
1058.1931
  0
LINE
  8
_0-0_LAYER001
  6
CONTINUOUS
 62
    4
 10
1153.7426
 20
1058.1931
 11
1160.2633000000001
 21
1054.2043000000001
  0
LINE
  8
_0-0_LAYER001
  6
CONTINUOUS
 62
    4
 10
1160.2633000000001
 20
1054.2043000000001
 11
1167.0292999999999
 21
1050.4203
  0
LINE
  8
_0-0_LAYER001
  6
CONTINUOUS
 62
    4
 10
1167.0292999999999
 20
1050.4203
 11
1173.9722999999999
 21
1046.9458
  0
LINE
  8
_0-0_LAYER001
  6
CONTINUOUS
 62
    4
 10
1173.9722999999999
 20
1046.9458
 11
1178.2456999999999
 21
1045.0214000000001
  0
LINE
  8
_0-0_LAYER001
  6
CONTINUOUS
 62
    4
 10
1178.2456999999999
 20
1045.0214000000001
 11
1181.8507999999999
 21
1043.5235
  0
LINE
  8
_0-0_LAYER001
  6
CONTINUOUS
 62
    4
 10
1181.8507999999999
 20
1043.5235
 11
1187.9069
 21
1041.2616
  0
LINE
  8
_0-0_LAYER001
  6
CONTINUOUS
 62
    4
 10
1187.9069
 20
1041.2616
 11
1194.1567
 21
1039.2506000000001
  0
LINE
  8
_0-0_LAYER001
  6
CONTINUOUS
 62
    4
 10
1194.1567
 20
1039.2506000000001
 11
1200.5055
 21
1037.5291
  0
LINE
  8
_0-0_LAYER001
  6
CONTINUOUS
 62
    4
 10
1200.5055
 20
1037.5291
 11
1206.9396999999999
 21
1036.1062999999999
  0
LINE
  8
_0-0_LAYER001
  6
CONTINUOUS
 62
    4
 10
1206.9396999999999
 20
1036.1062999999999
 11
1213.3534
 21
1035.0074999999999
  0
LINE
  8
_0-0_LAYER001
  6
CONTINUOUS
 62
    4
 10
1213.3534
 20
1035.0074999999999
 11
1217.2122999999999
 21
1034.4988000000001
  0
LINE
  8
_0-0_LAYER001
  6
CONTINUOUS
 62
    4
 10
1217.2122999999999
 20
1034.4988000000001
 11
1220.2068999999999
 21
1034.1804
  0
LINE
  8
_0-0_LAYER001
  6
CONTINUOUS
 62
    4
 10
1220.2068999999999
 20
1034.1804
 11
1225.0993000000001
 21
1033.7981
  0
LINE
  8
_0-0_LAYER001
  6
CONTINUOUS
 62
    4
 10
1225.0993000000001
 20
1033.7981
 11
1230.0068000000001
 21
1033.5735999999999
  0
LINE
  8
_0-0_LAYER001
  6
CONTINUOUS
 62
    4
 10
1230.0068000000001
 20
1033.5735999999999
 11
1234.8542
 21
1033.4908
  0
LINE
  8
_0-0_LAYER001
  6
CONTINUOUS
 62
    4
 10
1234.8542
 20
1033.4908
 11
1239.6380999999999
 21
1033.5283999999999
  0
LINE
  8
_0-0_LAYER001
  6
CONTINUOUS
 62
    4
 10
1239.6380999999999
 20
1033.5283999999999
 11
1244.3258000000001
 21
1033.6654000000001
  0
LINE
  8
_0-0_LAYER001
  6
CONTINUOUS
 62
    4
 10
1244.3258000000001
 20
1033.6654000000001
 11
1247.1029000000001
 21
1033.7865999999999
  0
LINE
  8
_0-0_LAYER001
  6
CONTINUOUS
 62
    4
 10
1247.1029000000001
 20
1033.7865999999999
 11
1252.1352999999999
 21
1034.0719999999999
  0
LINE
  8
_0-0_LAYER001
  6
CONTINUOUS
 62
    4
 10
1252.1352999999999
 20
1034.0719999999999
 11
1260.6614
 21
1034.7330999999999
  0
LINE
  8
_0-0_LAYER001
  6
CONTINUOUS
 62
    4
 10
1260.6614
 20
1034.7330999999999
 11
1269.1463000000001
 21
1035.5835
  0
LINE
  8
_0-0_LAYER001
  6
CONTINUOUS
 62
    4
 10
1269.1463000000001
 20
1035.5835
 11
1277.5376000000001
 21
1036.5786000000001
  0
LINE
  8
_0-0_LAYER001
  6
CONTINUOUS
 62
    4
 10
1277.5376000000001
 20
1036.5786000000001
 11
1285.8382999999999
 21
1037.6792
  0
LINE
  8
_0-0_LAYER001
  6
CONTINUOUS
 62
    4
 10
1285.8382999999999
 20
1037.6792
 11
1294.0460000000003
 21
1038.8465000000001
  0
LINE
  8
_0-0_LAYER001
  6
CONTINUOUS
 62
    4
 10
1294.0460000000003
 20
1038.8465000000001
 11
1298.7832000000001
 21
1039.5418999999999
  0
LINE
  8
_0-0_LAYER001
  6
CONTINUOUS
 62
    4
 10
1298.7832000000001
 20
1039.5418999999999
 11
1301.2384999999999
 21
1039.9058
  0
LINE
  8
_0-0_LAYER001
  6
CONTINUOUS
 62
    4
 10
1301.2384999999999
 20
1039.9058
 11
1305.4526000000001
 21
1040.5344
  0
LINE
  8
_0-0_LAYER001
  6
CONTINUOUS
 62
    4
 10
1305.4526000000001
 20
1040.5344
 11
1309.6641999999999
 21
1041.1668
  0
LINE
  8
_0-0_LAYER001
  6
CONTINUOUS
 62
    4
 10
1309.6641999999999
 20
1041.1668
 11
1313.8708999999999
 21
1041.8018999999999
  0
LINE
  8
_0-0_LAYER001
  6
CONTINUOUS
 62
    4
 10
1313.8708999999999
 20
1041.8018999999999
 11
1318.0731000000001
 21
1042.4386999999999
  0
LINE
  8
_0-0_LAYER001
  6
CONTINUOUS
 62
    4
 10
1318.0731000000001
 20
1042.4386999999999
 11
1322.2710000000002
 21
1043.0762999999999
  0
LINE
  8
_0-0_LAYER001
  6
CONTINUOUS
 62
    4
 10
1322.2710000000002
 20
1043.0762999999999
 11
1323.8887
 21
1043.3223
  0
LINE
  8
_0-0_LAYER001
  6
CONTINUOUS
 62
    4
 10
1334.3975
 20
1046.3933999999999
 11
1334.3975
 21
1063.5907999999999
  0
LINE
  8
_0-0_LAYER001
  6
CONTINUOUS
 62
    4
 10
1322.1241
 20
1061.2772
 11
1366.5784000000003
 21
1070.9250999999999
  0
LINE
  8
_0-0_LAYER001
  6
CONTINUOUS
 62
    4
 10
1328.8693000000001
 20
1041.4435000000001
 11
1367.5410999999999
 21
1050.4934000000001
  0
LINE
  8
_0-0_LAYER001
  6
CONTINUOUS
 62
    4
 10
1367.5410999999999
 20
1051.4499000000001
 11
1367.5410999999999
 21
1050.4934000000001
  0
ARC
  8
_0-0_LAYER001
  6
CONTINUOUS
 62
    4
 10
1368.5410999999999
 20
1051.4499000000001
 40
1
 50
102.72435
 51
180
  0
LINE
  8
_0-0_LAYER001
  6
CONTINUOUS
 62
    4
 10
1373.3580999999999
 20
1053.5627999999999
 11
1368.3208999999999
 21
1052.4254000000001
  0
ARC
  8
_0-0_LAYER001
  6
CONTINUOUS
 62
    4
 10
1373.5784000000001
 20
1052.5873999999999
 40
1
 50
0
 51
102.72435
  0
LINE
  8
_0-0_LAYER001
  6
CONTINUOUS
 62
    4
 10
1373.7905000000001
 20
1054.0713000000001
 11
1323.6565000000001
 21
1043.1907000000001
  0
ARC
  8
_0-0_LAYER001
  6
CONTINUOUS
 62
    4
 10
1373.5784000000001
 20
1055.0485000000001
 40
1
 50
282.24497000000002
 51
0
  0
LINE
  8
_0-0_LAYER001
  6
CONTINUOUS
 62
    4
 10
1373.7961999999998
 20
1033.3306
 11
1324.2122999999997
 21
1022.2627
  0
LINE
  8
_0-0_LAYER001
  6
CONTINUOUS
 62
    4
 10
1374.5784000000001
 20
1034.3064999999999
 11
1374.5784000000001
 21
1052.5873999999999
  0
ARC
  8
_0-0_LAYER001
  6
CONTINUOUS
 62
    4
 10
1373.5784000000001
 20
1034.3064999999999
 40
1
 50
282.58296000000001
 51
0.0000000000000254
  0
LINE
  8
_0-0_LAYER001
  6
CONTINUOUS
 62
    4
 10
1366.5784000000003
 20
1072.3821
 11
1366.5784000000003
 21
1070.9250999999999
  0
ARC
  8
_0-0_LAYER001
  6
CONTINUOUS
 62
    4
 10
1367.5784000000001
 20
1072.3821
 40
1
 50
101.73308
 51
180
  0
LINE
  8
_0-0_LAYER001
  6
CONTINUOUS
 62
    4
 10
1373.375
 20
1074.6074000000001
 11
1367.375
 21
1073.3612000000001
  0
LINE
  8
_0-0_LAYER001
  6
CONTINUOUS
 62
    4
 10
1374.5784000000001
 20
1073.6283000000001
 11
1374.5784000000001
 21
1055.0485000000001
  0
ARC
  8
_0-0_LAYER001
  6
CONTINUOUS
 62
    4
 10
1373.5784000000001
 20
1073.6283000000001
 40
1
 50
0
 51
101.73308
  0
LINE
  8
_0-0_LAYER001
  6
DASHED1
 62
    2
 10
1438.7955000000002
 20
1043.4151999999999
 11
1454.7955000000002
 21
1043.4151999999999
  0
LINE
  8
_0-0_LAYER001
  6
DASHED1
 62
    2
 10
1454.7955000000002
 20
1043.4151999999999
 11
1454.7955000000002
 21
1040.4151999999999
  0
LINE
  8
_0-0_LAYER001
  6
DASHED1
 62
    2
 10
1438.7955000000002
 20
1043.4151999999999
 11
1438.7955000000002
 21
1040.4151999999999
  0
LINE
  8
_0-0_LAYER001
  6
DASHED1
 62
    2
 10
1438.7955000000002
 20
1040.4151999999999
 11
1454.7955000000002
 21
1040.4151999999999
  0
LINE
  8
_0-0_LAYER001
  6
DASHED1
 62
    2
 10
1449.7955000000002
 20
985.51919999999996
 11
1446.7453
 21
971.01019999999994
  0
LINE
  8
_0-0_LAYER001
  6
DASHED1
 62
    2
 10
1449.7955000000002
 20
1040.4151999999999
 11
1449.7955000000002
 21
985.51919999999996
  0
LINE
  8
_0-0_LAYER001
  6
DASHED1
 62
    2
 10
1446.7453
 20
971.01019999999994
 11
1443.7955000000002
 21
985.2677000000001
  0
LINE
  8
_0-0_LAYER001
  6
DASHED1
 62
    2
 10
1443.7955000000002
 20
1040.4151999999999
 11
1443.7955000000002
 21
985.2677000000001
  0
LINE
  8
_0-0_LAYER001
  6
CONTINUOUS
 62
    2
 10
1113.9364
 20
824.71139999999991
 11
1113.9364
 21
877.21139999999991
  0
CIRCLE
  8
_0-0_LAYER001
  6
CONTINUOUS
 62
    2
 10
1113.9364
 20
827.21139999999991
 40
1.6999999999999997
  0
LINE
  8
_0-0_LAYER001
  6
CONTINUOUS
 62
    2
 10
1113.9364
 20
827.21139999999991
 11
1333.9364
 21
827.21139999999991
  0
CIRCLE
  8
_0-0_LAYER001
  6
CONTINUOUS
 62
    2
 10
1333.9364
 20
827.21139999999991
 40
1.6999999999999997
  0
LINE
  8
_0-0_LAYER001
  6
CONTINUOUS
 62
    2
 10
1333.9364
 20
824.71139999999991
 11
1333.9364
 21
877.21139999999991
  0
CIRCLE
  8
_0-0_LAYER001
  6
CONTINUOUS
 62
    2
 10
1333.9364
 20
827.21139999999991
 40
1.6999999999999997
  0
LINE
  8
_0-0_LAYER001
  6
CONTINUOUS
 62
    2
 10
1333.9364
 20
827.21139999999991
 11
1598.9364
 21
827.21139999999991
  0
CIRCLE
  8
_0-0_LAYER001
  6
CONTINUOUS
 62
    2
 10
1598.9364
 20
827.21139999999991
 40
1.6999999999999997
  0
LINE
  8
_0-0_LAYER001
  6
CONTINUOUS
 62
    2
 10
1598.9364
 20
824.71139999999991
 11
1598.9364
 21
877.21139999999991
  0
CIRCLE
  8
_0-0_LAYER001
  6
CONTINUOUS
 62
    2
 10
1598.9364
 20
827.21139999999991
 40
1.6999999999999997
  0
LINE
  8
_0-0_LAYER001
  6
CONTINUOUS
 62
    2
 10
1598.9364
 20
827.21139999999991
 11
1863.9364
 21
827.21139999999991
  0
CIRCLE
  8
_0-0_LAYER001
  6
CONTINUOUS
 62
    2
 10
1863.9364
 20
827.21139999999991
 40
1.6999999999999997
  0
LINE
  8
_0-0_LAYER001
  6
CONTINUOUS
 62
    2
 10
1863.9364
 20
824.71139999999991
 11
1863.9364
 21
877.21139999999991
  0
CIRCLE
  8
_0-0_LAYER001
  6
CONTINUOUS
 62
    2
 10
1863.9364
 20
827.21139999999991
 40
1.6999999999999997
  0
LINE
  8
_0-0_LAYER001
  6
CONTINUOUS
 62
    2
 10
1863.9364
 20
827.21139999999991
 11
2128.9364
 21
827.21139999999991
  0
CIRCLE
  8
_0-0_LAYER001
  6
CONTINUOUS
 62
    2
 10
2128.9364
 20
827.21139999999991
 40
1.6999999999999997
  0
LINE
  8
_0-0_LAYER001
  6
CONTINUOUS
 62
    2
 10
2128.9364
 20
824.71139999999991
 11
2128.9364
 21
877.21139999999991
  0
LINE
  8
_0-1_LAYER003
  6
CONTINUOUS
 62
    7
 10
828.70659999999998
 20
1283.6844000000001
 11
881.20659999999998
 21
1283.6844000000001
  0
LINE
  8
_0-1_LAYER003
  6
CONTINUOUS
 62
    7
 10
1007.2215000000001
 20
1242.1818000000001
 11
1047.7215000000001
 21
1242.1818000000001
  0
LINE
  8
_0-1_LAYER003
  6
CONTINUOUS
 62
    7
 10
962.71569999999997
 20
1174.9172000000001
 11
1043.7157
 21
1174.9172000000001
  0
LINE
  8
_0-1_LAYER003
  6
CONTINUOUS
 62
    7
 10
982.85439999999994
 20
1084.0340000000001
 11
1034.5544
 21
1084.0340000000001
  0
LINE
  8
_0-1_LAYER003
  6
CONTINUOUS
 62
    7
 10
831.20659999999998
 20
1281.9844000000001
 11
831.20659999999998
 21
988.6844000000001
  0
LINE
  8
_0-1_LAYER003
  6
CONTINUOUS
 62
    7
 10
828.70659999999998
 20
988.6844000000001
 11
881.20659999999998
 21
988.6844000000001
  0
LINE
  8
_0-1_LAYER003
  6
CONTINUOUS
 62
    7
 10
828.70659999999998
 20
1133.6844000000001
 11
881.20659999999998
 21
1133.6844000000001
  0
LINE
  8
_0-1_LAYER003
  6
CONTINUOUS
 62
    7
 10
984.55439999999999
 20
1084.0340000000001
 11
984.55439999999999
 21
988.6844000000001
  0
LINE
  8
_0-1_LAYER003
  6
CONTINUOUS
 62
    7
 10
984.55439999999999
 20
988.6844000000001
 11
1034.5544
 21
988.6844000000001
  0
LINE
  8
_0-1_LAYER003
  6
CONTINUOUS
 62
    7
 10
984.55439999999999
 20
988.6844000000001
 11
982.85439999999994
 21
988.6844000000001
  0
LINE
  8
_0-1_LAYER003
  6
CONTINUOUS
 62
    7
 10
848.44000000000005
 20
925.46329999999989
 11
1036.6576
 21
925.46329999999989
  0
LINE
  8
_0-1_LAYER003
  6
CONTINUOUS
 62
    7
 10
1161.2697000000001
 20
1372.2147
 11
1333.7697000000001
 21
1372.2147
  0
LINE
  8
_0-1_LAYER003
  6
CONTINUOUS
 62
    7
 10
1235.5748000000001
 20
1312.8366000000001
 11
1382.5748000000001
 21
1312.8366000000001
  0
LINE
  8
_0-1_LAYER003
  6
CONTINUOUS
 62
    7
 10
1238.8338000000001
 20
1262.8414
 11
1472.8337999999999
 21
1262.8414
  0
LINE
  8
_0-1_LAYER003
  6
CONTINUOUS
 62
    7
 10
1118.9267
 20
1405.5124000000001
 11
1118.9267
 21
1133.1614
  0
LINE
  8
_0-1_LAYER003
  6
CONTINUOUS
 62
    7
 10
1118.9267
 20
1133.1614
 11
1106.9267
 21
1133.1614
  0
LINE
  8
_0-1_LAYER003
  6
CONTINUOUS
 62
    7
 10
1106.9267
 20
1133.1614
 11
1106.9267
 21
1405.5124000000001
  0
LINE
  8
_0-1_LAYER003
  6
CONTINUOUS
 62
    7
 10
1087.5127
 20
1283.6844000000001
 11
1087.5127
 21
1133.6844000000001
  0
LINE
  8
_0-1_LAYER003
  6
CONTINUOUS
 62
    7
 10
1114.6474000000001
 20
1295.3445999999999
 11
1112.7062000000001
 21
1288.1002000000001
  0
LINE
  8
_0-1_LAYER003
  6
CONTINUOUS
 62
    7
 10
1112.7062000000001
 20
1288.1002000000001
 11
1118.0094999999999
 21
1293.4034999999999
  0
LINE
  8
_0-1_LAYER003
  6
CONTINUOUS
 62
    7
 10
1112.7062000000001
 20
1288.1002000000001
 11
1161.2697000000001
 21
1372.2147
  0
LINE
  8
_0-1_LAYER003
  6
CONTINUOUS
 62
    7
 10
1090.0912000000001
 20
1172.6777
 11
1092.0323000000001
 21
1165.4331999999999
  0
LINE
  8
_0-1_LAYER003
  6
CONTINUOUS
 62
    7
 10
1092.0323000000001
 20
1165.4331999999999
 11
1086.729
 21
1170.7365
  0
LINE
  8
_0-1_LAYER003
  6
CONTINUOUS
 62
    7
 10
1092.0323000000001
 20
1165.4331999999999
 11
1047.7215000000001
 21
1242.1818000000001
  0
LINE
  8
_0-1_LAYER003
  6
CONTINUOUS
 62
    7
 10
1085.6242
 20
1106.212
 11
1087.5653
 21
1098.9675
  0
LINE
  8
_0-1_LAYER003
  6
CONTINUOUS
 62
    7
 10
1087.5653
 20
1098.9675
 11
1082.2619999999999
 21
1104.2708
  0
LINE
  8
_0-1_LAYER003
  6
CONTINUOUS
 62
    7
 10
1087.5653
 20
1098.9675
 11
1043.7157
 21
1174.9172000000001
  0
LINE
  8
_0-1_LAYER003
  6
CONTINUOUS
 62
    7
 10
1106.9267
 20
1180.9703999999999
 11
1088.9267
 21
1180.9703999999999
  0
LINE
  8
_0-1_LAYER003
  6
CONTINUOUS
 62
    7
 10
1088.9267
 20
1180.9703999999999
 11
1088.9267
 21
1140.9703999999999
  0
LINE
  8
_0-1_LAYER003
  6
CONTINUOUS
 62
    7
 10
1088.9267
 20
1140.9703999999999
 11
1106.9267
 21
1140.9703999999999
  0
LINE
  8
_0-1_LAYER003
  6
CONTINUOUS
 62
    7
 10
1087.5127
 20
1133.6844000000001
 11
1193.9267
 21
1114.1928
  0
LINE
  8
_0-1_LAYER003
  6
CONTINUOUS
 62
    7
 10
1193.9267
 20
1114.1928
 11
1194.4747
 21
1096.1138000000001
  0
LINE
  8
_0-1_LAYER003
  6
CONTINUOUS
 62
    7
 10
1194.4747
 20
1096.1138000000001
 11
1190.4793
 21
1102.3733
  0
LINE
  8
_0-1_LAYER003
  6
CONTINUOUS
 62
    7
 10
1126.0394484681224
 20
1126.6275468562289
 11
1124.2835
 21
1120.0744
  0
LINE
  8
_0-1_LAYER003
  6
CONTINUOUS
 62
    7
 10
1124.2835
 20
1120.0744
 11
1129.5868
 21
1125.3777
  0
LINE
  8
_0-1_LAYER003
  6
CONTINUOUS
 62
    7
 10
1124.2835
 20
1120.0744
 11
1235.5748000000001
 21
1312.8366000000001
  0
LINE
  8
_0-1_LAYER003
  6
CONTINUOUS
 62
    7
 10
1238.8338000000001
 20
1262.8414
 11
1157.5826999999999
 21
1122.1104
  0
LINE
  8
_0-1_LAYER003
  6
CONTINUOUS
 62
    7
 10
1157.5826999999999
 20
1122.1104
 11
1159.5237999999999
 21
1129.3548000000001
  0
LINE
  8
_0-1_LAYER003
  6
CONTINUOUS
 62
    7
 10
1157.5826999999999
 20
1122.1104
 11
1162.886
 21
1127.4137000000001
  0
LINE
  8
_0-1_LAYER003
  6
CONTINUOUS
 62
    7
 10
1162.886
 20
1127.4137000000001
 11
1157.5826999999999
 21
1122.1104
  0
LINE
  8
_0-1_LAYER003
  6
CONTINUOUS
 62
    7
 10
1096.1237000000001
 20
1130.1654000000001
 11
1184.6506999999999
 21
1113.9494
  0
LINE
  8
_0-1_LAYER003
  6
CONTINUOUS
 62
    7
 10
1184.6506999999999
 20
1113.9494
 11
1181.9476999999999
 21
1099.1954000000001
  0
LINE
  8
_0-1_LAYER003
  6
CONTINUOUS
 62
    7
 10
1181.9476999999999
 20
1099.1954000000001
 11
1093.4206999999999
 21
1115.4104
  0
LINE
  8
_0-1_LAYER003
  6
CONTINUOUS
 62
    7
 10
1093.4206999999999
 20
1115.4104
 11
1096.1237000000001
 21
1130.1654000000001
  0
LINE
  8
_0-1_LAYER003
  6
CONTINUOUS
 62
    7
 10
1093.4206999999999
 20
1115.4104
 11
1184.6506999999999
 21
1113.9494
  0
LINE
  8
_0-1_LAYER003
  6
CONTINUOUS
 62
    7
 10
1083.9267
 20
1114.0340000000001
 11
1100.2564
 21
1114.0340000000001
  0
LINE
  8
_0-1_LAYER003
  6
CONTINUOUS
 62
    7
 10
1113.9267
 20
1111.53
 11
1113.9267
 21
1084.0340000000001
  0
LINE
  8
_0-1_LAYER003
  6
CONTINUOUS
 62
    7
 10
1113.9267
 20
1084.0340000000001
 11
1083.9267
 21
1084.0340000000001
  0
LINE
  8
_0-1_LAYER003
  6
CONTINUOUS
 62
    7
 10
1113.9267
 20
1084.0340000000001
 11
1083.9267
 21
1114.0340000000001
  0
LINE
  8
_0-1_LAYER003
  6
CONTINUOUS
 62
    7
 10
1086.2497000000001
 20
1288.6844000000001
 11
1086.2497000000001
 21
991.18139999999994
  0
LINE
  8
_0-1_LAYER003
  6
CONTINUOUS
 62
    7
 10
1086.2497000000001
 20
991.18139999999994
 11
2176.1477
 21
991.18139999999994
  0
LINE
  8
_0-1_LAYER003
  6
CONTINUOUS
 62
    7
 10
2176.1477
 20
993.56449999999995
 11
1231.1126999999999
 21
993.56449999999995
  0
LINE
  8
_0-1_LAYER003
  6
CONTINUOUS
 62
    7
 10
1231.1126999999999
 20
993.56449999999995
 11
1231.1126999999999
 21
1008.5645
  0
LINE
  8
_0-1_LAYER003
  6
CONTINUOUS
 62
    7
 10
1231.1126999999999
 20
1008.5645
 11
2176.1477
 21
1008.5645
  0
LINE
  8
_0-1_LAYER003
  6
CONTINUOUS
 62
    7
 10
2176.1477
 20
988.6844000000001
 11
1083.9267
 21
988.6844000000001
  0
LINE
  8
_0-1_LAYER003
  6
CONTINUOUS
 62
    7
 10
1083.9267
 20
976.6844000000001
 11
2176.1477
 21
976.6844000000001
  0
LINE
  8
_0-1_LAYER003
  6
CONTINUOUS
 62
    7
 10
2018.5666999999999
 20
976.6844000000001
 11
2018.5666999999999
 21
916.6844000000001
  0
LINE
  8
_0-1_LAYER003
  6
CONTINUOUS
 62
    7
 10
2018.5666999999999
 20
916.6844000000001
 11
1958.5666999999999
 21
916.6844000000001
  0
LINE
  8
_0-1_LAYER003
  6
CONTINUOUS
 62
    7
 10
1958.5666999999999
 20
916.6844000000001
 11
1958.5666999999999
 21
976.6844000000001
  0
LINE
  8
_0-1_LAYER003
  6
CONTINUOUS
 62
    7
 10
1958.5666999999999
 20
916.6844000000001
 11
2018.5666999999999
 21
976.6844000000001
  0
LINE
  8
_0-1_LAYER003
  6
CONTINUOUS
 62
    7
 10
2128.9364
 20
877.21139999999991
 11
2128.9364
 21
825.51139999999987
  0
LINE
  8
_0-1_LAYER003
  6
CONTINUOUS
 62
    7
 10
2128.9364
 20
827.21139999999991
 11
1113.9364
 21
827.21139999999991
  0
LINE
  8
_0-1_LAYER003
  6
CONTINUOUS
 62
    7
 10
1113.9364
 20
825.51139999999987
 11
1113.9364
 21
877.21139999999991
  0
LINE
  8
_0-1_LAYER003
  6
CONTINUOUS
 62
    7
 10
1106.2637
 20
878.41020000000003
 11
1106.2637
 21
930.91020000000003
  0
LINE
  8
_0-1_LAYER003
  6
CONTINUOUS
 62
    7
 10
1083.9267
 20
916.6844000000001
 11
1143.9267
 21
916.6844000000001
  0
LINE
  8
_0-1_LAYER003
  6
CONTINUOUS
 62
    7
 10
1143.9267
 20
916.6844000000001
 11
1143.9267
 21
976.6844000000001
  0
LINE
  8
_0-1_LAYER003
  6
CONTINUOUS
 62
    7
 10
1143.9267
 20
976.6844000000001
 11
1083.9267
 21
916.6844000000001
  0
LINE
  8
_0-1_LAYER003
  6
CONTINUOUS
 62
    7
 10
1134.1626000000001
 20
987.97610000000009
 11
1139.4658999999999
 21
993.2793999999999
  0
LINE
  8
_0-1_LAYER003
  6
CONTINUOUS
 62
    7
 10
1139.4658999999999
 20
993.2793999999999
 11
1137.5247999999999
 21
986.03500000000008
  0
LINE
  8
_0-1_LAYER003
  6
CONTINUOUS
 62
    7
 10
1139.4658999999999
 20
993.2793999999999
 11
1034.8144
 21
812.0177000000001
  0
LINE
  8
_0-1_LAYER003
  6
CONTINUOUS
 62
    7
 10
1034.8144
 20
812.0177000000001
 11
833.81439999999998
 21
812.0177000000001
  0
LINE
  8
_0-1_LAYER003
  6
CONTINUOUS
 62
    7
 10
1036.6576
 20
925.46329999999989
 11
1095.5029
 21
1027.3864000000001
  0
LINE
  8
_0-1_LAYER003
  6
CONTINUOUS
 62
    7
 10
1095.5029
 20
1027.3864000000001
 11
1090.1995999999999
 21
1022.0831000000001
  0
LINE
  8
_0-1_LAYER003
  6
CONTINUOUS
 62
    7
 10
1095.5029
 20
1027.3864000000001
 11
1093.5617999999999
 21
1020.1420000000001
  0
LINE
  8
_0-1_LAYER003
  6
CONTINUOUS
 62
    7
 10
1088.7327
 20
992.93039999999996
 11
1103.7327
 21
992.93039999999996
  0
LINE
  8
_0-1_LAYER003
  6
CONTINUOUS
 62
    7
 10
1103.7327
 20
992.93039999999996
 11
1103.7327
 21
1084.0340000000001
  0
LINE
  8
_0-1_LAYER003
  6
CONTINUOUS
 62
    7
 10
1088.7327
 20
1084.0340000000001
 11
1088.7327
 21
992.93039999999996
  0
LINE
  8
_0-1_LAYER003
  6
CONTINUOUS
 62
    7
 10
1103.7327
 20
992.93039999999996
 11
1088.7327
 21
1084.0340000000001
  0
LINE
  8
_0-1_LAYER003
  6
CONTINUOUS
 62
    7
 10
1114.6021000000001
 20
1073.5432000000001
 11
1106.2637
 21
1084.0340000000001
  0
LINE
  8
_0-1_LAYER003
  6
CONTINUOUS
 62
    7
 10
1106.2637
 20
1084.0340000000001
 11
1106.2637
 21
993.55639999999994
  0
LINE
  8
_0-1_LAYER003
  6
CONTINUOUS
 62
    7
 10
1106.2637
 20
993.55639999999994
 11
1225.8377
 21
993.55639999999994
  0
LINE
  8
_0-1_LAYER003
  6
CONTINUOUS
 62
    7
 10
1225.8377
 20
993.55639999999994
 11
1225.8377
 21
1008.5645
  0
LINE
  8
_0-1_LAYER003
  6
CONTINUOUS
 62
    7
 10
1225.8377
 20
1008.5645
 11
1205.2936999999999
 21
1008.5645
  0
LINE
  8
_0-1_LAYER003
  6
CONTINUOUS
 62
    7
 10
1106.2637
 20
880.91020000000003
 11
1225.8377
 21
880.91020000000003
  0
LINE
  8
_0-1_LAYER003
  6
CONTINUOUS
 62
    7
 10
1225.8377
 20
882.61020000000008
 11
1225.8377
 21
930.91020000000003
  0
LINE
  8
_0-1_LAYER003
  6
CONTINUOUS
 62
    7
 10
1225.8377
 20
882.61020000000008
 11
1225.8377
 21
880.91020000000003
  0
LINE
  8
_0-1_LAYER003
  6
CONTINUOUS
 62
    7
 10
1333.9364
 20
827.21139999999991
 11
1333.9364
 21
877.21139999999991
  0
LINE
  8
_0-1_LAYER003
  6
CONTINUOUS
 62
    7
 10
1352.5667000000001
 20
976.6844000000001
 11
1352.5667000000001
 21
916.6844000000001
  0
LINE
  8
_0-1_LAYER003
  6
CONTINUOUS
 62
    7
 10
1352.5667000000001
 20
916.6844000000001
 11
1412.5667000000001
 21
916.6844000000001
  0
LINE
  8
_0-1_LAYER003
  6
CONTINUOUS
 62
    7
 10
1412.5667000000001
 20
916.6844000000001
 11
1412.5667000000001
 21
976.6844000000001
  0
LINE
  8
_0-1_LAYER003
  6
CONTINUOUS
 62
    7
 10
1412.5667000000001
 20
976.6844000000001
 11
1352.5667000000001
 21
916.6844000000001
  0
LINE
  8
_0-1_LAYER003
  6
CONTINUOUS
 62
    7
 10
1598.9364
 20
827.21139999999991
 11
1598.9364
 21
877.21139999999991
  0
LINE
  8
_0-1_LAYER003
  6
CONTINUOUS
 62
    7
 10
1655.5666999999999
 20
976.6844000000001
 11
1655.5666999999999
 21
916.6844000000001
  0
LINE
  8
_0-1_LAYER003
  6
CONTINUOUS
 62
    7
 10
1655.5666999999999
 20
916.6844000000001
 11
1715.5666999999999
 21
916.6844000000001
  0
LINE
  8
_0-1_LAYER003
  6
CONTINUOUS
 62
    7
 10
1715.5666999999999
 20
916.6844000000001
 11
1715.5666999999999
 21
976.6844000000001
  0
LINE
  8
_0-1_LAYER003
  6
CONTINUOUS
 62
    7
 10
1715.5666999999999
 20
976.6844000000001
 11
1655.5666999999999
 21
916.6844000000001
  0
LINE
  8
_0-1_LAYER003
  6
CONTINUOUS
 62
    7
 10
1671.3278
 20
1066.2764999999999
 11
1669.3867
 21
1059.0319999999999
  0
LINE
  8
_0-1_LAYER003
  6
CONTINUOUS
 62
    7
 10
1669.3867
 20
1059.0319999999999
 11
1674.6900000000001
 21
1064.3353999999999
  0
LINE
  8
_0-1_LAYER003
  6
CONTINUOUS
 62
    7
 10
1669.3867
 20
1059.0319999999999
 11
1707.2067999999999
 21
1124.5383999999999
  0
LINE
  8
_0-1_LAYER003
  6
CONTINUOUS
 62
    7
 10
1707.2067999999999
 20
1124.5383999999999
 11
1747.7067999999999
 21
1124.5383999999999
  0
LINE
  8
_0-1_LAYER003
  6
CONTINUOUS
 62
    7
 10
1705.0711999999999
 20
1008.4047
 11
1707.0124000000001
 21
1001.1603
  0
LINE
  8
_0-1_LAYER003
  6
CONTINUOUS
 62
    7
 10
1705.0711999999999
 20
1008.4047
 11
1710.3744999999999
 21
1003.1014
  0
LINE
  8
_0-1_LAYER003
  6
CONTINUOUS
 62
    7
 10
1705.0711999999999
 20
1008.4047
 11
1886.3114
 21
694.48749999999995
  0
LINE
  8
_0-1_LAYER003
  6
CONTINUOUS
 62
    7
 10
1886.3114
 20
694.48749999999995
 11
1947.3595999999998
 21
694.48749999999995
  0
LINE
  8
_0-1_LAYER003
  6
CONTINUOUS
 62
    7
 10
1869.0680000000002
 20
724.35400000000004
 11
2040.7393000000002
 21
724.35400000000004
  0
LINE
  8
_0-1_LAYER003
  6
CONTINUOUS
 62
    7
 10
1851.6923999999999
 20
754.44939999999997
 11
2097.3377
 21
754.44939999999997
  0
LINE
  8
_0-1_LAYER003
  6
CONTINUOUS
 62
    7
 10
1834.3829000000001
 20
784.43029999999999
 11
2039.2055999999998
 21
784.43029999999999
  0
LINE
  8
_0-1_LAYER003
  6
CONTINUOUS
 62
    7
 10
1863.9364
 20
824.71139999999991
 11
1863.9364
 21
877.21139999999991
  0
LINE
  8
_0-1_LAYER003
  6
CONTINUOUS
 62
    7
 10
1118.9267
 20
1209.9145000000001
 11
1193.9267
 21
1209.9145000000001
  0
LINE
  8
_0-1_LAYER003
  6
CONTINUOUS
 62
    7
 10
1193.9267
 20
1211.6145000000001
 11
1193.9267
 21
1194.9145000000001
  0
LINE
  8
_0-1_LAYER003
  6
CONTINUOUS
 62
    7
 10
1106.9267
 20
1140.9703999999999
 11
1088.9267
 21
1180.9703999999999
  0
LINE
  8
_0-1_LAYER003
  6
CONTINUOUS
 62
    7
 10
1083.9267
 20
1405.5124000000001
 11
1083.9267
 21
756.8284000000001
  0
CIRCLE
  8
_0-4_LAYER006
  6
CONTINUOUS
 62
    2
 10
937.42029100561638
 20
988.6844000000001
 40
1.6999999999999997
  0
LINE
  8
_0-4_LAYER006
  6
CONTINUOUS
 62
    2
 10
937.42029100561638
 20
988.6844000000001
 11
937.42029100561638
 21
1288.6844000000001
  0
CIRCLE
  8
_0-4_LAYER006
  6
CONTINUOUS
 62
    2
 10
937.42029100561638
 20
1288.6844000000001
 40
1.6999999999999997
  0
LINE
  8
_0-1_LAYER003
  6
CONTINUOUS
 62
    7
 10
937.42029100561638
 20
1288.6844000000001
 11
937.42029100561638
 21
988.6844000000001
  0
LINE
  8
_0-4_LAYER006
  6
CONTINUOUS
 62
    2
 10
934.92029100561638
 20
988.6844000000001
 11
987.42029100561638
 21
988.6844000000001
  0
LINE
  8
_0-4_LAYER006
  6
CONTINUOUS
 62
    2
 10
934.92029100561638
 20
1288.6844000000001
 11
987.42029100561638
 21
1288.6844000000001
  0
LINE
  8
_0-1_LAYER003
  6
CONTINUOUS
 62
    7
 10
929.19726906894084
 20
1288.6844000000001
 11
979.19726906894084
 21
1288.6844000000001
  0
LINE
  8
_0-1_LAYER003
  6
CONTINUOUS
 62
    7
 10
926.69726906894084
 20
988.6844000000001
 11
979.19726906894084
 21
988.6844000000001
  0
TEXT
  8
_0-0_LAYER001
 62
    7
 10
1161.2697000000003
 20
1374.7147
 40
20
 41
1
 50
0
  1
外壁　防火サイディング
  0
TEXT
  8
_0-0_LAYER001
 62
    7
 10
1235.5748000000003
 20
1315.3366000000001
 40
20
 41
1
 50
0
  1
笠木：１５ｘ９０
  0
TEXT
  8
_0-0_LAYER001
 62
    7
 10
1869.0680000000002
 20
726.85399999999981
 40
20
 41
1
 50
0
  1
　野地板：杉ｔ＝１２
  0
TEXT
  8
_0-0_LAYER001
 62
    7
 10
1886.3114
 20
696.98749999999995
 40
20
 41
1
 50
0
  1
　垂木
  0
TEXT
  8
_0-0_LAYER001
 62
    7
 10
1834.3829000000003
 20
786.93029999999999
 40
20
 41
1
 50
0
  1
　瓦桟：１５ｘ３０以上
  0
TEXT
  8
_0-2_LAYER004
 62
    7
 10
815.78720004651427
 20
1062.3801611678689
 40
20
 41
1
 50
90
  1
水切り立上がり寸法
  0
TEXT
  8
_0-1_LAYER003
 62
    7
 10
924.83755745812323
 20
1055.3897536414838
 40
20
 41
1
 50
90
  1
下葺き材立上がり寸法
  0
TEXT
  8
_0-0_LAYER001
 62
    7
 10
1001.7320402483602
 20
1246.926919864437
 40
20
 41
1
 50
0
  1
胴　縁
  0
TEXT
  8
_0-0_LAYER001
 62
    7
 10
1699.3747113816003
 20
1129.4880734211665
 40
20
 41
1
 50
0
  1
桟　瓦
  0
TEXT
  8
_0-0_LAYER001
 62
    7
 10
1147.1557617198162
 20
1223.4944956083868
 40
20
 41
1
 50
0
  1
75
  0
TEXT
  8
_0-4_LAYER006
 62
    7
 10
983.59076320690474
 20
1180.4603388071146
 40
20
 41
1
 50
0
  1
30x30
  0
TEXT
  8
_0-4_LAYER006
 62
    7
 10
961.18767659532625
 20
1115.5072583683962
 40
20
 41
1
 50
90
  1
300
  0
TEXT
  8
_0-0_LAYER001
 62
    7
 10
853.53540068899417
 20
1197.994067179741
 40
20
 41
1
 50
90
  1
150
  0
TEXT
  8
_0-0_LAYER001
 62
    7
 10
857.72964520482537
 20
1047.0012646098214
 40
20
 41
1
 50
90
  1
145
  0
TEXT
  8
_0-0_LAYER001
 62
    7
 10
978.0894665530933
 20
1026.6071645281527
 40
20
 41
1
 50
90
  1
95
  0
TEXT
  8
_0-0_LAYER001
 62
    7
 10
818.70872761389614
 20
931.05894043113506
 40
20
 41
1
 50
0
  1
下地材：１５ｘ１２５　
  0
TEXT
  8
_0-0_LAYER001
 62
    7
 10
768.82844793870026
 20
821.59943781056643
 40
20
 41
1
 50
0
  1
捨谷カラー鋼板0.35ｍｍ以上
  0
TEXT
  8
_0-0_LAYER001
 62
    7
 10
1155.7160804624352
 20
890.71210448907789
 40
20
 41
1
 50
0
  1
120
  0
TEXT
  8
_0-0_LAYER001
 62
    7
 10
1214.5682718179403
 20
839.35019203336492
 40
20
 41
1
 50
0
  1
220
  0
TEXT
  8
_0-0_LAYER001
 62
    7
 10
1454.2571966112691
 20
843.63035140467389
 40
20
 41
1
 50
0
  1
265
  0
TEXT
  8
_0-0_LAYER001
 62
    7
 10
1721.7671573181092
 20
840.42023187619191
 40
20
 41
1
 50
0
  1
265
  0
TEXT
  8
_0-0_LAYER001
 62
    7
 10
1984.9969586536404
 20
841.49027171901889
 40
20
 41
1
 50
0
  1
265
  0
TEXT
  8
_0-0_LAYER001
 62
    7
 10
1851.6923999999995
 20
756.94939999999986
 40
20
 41
1
 50
0
  1
　下葺材：ルーフィング
  0
TEXT
  8
_0-0_LAYER001
 62
    7
 10
1238.8338000000003
 20
1265.3414
 40
20
 41
1
 50
0
  1
雨押水切カラー鋼板0.35ｍｍ以上
  0
ENDSEC
  0
EOF
