  0
SECTION
  2
HEADER
  9
$ACADVER
  1
AC1009
  9
$INSBASE
 10
0
 20
0
 30
0
  9
$EXTMIN
 10
0
 20
0
  9
$EXTMAX
 10
2970
 20
2100
  9
$LIMMIN
 10
0
 20
0
  9
$LIMMAX
 10
2970
 20
2100
  9
$LTSCALE
 40
10
  0
ENDSEC
  0
SECTION
  2
TABLES
  0
TABLE
  2
LTYPE
 70
     9
  0
LTYPE
  2
CONTINUOUS
 70
    64
  3
実線
 72
    65
 73
     0
 40
0.0
  0
LTYPE
  2
DASHED1
 70
    64
  3
--  --  --  --  --  --  --  --  
 72
    65
 73
     2
 40
2.5
 49
1.25
 49
-1.25
  0
LTYPE
  2
DASHED2
 70
    64
  3
----    ----    ----    ----    
 72
    65
 73
     2
 40
5.0
 49
2.5
 49
-2.5
  0
LTYPE
  2
DASHED3
 70
    64
  3
------  ------  ------  ------  
 72
    65
 73
     2
 40
5.0
 49
3.75
 49
-1.25
  0
LTYPE
  2
CENTER1
 70
    64
  3
----- - ----- - ----- - ----- - 
 72
    65
 73
     4
 40
10.0
 49
6.25
 49
-1.25
 49
1.25
 49
-1.25
  0
LTYPE
  2
CENTER2
 70
    64
  3
----------  --  ----------  --  
 72
    65
 73
     4
 40
20.0
 49
12.5
 49
-2.5
 49
2.5
 49
-2.5
  0
LTYPE
  2
PHANTOM1
 70
    64
  3
--- - - --- - - --- - - --- - - 
 72
    65
 73
     6
 40
10.0
 49
3.25
 49
-1.25
 49
1.25
 49
-1.25
 49
1.25
 49
-1.25
  0
LTYPE
  2
PHANTOM2
 70
    64
  3
--------  -  -  --------  -  -  
 72
    65
 73
     6
 40
20.0
 49
10.0
 49
-2.5
 49
1.25
 49
-2.5
 49
1.25
 49
-2.5
  0
LTYPE
  2
DOT
 70
    64
  3
-   -   -   -   -   -   -   -   
 72
    65
 73
     2
 40
2.5
 49
0.625
 49
-1.875
  0
LTYPE
  2
DUMMY
 70
    64
  3
ダミー
 72
    65
 73
     0
 40
0.0
  0
LTYPE
  2
RAND1
 70
    64
  3
ランダム線1
 72
    65
 73
     4
 40
10.0
 49
1.0
 49
-2.0
 49
3.0
 49
-4.0
  0
LTYPE
  2
RAND2
 70
    64
  3
ランダム線2
 72
    65
 73
     4
 40
14.0
 49
2.0
 49
-3.0
 49
4.0
 49
-5.0
  0
LTYPE
  2
RAND3
 70
    64
  3
ランダム線3
 72
    65
 73
     4
 40
18.0
 49
3.0
 49
-4.0
 49
5.0
 49
-6.0
  0
LTYPE
  2
RAND4
 70
    64
  3
ランダム線4
 72
    65
 73
     4
 40
22.0
 49
4.0
 49
-5.0
 49
6.0
 49
-7.0
  0
LTYPE
  2
RAND5
 70
    64
  3
ランダム線5
 72
    65
 73
     4
 40
26.0
 49
5.0
 49
-6.0
 49
7.0
 49
-8.0
  0
LTYPE
  2
LONG1
 70
    64
  3
----------  --  ----------  --  
 72
    65
 73
     4
 40
40.0
 49
32.5
 49
-2.5
 49
2.5
 49
-2.5
  0
LTYPE
  2
LONG2
 70
    64
  3
--------  -  -  --------  -  -  
 72
    65
 73
     6
 40
40.0
 49
30.0
 49
-2.5
 49
1.25
 49
-2.5
 49
1.25
 49
-2.5
  0
LTYPE
  2
LONG3
 70
    64
  3
+++++++++++++++..+++++++++++++++
 72
    65
 73
     2
 40
40.0
 49
37.5
 49
-2.5
  0
LTYPE
  2
LONG4
 70
    64
  3
+++++++++++++++..+++++++++++++++
 72
    65
 73
     2
 40
80.0
 49
75.0
 49
-5.0
  0
LTYPE
  2
LONG5
 70
    64
  3
----------  --  ----------  --  
 72
    65
 73
     4
 40
60.0
 49
37.5
 49
-7.5
 49
7.5
 49
-7.5
  0
LTYPE
  2
dashed
 70
   64
  3
-------   -------------   ------
 72
   65
 73
    2
 40
7.5
 49
6
 49
-1.5
  0
LTYPE
  2
dashed_spaced
 70
   64
  3
----        --------        ----
 72
   65
 73
    2
 40
12
 49
6
 49
-6
  0
LTYPE
  2
long_dashed_dotted
 70
   64
  3
------------- --- --------------
 72
   65
 73
    4
 40
15.25
 49
12
 49
-1.5
 49
0.25
 49
-1.5
  0
LTYPE
  2
long_dashed_double-dotted
 70
   64
  3
----------- --- --- ------------
 72
   65
 73
    6
 40
17
 49
12
 49
-1.5
 49
0.25
 49
-1.5
 49
0.25
 49
-1.5
  0
LTYPE
  2
long_dashed_triplicate-dotted
 70
   64
  3
--------- --- --- --- ----------
 72
   65
 73
    8
 40
18.75
 49
12
 49
-1.5
 49
0.25
 49
-1.5
 49
0.25
 49
-1.5
 49
0.25
 49
-1.5
  0
LTYPE
  2
dotted
 70
   64
  3
   -       -       -       -    
 72
   65
 73
    2
 40
1.75
 49
0.25
 49
-1.5
  0
LTYPE
  2
chain
 70
   64
  3
-------------- -- --------------
 72
   65
 73
    4
 40
18.5
 49
12
 49
-1.5
 49
3.5
 49
-1.5
  0
LTYPE
  2
chain_double_dash
 70
   64
  3
------------ -- -- -------------
 72
   65
 73
    6
 40
23.5
 49
12
 49
-1.5
 49
3.5
 49
-1.5
 49
3.5
 49
-1.5
  0
LTYPE
  2
dashed_dotted
 70
   64
  3
-----------     -     ----------
 72
   65
 73
    4
 40
9.25
 49
6
 49
-1.5
 49
0.25
 49
-1.5
  0
LTYPE
  2
double-dashed_dotted
 70
   64
  3
------   -----------   -   -----
 72
   65
 73
    6
 40
16.75
 49
6
 49
-1.5
 49
6
 49
-1.5
 49
0.25
 49
-1.5
  0
LTYPE
  2
dashed_double-dotted
 70
   64
  3
---------    -    -    ---------
 72
   65
 73
    6
 40
11
 49
6
 49
-1.5
 49
0.25
 49
-1.5
 49
0.25
 49
-1.5
  0
LTYPE
  2
double-dashed_double-dotted
 70
   64
  3
-----   ---------   -   -   ----
 72
   65
 73
    8
 40
18.5
 49
6
 49
-1.5
 49
6
 49
-1.5
 49
0.25
 49
-1.5
 49
0.25
 49
-1.5
  0
LTYPE
  2
dashed_triplicate-dotted
 70
   64
  3
-------    -    -    -    ------
 72
   65
 73
    8
 40
12.75
 49
6
 49
-1.5
 49
0.25
 49
-1.5
 49
0.25
 49
-1.5
 49
0.25
 49
-1.5
  0
LTYPE
  2
double-dashed_triplicate-dotted
 70
   64
  3
-----  ---------  -  -  -  -----
 72
   65
 73
   10
 40
20.25
 49
6
 49
-1.5
 49
6
 49
-1.5
 49
0.25
 49
-1.5
 49
0.25
 49
-1.5
 49
0.25
 49
-1.5
  0
LTYPE
  2
undefined
 70
   64
  3
--------------------------------
 72
   65
 73
    0
 40
0
  0
ENDTAB
  0
TABLE
  2
STYLE
  5
3
100
AcDbSymbolTable
 70
     1
  0
STYLE
  5
10
100
AcDbSymbolTableRecord
100
AcDbTextStyleTableRecord
  2
STANDARD
 70
     0
 40
0.0
 41
1.0
 50
0.0
 71
     0
 42
0.2
  3
txt
  4
bigfont.shx
  0
STYLE
  5
26
100
AcDbSymbolTableRecord
100
AcDbTextStyleTableRecord
  2
TATEGAKI
 70
    68
 40
0.0
 41
1.0
 50
0.0
 71
     0
 42
1.0
  3
txt
  4
bigfont.shx
  0
ENDTAB
  0
TABLE
  2
LAYER
 70
    7
  0
LAYER
  2
_0-0_LAYER001
 70
   64
 62
    7
  6
CONTINUOUS
  0
LAYER
  2
_0-1_LAYER003
 70
   64
 62
    7
  6
CONTINUOUS
  0
LAYER
  2
_0-2_LAYER004
 70
   64
 62
    7
  6
CONTINUOUS
  0
LAYER
  2
_0-3_LAYER005
 70
   64
 62
    7
  6
CONTINUOUS
  0
LAYER
  2
_0-4_LAYER006
 70
   64
 62
    7
  6
CONTINUOUS
  0
LAYER
  2
_0-5_LAYER007
 70
   64
 62
    7
  6
CONTINUOUS
  0
LAYER
  2
ADD_LINE
 70
   64
 62
    7
  6
CONTINUOUS
  0
ENDTAB
  0
ENDSEC
  0
SECTION
  2
BLOCKS
  0
ENDSEC
  0
SECTION
  2
ENTITIES
  0
CIRCLE
  8
_0-0_LAYER001
  6
CONTINUOUS
 62
    2
 10
909.57060000000001
 20
979.32220000000007
 40
1.6999999999999997
  0
LINE
  8
_0-0_LAYER001
  6
CONTINUOUS
 62
    2
 10
1074.2523000000001
 20
1098.2197000000001
 11
1089.2523000000001
 21
983.56819999999993
  0
LINE
  8
_0-0_LAYER001
  6
CONTINUOUS
 62
    2
 10
1106.0346999999999
 20
1264.6190999999999
 11
1100.7313999999999
 21
1259.3158000000001
  0
LINE
  8
_0-0_LAYER001
  6
CONTINUOUS
 62
    2
 10
1100.7313999999999
 20
1259.3158000000001
 11
1102.6724999999999
 21
1266.5603000000001
  0
LINE
  8
_0-0_LAYER001
  6
CONTINUOUS
 62
    2
 10
1100.7313999999999
 20
1259.3158000000001
 11
1183.0072
 21
1401.8217
  0
LINE
  8
_0-0_LAYER001
  6
CONTINUOUS
 62
    2
 10
1183.0072
 20
1401.8217
 11
1355.5072
 21
1401.8217
  0
LINE
  8
_0-0_LAYER001
  6
CONTINUOUS
 62
    2
 10
1079.2171000000001
 20
1002.4475
 11
1084.5204000000001
 21
1007.7508
  0
LINE
  8
_0-0_LAYER001
  6
CONTINUOUS
 62
    2
 10
1084.5204000000001
 20
1007.7508
 11
1082.5793000000001
 21
1000.5063
  0
LINE
  8
_0-0_LAYER001
  6
CONTINUOUS
 62
    2
 10
1084.5204000000001
 20
1007.7508
 11
1009.9812999999999
 21
878.64529999999991
  0
LINE
  8
_0-0_LAYER001
  6
CONTINUOUS
 62
    2
 10
1009.9812999999999
 20
878.64529999999991
 11
846.48129999999992
 21
878.64529999999991
  0
LINE
  8
_0-0_LAYER001
  6
CONTINUOUS
 62
    2
 10
1125.5463999999999
 20
981.30459999999994
 11
1130.8497
 21
986.60789999999997
  0
LINE
  8
_0-0_LAYER001
  6
CONTINUOUS
 62
    2
 10
1130.8497
 20
986.60789999999997
 11
1128.9086
 21
979.36349999999993
  0
LINE
  8
_0-0_LAYER001
  6
CONTINUOUS
 62
    2
 10
1130.8497
 20
986.60789999999997
 11
1023.7496000000001
 21
801.10500000000002
  0
LINE
  8
_0-0_LAYER001
  6
CONTINUOUS
 62
    2
 10
1023.7496000000001
 20
801.10500000000002
 11
822.7496000000001
 21
801.10500000000002
  0
LINE
  8
_0-0_LAYER001
  6
CONTINUOUS
 62
    2
 10
1091.7833000000001
 20
872.09950000000003
 11
1091.7833000000001
 21
924.59950000000003
  0
CIRCLE
  8
_0-0_LAYER001
  6
CONTINUOUS
 62
    2
 10
1091.7833000000001
 20
874.59950000000003
 40
1.6999999999999997
  0
LINE
  8
_0-0_LAYER001
  6
CONTINUOUS
 62
    2
 10
1091.7833000000001
 20
874.59950000000003
 11
1211.3572999999999
 21
874.59950000000003
  0
CIRCLE
  8
_0-0_LAYER001
  6
CONTINUOUS
 62
    2
 10
1211.3572999999999
 20
874.59950000000003
 40
1.6999999999999997
  0
LINE
  8
_0-0_LAYER001
  6
CONTINUOUS
 62
    2
 10
1211.3572999999999
 20
872.09950000000003
 11
1211.3572999999999
 21
924.59950000000003
  0
LINE
  8
_0-0_LAYER001
  6
CONTINUOUS
 62
    2
 10
1822.6408000000001
 20
710.5447999999999
 11
1994.3121000000001
 21
710.5447999999999
  0
LINE
  8
_0-0_LAYER001
  6
CONTINUOUS
 62
    2
 10
1805.2651999999998
 20
740.64010000000007
 11
2044.9679999999998
 21
740.64010000000007
  0
LINE
  8
_0-0_LAYER001
  6
CONTINUOUS
 62
    2
 10
1839.8842
 20
680.67820000000006
 11
1902.8836000000001
 21
680.67820000000006
  0
LINE
  8
_0-0_LAYER001
  6
CONTINUOUS
 62
    2
 10
1165.0634
 20
1073.3326999999999
 11
1159.7601
 21
1068.0293999999999
  0
LINE
  8
_0-0_LAYER001
  6
CONTINUOUS
 62
    2
 10
1159.7601
 20
1068.0293999999999
 11
1161.7012
 21
1075.2737999999999
  0
LINE
  8
_0-0_LAYER001
  6
CONTINUOUS
 62
    2
 10
1159.7601
 20
1068.0293999999999
 11
1243.7420999999999
 21
1213.4905000000001
  0
LINE
  8
_0-0_LAYER001
  6
CONTINUOUS
 62
    2
 10
1243.7420999999999
 20
1213.4905000000001
 11
1307.7075
 21
1213.4905000000001
  0
LINE
  8
_0-0_LAYER001
  6
CONTINUOUS
 62
    2
 10
1665.6570000000002
 20
1039.3209999999999
 11
1660.3537000000001
 21
1034.0177000000001
  0
LINE
  8
_0-0_LAYER001
  6
CONTINUOUS
 62
    2
 10
1660.3537000000001
 20
1034.0177000000001
 11
1662.2948999999999
 21
1041.2621999999999
  0
LINE
  8
_0-0_LAYER001
  6
CONTINUOUS
 62
    2
 10
1660.3537000000001
 20
1034.0177000000001
 11
1707.2447999999999
 21
1115.2354
  0
LINE
  8
_0-0_LAYER001
  6
CONTINUOUS
 62
    2
 10
1707.2447999999999
 20
1115.2354
 11
1747.7447999999999
 21
1115.2354
  0
LINE
  8
_0-0_LAYER001
  6
CONTINUOUS
 62
    2
 10
1660.5852
 20
987.35100000000011
 11
1658.6439999999998
 21
994.59539999999993
  0
LINE
  8
_0-0_LAYER001
  6
CONTINUOUS
 62
    2
 10
1658.6439999999998
 20
994.59539999999993
 11
1663.9472999999998
 21
989.29209999999989
  0
LINE
  8
_0-0_LAYER001
  6
CONTINUOUS
 62
    2
 10
1658.6439999999998
 20
994.59539999999993
 11
1839.8842
 21
680.67820000000006
  0
LINE
  8
_0-0_LAYER001
  6
CONTINUOUS
 62
    2
 10
1787.9557
 20
770.62100000000009
 11
1992.7784000000001
 21
770.62100000000009
  0
LINE
  8
_0-0_LAYER001
  6
CONTINUOUS
 62
    4
 10
1110.1077
 20
1110.1043999999999
 11
1110.1077
 21
1109.6386
  0
LINE
  8
_0-0_LAYER001
  6
CONTINUOUS
 62
    4
 10
1110.1077
 20
1109.6386
 11
1110.1077
 21
1108.3742999999999
  0
LINE
  8
_0-0_LAYER001
  6
CONTINUOUS
 62
    4
 10
1110.1077
 20
1108.3742999999999
 11
1110.1077
 21
1106.5111999999999
  0
LINE
  8
_0-0_LAYER001
  6
CONTINUOUS
 62
    4
 10
1110.1077
 20
1106.5111999999999
 11
1110.1077
 21
1104.2489
  0
LINE
  8
_0-0_LAYER001
  6
CONTINUOUS
 62
    4
 10
1110.1077
 20
1104.2489
 11
1110.1077
 21
1101.7869000000001
  0
LINE
  8
_0-0_LAYER001
  6
CONTINUOUS
 62
    4
 10
1110.1077
 20
1101.7869000000001
 11
1110.1077
 21
1099.3249000000001
  0
LINE
  8
_0-0_LAYER001
  6
CONTINUOUS
 62
    4
 10
1110.1077
 20
1099.3249000000001
 11
1110.1077
 21
1097.0625
  0
LINE
  8
_0-0_LAYER001
  6
CONTINUOUS
 62
    4
 10
1110.1077
 20
1097.0625
 11
1110.1077
 21
1095.1994
  0
LINE
  8
_0-0_LAYER001
  6
CONTINUOUS
 62
    4
 10
1110.1077
 20
1095.1994
 11
1110.1077
 21
1093.9351999999999
  0
LINE
  8
_0-0_LAYER001
  6
CONTINUOUS
 62
    4
 10
1110.1077
 20
1093.9351999999999
 11
1110.1077
 21
1093.4694
  0
LINE
  8
_0-0_LAYER001
  6
CONTINUOUS
 62
    4
 10
1110.1077
 20
1093.4694
 11
1111.2552000000001
 21
1093.4893
  0
LINE
  8
_0-0_LAYER001
  6
CONTINUOUS
 62
    4
 10
1111.2552000000001
 20
1093.4893
 11
1114.6297999999999
 21
1093.3937000000001
  0
LINE
  8
_0-0_LAYER001
  6
CONTINUOUS
 62
    4
 10
1114.6297999999999
 20
1093.3937000000001
 11
1120.1297999999999
 21
1092.9498000000001
  0
LINE
  8
_0-0_LAYER001
  6
CONTINUOUS
 62
    4
 10
1120.1297999999999
 20
1092.9498000000001
 11
1127.6532999999999
 21
1091.9246000000001
  0
LINE
  8
_0-0_LAYER001
  6
CONTINUOUS
 62
    4
 10
1127.6532999999999
 20
1091.9246000000001
 11
1137.0987
 21
1090.0853
  0
LINE
  8
_0-0_LAYER001
  6
CONTINUOUS
 62
    4
 10
1137.0987
 20
1090.0853
 11
1148.3641
 21
1087.1990000000001
  0
LINE
  8
_0-0_LAYER001
  6
CONTINUOUS
 62
    4
 10
1148.3641
 20
1087.1990000000001
 11
1161.3478
 21
1083.0328
  0
LINE
  8
_0-0_LAYER001
  6
CONTINUOUS
 62
    4
 10
1161.3478
 20
1083.0328
 11
1175.9481000000001
 21
1077.3536999999999
  0
LINE
  8
_0-0_LAYER001
  6
CONTINUOUS
 62
    4
 10
1175.9481000000001
 20
1077.3536999999999
 11
1192.0631000000001
 21
1069.9290000000001
  0
LINE
  8
_0-0_LAYER001
  6
CONTINUOUS
 62
    4
 10
1192.0631000000001
 20
1069.9290000000001
 11
1209.5911000000001
 21
1060.5256999999999
  0
LINE
  8
_0-0_LAYER001
  6
CONTINUOUS
 62
    4
 10
1209.5911000000001
 20
1060.5256999999999
 11
1209.5911000000001
 21
1061.2837
  0
LINE
  8
_0-0_LAYER001
  6
CONTINUOUS
 62
    4
 10
1209.5911000000001
 20
1061.2837
 11
1209.5911000000001
 21
1063.3412000000001
  0
LINE
  8
_0-0_LAYER001
  6
CONTINUOUS
 62
    4
 10
1209.5911000000001
 20
1063.3412000000001
 11
1209.5911000000001
 21
1066.3733999999999
  0
LINE
  8
_0-0_LAYER001
  6
CONTINUOUS
 62
    4
 10
1209.5911000000001
 20
1066.3733999999999
 11
1209.5911000000001
 21
1070.0553
  0
LINE
  8
_0-0_LAYER001
  6
CONTINUOUS
 62
    4
 10
1209.5911000000001
 20
1070.0553
 11
1209.5911000000001
 21
1074.0621000000001
  0
LINE
  8
_0-0_LAYER001
  6
CONTINUOUS
 62
    4
 10
1209.5911000000001
 20
1074.0621000000001
 11
1209.5911000000001
 21
1078.0689
  0
LINE
  8
_0-0_LAYER001
  6
CONTINUOUS
 62
    4
 10
1209.5911000000001
 20
1078.0689
 11
1209.5911000000001
 21
1081.7508
  0
LINE
  8
_0-0_LAYER001
  6
CONTINUOUS
 62
    4
 10
1209.5911000000001
 20
1081.7508
 11
1209.5911000000001
 21
1084.7829999999999
  0
LINE
  8
_0-0_LAYER001
  6
CONTINUOUS
 62
    4
 10
1209.5911000000001
 20
1084.7829999999999
 11
1209.5911000000001
 21
1086.8405
  0
LINE
  8
_0-0_LAYER001
  6
CONTINUOUS
 62
    4
 10
1209.5911000000001
 20
1086.8405
 11
1209.5911000000001
 21
1087.5986
  0
LINE
  8
_0-0_LAYER001
  6
CONTINUOUS
 62
    4
 10
1209.5911000000001
 20
1087.5986
 11
1207.924
 21
1088.1847
  0
LINE
  8
_0-0_LAYER001
  6
CONTINUOUS
 62
    4
 10
1207.924
 20
1088.1847
 11
1203.2215000000001
 21
1089.7827
  0
LINE
  8
_0-0_LAYER001
  6
CONTINUOUS
 62
    4
 10
1203.2215000000001
 20
1089.7827
 11
1195.9318000000001
 21
1092.1515999999999
  0
LINE
  8
_0-0_LAYER001
  6
CONTINUOUS
 62
    4
 10
1195.9318000000001
 20
1092.1515999999999
 11
1186.5030999999999
 21
1095.0509999999999
  0
LINE
  8
_0-0_LAYER001
  6
CONTINUOUS
 62
    4
 10
1186.5030999999999
 20
1095.0509999999999
 11
1175.3834999999999
 21
1098.24
  0
LINE
  8
_0-0_LAYER001
  6
CONTINUOUS
 62
    4
 10
1175.3834999999999
 20
1098.24
 11
1163.0210999999999
 21
1101.4779000000001
  0
LINE
  8
_0-0_LAYER001
  6
CONTINUOUS
 62
    4
 10
1163.0210999999999
 20
1101.4779000000001
 11
1149.8642
 21
1104.5239999999999
  0
LINE
  8
_0-0_LAYER001
  6
CONTINUOUS
 62
    4
 10
1149.8642
 20
1104.5239999999999
 11
1136.3608999999999
 21
1107.1376
  0
LINE
  8
_0-0_LAYER001
  6
CONTINUOUS
 62
    4
 10
1136.3608999999999
 20
1107.1376
 11
1122.9593
 21
1109.078
  0
LINE
  8
_0-0_LAYER001
  6
CONTINUOUS
 62
    4
 10
1110.1077
 20
1110.1043999999999
 11
1123.0717
 21
1109.0617
  0
LINE
  8
_0-0_LAYER001
  6
CONTINUOUS
 62
    2
 10
1104.4463000000001
 20
1249.3652999999999
 11
1104.4463000000001
 21
1231.8652999999999
  0
CIRCLE
  8
_0-0_LAYER001
  6
CONTINUOUS
 62
    2
 10
1104.4463000000001
 20
1246.8652999999999
 40
1.6999999999999997
  0
LINE
  8
_0-0_LAYER001
  6
CONTINUOUS
 62
    2
 10
1104.4463000000001
 20
1246.8652999999999
 11
1179.4463000000001
 21
1246.8652999999999
  0
CIRCLE
  8
_0-0_LAYER001
  6
CONTINUOUS
 62
    2
 10
1179.4463000000001
 20
1246.8652999999999
 40
1.6999999999999997
  0
LINE
  8
_0-0_LAYER001
  6
CONTINUOUS
 62
    2
 10
1179.4463000000001
 20
1249.3652999999999
 11
1179.4463000000001
 21
1231.8652999999999
  0
LINE
  8
_0-1_LAYER003
  6
CONTINUOUS
 62
    2
 10
1179.9943000000001
 20
1129.3683000000001
 11
1175.3234
 21
1135.529
  0
LINE
  8
_0-0_LAYER001
  6
CONTINUOUS
 62
    4
 10
1100.1077
 20
1129.4555
 11
1100.1077
 21
1128.9897000000001
  0
LINE
  8
_0-0_LAYER001
  6
CONTINUOUS
 62
    4
 10
1100.1077
 20
1142.0985000000001
 11
1100.1077
 21
1140.8343
  0
LINE
  8
_0-0_LAYER001
  6
CONTINUOUS
 62
    4
 10
1100.1077
 20
1140.8343
 11
1100.1077
 21
1138.9712
  0
LINE
  8
_0-0_LAYER001
  6
CONTINUOUS
 62
    4
 10
1100.1077
 20
1138.9712
 11
1100.1077
 21
1136.7088000000001
  0
LINE
  8
_0-0_LAYER001
  6
CONTINUOUS
 62
    4
 10
1100.1077
 20
1136.7088000000001
 11
1100.1077
 21
1134.2467999999999
  0
LINE
  8
_0-0_LAYER001
  6
CONTINUOUS
 62
    4
 10
1100.1077
 20
1134.2467999999999
 11
1100.1077
 21
1131.7847999999999
  0
LINE
  8
_0-0_LAYER001
  6
CONTINUOUS
 62
    4
 10
1100.1077
 20
1131.7847999999999
 11
1100.1077
 21
1129.5225
  0
LINE
  8
_0-0_LAYER001
  6
CONTINUOUS
 62
    4
 10
1100.1077
 20
1129.5225
 11
1100.1077
 21
1127.6594
  0
LINE
  8
_0-0_LAYER001
  6
CONTINUOUS
 62
    4
 10
1100.1077
 20
1127.6594
 11
1100.1077
 21
1126.3951
  0
LINE
  8
_0-0_LAYER001
  6
CONTINUOUS
 62
    4
 10
1100.1077
 20
1126.3951
 11
1100.1077
 21
1125.9293
  0
LINE
  8
_0-0_LAYER001
  6
CONTINUOUS
 62
    4
 10
1100.1077
 20
1125.9293
 11
1101.2552000000001
 21
1125.9492
  0
LINE
  8
_0-0_LAYER001
  6
CONTINUOUS
 62
    4
 10
1101.2552000000001
 20
1125.9492
 11
1104.6297999999999
 21
1125.8536999999999
  0
LINE
  8
_0-0_LAYER001
  6
CONTINUOUS
 62
    4
 10
1104.6297999999999
 20
1125.8536999999999
 11
1110.1297999999999
 21
1125.4096999999999
  0
LINE
  8
_0-0_LAYER001
  6
CONTINUOUS
 62
    4
 10
1110.1297999999999
 20
1125.4096999999999
 11
1117.6532999999999
 21
1124.3846000000001
  0
LINE
  8
_0-0_LAYER001
  6
CONTINUOUS
 62
    4
 10
1117.6532999999999
 20
1124.3846000000001
 11
1127.0987
 21
1122.5453
  0
LINE
  8
_0-0_LAYER001
  6
CONTINUOUS
 62
    4
 10
1127.0987
 20
1122.5453
 11
1138.3641
 21
1119.6590000000001
  0
LINE
  8
_0-0_LAYER001
  6
CONTINUOUS
 62
    4
 10
1138.3641
 20
1119.6590000000001
 11
1151.3478
 21
1115.4927
  0
LINE
  8
_0-0_LAYER001
  6
CONTINUOUS
 62
    4
 10
1151.3478
 20
1115.4927
 11
1165.9481000000001
 21
1109.8136999999999
  0
LINE
  8
_0-0_LAYER001
  6
CONTINUOUS
 62
    4
 10
1165.9481000000001
 20
1109.8136999999999
 11
1182.0631000000001
 21
1102.3888999999999
  0
LINE
  8
_0-0_LAYER001
  6
CONTINUOUS
 62
    4
 10
1182.0631000000001
 20
1102.3888999999999
 11
1199.5911000000001
 21
1092.9856
  0
LINE
  8
_0-0_LAYER001
  6
CONTINUOUS
 62
    4
 10
1199.5911000000001
 20
1092.9856
 11
1199.5911000000001
 21
1093.7436
  0
LINE
  8
_0-0_LAYER001
  6
CONTINUOUS
 62
    4
 10
1199.5911000000001
 20
1093.7436
 11
1199.5911000000001
 21
1095.8012000000001
  0
LINE
  8
_0-0_LAYER001
  6
CONTINUOUS
 62
    4
 10
1199.5911000000001
 20
1095.8012000000001
 11
1199.5911000000001
 21
1098.8334
  0
LINE
  8
_0-0_LAYER001
  6
CONTINUOUS
 62
    4
 10
1199.5911000000001
 20
1098.8334
 11
1199.5911000000001
 21
1102.5153
  0
LINE
  8
_0-0_LAYER001
  6
CONTINUOUS
 62
    4
 10
1199.5911000000001
 20
1102.5153
 11
1199.5911000000001
 21
1106.5220999999999
  0
LINE
  8
_0-0_LAYER001
  6
CONTINUOUS
 62
    4
 10
1199.5911000000001
 20
1106.5220999999999
 11
1199.5911000000001
 21
1110.5289
  0
LINE
  8
_0-0_LAYER001
  6
CONTINUOUS
 62
    4
 10
1199.5911000000001
 20
1110.5289
 11
1199.5911000000001
 21
1114.2108000000001
  0
LINE
  8
_0-0_LAYER001
  6
CONTINUOUS
 62
    4
 10
1199.5911000000001
 20
1114.2108000000001
 11
1199.5911000000001
 21
1117.2429
  0
LINE
  8
_0-0_LAYER001
  6
CONTINUOUS
 62
    4
 10
1199.5911000000001
 20
1117.2429
 11
1199.5911000000001
 21
1119.3005000000001
  0
LINE
  8
_0-0_LAYER001
  6
CONTINUOUS
 62
    4
 10
1199.5911000000001
 20
1119.3005000000001
 11
1199.5911000000001
 21
1120.0585000000001
  0
LINE
  8
_0-0_LAYER001
  6
CONTINUOUS
 62
    4
 10
1199.5911000000001
 20
1120.0585000000001
 11
1197.924
 21
1120.6447000000001
  0
LINE
  8
_0-0_LAYER001
  6
CONTINUOUS
 62
    4
 10
1197.924
 20
1120.6447000000001
 11
1193.2215000000001
 21
1122.2426
  0
LINE
  8
_0-0_LAYER001
  6
CONTINUOUS
 62
    4
 10
1193.2215000000001
 20
1122.2426
 11
1185.9318000000001
 21
1124.6116
  0
LINE
  8
_0-0_LAYER001
  6
CONTINUOUS
 62
    4
 10
1185.9318000000001
 20
1124.6116
 11
1176.5030999999999
 21
1127.5109
  0
LINE
  8
_0-0_LAYER001
  6
CONTINUOUS
 62
    4
 10
1176.5030999999999
 20
1127.5109
 11
1165.3834999999999
 21
1130.6999000000001
  0
LINE
  8
_0-0_LAYER001
  6
CONTINUOUS
 62
    4
 10
1165.3834999999999
 20
1130.6999000000001
 11
1153.0210999999999
 21
1133.9377999999999
  0
LINE
  8
_0-0_LAYER001
  6
CONTINUOUS
 62
    4
 10
1153.0210999999999
 20
1133.9377999999999
 11
1139.8642
 21
1136.9838999999999
  0
LINE
  8
_0-0_LAYER001
  6
CONTINUOUS
 62
    4
 10
1139.8642
 20
1136.9838999999999
 11
1126.3608999999999
 21
1139.5975000000001
  0
LINE
  8
_0-0_LAYER001
  6
CONTINUOUS
 62
    4
 10
1126.3608999999999
 20
1139.5975000000001
 11
1112.9593
 21
1141.5379
  0
LINE
  8
_0-0_LAYER001
  6
CONTINUOUS
 62
    4
 10
1100.1077
 20
1142.5643
 11
1113.0717
 21
1141.5216
  0
LINE
  8
_0-4_LAYER006
  6
CONTINUOUS
 62
    2
 10
1069.4463000000001
 20
1147.0088000000001
 11
1085.7760000000001
 21
1147.0088000000001
  0
LINE
  8
_0-4_LAYER006
  6
CONTINUOUS
 62
    2
 10
1099.4463000000001
 20
1144.5047
 11
1099.4463000000001
 21
1117.0088000000001
  0
LINE
  8
_0-4_LAYER006
  6
CONTINUOUS
 62
    2
 10
1099.4463000000001
 20
1117.0088000000001
 11
1069.4463000000001
 21
1117.0088000000001
  0
LINE
  8
_0-4_LAYER006
  6
CONTINUOUS
 62
    2
 10
1069.4463000000001
 20
1117.0088000000001
 11
1069.4463000000001
 21
1147.0088000000001
  0
LINE
  8
_0-4_LAYER006
  6
CONTINUOUS
 62
    2
 10
1069.4463000000001
 20
1147.0088000000001
 11
1099.4463000000001
 21
1117.0088000000001
  0
LINE
  8
_0-0_LAYER001
  6
CONTINUOUS
 62
    2
 10
1163.1765
 20
1110.7207000000001
 11
1164.5581999999999
 21
1101.1485
  0
CIRCLE
  8
_0-3_LAYER005
  6
CONTINUOUS
 62
    2
 10
1159.2909
 20
1076.2512999999999
 40
1.1619999999999999
  0
CIRCLE
  8
_0-3_LAYER005
  6
CONTINUOUS
 62
    2
 10
1156.0038999999999
 20
1080.3603000000001
 40
1.1619999999999999
  0
CIRCLE
  8
_0-3_LAYER005
  6
CONTINUOUS
 62
    2
 10
1147.2304999999999
 20
1080.8013000000001
 40
1.1619999999999999
  0
LINE
  8
_0-0_LAYER001
  6
CONTINUOUS
 62
    2
 10
1080.2998
 20
1212.3000999999999
 11
1082.241
 21
1205.0556999999999
  0
LINE
  8
_0-0_LAYER001
  6
CONTINUOUS
 62
    2
 10
1082.241
 20
1205.0556999999999
 11
1076.9376999999999
 21
1210.3589999999999
  0
LINE
  8
_0-0_LAYER001
  6
CONTINUOUS
 62
    2
 10
1082.241
 20
1205.0556999999999
 11
1022.5440000000001
 21
1308.4539
  0
LINE
  8
_0-0_LAYER001
  6
CONTINUOUS
 62
    2
 10
1022.5440000000001
 20
1308.4539
 11
982.0440000000001
 21
1308.4539
  0
LINE
  8
_0-0_LAYER001
  6
CONTINUOUS
 62
    2
 10
1104.8543
 20
1143.201
 11
1104.8543
 21
1125.8536999999999
  0
LINE
  8
_0-0_LAYER001
  6
CONTINUOUS
 62
    2
 10
1104.8543
 20
1125.8536999999999
 11
1094.7121
 21
1125.8536999999999
  0
LINE
  8
_0-0_LAYER001
  6
CONTINUOUS
 62
    2
 10
1094.7121
 20
1125.8536999999999
 11
1094.7121
 21
1142.76
  0
LINE
  8
_0-0_LAYER001
  6
CONTINUOUS
 62
    2
 10
1104.8543
 20
1143.201
 11
1094.7121
 21
1143.201
  0
LINE
  8
_0-0_LAYER001
  6
CONTINUOUS
 62
    2
 10
1115.8785
 20
1110.8634
 11
1115.8785
 21
1092.0489
  0
LINE
  8
_0-0_LAYER001
  6
CONTINUOUS
 62
    2
 10
1115.8785
 20
1092.0489
 11
1110.1077
 21
1093.4694
  0
LINE
  8
_0-0_LAYER001
  6
CONTINUOUS
 62
    2
 10
1110.1077
 20
1093.4694
 11
1092.3602000000001
 21
1119.2418
  0
LINE
  8
_0-0_LAYER001
  6
CONTINUOUS
 62
    2
 10
1115.8785
 20
1110.8634
 11
1096.4758999999999
 21
1124.2393999999999
  0
LINE
  8
_0-0_LAYER001
  6
CONTINUOUS
 62
    2
 10
1096.4758999999999
 20
1124.2393999999999
 11
1092.3602000000001
 21
1119.2418
  0
ARC
  8
_0-0_LAYER001
  6
CONTINUOUS
 62
    2
 10
1252.5287000000001
 20
1082.2772
 40
87.717128000000002
 50
180.387
 51
205.61491000000001
  0
LINE
  8
_0-0_LAYER001
  6
CONTINUOUS
 62
    4
 10
2106.2440999999999
 20
1039.3191999999999
 11
2106.2440999999999
 21
1056.5165999999999
  0
LINE
  8
_0-0_LAYER001
  6
CONTINUOUS
 62
    4
 10
1966.5174999999999
 20
995.47980000000007
 11
1957.982
 21
1010.0132000000001
  0
LINE
  8
_0-0_LAYER001
  6
CONTINUOUS
 62
    4
 10
1974.6853999999998
 20
994.82950000000005
 11
1982.9915999999998
 21
1004.895
  0
ARC
  8
_0-0_LAYER001
  6
CONTINUOUS
 62
    4
 10
1970.8289
 20
998.01189999999997
 40
5
 50
210.42578
 51
320.47001
  0
LINE
  8
_0-0_LAYER001
  6
CONTINUOUS
 62
    4
 10
2050.6309999999999
 20
994.35969999999998
 11
2043.3056000000001
 21
1005.6657
  0
LINE
  8
_0-0_LAYER001
  6
CONTINUOUS
 62
    4
 10
2059.1405
 20
994.54960000000005
 11
2068.0790000000002
 21
1009.7953
  0
ARC
  8
_0-0_LAYER001
  6
CONTINUOUS
 62
    4
 10
2054.8272000000002
 20
997.07850000000008
 40
5
 50
212.93986000000001
 51
329.61716000000001
  0
LINE
  8
_0-0_LAYER001
  6
CONTINUOUS
 62
    4
 10
2098.4225999999999
 20
1034.1071999999999
 11
2100.8507
 21
1034.5110999999999
  0
LINE
  8
_0-0_LAYER001
  6
CONTINUOUS
 62
    4
 10
2094.2334999999998
 20
1033.4110000000001
 11
2098.4225999999999
 21
1034.1071999999999
  0
LINE
  8
_0-0_LAYER001
  6
CONTINUOUS
 62
    4
 10
2090.0396999999998
 20
1032.7154
 11
2094.2334999999998
 21
1033.4110000000001
  0
LINE
  8
_0-0_LAYER001
  6
CONTINUOUS
 62
    4
 10
2085.8409000000001
 20
1032.0215000000001
 11
2090.0396999999998
 21
1032.7154
  0
LINE
  8
_0-0_LAYER001
  6
CONTINUOUS
 62
    4
 10
2081.6369
 20
1031.3299999999999
 11
2085.8409000000001
 21
1032.0215000000001
  0
LINE
  8
_0-0_LAYER001
  6
CONTINUOUS
 62
    4
 10
2077.4301
 20
1030.6423
 11
2081.6369
 21
1031.3299999999999
  0
LINE
  8
_0-0_LAYER001
  6
CONTINUOUS
 62
    4
 10
2074.9778000000001
 20
1030.2438
 11
2077.4301
 21
1030.6423
  0
LINE
  8
_0-0_LAYER001
  6
CONTINUOUS
 62
    4
 10
2070.2449999999999
 20
1029.4813999999999
 11
2074.9778000000001
 21
1030.2438
  0
LINE
  8
_0-0_LAYER001
  6
CONTINUOUS
 62
    4
 10
2062.0405999999998
 20
1028.1975
 11
2070.2449999999999
 21
1029.4813999999999
  0
LINE
  8
_0-0_LAYER001
  6
CONTINUOUS
 62
    4
 10
2053.7330999999999
 20
1026.9776999999999
 11
2062.0405999999998
 21
1028.1975
  0
LINE
  8
_0-0_LAYER001
  6
CONTINUOUS
 62
    4
 10
2045.3247999999999
 20
1025.8613
 11
2053.7330999999999
 21
1026.9776999999999
  0
LINE
  8
_0-0_LAYER001
  6
CONTINUOUS
 62
    4
 10
2036.8123000000001
 20
1024.8878999999999
 11
2045.3247999999999
 21
1025.8613
  0
LINE
  8
_0-0_LAYER001
  6
CONTINUOUS
 62
    4
 10
2028.2530999999999
 20
1024.1039000000001
 11
2036.8123000000001
 21
1024.8878999999999
  0
LINE
  8
_0-0_LAYER001
  6
CONTINUOUS
 62
    4
 10
2023.1916000000001
 20
1023.7458999999999
 11
2028.2530999999999
 21
1024.1039000000001
  0
LINE
  8
_0-0_LAYER001
  6
CONTINUOUS
 62
    4
 10
2020.3890000000001
 20
1023.5843
 11
2023.1916000000001
 21
1023.7458999999999
  0
LINE
  8
_0-0_LAYER001
  6
CONTINUOUS
 62
    4
 10
2015.6680000000001
 20
1023.3803
 11
2020.3890000000001
 21
1023.5843
  0
LINE
  8
_0-0_LAYER001
  6
CONTINUOUS
 62
    4
 10
2010.8386999999998
 20
1023.2748999999999
 11
2015.6680000000001
 21
1023.3803
  0
LINE
  8
_0-0_LAYER001
  6
CONTINUOUS
 62
    4
 10
2005.9371000000001
 20
1023.2902999999999
 11
2010.8386999999998
 21
1023.2748999999999
  0
LINE
  8
_0-0_LAYER001
  6
CONTINUOUS
 62
    4
 10
2000.9661000000001
 20
1023.4481000000001
 11
2005.9371000000001
 21
1023.2902999999999
  0
LINE
  8
_0-0_LAYER001
  6
CONTINUOUS
 62
    4
 10
1996.0086999999999
 20
1023.7659000000001
 11
2000.9661000000001
 21
1023.4481000000001
  0
LINE
  8
_0-0_LAYER001
  6
CONTINUOUS
 62
    4
 10
1992.9569999999999
 20
1024.0473
 11
1996.0086999999999
 21
1023.7659000000001
  0
LINE
  8
_0-0_LAYER001
  6
CONTINUOUS
 62
    4
 10
1989.0282000000002
 20
1024.5096000000001
 11
1992.9569999999999
 21
1024.0473
  0
LINE
  8
_0-0_LAYER001
  6
CONTINUOUS
 62
    4
 10
1982.5142000000001
 20
1025.5320999999999
 11
1989.0282000000002
 21
1024.5096000000001
  0
LINE
  8
_0-0_LAYER001
  6
CONTINUOUS
 62
    4
 10
1975.9675999999999
 20
1026.8842
 11
1982.5142000000001
 21
1025.5320999999999
  0
LINE
  8
_0-0_LAYER001
  6
CONTINUOUS
 62
    4
 10
1969.5047
 20
1028.5400999999999
 11
1975.9675999999999
 21
1026.8842
  0
LINE
  8
_0-0_LAYER001
  6
CONTINUOUS
 62
    4
 10
1963.1387
 20
1030.4908
 11
1969.5047
 21
1028.5400999999999
  0
LINE
  8
_0-0_LAYER001
  6
CONTINUOUS
 62
    4
 10
1956.9740000000002
 20
1032.6958
 11
1963.1387
 21
1030.4908
  0
LINE
  8
_0-0_LAYER001
  6
CONTINUOUS
 62
    4
 10
1953.2873
 20
1034.1675
 11
1956.9740000000002
 21
1032.6958
  0
LINE
  8
_0-0_LAYER001
  6
CONTINUOUS
 62
    4
 10
1948.9231
 20
1036.0600999999999
 11
1953.2873
 21
1034.1675
  0
LINE
  8
_0-0_LAYER001
  6
CONTINUOUS
 62
    4
 10
1941.8539999999998
 20
1039.4749999999999
 11
1948.9231
 21
1036.0600999999999
  0
LINE
  8
_0-0_LAYER001
  6
CONTINUOUS
 62
    4
 10
1934.9611
 20
1043.2047
 11
1941.8539999999998
 21
1039.4749999999999
  0
LINE
  8
_0-0_LAYER001
  6
CONTINUOUS
 62
    4
 10
1928.3240999999998
 20
1047.1383000000001
 11
1934.9611
 21
1043.2047
  0
LINE
  8
_0-0_LAYER001
  6
CONTINUOUS
 62
    4
 10
1921.9148
 20
1051.2208000000001
 11
1928.3240999999998
 21
1047.1383000000001
  0
LINE
  8
_0-0_LAYER001
  6
CONTINUOUS
 62
    4
 10
1915.7305999999999
 20
1055.3829000000001
 11
1921.9148
 21
1051.2208000000001
  0
LINE
  8
_0-0_LAYER001
  6
CONTINUOUS
 62
    4
 10
1912.1882000000001
 20
1057.8466000000001
 11
1915.7305999999999
 21
1055.3829000000001
  0
LINE
  8
_0-0_LAYER001
  6
CONTINUOUS
 62
    4
 10
1909.9562000000001
 20
1059.4201
 11
1912.1882000000001
 21
1057.8466000000001
  0
LINE
  8
_0-0_LAYER001
  6
CONTINUOUS
 62
    4
 10
1906.3326999999999
 20
1061.9593
 11
1909.9562000000001
 21
1059.4201
  0
LINE
  8
_0-0_LAYER001
  6
CONTINUOUS
 62
    4
 10
1902.9630000000002
 20
1064.2248
 11
1906.3326999999999
 21
1061.9593
  0
LINE
  8
_0-0_LAYER001
  6
CONTINUOUS
 62
    4
 10
1899.848
 20
1066.1518000000001
 11
1902.9630000000002
 21
1064.2248
  0
LINE
  8
_0-0_LAYER001
  6
CONTINUOUS
 62
    4
 10
1896.9807999999998
 20
1067.7076
 11
1899.848
 21
1066.1518000000001
  0
LINE
  8
_0-0_LAYER001
  6
CONTINUOUS
 62
    4
 10
1894.1496999999999
 20
1068.9760000000001
 11
1896.9807999999998
 21
1067.7076
  0
LINE
  8
_0-0_LAYER001
  6
CONTINUOUS
 62
    4
 10
1892.6864999999998
 20
1069.5082
 11
1894.1496999999999
 21
1068.9760000000001
  0
LINE
  8
_0-0_LAYER001
  6
CONTINUOUS
 62
    4
 10
1892.5054
 20
1069.5661
 11
1892.6864999999998
 21
1069.5082
  0
LINE
  8
_0-0_LAYER001
  6
CONTINUOUS
 62
    4
 10
1891.7170999999998
 20
1069.7941000000001
 11
1892.5054
 21
1069.5661
  0
LINE
  8
_0-0_LAYER001
  6
CONTINUOUS
 62
    4
 10
1891.0599000000002
 20
1069.9567999999999
 11
1891.7170999999998
 21
1069.7941000000001
  0
LINE
  8
_0-0_LAYER001
  6
CONTINUOUS
 62
    4
 10
1890.4782
 20
1070.0748000000001
 11
1891.0599000000002
 21
1069.9567999999999
  0
LINE
  8
_0-0_LAYER001
  6
CONTINUOUS
 62
    4
 10
1890.4380999999998
 20
1070.0809999999999
 11
1890.4782
 21
1070.0748000000001
  0
LINE
  8
_0-0_LAYER001
  6
CONTINUOUS
 62
    4
 10
2094.4119999999998
 20
1014.9197999999999
 11
2096.0261
 21
1015.1882000000001
  0
LINE
  8
_0-0_LAYER001
  6
CONTINUOUS
 62
    4
 10
2090.2233999999999
 20
1014.2236
 11
2094.4119999999998
 21
1014.9197999999999
  0
LINE
  8
_0-0_LAYER001
  6
CONTINUOUS
 62
    4
 10
2086.0304999999998
 20
1013.5282
 11
2090.2233999999999
 21
1014.2236
  0
LINE
  8
_0-0_LAYER001
  6
CONTINUOUS
 62
    4
 10
2081.8330000000001
 20
1012.8344
 11
2086.0304999999998
 21
1013.5282
  0
LINE
  8
_0-0_LAYER001
  6
CONTINUOUS
 62
    4
 10
2077.6307000000002
 20
1012.1432
 11
2081.8330000000001
 21
1012.8344
  0
LINE
  8
_0-0_LAYER001
  6
CONTINUOUS
 62
    4
 10
2073.4258
 20
1011.4558999999999
 11
2077.6307000000002
 21
1012.1432
  0
LINE
  8
_0-0_LAYER001
  6
CONTINUOUS
 62
    4
 10
2070.9757
 20
1011.0577000000001
 11
2073.4258
 21
1011.4558999999999
  0
LINE
  8
_0-0_LAYER001
  6
CONTINUOUS
 62
    4
 10
2066.2487999999998
 20
1010.2962
 11
2070.9757
 21
1011.0577000000001
  0
LINE
  8
_0-0_LAYER001
  6
CONTINUOUS
 62
    4
 10
2058.0581000000002
 20
1009.0145
 11
2066.2487999999998
 21
1010.2962
  0
LINE
  8
_0-0_LAYER001
  6
CONTINUOUS
 62
    4
 10
2049.7736
 20
1007.7981
 11
2058.0581000000002
 21
1009.0145
  0
LINE
  8
_0-0_LAYER001
  6
CONTINUOUS
 62
    4
 10
2041.3969999999999
 20
1006.6858999999999
 11
2049.7736
 21
1007.7981
  0
LINE
  8
_0-0_LAYER001
  6
CONTINUOUS
 62
    4
 10
2032.9247999999998
 20
1005.7171000000001
 11
2041.3969999999999
 21
1006.6858999999999
  0
LINE
  8
_0-0_LAYER001
  6
CONTINUOUS
 62
    4
 10
2024.4087
 20
1004.9371000000001
 11
2032.9247999999998
 21
1005.7171000000001
  0
LINE
  8
_0-0_LAYER001
  6
CONTINUOUS
 62
    4
 10
2019.3809000000001
 20
1004.5814
 11
2024.4087
 21
1004.9371000000001
  0
LINE
  8
_0-0_LAYER001
  6
CONTINUOUS
 62
    4
 10
2016.6057000000001
 20
1004.4213999999999
 11
2019.3809000000001
 21
1004.5814
  0
LINE
  8
_0-0_LAYER001
  6
CONTINUOUS
 62
    4
 10
2011.9204
 20
1004.2190000000001
 11
2016.6057000000001
 21
1004.4213999999999
  0
LINE
  8
_0-0_LAYER001
  6
CONTINUOUS
 62
    4
 10
2007.1374999999998
 20
1004.1146000000001
 11
2011.9204
 21
1004.2190000000001
  0
LINE
  8
_0-0_LAYER001
  6
CONTINUOUS
 62
    4
 10
2002.2894000000001
 20
1004.1297999999999
 11
2007.1374999999998
 21
1004.1146000000001
  0
LINE
  8
_0-0_LAYER001
  6
CONTINUOUS
 62
    4
 10
1997.3791999999999
 20
1004.2856999999999
 11
2002.2894000000001
 21
1004.1297999999999
  0
LINE
  8
_0-0_LAYER001
  6
CONTINUOUS
 62
    4
 10
1992.4819000000002
 20
1004.5996
 11
1997.3791999999999
 21
1004.2856999999999
  0
LINE
  8
_0-0_LAYER001
  6
CONTINUOUS
 62
    4
 10
1989.4832000000001
 20
1004.8761999999999
 11
1992.4819000000002
 21
1004.5996
  0
LINE
  8
_0-0_LAYER001
  6
CONTINUOUS
 62
    4
 10
1985.6176
 20
1005.3308999999999
 11
1989.4832000000001
 21
1004.8761999999999
  0
LINE
  8
_0-0_LAYER001
  6
CONTINUOUS
 62
    4
 10
1979.1891999999998
 20
1006.3400999999999
 11
1985.6176
 21
1005.3308999999999
  0
LINE
  8
_0-0_LAYER001
  6
CONTINUOUS
 62
    4
 10
1972.7357000000002
 20
1007.673
 11
1979.1891999999998
 21
1006.3400999999999
  0
LINE
  8
_0-0_LAYER001
  6
CONTINUOUS
 62
    4
 10
1966.3636000000001
 20
1009.3055999999999
 11
1972.7357000000002
 21
1007.673
  0
LINE
  8
_0-0_LAYER001
  6
CONTINUOUS
 62
    4
 10
1960.0862999999999
 20
1011.2291
 11
1966.3636000000001
 21
1009.3055999999999
  0
LINE
  8
_0-0_LAYER001
  6
CONTINUOUS
 62
    4
 10
1953.9992000000002
 20
1013.4063000000001
 11
1960.0862999999999
 21
1011.2291
  0
LINE
  8
_0-0_LAYER001
  6
CONTINUOUS
 62
    4
 10
1950.3735000000001
 20
1014.8536999999999
 11
1953.9992000000002
 21
1013.4063000000001
  0
LINE
  8
_0-0_LAYER001
  6
CONTINUOUS
 62
    4
 10
1946.0736999999999
 20
1016.7183
 11
1950.3735000000001
 21
1014.8536999999999
  0
LINE
  8
_0-0_LAYER001
  6
CONTINUOUS
 62
    4
 10
1939.0828000000001
 20
1020.0954999999999
 11
1946.0736999999999
 21
1016.7183
  0
LINE
  8
_0-0_LAYER001
  6
CONTINUOUS
 62
    4
 10
1932.2646
 20
1023.7846999999999
 11
1939.0828000000001
 21
1020.0954999999999
  0
LINE
  8
_0-0_LAYER001
  6
CONTINUOUS
 62
    4
 10
1925.6889000000001
 20
1027.6821
 11
1932.2646
 21
1023.7846999999999
  0
LINE
  8
_0-0_LAYER001
  6
CONTINUOUS
 62
    4
 10
1919.3279000000002
 20
1031.7337
 11
1925.6889000000001
 21
1027.6821
  0
LINE
  8
_0-0_LAYER001
  6
CONTINUOUS
 62
    4
 10
1913.1774
 20
1035.8732
 11
1919.3279000000002
 21
1031.7337
  0
LINE
  8
_0-0_LAYER001
  6
CONTINUOUS
 62
    4
 10
1909.6527999999998
 20
1038.3244999999999
 11
1913.1774
 21
1035.8732
  0
LINE
  8
_0-0_LAYER001
  6
CONTINUOUS
 62
    4
 10
1907.4236999999998
 20
1039.896
 11
1909.6527999999998
 21
1038.3244999999999
  0
LINE
  8
_0-0_LAYER001
  6
CONTINUOUS
 62
    4
 10
1903.7820000000002
 20
1042.4478999999999
 11
1907.4236999999998
 21
1039.896
  0
LINE
  8
_0-0_LAYER001
  6
CONTINUOUS
 62
    4
 10
1900.3649
 20
1044.7453
 11
1903.7820000000002
 21
1042.4478999999999
  0
LINE
  8
_0-0_LAYER001
  6
CONTINUOUS
 62
    4
 10
1897.1693
 20
1046.7221999999999
 11
1900.3649
 21
1044.7453
  0
LINE
  8
_0-0_LAYER001
  6
CONTINUOUS
 62
    4
 10
1894.1853000000001
 20
1048.3413
 11
1897.1693
 21
1046.7221999999999
  0
LINE
  8
_0-0_LAYER001
  6
CONTINUOUS
 62
    4
 10
1891.2186999999999
 20
1049.6704
 11
1894.1853000000001
 21
1048.3413
  0
LINE
  8
_0-0_LAYER001
  6
CONTINUOUS
 62
    4
 10
1890.4688000000001
 20
1049.9431999999999
 11
1891.2186999999999
 21
1049.6704
  0
LINE
  8
_0-0_LAYER001
  6
CONTINUOUS
 62
    4
 10
1890.8018999999999
 20
1069.9863
 11
1890.6257999999998
 21
1049.8128999999999
  0
LINE
  8
_0-0_LAYER001
  6
CONTINUOUS
 62
    4
 10
2091.1275000000001
 20
1004.4984999999999
 11
2088.8820000000001
 21
1013.0719999999999
  0
ARC
  8
_0-0_LAYER001
  6
CONTINUOUS
 62
    4
 10
2094.0295999999998
 20
1005.2585999999999
 40
3
 50
194.67639000000003
 51
270.00000000000006
  0
LINE
  8
_0-0_LAYER001
  6
CONTINUOUS
 62
    4
 10
2097.4721
 20
1002.2543000000001
 11
2094.0542999999998
 21
1002.2543000000001
  0
LINE
  8
_0-0_LAYER001
  6
CONTINUOUS
 62
    4
 10
2100.4312
 20
1004.7610999999999
 11
2102.3652999999999
 21
1016.3652999999999
  0
ARC
  8
_0-0_LAYER001
  6
CONTINUOUS
 62
    4
 10
2097.4721
 20
1005.2543000000001
 40
3
 50
270
 51
350.53766999999999
  0
LINE
  8
_0-0_LAYER001
  6
CONTINUOUS
 62
    4
 10
1843.7057
 20
1079.3765000000001
 11
1844.5196000000001
 21
1079.6831999999999
  0
LINE
  8
_0-0_LAYER001
  6
CONTINUOUS
 62
    4
 10
1844.5196000000001
 20
1079.6831999999999
 11
1848.0688
 21
1081.0227
  0
LINE
  8
_0-0_LAYER001
  6
CONTINUOUS
 62
    4
 10
1848.0688
 20
1081.0227
 11
1851.6255000000001
 21
1082.3715999999999
  0
LINE
  8
_0-0_LAYER001
  6
CONTINUOUS
 62
    4
 10
1851.6255000000001
 20
1082.3715999999999
 11
1855.1941000000002
 21
1083.7357
  0
LINE
  8
_0-0_LAYER001
  6
CONTINUOUS
 62
    4
 10
1855.1941000000002
 20
1083.7357
 11
1858.7795000000001
 21
1085.1206999999999
  0
LINE
  8
_0-0_LAYER001
  6
CONTINUOUS
 62
    4
 10
1858.7795000000001
 20
1085.1206999999999
 11
1862.3861999999999
 21
1086.5327
  0
LINE
  8
_0-0_LAYER001
  6
CONTINUOUS
 62
    4
 10
1862.3861999999999
 20
1086.5327
 11
1864.4897000000001
 21
1087.3662999999999
  0
LINE
  8
_0-0_LAYER001
  6
CONTINUOUS
 62
    4
 10
1864.4897000000001
 20
1087.3662999999999
 11
1866.5691000000002
 21
1088.1952000000001
  0
LINE
  8
_0-0_LAYER001
  6
CONTINUOUS
 62
    4
 10
1866.5691000000002
 20
1088.1952000000001
 11
1870.1756
 21
1089.5966000000001
  0
LINE
  8
_0-0_LAYER001
  6
CONTINUOUS
 62
    4
 10
1870.1756
 20
1089.5966000000001
 11
1873.8083000000001
 21
1090.8793000000001
  0
LINE
  8
_0-0_LAYER001
  6
CONTINUOUS
 62
    4
 10
1873.8083000000001
 20
1090.8793000000001
 11
1877.4663
 21
1091.9459999999999
  0
LINE
  8
_0-0_LAYER001
  6
CONTINUOUS
 62
    4
 10
1877.4663
 20
1091.9459999999999
 11
1881.1484
 21
1092.6992
  0
LINE
  8
_0-0_LAYER001
  6
CONTINUOUS
 62
    4
 10
1881.1484
 20
1092.6992
 11
1884.8537000000001
 21
1093.0417
  0
LINE
  8
_0-0_LAYER001
  6
CONTINUOUS
 62
    4
 10
1884.8537000000001
 20
1093.0417
 11
1887.0129999999999
 21
1093.0137999999999
  0
LINE
  8
_0-0_LAYER001
  6
CONTINUOUS
 62
    4
 10
1887.0129999999999
 20
1093.0137999999999
 11
1887.8620999999998
 21
1092.9525000000001
  0
LINE
  8
_0-0_LAYER001
  6
CONTINUOUS
 62
    4
 10
1887.8620999999998
 20
1092.9525000000001
 11
1889.3265000000001
 21
1092.7819
  0
LINE
  8
_0-0_LAYER001
  6
CONTINUOUS
 62
    4
 10
1889.3265000000001
 20
1092.7819
 11
1890.7876000000001
 21
1092.5351000000001
  0
LINE
  8
_0-0_LAYER001
  6
CONTINUOUS
 62
    4
 10
1890.7876000000001
 20
1092.5351000000001
 11
1892.2411999999999
 21
1092.2191
  0
LINE
  8
_0-0_LAYER001
  6
CONTINUOUS
 62
    4
 10
1892.2411999999999
 20
1092.2191
 11
1893.6833999999999
 21
1091.8406
  0
LINE
  8
_0-0_LAYER001
  6
CONTINUOUS
 62
    4
 10
1893.6833999999999
 20
1091.8406
 11
1895.1098000000002
 21
1091.4065000000001
  0
LINE
  8
_0-0_LAYER001
  6
CONTINUOUS
 62
    4
 10
1895.1098000000002
 20
1091.4065000000001
 11
1895.9283
 21
1091.1319000000001
  0
LINE
  8
_0-0_LAYER001
  6
CONTINUOUS
 62
    4
 10
1895.9283
 20
1091.1319000000001
 11
1898.4265
 21
1090.1836000000001
  0
LINE
  8
_0-0_LAYER001
  6
CONTINUOUS
 62
    4
 10
1898.4265
 20
1090.1836000000001
 11
1902.5853999999999
 21
1088.2501
  0
LINE
  8
_0-0_LAYER001
  6
CONTINUOUS
 62
    4
 10
1902.5853999999999
 20
1088.2501
 11
1906.5893000000001
 21
1086.0047
  0
LINE
  8
_0-0_LAYER001
  6
CONTINUOUS
 62
    4
 10
1906.5893000000001
 20
1086.0047
 11
1910.4760999999999
 21
1083.5244
  0
LINE
  8
_0-0_LAYER001
  6
CONTINUOUS
 62
    4
 10
1910.4760999999999
 20
1083.5244
 11
1914.2840999999999
 21
1080.8862999999999
  0
LINE
  8
_0-0_LAYER001
  6
CONTINUOUS
 62
    4
 10
1914.2840999999999
 20
1080.8862999999999
 11
1918.0513999999998
 21
1078.1672000000001
  0
LINE
  8
_0-0_LAYER001
  6
CONTINUOUS
 62
    4
 10
1918.0513999999998
 20
1078.1672000000001
 11
1920.2327
 21
1076.5834
  0
LINE
  8
_0-0_LAYER001
  6
CONTINUOUS
 62
    4
 10
1920.2327
 20
1076.5834
 11
1923.5643
 21
1074.1966
  0
LINE
  8
_0-0_LAYER001
  6
CONTINUOUS
 62
    4
 10
1923.5643
 20
1074.1966
 11
1929.3564999999999
 21
1070.1795999999999
  0
LINE
  8
_0-0_LAYER001
  6
CONTINUOUS
 62
    4
 10
1929.3564999999999
 20
1070.1795999999999
 11
1935.2287000000001
 21
1066.3230000000001
  0
LINE
  8
_0-0_LAYER001
  6
CONTINUOUS
 62
    4
 10
1935.2287000000001
 20
1066.3230000000001
 11
1941.2028
 21
1062.6686
  0
LINE
  8
_0-0_LAYER001
  6
CONTINUOUS
 62
    4
 10
1941.2028
 20
1062.6686
 11
1947.3009999999999
 21
1059.258
  0
LINE
  8
_0-0_LAYER001
  6
CONTINUOUS
 62
    4
 10
1947.3009999999999
 20
1059.258
 11
1953.5453000000002
 21
1056.1332
  0
LINE
  8
_0-0_LAYER001
  6
CONTINUOUS
 62
    4
 10
1953.5453000000002
 20
1056.1332
 11
1957.2426
 21
1054.4682
  0
LINE
  8
_0-0_LAYER001
  6
CONTINUOUS
 62
    4
 10
1957.2426
 20
1054.4682
 11
1960.3018000000002
 21
1053.1971000000001
  0
LINE
  8
_0-0_LAYER001
  6
CONTINUOUS
 62
    4
 10
1960.3018000000002
 20
1053.1971000000001
 11
1965.6624000000002
 21
1051.1949999999999
  0
LINE
  8
_0-0_LAYER001
  6
CONTINUOUS
 62
    4
 10
1965.6624000000002
 20
1051.1949999999999
 11
1971.1181000000001
 21
1049.4395
  0
LINE
  8
_0-0_LAYER001
  6
CONTINUOUS
 62
    4
 10
1971.1181000000001
 20
1049.4395
 11
1976.6529999999998
 21
1047.9386999999999
  0
LINE
  8
_0-0_LAYER001
  6
CONTINUOUS
 62
    4
 10
1976.6529999999998
 20
1047.9386999999999
 11
1982.2512999999999
 21
1046.7007000000001
  0
LINE
  8
_0-0_LAYER001
  6
CONTINUOUS
 62
    4
 10
1982.2512999999999
 20
1046.7007000000001
 11
1987.8971000000001
 21
1045.7335
  0
LINE
  8
_0-0_LAYER001
  6
CONTINUOUS
 62
    4
 10
1987.8971000000001
 20
1045.7335
 11
1991.1869999999999
 21
1045.2997
  0
LINE
  8
_0-0_LAYER001
  6
CONTINUOUS
 62
    4
 10
1991.1869999999999
 20
1045.2997
 11
1993.7062999999998
 21
1045.0319
  0
LINE
  8
_0-0_LAYER001
  6
CONTINUOUS
 62
    4
 10
1993.7062999999998
 20
1045.0319
 11
1998.0583999999999
 21
1044.6919
  0
LINE
  8
_0-0_LAYER001
  6
CONTINUOUS
 62
    4
 10
1998.0583999999999
 20
1044.6919
 11
2002.4186
 21
1044.4924000000001
  0
LINE
  8
_0-0_LAYER001
  6
CONTINUOUS
 62
    4
 10
2002.4186
 20
1044.4924000000001
 11
2006.7838000000002
 21
1044.4177999999999
  0
LINE
  8
_0-0_LAYER001
  6
CONTINUOUS
 62
    4
 10
2006.7838000000002
 20
1044.4177999999999
 11
2011.1509000000001
 21
1044.4521
  0
LINE
  8
_0-0_LAYER001
  6
CONTINUOUS
 62
    4
 10
2011.1509000000001
 20
1044.4521
 11
2015.5167999999999
 21
1044.5797
  0
LINE
  8
_0-0_LAYER001
  6
CONTINUOUS
 62
    4
 10
2015.5167999999999
 20
1044.5797
 11
2018.0473000000002
 21
1044.6902
  0
LINE
  8
_0-0_LAYER001
  6
CONTINUOUS
 62
    4
 10
2018.0473000000002
 20
1044.6902
 11
2022.7764000000002
 21
1044.9584
  0
LINE
  8
_0-0_LAYER001
  6
CONTINUOUS
 62
    4
 10
2022.7764000000002
 20
1044.9584
 11
2030.9146000000001
 21
1045.5894000000001
  0
LINE
  8
_0-0_LAYER001
  6
CONTINUOUS
 62
    4
 10
2030.9146000000001
 20
1045.5894000000001
 11
2039.0353
 21
1046.4032999999999
  0
LINE
  8
_0-0_LAYER001
  6
CONTINUOUS
 62
    4
 10
2039.0353
 20
1046.4032999999999
 11
2047.1412
 21
1047.3644999999999
  0
LINE
  8
_0-0_LAYER001
  6
CONTINUOUS
 62
    4
 10
2047.1412
 20
1047.3644999999999
 11
2055.2345999999998
 21
1048.4376999999999
  0
LINE
  8
_0-0_LAYER001
  6
CONTINUOUS
 62
    4
 10
2055.2345999999998
 20
1048.4376999999999
 11
2063.3182000000002
 21
1049.5872999999999
  0
LINE
  8
_0-0_LAYER001
  6
CONTINUOUS
 62
    4
 10
2063.3182000000002
 20
1049.5872999999999
 11
2068.0030999999999
 21
1050.2751000000001
  0
LINE
  8
_0-0_LAYER001
  6
CONTINUOUS
 62
    4
 10
2068.0030999999999
 20
1050.2751000000001
 11
2070.4380000000001
 21
1050.6359
  0
LINE
  8
_0-0_LAYER001
  6
CONTINUOUS
 62
    4
 10
2070.4380000000001
 20
1050.6359
 11
2074.6350000000002
 21
1051.2619
  0
LINE
  8
_0-0_LAYER001
  6
CONTINUOUS
 62
    4
 10
2074.6350000000002
 20
1051.2619
 11
2078.8307
 21
1051.8920000000001
  0
LINE
  8
_0-0_LAYER001
  6
CONTINUOUS
 62
    4
 10
2078.8307
 20
1051.8920000000001
 11
2083.0255999999999
 21
1052.5253
  0
LINE
  8
_0-0_LAYER001
  6
CONTINUOUS
 62
    4
 10
2083.0255999999999
 20
1052.5253
 11
2087.2197000000001
 21
1053.1609000000001
  0
LINE
  8
_0-0_LAYER001
  6
CONTINUOUS
 62
    4
 10
2087.2197000000001
 20
1053.1609000000001
 11
2091.4135000000001
 21
1053.7979
  0
LINE
  8
_0-0_LAYER001
  6
CONTINUOUS
 62
    4
 10
2091.4135000000001
 20
1053.7979
 11
2093.8458000000001
 21
1054.1676
  0
LINE
  8
_0-0_LAYER001
  6
CONTINUOUS
 62
    4
 10
1848.8089
 20
1062.0640000000001
 11
1850.8708000000001
 21
1062.8408999999999
  0
LINE
  8
_0-0_LAYER001
  6
CONTINUOUS
 62
    4
 10
1850.8708000000001
 20
1062.8408999999999
 11
1854.4384
 21
1064.1874
  0
LINE
  8
_0-0_LAYER001
  6
CONTINUOUS
 62
    4
 10
1854.4384
 20
1064.1874
 11
1858.0302999999999
 21
1065.5497
  0
LINE
  8
_0-0_LAYER001
  6
CONTINUOUS
 62
    4
 10
1858.0302999999999
 20
1065.5497
 11
1861.6507000000001
 21
1066.9335000000001
  0
LINE
  8
_0-0_LAYER001
  6
CONTINUOUS
 62
    4
 10
1861.6507000000001
 20
1066.9335000000001
 11
1865.3036000000002
 21
1068.3445999999999
  0
LINE
  8
_0-0_LAYER001
  6
CONTINUOUS
 62
    4
 10
1865.3036000000002
 20
1068.3445999999999
 11
1868.9828000000002
 21
1069.7850000000001
  0
LINE
  8
_0-0_LAYER001
  6
CONTINUOUS
 62
    4
 10
1868.9828000000002
 20
1069.7850000000001
 11
1871.1379999999999
 21
1070.6391000000001
  0
LINE
  8
_0-0_LAYER001
  6
CONTINUOUS
 62
    4
 10
1871.1379999999999
 20
1070.6391000000001
 11
1873.1615999999999
 21
1071.4457
  0
LINE
  8
_0-0_LAYER001
  6
CONTINUOUS
 62
    4
 10
1873.1615999999999
 20
1071.4457
 11
1876.4335000000001
 21
1072.7171000000001
  0
LINE
  8
_0-0_LAYER001
  6
CONTINUOUS
 62
    4
 10
1876.4335000000001
 20
1072.7171000000001
 11
1879.3285999999998
 21
1073.7393999999999
  0
LINE
  8
_0-0_LAYER001
  6
CONTINUOUS
 62
    4
 10
1879.3285999999998
 20
1073.7393999999999
 11
1881.7966999999999
 21
1074.4591
  0
LINE
  8
_0-0_LAYER001
  6
CONTINUOUS
 62
    4
 10
1881.7966999999999
 20
1074.4591
 11
1883.7885000000001
 21
1074.8665000000001
  0
LINE
  8
_0-0_LAYER001
  6
CONTINUOUS
 62
    4
 10
1883.7885000000001
 20
1074.8665000000001
 11
1885.5677999999998
 21
1075.0309999999999
  0
LINE
  8
_0-0_LAYER001
  6
CONTINUOUS
 62
    4
 10
1885.5677999999998
 20
1075.0309999999999
 11
1886.2473
 21
1075.0222000000001
  0
LINE
  8
_0-0_LAYER001
  6
CONTINUOUS
 62
    4
 10
1886.2473
 20
1075.0222000000001
 11
1886.1712000000002
 21
1075.0277000000001
  0
LINE
  8
_0-0_LAYER001
  6
CONTINUOUS
 62
    4
 10
1886.1712000000002
 20
1075.0277000000001
 11
1886.7849000000001
 21
1074.9562000000001
  0
LINE
  8
_0-0_LAYER001
  6
CONTINUOUS
 62
    4
 10
1886.7849000000001
 20
1074.9562000000001
 11
1887.3753000000002
 21
1074.8565000000001
  0
LINE
  8
_0-0_LAYER001
  6
CONTINUOUS
 62
    4
 10
1887.3753000000002
 20
1074.8565000000001
 11
1888.0427
 21
1074.7113999999999
  0
LINE
  8
_0-0_LAYER001
  6
CONTINUOUS
 62
    4
 10
1888.0427
 20
1074.7113999999999
 11
1888.7761999999998
 21
1074.5189
  0
LINE
  8
_0-0_LAYER001
  6
CONTINUOUS
 62
    4
 10
1888.7761999999998
 20
1074.5189
 11
1889.6253999999999
 21
1074.2605000000001
  0
LINE
  8
_0-0_LAYER001
  6
CONTINUOUS
 62
    4
 10
1889.6253999999999
 20
1074.2605000000001
 11
1889.8694999999998
 21
1074.1786
  0
LINE
  8
_0-0_LAYER001
  6
CONTINUOUS
 62
    4
 10
1889.8694999999998
 20
1074.1786
 11
1891.4294
 21
1073.5864999999999
  0
LINE
  8
_0-0_LAYER001
  6
CONTINUOUS
 62
    4
 10
1891.4294
 20
1073.5864999999999
 11
1894.3771000000002
 21
1072.2161000000001
  0
LINE
  8
_0-0_LAYER001
  6
CONTINUOUS
 62
    4
 10
1894.3771000000002
 20
1072.2161000000001
 11
1897.3382000000001
 21
1070.5554999999999
  0
LINE
  8
_0-0_LAYER001
  6
CONTINUOUS
 62
    4
 10
1897.3382000000001
 20
1070.5554999999999
 11
1900.5059000000001
 21
1068.5341000000001
  0
LINE
  8
_0-0_LAYER001
  6
CONTINUOUS
 62
    4
 10
1900.5059000000001
 20
1068.5341000000001
 11
1903.8906000000002
 21
1066.1892
  0
LINE
  8
_0-0_LAYER001
  6
CONTINUOUS
 62
    4
 10
1903.8906000000002
 20
1066.1892
 11
1907.4962999999998
 21
1063.5867000000001
  0
LINE
  8
_0-0_LAYER001
  6
CONTINUOUS
 62
    4
 10
1907.4962999999998
 20
1063.5867000000001
 11
1909.7033000000001
 21
1061.9843000000001
  0
LINE
  8
_0-0_LAYER001
  6
CONTINUOUS
 62
    4
 10
1909.7033000000001
 20
1061.9843000000001
 11
1913.1932999999999
 21
1059.4839999999999
  0
LINE
  8
_0-0_LAYER001
  6
CONTINUOUS
 62
    4
 10
1913.1932999999999
 20
1059.4839999999999
 11
1919.2854000000002
 21
1055.259
  0
LINE
  8
_0-0_LAYER001
  6
CONTINUOUS
 62
    4
 10
1919.2854000000002
 20
1055.259
 11
1925.5891999999999
 21
1051.1189999999999
  0
LINE
  8
_0-0_LAYER001
  6
CONTINUOUS
 62
    4
 10
1925.5891999999999
 20
1051.1189999999999
 11
1932.1098999999999
 21
1047.1302000000001
  0
LINE
  8
_0-0_LAYER001
  6
CONTINUOUS
 62
    4
 10
1932.1098999999999
 20
1047.1302000000001
 11
1938.8757999999998
 21
1043.3462
  0
LINE
  8
_0-0_LAYER001
  6
CONTINUOUS
 62
    4
 10
1938.8757999999998
 20
1043.3462
 11
1945.8189000000002
 21
1039.8716999999999
  0
LINE
  8
_0-0_LAYER001
  6
CONTINUOUS
 62
    4
 10
1945.8189000000002
 20
1039.8716999999999
 11
1950.0922999999998
 21
1037.9472000000001
  0
LINE
  8
_0-0_LAYER001
  6
CONTINUOUS
 62
    4
 10
1950.0922999999998
 20
1037.9472000000001
 11
1953.6974
 21
1036.4493
  0
LINE
  8
_0-0_LAYER001
  6
CONTINUOUS
 62
    4
 10
1953.6974
 20
1036.4493
 11
1959.7534999999998
 21
1034.1874
  0
LINE
  8
_0-0_LAYER001
  6
CONTINUOUS
 62
    4
 10
1959.7534999999998
 20
1034.1874
 11
1966.0032999999999
 21
1032.1764000000001
  0
LINE
  8
_0-0_LAYER001
  6
CONTINUOUS
 62
    4
 10
1966.0032999999999
 20
1032.1764000000001
 11
1972.3521000000001
 21
1030.4549
  0
LINE
  8
_0-0_LAYER001
  6
CONTINUOUS
 62
    4
 10
1972.3521000000001
 20
1030.4549
 11
1978.7863000000002
 21
1029.0320999999999
  0
LINE
  8
_0-0_LAYER001
  6
CONTINUOUS
 62
    4
 10
1978.7863000000002
 20
1029.0320999999999
 11
1985.1999999999998
 21
1027.9332999999999
  0
LINE
  8
_0-0_LAYER001
  6
CONTINUOUS
 62
    4
 10
1985.1999999999998
 20
1027.9332999999999
 11
1989.0587999999998
 21
1027.4246000000001
  0
LINE
  8
_0-0_LAYER001
  6
CONTINUOUS
 62
    4
 10
1989.0587999999998
 20
1027.4246000000001
 11
1992.0533999999998
 21
1027.1061999999999
  0
LINE
  8
_0-0_LAYER001
  6
CONTINUOUS
 62
    4
 10
1992.0533999999998
 20
1027.1061999999999
 11
1996.9459000000002
 21
1026.7239
  0
LINE
  8
_0-0_LAYER001
  6
CONTINUOUS
 62
    4
 10
1996.9459000000002
 20
1026.7239
 11
2001.8534
 21
1026.4994999999999
  0
LINE
  8
_0-0_LAYER001
  6
CONTINUOUS
 62
    4
 10
2001.8534
 20
1026.4994999999999
 11
2006.7008000000001
 21
1026.4166
  0
LINE
  8
_0-0_LAYER001
  6
CONTINUOUS
 62
    4
 10
2006.7008000000001
 20
1026.4166
 11
2011.4847
 21
1026.4541999999999
  0
LINE
  8
_0-0_LAYER001
  6
CONTINUOUS
 62
    4
 10
2011.4847
 20
1026.4541999999999
 11
2016.1723000000002
 21
1026.5912000000001
  0
LINE
  8
_0-0_LAYER001
  6
CONTINUOUS
 62
    4
 10
2016.1723000000002
 20
1026.5912000000001
 11
2018.9495000000002
 21
1026.7123999999999
  0
LINE
  8
_0-0_LAYER001
  6
CONTINUOUS
 62
    4
 10
2018.9495000000002
 20
1026.7123999999999
 11
2023.9818
 21
1026.9978000000001
  0
LINE
  8
_0-0_LAYER001
  6
CONTINUOUS
 62
    4
 10
2023.9818
 20
1026.9978000000001
 11
2032.5079999999998
 21
1027.6588999999999
  0
LINE
  8
_0-0_LAYER001
  6
CONTINUOUS
 62
    4
 10
2032.5079999999998
 20
1027.6588999999999
 11
2040.9929000000002
 21
1028.5092999999999
  0
LINE
  8
_0-0_LAYER001
  6
CONTINUOUS
 62
    4
 10
2040.9929000000002
 20
1028.5092999999999
 11
2049.3842
 21
1029.5044
  0
LINE
  8
_0-0_LAYER001
  6
CONTINUOUS
 62
    4
 10
2049.3842
 20
1029.5044
 11
2057.6849000000002
 21
1030.6051
  0
LINE
  8
_0-0_LAYER001
  6
CONTINUOUS
 62
    4
 10
2057.6849000000002
 20
1030.6051
 11
2065.8926000000001
 21
1031.7723000000001
  0
LINE
  8
_0-0_LAYER001
  6
CONTINUOUS
 62
    4
 10
2065.8926000000001
 20
1031.7723000000001
 11
2070.6298000000002
 21
1032.4676999999999
  0
LINE
  8
_0-0_LAYER001
  6
CONTINUOUS
 62
    4
 10
2070.6298000000002
 20
1032.4676999999999
 11
2073.0850999999998
 21
1032.8316
  0
LINE
  8
_0-0_LAYER001
  6
CONTINUOUS
 62
    4
 10
2073.0850999999998
 20
1032.8316
 11
2077.2991999999999
 21
1033.4602
  0
LINE
  8
_0-0_LAYER001
  6
CONTINUOUS
 62
    4
 10
2077.2991999999999
 20
1033.4602
 11
2081.5108
 21
1034.0926999999999
  0
LINE
  8
_0-0_LAYER001
  6
CONTINUOUS
 62
    4
 10
2081.5108
 20
1034.0926999999999
 11
2085.7175000000002
 21
1034.7276999999999
  0
LINE
  8
_0-0_LAYER001
  6
CONTINUOUS
 62
    4
 10
2085.7175000000002
 20
1034.7276999999999
 11
2089.9196999999999
 21
1035.3644999999999
  0
LINE
  8
_0-0_LAYER001
  6
CONTINUOUS
 62
    4
 10
2089.9196999999999
 20
1035.3644999999999
 11
2094.1176
 21
1036.0021999999999
  0
LINE
  8
_0-0_LAYER001
  6
CONTINUOUS
 62
    4
 10
2094.1176
 20
1036.0021999999999
 11
2095.7352999999998
 21
1036.2481
  0
LINE
  8
_0-0_LAYER001
  6
CONTINUOUS
 62
    4
 10
1843.2800999999999
 20
1079.2141999999999
 11
1843.7060000000001
 21
1079.3771999999999
  0
ARC
  8
_0-0_LAYER001
  6
CONTINUOUS
 62
    4
 10
1844.3526999999999
 20
1076.4124999999999
 40
3
 50
110.94902000000002
 51
178.70000000000002
  0
LINE
  8
_0-0_LAYER001
  6
CONTINUOUS
 62
    4
 10
1841.2440999999999
 20
1060.6414
 11
1841.2440999999999
 21
1076.3639000000001
  0
LINE
  8
_0-0_LAYER001
  6
CONTINUOUS
 62
    4
 10
1842.5981000000002
 20
1059.7062000000001
 11
1848.7728999999999
 21
1062.0433
  0
ARC
  8
_0-0_LAYER001
  6
CONTINUOUS
 62
    4
 10
1842.2440999999999
 20
1060.6414
 40
1
 50
180
 51
290.73165999999998
  0
LINE
  8
_0-0_LAYER001
  6
CONTINUOUS
 62
    4
 10
2093.9706999999999
 20
1054.203
 11
2138.4250000000002
 21
1063.8508999999999
  0
LINE
  8
_0-0_LAYER001
  6
CONTINUOUS
 62
    4
 10
2100.7159000000001
 20
1034.3693000000001
 11
2139.3877000000002
 21
1043.4193
  0
LINE
  8
_0-0_LAYER001
  6
CONTINUOUS
 62
    4
 10
2139.3877000000002
 20
1044.3757000000001
 11
2139.3877000000002
 21
1043.4193
  0
ARC
  8
_0-0_LAYER001
  6
CONTINUOUS
 62
    4
 10
2140.3877000000002
 20
1044.3757000000001
 40
1
 50
102.72435
 51
180
  0
LINE
  8
_0-0_LAYER001
  6
CONTINUOUS
 62
    4
 10
2145.2046999999998
 20
1046.4885999999999
 11
2140.1673999999998
 21
1045.3512000000001
  0
ARC
  8
_0-0_LAYER001
  6
CONTINUOUS
 62
    4
 10
2145.4250000000002
 20
1045.5132000000001
 40
1
 50
0
 51
102.72435
  0
LINE
  8
_0-0_LAYER001
  6
CONTINUOUS
 62
    4
 10
2145.6370999999999
 20
1046.9971
 11
2095.5030999999999
 21
1036.1166000000001
  0
ARC
  8
_0-0_LAYER001
  6
CONTINUOUS
 62
    4
 10
2145.4250000000002
 20
1047.9744000000001
 40
1
 50
282.24497000000002
 51
0
  0
LINE
  8
_0-0_LAYER001
  6
CONTINUOUS
 62
    4
 10
2145.6428000000001
 20
1026.2564
 11
2096.0589
 21
1015.1885
  0
LINE
  8
_0-0_LAYER001
  6
CONTINUOUS
 62
    4
 10
2146.4250000000002
 20
1027.2324000000001
 11
2146.4250000000002
 21
1045.5132000000001
  0
ARC
  8
_0-0_LAYER001
  6
CONTINUOUS
 62
    4
 10
2145.4250000000002
 20
1027.2324000000001
 40
1
 50
282.58296000000001
 51
0.0000000000000254
  0
LINE
  8
_0-0_LAYER001
  6
CONTINUOUS
 62
    4
 10
2138.4250000000002
 20
1065.3079
 11
2138.4250000000002
 21
1063.8508999999999
  0
ARC
  8
_0-0_LAYER001
  6
CONTINUOUS
 62
    4
 10
2139.4250000000002
 20
1065.3079
 40
1
 50
101.73308
 51
180
  0
LINE
  8
_0-0_LAYER001
  6
CONTINUOUS
 62
    4
 10
2145.2215999999999
 20
1067.5332000000001
 11
2139.2215999999999
 21
1066.287
  0
LINE
  8
_0-0_LAYER001
  6
CONTINUOUS
 62
    4
 10
2146.4250000000002
 20
1066.5541000000001
 11
2146.4250000000002
 21
1047.9744000000001
  0
ARC
  8
_0-0_LAYER001
  6
CONTINUOUS
 62
    4
 10
2145.4250000000002
 20
1066.5541000000001
 40
1
 50
0
 51
101.73308
  0
LINE
  8
_0-0_LAYER001
  6
CONTINUOUS
 62
    4
 10
1701.6943999999999
 20
995.66419999999994
 11
1693.1588999999999
 21
1010.1975
  0
LINE
  8
_0-0_LAYER001
  6
CONTINUOUS
 62
    4
 10
1709.8622
 20
995.01389999999992
 11
1718.1684
 21
1005.0794000000001
  0
ARC
  8
_0-0_LAYER001
  6
CONTINUOUS
 62
    4
 10
1706.0057999999999
 20
998.19630000000006
 40
5
 50
210.42578
 51
320.47001
  0
LINE
  8
_0-0_LAYER001
  6
CONTINUOUS
 62
    4
 10
1785.8078
 20
994.5440000000001
 11
1778.4825000000001
 21
1005.8501000000001
  0
LINE
  8
_0-0_LAYER001
  6
CONTINUOUS
 62
    4
 10
1794.3173999999999
 20
994.73389999999995
 11
1803.2557999999999
 21
1009.9795999999999
  0
ARC
  8
_0-0_LAYER001
  6
CONTINUOUS
 62
    4
 10
1790.0041000000001
 20
997.26279999999997
 40
5
 50
212.93986000000001
 51
329.61716000000001
  0
LINE
  8
_0-0_LAYER001
  6
CONTINUOUS
 62
    4
 10
1833.5994000000001
 20
1034.2916
 11
1836.0275000000001
 21
1034.6955
  0
LINE
  8
_0-0_LAYER001
  6
CONTINUOUS
 62
    4
 10
1829.4104000000002
 20
1033.5953
 11
1833.5994000000001
 21
1034.2916
  0
LINE
  8
_0-0_LAYER001
  6
CONTINUOUS
 62
    4
 10
1825.2166000000002
 20
1032.8997999999999
 11
1829.4104000000002
 21
1033.5953
  0
LINE
  8
_0-0_LAYER001
  6
CONTINUOUS
 62
    4
 10
1821.0178000000001
 20
1032.2058
 11
1825.2166000000002
 21
1032.8997999999999
  0
LINE
  8
_0-0_LAYER001
  6
CONTINUOUS
 62
    4
 10
1816.8137999999999
 20
1031.5143
 11
1821.0178000000001
 21
1032.2058
  0
LINE
  8
_0-0_LAYER001
  6
CONTINUOUS
 62
    4
 10
1812.6069000000002
 20
1030.8267000000001
 11
1816.8137999999999
 21
1031.5143
  0
LINE
  8
_0-0_LAYER001
  6
CONTINUOUS
 62
    4
 10
1810.1545999999998
 20
1030.4282000000001
 11
1812.6069000000002
 21
1030.8267000000001
  0
LINE
  8
_0-0_LAYER001
  6
CONTINUOUS
 62
    4
 10
1805.4218999999998
 20
1029.6657
 11
1810.1545999999998
 21
1030.4282000000001
  0
LINE
  8
_0-0_LAYER001
  6
CONTINUOUS
 62
    4
 10
1797.2174
 20
1028.3818000000001
 11
1805.4218999999998
 21
1029.6657
  0
LINE
  8
_0-0_LAYER001
  6
CONTINUOUS
 62
    4
 10
1788.9099999999999
 20
1027.162
 11
1797.2174
 21
1028.3818000000001
  0
LINE
  8
_0-0_LAYER001
  6
CONTINUOUS
 62
    4
 10
1780.5016999999998
 20
1026.0455999999999
 11
1788.9099999999999
 21
1027.162
  0
LINE
  8
_0-0_LAYER001
  6
CONTINUOUS
 62
    4
 10
1771.9890999999998
 20
1025.0722000000001
 11
1780.5016999999998
 21
1026.0455999999999
  0
LINE
  8
_0-0_LAYER001
  6
CONTINUOUS
 62
    4
 10
1763.4299999999998
 20
1024.2882
 11
1771.9890999999998
 21
1025.0722000000001
  0
LINE
  8
_0-0_LAYER001
  6
CONTINUOUS
 62
    4
 10
1758.3683999999998
 20
1023.9302
 11
1763.4299999999998
 21
1024.2882
  0
LINE
  8
_0-0_LAYER001
  6
CONTINUOUS
 62
    4
 10
1755.5659000000001
 20
1023.7686000000001
 11
1758.3683999999998
 21
1023.9302
  0
LINE
  8
_0-0_LAYER001
  6
CONTINUOUS
 62
    4
 10
1750.8447999999999
 20
1023.5646999999999
 11
1755.5659000000001
 21
1023.7686000000001
  0
LINE
  8
_0-0_LAYER001
  6
CONTINUOUS
 62
    4
 10
1746.0156000000002
 20
1023.4592
 11
1750.8447999999999
 21
1023.5646999999999
  0
LINE
  8
_0-0_LAYER001
  6
CONTINUOUS
 62
    4
 10
1741.114
 20
1023.4746
 11
1746.0156000000002
 21
1023.4592
  0
LINE
  8
_0-0_LAYER001
  6
CONTINUOUS
 62
    4
 10
1736.1428999999998
 20
1023.6324999999999
 11
1741.114
 21
1023.4746
  0
LINE
  8
_0-0_LAYER001
  6
CONTINUOUS
 62
    4
 10
1731.1855
 20
1023.9502
 11
1736.1428999999998
 21
1023.6324999999999
  0
LINE
  8
_0-0_LAYER001
  6
CONTINUOUS
 62
    4
 10
1728.1338999999998
 20
1024.2317
 11
1731.1855
 21
1023.9502
  0
LINE
  8
_0-0_LAYER001
  6
CONTINUOUS
 62
    4
 10
1724.2049999999999
 20
1024.6939
 11
1728.1338999999998
 21
1024.2317
  0
LINE
  8
_0-0_LAYER001
  6
CONTINUOUS
 62
    4
 10
1717.6911
 20
1025.7164
 11
1724.2049999999999
 21
1024.6939
  0
LINE
  8
_0-0_LAYER001
  6
CONTINUOUS
 62
    4
 10
1711.1444999999999
 20
1027.0686000000001
 11
1717.6911
 21
1025.7164
  0
LINE
  8
_0-0_LAYER001
  6
CONTINUOUS
 62
    4
 10
1704.6815000000001
 20
1028.7245
 11
1711.1444999999999
 21
1027.0686000000001
  0
LINE
  8
_0-0_LAYER001
  6
CONTINUOUS
 62
    4
 10
1698.3155999999999
 20
1030.6751999999999
 11
1704.6815000000001
 21
1028.7245
  0
LINE
  8
_0-0_LAYER001
  6
CONTINUOUS
 62
    4
 10
1692.1507999999999
 20
1032.8801000000001
 11
1698.3155999999999
 21
1030.6751999999999
  0
LINE
  8
_0-0_LAYER001
  6
CONTINUOUS
 62
    4
 10
1688.4641999999999
 20
1034.3518999999999
 11
1692.1507999999999
 21
1032.8801000000001
  0
LINE
  8
_0-0_LAYER001
  6
CONTINUOUS
 62
    4
 10
1684.0999000000002
 20
1036.2444
 11
1688.4641999999999
 21
1034.3518999999999
  0
LINE
  8
_0-0_LAYER001
  6
CONTINUOUS
 62
    4
 10
1677.0309000000002
 20
1039.6594
 11
1684.0999000000002
 21
1036.2444
  0
LINE
  8
_0-0_LAYER001
  6
CONTINUOUS
 62
    4
 10
1670.1379999999999
 20
1043.3889999999999
 11
1677.0309000000002
 21
1039.6594
  0
LINE
  8
_0-0_LAYER001
  6
CONTINUOUS
 62
    4
 10
1663.5010000000002
 20
1047.3226999999999
 11
1670.1379999999999
 21
1043.3889999999999
  0
LINE
  8
_0-0_LAYER001
  6
CONTINUOUS
 62
    4
 10
1657.0916000000002
 20
1051.4050999999999
 11
1663.5010000000002
 21
1047.3226999999999
  0
LINE
  8
_0-0_LAYER001
  6
CONTINUOUS
 62
    4
 10
1650.9074000000001
 20
1055.5672
 11
1657.0916000000002
 21
1051.4050999999999
  0
LINE
  8
_0-0_LAYER001
  6
CONTINUOUS
 62
    4
 10
1647.3651
 20
1058.0309999999999
 11
1650.9074000000001
 21
1055.5672
  0
LINE
  8
_0-0_LAYER001
  6
CONTINUOUS
 62
    4
 10
1645.1331
 20
1059.6043999999999
 11
1647.3651
 21
1058.0309999999999
  0
LINE
  8
_0-0_LAYER001
  6
CONTINUOUS
 62
    4
 10
1641.5095000000001
 20
1062.1436000000001
 11
1645.1331
 21
1059.6043999999999
  0
LINE
  8
_0-0_LAYER001
  6
CONTINUOUS
 62
    4
 10
1638.1399000000001
 20
1064.4091000000001
 11
1641.5095000000001
 21
1062.1436000000001
  0
LINE
  8
_0-0_LAYER001
  6
CONTINUOUS
 62
    4
 10
1635.0248999999999
 20
1066.3362
 11
1638.1399000000001
 21
1064.4091000000001
  0
LINE
  8
_0-0_LAYER001
  6
CONTINUOUS
 62
    4
 10
1632.1577000000002
 20
1067.8919000000001
 11
1635.0248999999999
 21
1066.3362
  0
LINE
  8
_0-0_LAYER001
  6
CONTINUOUS
 62
    4
 10
1629.3265000000001
 20
1069.1604
 11
1632.1577000000002
 21
1067.8919000000001
  0
LINE
  8
_0-0_LAYER001
  6
CONTINUOUS
 62
    4
 10
1627.8633
 20
1069.6925000000001
 11
1629.3265000000001
 21
1069.1604
  0
LINE
  8
_0-0_LAYER001
  6
CONTINUOUS
 62
    4
 10
1627.6822000000002
 20
1069.7505000000001
 11
1627.8633
 21
1069.6925000000001
  0
LINE
  8
_0-0_LAYER001
  6
CONTINUOUS
 62
    4
 10
1626.8939999999998
 20
1069.9784
 11
1627.6822000000002
 21
1069.7505000000001
  0
LINE
  8
_0-0_LAYER001
  6
CONTINUOUS
 62
    4
 10
1626.2368000000001
 20
1070.1411000000001
 11
1626.8939999999998
 21
1069.9784
  0
LINE
  8
_0-0_LAYER001
  6
CONTINUOUS
 62
    4
 10
1625.6550000000002
 20
1070.2591
 11
1626.2368000000001
 21
1070.1411000000001
  0
LINE
  8
_0-0_LAYER001
  6
CONTINUOUS
 62
    4
 10
1625.6149999999998
 20
1070.2653
 11
1625.6550000000002
 21
1070.2591
  0
LINE
  8
_0-0_LAYER001
  6
CONTINUOUS
 62
    4
 10
1829.5888
 20
1015.1041
 11
1831.2029000000002
 21
1015.3725999999999
  0
LINE
  8
_0-0_LAYER001
  6
CONTINUOUS
 62
    4
 10
1825.4002
 20
1014.4078999999999
 11
1829.5888
 21
1015.1041
  0
LINE
  8
_0-0_LAYER001
  6
CONTINUOUS
 62
    4
 10
1821.2073
 20
1013.7125000000001
 11
1825.4002
 21
1014.4078999999999
  0
LINE
  8
_0-0_LAYER001
  6
CONTINUOUS
 62
    4
 10
1817.0099
 20
1013.0188000000001
 11
1821.2073
 21
1013.7125000000001
  0
LINE
  8
_0-0_LAYER001
  6
CONTINUOUS
 62
    4
 10
1812.8076000000001
 20
1012.3276000000001
 11
1817.0099
 21
1013.0188000000001
  0
LINE
  8
_0-0_LAYER001
  6
CONTINUOUS
 62
    4
 10
1808.6026000000002
 20
1011.6402
 11
1812.8076000000001
 21
1012.3276000000001
  0
LINE
  8
_0-0_LAYER001
  6
CONTINUOUS
 62
    4
 10
1806.1525999999999
 20
1011.2420999999999
 11
1808.6026000000002
 21
1011.6402
  0
LINE
  8
_0-0_LAYER001
  6
CONTINUOUS
 62
    4
 10
1801.4256
 20
1010.4806000000001
 11
1806.1525999999999
 21
1011.2420999999999
  0
LINE
  8
_0-0_LAYER001
  6
CONTINUOUS
 62
    4
 10
1793.2350000000001
 20
1009.1987999999999
 11
1801.4256
 21
1010.4806000000001
  0
LINE
  8
_0-0_LAYER001
  6
CONTINUOUS
 62
    4
 10
1784.9504999999999
 20
1007.9824000000001
 11
1793.2350000000001
 21
1009.1987999999999
  0
LINE
  8
_0-0_LAYER001
  6
CONTINUOUS
 62
    4
 10
1776.5738999999999
 20
1006.8702000000001
 11
1784.9504999999999
 21
1007.9824000000001
  0
LINE
  8
_0-0_LAYER001
  6
CONTINUOUS
 62
    4
 10
1768.1017000000002
 20
1005.9014999999999
 11
1776.5738999999999
 21
1006.8702000000001
  0
LINE
  8
_0-0_LAYER001
  6
CONTINUOUS
 62
    4
 10
1759.5855999999999
 20
1005.1214
 11
1768.1017000000002
 21
1005.9014999999999
  0
LINE
  8
_0-0_LAYER001
  6
CONTINUOUS
 62
    4
 10
1754.5576999999998
 20
1004.7657999999999
 11
1759.5855999999999
 21
1005.1214
  0
LINE
  8
_0-0_LAYER001
  6
CONTINUOUS
 62
    4
 10
1751.7824999999998
 20
1004.6058
 11
1754.5576999999998
 21
1004.7657999999999
  0
LINE
  8
_0-0_LAYER001
  6
CONTINUOUS
 62
    4
 10
1747.0972000000002
 20
1004.4032999999999
 11
1751.7824999999998
 21
1004.6058
  0
LINE
  8
_0-0_LAYER001
  6
CONTINUOUS
 62
    4
 10
1742.3143
 20
1004.2989
 11
1747.0972000000002
 21
1004.4032999999999
  0
LINE
  8
_0-0_LAYER001
  6
CONTINUOUS
 62
    4
 10
1737.4663
 20
1004.3141000000001
 11
1742.3143
 21
1004.2989
  0
LINE
  8
_0-0_LAYER001
  6
CONTINUOUS
 62
    4
 10
1732.5560999999998
 20
1004.47
 11
1737.4663
 21
1004.3141000000001
  0
LINE
  8
_0-0_LAYER001
  6
CONTINUOUS
 62
    4
 10
1727.6588000000002
 20
1004.7838999999999
 11
1732.5560999999998
 21
1004.47
  0
LINE
  8
_0-0_LAYER001
  6
CONTINUOUS
 62
    4
 10
1724.6599999999999
 20
1005.0605
 11
1727.6588000000002
 21
1004.7838999999999
  0
LINE
  8
_0-0_LAYER001
  6
CONTINUOUS
 62
    4
 10
1720.7945
 20
1005.5153
 11
1724.6599999999999
 21
1005.0605
  0
LINE
  8
_0-0_LAYER001
  6
CONTINUOUS
 62
    4
 10
1714.3661000000002
 20
1006.5244
 11
1720.7945
 21
1005.5153
  0
LINE
  8
_0-0_LAYER001
  6
CONTINUOUS
 62
    4
 10
1707.9126000000001
 20
1007.8572999999999
 11
1714.3661000000002
 21
1006.5244
  0
LINE
  8
_0-0_LAYER001
  6
CONTINUOUS
 62
    4
 10
1701.5403999999999
 20
1009.4899
 11
1707.9126000000001
 21
1007.8572999999999
  0
LINE
  8
_0-0_LAYER001
  6
CONTINUOUS
 62
    4
 10
1695.2631000000001
 20
1011.4135000000001
 11
1701.5403999999999
 21
1009.4899
  0
LINE
  8
_0-0_LAYER001
  6
CONTINUOUS
 62
    4
 10
1689.1759999999999
 20
1013.5906
 11
1695.2631000000001
 21
1011.4135000000001
  0
LINE
  8
_0-0_LAYER001
  6
CONTINUOUS
 62
    4
 10
1685.5504000000001
 20
1015.0381
 11
1689.1759999999999
 21
1013.5906
  0
LINE
  8
_0-0_LAYER001
  6
CONTINUOUS
 62
    4
 10
1681.2505000000001
 20
1016.9027000000001
 11
1685.5504000000001
 21
1015.0381
  0
LINE
  8
_0-0_LAYER001
  6
CONTINUOUS
 62
    4
 10
1674.2595999999999
 20
1020.2799
 11
1681.2505000000001
 21
1016.9027000000001
  0
LINE
  8
_0-0_LAYER001
  6
CONTINUOUS
 62
    4
 10
1667.4414999999999
 20
1023.9690000000001
 11
1674.2595999999999
 21
1020.2799
  0
LINE
  8
_0-0_LAYER001
  6
CONTINUOUS
 62
    4
 10
1660.8656999999998
 20
1027.8664000000001
 11
1667.4414999999999
 21
1023.9690000000001
  0
LINE
  8
_0-0_LAYER001
  6
CONTINUOUS
 62
    4
 10
1654.5048000000002
 20
1031.9179999999999
 11
1660.8656999999998
 21
1027.8664000000001
  0
LINE
  8
_0-0_LAYER001
  6
CONTINUOUS
 62
    4
 10
1648.3542000000002
 20
1036.0574999999999
 11
1654.5048000000002
 21
1031.9179999999999
  0
LINE
  8
_0-0_LAYER001
  6
CONTINUOUS
 62
    4
 10
1644.8296999999998
 20
1038.5089
 11
1648.3542000000002
 21
1036.0574999999999
  0
LINE
  8
_0-0_LAYER001
  6
CONTINUOUS
 62
    4
 10
1642.6006000000002
 20
1040.0803000000001
 11
1644.8296999999998
 21
1038.5089
  0
LINE
  8
_0-0_LAYER001
  6
CONTINUOUS
 62
    4
 10
1638.9589000000001
 20
1042.6322
 11
1642.6006000000002
 21
1040.0803000000001
  0
LINE
  8
_0-0_LAYER001
  6
CONTINUOUS
 62
    4
 10
1635.5417000000002
 20
1044.9295999999999
 11
1638.9589000000001
 21
1042.6322
  0
LINE
  8
_0-0_LAYER001
  6
CONTINUOUS
 62
    4
 10
1632.3461000000002
 20
1046.9066
 11
1635.5417000000002
 21
1044.9295999999999
  0
LINE
  8
_0-0_LAYER001
  6
CONTINUOUS
 62
    4
 10
1629.3622
 20
1048.5255999999999
 11
1632.3461000000002
 21
1046.9066
  0
LINE
  8
_0-0_LAYER001
  6
CONTINUOUS
 62
    4
 10
1626.3955999999998
 20
1049.8548000000001
 11
1629.3622
 21
1048.5255999999999
  0
LINE
  8
_0-0_LAYER001
  6
CONTINUOUS
 62
    4
 10
1625.6455999999998
 20
1050.1275000000001
 11
1626.3955999999998
 21
1049.8548000000001
  0
LINE
  8
_0-0_LAYER001
  6
CONTINUOUS
 62
    4
 10
1625.9787000000001
 20
1070.1706999999999
 11
1625.8027000000002
 21
1049.9972
  0
LINE
  8
_0-0_LAYER001
  6
CONTINUOUS
 62
    4
 10
1826.3042999999998
 20
1004.6829
 11
1824.0589
 21
1013.2563
  0
ARC
  8
_0-0_LAYER001
  6
CONTINUOUS
 62
    4
 10
1829.2064
 20
1005.443
 40
3
 50
194.67639000000003
 51
270.00000000000006
  0
LINE
  8
_0-0_LAYER001
  6
CONTINUOUS
 62
    4
 10
1832.6489000000001
 20
1002.4386
 11
1829.2311
 21
1002.4386
  0
LINE
  8
_0-0_LAYER001
  6
CONTINUOUS
 62
    4
 10
1835.6080999999999
 20
1004.9454000000001
 11
1837.5421000000001
 21
1016.5496000000001
  0
ARC
  8
_0-0_LAYER001
  6
CONTINUOUS
 62
    4
 10
1832.6489000000001
 20
1005.4386
 40
3
 50
270
 51
350.53766999999999
  0
LINE
  8
_0-0_LAYER001
  6
CONTINUOUS
 62
    4
 10
1578.8825000000002
 20
1079.5608
 11
1579.6965
 21
1079.8675000000001
  0
LINE
  8
_0-0_LAYER001
  6
CONTINUOUS
 62
    4
 10
1579.6965
 20
1079.8675000000001
 11
1583.2456999999999
 21
1081.2071000000001
  0
LINE
  8
_0-0_LAYER001
  6
CONTINUOUS
 62
    4
 10
1583.2456999999999
 20
1081.2071000000001
 11
1586.8022999999998
 21
1082.556
  0
LINE
  8
_0-0_LAYER001
  6
CONTINUOUS
 62
    4
 10
1586.8022999999998
 20
1082.556
 11
1590.3710000000001
 21
1083.9200000000001
  0
LINE
  8
_0-0_LAYER001
  6
CONTINUOUS
 62
    4
 10
1590.3710000000001
 20
1083.9200000000001
 11
1593.9562999999998
 21
1085.3051
  0
LINE
  8
_0-0_LAYER001
  6
CONTINUOUS
 62
    4
 10
1593.9562999999998
 20
1085.3051
 11
1597.5630999999998
 21
1086.7170000000001
  0
LINE
  8
_0-0_LAYER001
  6
CONTINUOUS
 62
    4
 10
1597.5630999999998
 20
1086.7170000000001
 11
1599.6666
 21
1087.5506
  0
LINE
  8
_0-0_LAYER001
  6
CONTINUOUS
 62
    4
 10
1599.6666
 20
1087.5506
 11
1601.7458999999999
 21
1088.3795
  0
LINE
  8
_0-0_LAYER001
  6
CONTINUOUS
 62
    4
 10
1601.7458999999999
 20
1088.3795
 11
1605.3525
 21
1089.7809999999999
  0
LINE
  8
_0-0_LAYER001
  6
CONTINUOUS
 62
    4
 10
1605.3525
 20
1089.7809999999999
 11
1608.9852000000001
 21
1091.0636999999999
  0
LINE
  8
_0-0_LAYER001
  6
CONTINUOUS
 62
    4
 10
1608.9852000000001
 20
1091.0636999999999
 11
1612.6430999999998
 21
1092.1303
  0
LINE
  8
_0-0_LAYER001
  6
CONTINUOUS
 62
    4
 10
1612.6430999999998
 20
1092.1303
 11
1616.3253
 21
1092.8835999999999
  0
LINE
  8
_0-0_LAYER001
  6
CONTINUOUS
 62
    4
 10
1616.3253
 20
1092.8835999999999
 11
1620.0304999999998
 21
1093.2261000000001
  0
LINE
  8
_0-0_LAYER001
  6
CONTINUOUS
 62
    4
 10
1620.0304999999998
 20
1093.2261000000001
 11
1622.1898000000001
 21
1093.1982
  0
LINE
  8
_0-0_LAYER001
  6
CONTINUOUS
 62
    4
 10
1622.1898000000001
 20
1093.1982
 11
1623.0390000000002
 21
1093.1368
  0
LINE
  8
_0-0_LAYER001
  6
CONTINUOUS
 62
    4
 10
1623.0390000000002
 20
1093.1368
 11
1624.5032999999999
 21
1092.9662000000001
  0
LINE
  8
_0-0_LAYER001
  6
CONTINUOUS
 62
    4
 10
1624.5032999999999
 20
1092.9662000000001
 11
1625.9643999999998
 21
1092.7194999999999
  0
LINE
  8
_0-0_LAYER001
  6
CONTINUOUS
 62
    4
 10
1625.9643999999998
 20
1092.7194999999999
 11
1627.4180999999999
 21
1092.4034999999999
  0
LINE
  8
_0-0_LAYER001
  6
CONTINUOUS
 62
    4
 10
1627.4180999999999
 20
1092.4034999999999
 11
1628.8602000000001
 21
1092.0250000000001
  0
LINE
  8
_0-0_LAYER001
  6
CONTINUOUS
 62
    4
 10
1628.8602000000001
 20
1092.0250000000001
 11
1630.2867000000001
 21
1091.5907999999999
  0
LINE
  8
_0-0_LAYER001
  6
CONTINUOUS
 62
    4
 10
1630.2867000000001
 20
1091.5907999999999
 11
1631.1051000000002
 21
1091.3162
  0
LINE
  8
_0-0_LAYER001
  6
CONTINUOUS
 62
    4
 10
1631.1051000000002
 20
1091.3162
 11
1633.6034
 21
1090.3679999999999
  0
LINE
  8
_0-0_LAYER001
  6
CONTINUOUS
 62
    4
 10
1633.6034
 20
1090.3679999999999
 11
1637.7622999999999
 21
1088.4344000000001
  0
LINE
  8
_0-0_LAYER001
  6
CONTINUOUS
 62
    4
 10
1637.7622999999999
 20
1088.4344000000001
 11
1641.7660999999998
 21
1086.1891000000001
  0
LINE
  8
_0-0_LAYER001
  6
CONTINUOUS
 62
    4
 10
1641.7660999999998
 20
1086.1891000000001
 11
1645.6529999999998
 21
1083.7088000000001
  0
LINE
  8
_0-0_LAYER001
  6
CONTINUOUS
 62
    4
 10
1645.6529999999998
 20
1083.7088000000001
 11
1649.4609999999998
 21
1081.0706
  0
LINE
  8
_0-0_LAYER001
  6
CONTINUOUS
 62
    4
 10
1649.4609999999998
 20
1081.0706
 11
1653.2282
 21
1078.3516
  0
LINE
  8
_0-0_LAYER001
  6
CONTINUOUS
 62
    4
 10
1653.2282
 20
1078.3516
 11
1655.4096
 21
1076.7677000000001
  0
LINE
  8
_0-0_LAYER001
  6
CONTINUOUS
 62
    4
 10
1655.4096
 20
1076.7677000000001
 11
1658.7411000000002
 21
1074.3809000000001
  0
LINE
  8
_0-0_LAYER001
  6
CONTINUOUS
 62
    4
 10
1658.7411000000002
 20
1074.3809000000001
 11
1664.5333999999998
 21
1070.364
  0
LINE
  8
_0-0_LAYER001
  6
CONTINUOUS
 62
    4
 10
1664.5333999999998
 20
1070.364
 11
1670.4054999999998
 21
1066.5074
  0
LINE
  8
_0-0_LAYER001
  6
CONTINUOUS
 62
    4
 10
1670.4054999999998
 20
1066.5074
 11
1676.3797
 21
1062.8529000000001
  0
LINE
  8
_0-0_LAYER001
  6
CONTINUOUS
 62
    4
 10
1676.3797
 20
1062.8529000000001
 11
1682.4778999999999
 21
1059.4423999999999
  0
LINE
  8
_0-0_LAYER001
  6
CONTINUOUS
 62
    4
 10
1682.4778999999999
 20
1059.4423999999999
 11
1688.7222000000002
 21
1056.3175000000001
  0
LINE
  8
_0-0_LAYER001
  6
CONTINUOUS
 62
    4
 10
1688.7222000000002
 20
1056.3175000000001
 11
1692.4195
 21
1054.6525999999999
  0
LINE
  8
_0-0_LAYER001
  6
CONTINUOUS
 62
    4
 10
1692.4195
 20
1054.6525999999999
 11
1695.4787000000001
 21
1053.3814
  0
LINE
  8
_0-0_LAYER001
  6
CONTINUOUS
 62
    4
 10
1695.4787000000001
 20
1053.3814
 11
1700.8391999999999
 21
1051.3793000000001
  0
LINE
  8
_0-0_LAYER001
  6
CONTINUOUS
 62
    4
 10
1700.8391999999999
 20
1051.3793000000001
 11
1706.2948999999999
 21
1049.6238000000001
  0
LINE
  8
_0-0_LAYER001
  6
CONTINUOUS
 62
    4
 10
1706.2948999999999
 20
1049.6238000000001
 11
1711.8299000000002
 21
1048.123
  0
LINE
  8
_0-0_LAYER001
  6
CONTINUOUS
 62
    4
 10
1711.8299000000002
 20
1048.123
 11
1717.4281999999998
 21
1046.885
  0
LINE
  8
_0-0_LAYER001
  6
CONTINUOUS
 62
    4
 10
1717.4281999999998
 20
1046.885
 11
1723.0738999999999
 21
1045.9177999999999
  0
LINE
  8
_0-0_LAYER001
  6
CONTINUOUS
 62
    4
 10
1723.0738999999999
 20
1045.9177999999999
 11
1726.3638999999998
 21
1045.4840999999999
  0
LINE
  8
_0-0_LAYER001
  6
CONTINUOUS
 62
    4
 10
1726.3638999999998
 20
1045.4840999999999
 11
1728.8832000000002
 21
1045.2162000000001
  0
LINE
  8
_0-0_LAYER001
  6
CONTINUOUS
 62
    4
 10
1728.8832000000002
 20
1045.2162000000001
 11
1733.2352999999998
 21
1044.8761999999999
  0
LINE
  8
_0-0_LAYER001
  6
CONTINUOUS
 62
    4
 10
1733.2352999999998
 20
1044.8761999999999
 11
1737.5954999999999
 21
1044.6768
  0
LINE
  8
_0-0_LAYER001
  6
CONTINUOUS
 62
    4
 10
1737.5954999999999
 20
1044.6768
 11
1741.9607000000001
 21
1044.6021000000001
  0
LINE
  8
_0-0_LAYER001
  6
CONTINUOUS
 62
    4
 10
1741.9607000000001
 20
1044.6021000000001
 11
1746.3278
 21
1044.6365000000001
  0
LINE
  8
_0-0_LAYER001
  6
CONTINUOUS
 62
    4
 10
1746.3278
 20
1044.6365000000001
 11
1750.6936999999998
 21
1044.7641000000001
  0
LINE
  8
_0-0_LAYER001
  6
CONTINUOUS
 62
    4
 10
1750.6936999999998
 20
1044.7641000000001
 11
1753.2242000000001
 21
1044.8744999999999
  0
LINE
  8
_0-0_LAYER001
  6
CONTINUOUS
 62
    4
 10
1753.2242000000001
 20
1044.8744999999999
 11
1757.9533000000001
 21
1045.1427000000001
  0
LINE
  8
_0-0_LAYER001
  6
CONTINUOUS
 62
    4
 10
1757.9533000000001
 20
1045.1427000000001
 11
1766.0913999999998
 21
1045.7737
  0
LINE
  8
_0-0_LAYER001
  6
CONTINUOUS
 62
    4
 10
1766.0913999999998
 20
1045.7737
 11
1774.2121999999999
 21
1046.5876000000001
  0
LINE
  8
_0-0_LAYER001
  6
CONTINUOUS
 62
    4
 10
1774.2121999999999
 20
1046.5876000000001
 11
1782.3180000000002
 21
1047.5489
  0
LINE
  8
_0-0_LAYER001
  6
CONTINUOUS
 62
    4
 10
1782.3180000000002
 20
1047.5489
 11
1790.4115000000002
 21
1048.6220000000001
  0
LINE
  8
_0-0_LAYER001
  6
CONTINUOUS
 62
    4
 10
1790.4115000000002
 20
1048.6220000000001
 11
1798.4949999999999
 21
1049.7716
  0
LINE
  8
_0-0_LAYER001
  6
CONTINUOUS
 62
    4
 10
1798.4949999999999
 20
1049.7716
 11
1803.1799000000001
 21
1050.4594
  0
LINE
  8
_0-0_LAYER001
  6
CONTINUOUS
 62
    4
 10
1803.1799000000001
 20
1050.4594
 11
1805.6147999999998
 21
1050.8203000000001
  0
LINE
  8
_0-0_LAYER001
  6
CONTINUOUS
 62
    4
 10
1805.6147999999998
 20
1050.8203000000001
 11
1809.8117999999999
 21
1051.4463000000001
  0
LINE
  8
_0-0_LAYER001
  6
CONTINUOUS
 62
    4
 10
1809.8117999999999
 20
1051.4463000000001
 11
1814.0075999999999
 21
1052.0763999999999
  0
LINE
  8
_0-0_LAYER001
  6
CONTINUOUS
 62
    4
 10
1814.0075999999999
 20
1052.0763999999999
 11
1818.2024000000001
 21
1052.7095999999999
  0
LINE
  8
_0-0_LAYER001
  6
CONTINUOUS
 62
    4
 10
1818.2024000000001
 20
1052.7095999999999
 11
1822.3966
 21
1053.3452
  0
LINE
  8
_0-0_LAYER001
  6
CONTINUOUS
 62
    4
 10
1822.3966
 20
1053.3452
 11
1826.5902999999998
 21
1053.9821999999999
  0
LINE
  8
_0-0_LAYER001
  6
CONTINUOUS
 62
    4
 10
1826.5902999999998
 20
1053.9821999999999
 11
1829.0225999999998
 21
1054.3520000000001
  0
LINE
  8
_0-0_LAYER001
  6
CONTINUOUS
 62
    4
 10
1583.9857999999999
 20
1062.2483999999999
 11
1586.0477000000001
 21
1063.0252
  0
LINE
  8
_0-0_LAYER001
  6
CONTINUOUS
 62
    4
 10
1586.0477000000001
 20
1063.0252
 11
1589.6152999999999
 21
1064.3716999999999
  0
LINE
  8
_0-0_LAYER001
  6
CONTINUOUS
 62
    4
 10
1589.6152999999999
 20
1064.3716999999999
 11
1593.2071000000001
 21
1065.7339999999999
  0
LINE
  8
_0-0_LAYER001
  6
CONTINUOUS
 62
    4
 10
1593.2071000000001
 20
1065.7339999999999
 11
1596.8274999999999
 21
1067.1178
  0
LINE
  8
_0-0_LAYER001
  6
CONTINUOUS
 62
    4
 10
1596.8274999999999
 20
1067.1178
 11
1600.4805000000001
 21
1068.529
  0
LINE
  8
_0-0_LAYER001
  6
CONTINUOUS
 62
    4
 10
1600.4805000000001
 20
1068.529
 11
1604.1597000000002
 21
1069.9693
  0
LINE
  8
_0-0_LAYER001
  6
CONTINUOUS
 62
    4
 10
1604.1597000000002
 20
1069.9693
 11
1606.3148999999999
 21
1070.8234
  0
LINE
  8
_0-0_LAYER001
  6
CONTINUOUS
 62
    4
 10
1606.3148999999999
 20
1070.8234
 11
1608.3384999999998
 21
1071.6301000000001
  0
LINE
  8
_0-0_LAYER001
  6
CONTINUOUS
 62
    4
 10
1608.3384999999998
 20
1071.6301000000001
 11
1611.6102999999998
 21
1072.9014999999999
  0
LINE
  8
_0-0_LAYER001
  6
CONTINUOUS
 62
    4
 10
1611.6102999999998
 20
1072.9014999999999
 11
1614.5055000000002
 21
1073.9237000000001
  0
LINE
  8
_0-0_LAYER001
  6
CONTINUOUS
 62
    4
 10
1614.5055000000002
 20
1073.9237000000001
 11
1616.9735999999998
 21
1074.6433999999999
  0
LINE
  8
_0-0_LAYER001
  6
CONTINUOUS
 62
    4
 10
1616.9735999999998
 20
1074.6433999999999
 11
1618.9652999999998
 21
1075.0509
  0
LINE
  8
_0-0_LAYER001
  6
CONTINUOUS
 62
    4
 10
1618.9652999999998
 20
1075.0509
 11
1620.7446
 21
1075.2153000000001
  0
LINE
  8
_0-0_LAYER001
  6
CONTINUOUS
 62
    4
 10
1620.7446
 20
1075.2153000000001
 11
1621.4241999999999
 21
1075.2066
  0
LINE
  8
_0-0_LAYER001
  6
CONTINUOUS
 62
    4
 10
1621.4241999999999
 20
1075.2066
 11
1621.3481000000002
 21
1075.2121
  0
LINE
  8
_0-0_LAYER001
  6
CONTINUOUS
 62
    4
 10
1621.3481000000002
 20
1075.2121
 11
1621.9616999999998
 21
1075.1405999999999
  0
LINE
  8
_0-0_LAYER001
  6
CONTINUOUS
 62
    4
 10
1621.9616999999998
 20
1075.1405999999999
 11
1622.5520999999999
 21
1075.0409
  0
LINE
  8
_0-0_LAYER001
  6
CONTINUOUS
 62
    4
 10
1622.5520999999999
 20
1075.0409
 11
1623.2195999999999
 21
1074.8958
  0
LINE
  8
_0-0_LAYER001
  6
CONTINUOUS
 62
    4
 10
1623.2195999999999
 20
1074.8958
 11
1623.9531000000002
 21
1074.7032999999999
  0
LINE
  8
_0-0_LAYER001
  6
CONTINUOUS
 62
    4
 10
1623.9531000000002
 20
1074.7032999999999
 11
1624.8022999999998
 21
1074.4448
  0
LINE
  8
_0-0_LAYER001
  6
CONTINUOUS
 62
    4
 10
1624.8022999999998
 20
1074.4448
 11
1625.0464000000002
 21
1074.3629000000001
  0
LINE
  8
_0-0_LAYER001
  6
CONTINUOUS
 62
    4
 10
1625.0464000000002
 20
1074.3629000000001
 11
1626.6062999999999
 21
1073.7708
  0
LINE
  8
_0-0_LAYER001
  6
CONTINUOUS
 62
    4
 10
1626.6062999999999
 20
1073.7708
 11
1629.5540000000001
 21
1072.4004
  0
LINE
  8
_0-0_LAYER001
  6
CONTINUOUS
 62
    4
 10
1629.5540000000001
 20
1072.4004
 11
1632.5149999999999
 21
1070.7398000000001
  0
LINE
  8
_0-0_LAYER001
  6
CONTINUOUS
 62
    4
 10
1632.5149999999999
 20
1070.7398000000001
 11
1635.6826999999998
 21
1068.7184
  0
LINE
  8
_0-0_LAYER001
  6
CONTINUOUS
 62
    4
 10
1635.6826999999998
 20
1068.7184
 11
1639.0673999999999
 21
1066.3734999999999
  0
LINE
  8
_0-0_LAYER001
  6
CONTINUOUS
 62
    4
 10
1639.0673999999999
 20
1066.3734999999999
 11
1642.6732000000002
 21
1063.771
  0
LINE
  8
_0-0_LAYER001
  6
CONTINUOUS
 62
    4
 10
1642.6732000000002
 20
1063.771
 11
1644.8800999999999
 21
1062.1686
  0
LINE
  8
_0-0_LAYER001
  6
CONTINUOUS
 62
    4
 10
1644.8800999999999
 20
1062.1686
 11
1648.3701000000001
 21
1059.6683
  0
LINE
  8
_0-0_LAYER001
  6
CONTINUOUS
 62
    4
 10
1648.3701000000001
 20
1059.6683
 11
1654.4623000000001
 21
1055.4432999999999
  0
LINE
  8
_0-0_LAYER001
  6
CONTINUOUS
 62
    4
 10
1654.4623000000001
 20
1055.4432999999999
 11
1660.7660000000001
 21
1051.3033
  0
LINE
  8
_0-0_LAYER001
  6
CONTINUOUS
 62
    4
 10
1660.7660000000001
 20
1051.3033
 11
1667.2867000000001
 21
1047.3145
  0
LINE
  8
_0-0_LAYER001
  6
CONTINUOUS
 62
    4
 10
1667.2867000000001
 20
1047.3145
 11
1674.0527000000002
 21
1043.5305000000001
  0
LINE
  8
_0-0_LAYER001
  6
CONTINUOUS
 62
    4
 10
1674.0527000000002
 20
1043.5305000000001
 11
1680.9956999999999
 21
1040.056
  0
LINE
  8
_0-0_LAYER001
  6
CONTINUOUS
 62
    4
 10
1680.9956999999999
 20
1040.056
 11
1685.2692000000002
 21
1038.1315999999999
  0
LINE
  8
_0-0_LAYER001
  6
CONTINUOUS
 62
    4
 10
1685.2692000000002
 20
1038.1315999999999
 11
1688.8742000000002
 21
1036.6337000000001
  0
LINE
  8
_0-0_LAYER001
  6
CONTINUOUS
 62
    4
 10
1688.8742000000002
 20
1036.6337000000001
 11
1694.9303
 21
1034.3716999999999
  0
LINE
  8
_0-0_LAYER001
  6
CONTINUOUS
 62
    4
 10
1694.9303
 20
1034.3716999999999
 11
1701.1801999999998
 21
1032.3607
  0
LINE
  8
_0-0_LAYER001
  6
CONTINUOUS
 62
    4
 10
1701.1801999999998
 20
1032.3607
 11
1707.5288999999998
 21
1030.6393
  0
LINE
  8
_0-0_LAYER001
  6
CONTINUOUS
 62
    4
 10
1707.5288999999998
 20
1030.6393
 11
1713.9632000000001
 21
1029.2164
  0
LINE
  8
_0-0_LAYER001
  6
CONTINUOUS
 62
    4
 10
1713.9632000000001
 20
1029.2164
 11
1720.3769000000002
 21
1028.1176
  0
LINE
  8
_0-0_LAYER001
  6
CONTINUOUS
 62
    4
 10
1720.3769000000002
 20
1028.1176
 11
1724.2357000000002
 21
1027.6088999999999
  0
LINE
  8
_0-0_LAYER001
  6
CONTINUOUS
 62
    4
 10
1724.2357000000002
 20
1027.6088999999999
 11
1727.2303000000002
 21
1027.2905000000001
  0
LINE
  8
_0-0_LAYER001
  6
CONTINUOUS
 62
    4
 10
1727.2303000000002
 20
1027.2905000000001
 11
1732.1226999999999
 21
1026.9083000000001
  0
LINE
  8
_0-0_LAYER001
  6
CONTINUOUS
 62
    4
 10
1732.1226999999999
 20
1026.9083000000001
 11
1737.0302999999999
 21
1026.6838
  0
LINE
  8
_0-0_LAYER001
  6
CONTINUOUS
 62
    4
 10
1737.0302999999999
 20
1026.6838
 11
1741.8775999999998
 21
1026.6008999999999
  0
LINE
  8
_0-0_LAYER001
  6
CONTINUOUS
 62
    4
 10
1741.8775999999998
 20
1026.6008999999999
 11
1746.6615000000002
 21
1026.6386
  0
LINE
  8
_0-0_LAYER001
  6
CONTINUOUS
 62
    4
 10
1746.6615000000002
 20
1026.6386
 11
1751.3492000000001
 21
1026.7755
  0
LINE
  8
_0-0_LAYER001
  6
CONTINUOUS
 62
    4
 10
1751.3492000000001
 20
1026.7755
 11
1754.1264000000001
 21
1026.8968
  0
LINE
  8
_0-0_LAYER001
  6
CONTINUOUS
 62
    4
 10
1754.1264000000001
 20
1026.8968
 11
1759.1587
 21
1027.1822
  0
LINE
  8
_0-0_LAYER001
  6
CONTINUOUS
 62
    4
 10
1759.1587
 20
1027.1822
 11
1767.6848
 21
1027.8433
  0
LINE
  8
_0-0_LAYER001
  6
CONTINUOUS
 62
    4
 10
1767.6848
 20
1027.8433
 11
1776.1696999999999
 21
1028.6936000000001
  0
LINE
  8
_0-0_LAYER001
  6
CONTINUOUS
 62
    4
 10
1776.1696999999999
 20
1028.6936000000001
 11
1784.5610000000001
 21
1029.6886999999999
  0
LINE
  8
_0-0_LAYER001
  6
CONTINUOUS
 62
    4
 10
1784.5610000000001
 20
1029.6886999999999
 11
1792.8616999999999
 21
1030.7893999999999
  0
LINE
  8
_0-0_LAYER001
  6
CONTINUOUS
 62
    4
 10
1792.8616999999999
 20
1030.7893999999999
 11
1801.0695000000001
 21
1031.9566
  0
LINE
  8
_0-0_LAYER001
  6
CONTINUOUS
 62
    4
 10
1801.0695000000001
 20
1031.9566
 11
1805.8065999999999
 21
1032.6521
  0
LINE
  8
_0-0_LAYER001
  6
CONTINUOUS
 62
    4
 10
1805.8065999999999
 20
1032.6521
 11
1808.2620000000002
 21
1033.0160000000001
  0
LINE
  8
_0-0_LAYER001
  6
CONTINUOUS
 62
    4
 10
1808.2620000000002
 20
1033.0160000000001
 11
1812.4760999999999
 21
1033.6445000000001
  0
LINE
  8
_0-0_LAYER001
  6
CONTINUOUS
 62
    4
 10
1812.4760999999999
 20
1033.6445000000001
 11
1816.6876000000002
 21
1034.277
  0
LINE
  8
_0-0_LAYER001
  6
CONTINUOUS
 62
    4
 10
1816.6876000000002
 20
1034.277
 11
1820.8944000000001
 21
1034.9121
  0
LINE
  8
_0-0_LAYER001
  6
CONTINUOUS
 62
    4
 10
1820.8944000000001
 20
1034.9121
 11
1825.0965999999999
 21
1035.5489
  0
LINE
  8
_0-0_LAYER001
  6
CONTINUOUS
 62
    4
 10
1825.0965999999999
 20
1035.5489
 11
1829.2945
 21
1036.1865
  0
LINE
  8
_0-0_LAYER001
  6
CONTINUOUS
 62
    4
 10
1829.2945
 20
1036.1865
 11
1830.9122000000002
 21
1036.4323999999999
  0
LINE
  8
_0-0_LAYER001
  6
CONTINUOUS
 62
    4
 10
1578.4569000000001
 20
1079.3985
 11
1578.8829000000001
 21
1079.5616
  0
ARC
  8
_0-0_LAYER001
  6
CONTINUOUS
 62
    4
 10
1579.5295000000001
 20
1076.5968
 40
3
 50
110.94902000000002
 51
178.70000000000002
  0
LINE
  8
_0-0_LAYER001
  6
CONTINUOUS
 62
    4
 10
1576.4209999999998
 20
1060.8258000000001
 11
1576.4209999999998
 21
1076.5482999999999
  0
LINE
  8
_0-0_LAYER001
  6
CONTINUOUS
 62
    4
 10
1577.7750000000001
 20
1059.8905
 11
1583.9497999999999
 21
1062.2276999999999
  0
ARC
  8
_0-0_LAYER001
  6
CONTINUOUS
 62
    4
 10
1577.4209999999998
 20
1060.8258000000001
 40
1
 50
180
 51
290.73165999999998
  0
LINE
  8
_0-0_LAYER001
  6
CONTINUOUS
 62
    4
 10
1841.4209999999998
 20
1039.5035
 11
1841.4209999999998
 21
1056.7009
  0
LINE
  8
_0-0_LAYER001
  6
CONTINUOUS
 62
    4
 10
1829.1475
 20
1054.3874000000001
 11
1873.6017999999999
 21
1064.0352
  0
LINE
  8
_0-0_LAYER001
  6
CONTINUOUS
 62
    4
 10
1835.8928000000001
 20
1034.5536
 11
1874.5646000000002
 21
1043.6035999999999
  0
LINE
  8
_0-0_LAYER001
  6
CONTINUOUS
 62
    4
 10
1874.5646000000002
 20
1044.5600999999999
 11
1874.5646000000002
 21
1043.6035999999999
  0
ARC
  8
_0-0_LAYER001
  6
CONTINUOUS
 62
    4
 10
1875.5646000000002
 20
1044.5600999999999
 40
1
 50
102.72435
 51
180
  0
LINE
  8
_0-0_LAYER001
  6
CONTINUOUS
 62
    4
 10
1880.3816000000002
 20
1046.673
 11
1875.3443000000002
 21
1045.5355
  0
ARC
  8
_0-0_LAYER001
  6
CONTINUOUS
 62
    4
 10
1880.6017999999999
 20
1045.6975
 40
1
 50
0
 51
102.72435
  0
LINE
  8
_0-0_LAYER001
  6
CONTINUOUS
 62
    4
 10
1880.8139000000001
 20
1047.1813999999999
 11
1830.6799999999998
 21
1036.3009
  0
ARC
  8
_0-0_LAYER001
  6
CONTINUOUS
 62
    4
 10
1880.6017999999999
 20
1048.1587
 40
1
 50
282.24497000000002
 51
0
  0
LINE
  8
_0-0_LAYER001
  6
CONTINUOUS
 62
    4
 10
1880.8197
 20
1026.4407000000001
 11
1831.2357000000002
 21
1015.3729000000001
  0
LINE
  8
_0-0_LAYER001
  6
CONTINUOUS
 62
    4
 10
1881.6017999999999
 20
1027.4167
 11
1881.6017999999999
 21
1045.6975
  0
ARC
  8
_0-0_LAYER001
  6
CONTINUOUS
 62
    4
 10
1880.6017999999999
 20
1027.4167
 40
1
 50
282.58296000000001
 51
0.0000000000000254
  0
LINE
  8
_0-0_LAYER001
  6
CONTINUOUS
 62
    4
 10
1873.6017999999999
 20
1065.4922999999999
 11
1873.6017999999999
 21
1064.0352
  0
ARC
  8
_0-0_LAYER001
  6
CONTINUOUS
 62
    4
 10
1874.6017999999999
 20
1065.4922999999999
 40
1
 50
101.73308
 51
180
  0
LINE
  8
_0-0_LAYER001
  6
CONTINUOUS
 62
    4
 10
1880.3984999999998
 20
1067.7175
 11
1874.3984999999998
 21
1066.4713999999999
  0
LINE
  8
_0-0_LAYER001
  6
CONTINUOUS
 62
    4
 10
1881.6017999999999
 20
1066.7384
 11
1881.6017999999999
 21
1048.1587
  0
ARC
  8
_0-0_LAYER001
  6
CONTINUOUS
 62
    4
 10
1880.6017999999999
 20
1066.7384
 40
1
 50
0
 51
101.73308
  0
LINE
  8
_0-0_LAYER001
  6
DASHED1
 62
    2
 10
1680.8126999999999
 20
1039.2565999999999
 11
1696.8126999999999
 21
1039.2565999999999
  0
LINE
  8
_0-0_LAYER001
  6
DASHED1
 62
    2
 10
1696.8126999999999
 20
1039.2565999999999
 11
1696.8126999999999
 21
1036.2565999999999
  0
LINE
  8
_0-0_LAYER001
  6
DASHED1
 62
    2
 10
1680.8126999999999
 20
1039.2565999999999
 11
1680.8126999999999
 21
1036.2565999999999
  0
LINE
  8
_0-0_LAYER001
  6
DASHED1
 62
    2
 10
1680.8126999999999
 20
1036.2565999999999
 11
1696.8126999999999
 21
1036.2565999999999
  0
LINE
  8
_0-0_LAYER001
  6
DASHED1
 62
    2
 10
1691.8126999999999
 20
981.36059999999998
 11
1688.7624999999998
 21
966.85159999999996
  0
LINE
  8
_0-0_LAYER001
  6
DASHED1
 62
    2
 10
1691.8126999999999
 20
1036.2565999999999
 11
1691.8126999999999
 21
981.36059999999998
  0
LINE
  8
_0-0_LAYER001
  6
DASHED1
 62
    2
 10
1688.7624999999998
 20
966.85159999999996
 11
1685.8126999999999
 21
981.1090999999999
  0
LINE
  8
_0-0_LAYER001
  6
DASHED1
 62
    2
 10
1685.8126999999999
 20
1036.2565999999999
 11
1685.8126999999999
 21
981.1090999999999
  0
LINE
  8
_0-0_LAYER001
  6
DASHED1
 62
    2
 10
1945.8189000000002
 20
1036.5254
 11
1961.8189000000002
 21
1036.5254
  0
LINE
  8
_0-0_LAYER001
  6
DASHED1
 62
    2
 10
1961.8189000000002
 20
1036.5254
 11
1961.8189000000002
 21
1033.5254
  0
LINE
  8
_0-0_LAYER001
  6
DASHED1
 62
    2
 10
1945.8189000000002
 20
1036.5254
 11
1945.8189000000002
 21
1033.5254
  0
LINE
  8
_0-0_LAYER001
  6
DASHED1
 62
    2
 10
1945.8189000000002
 20
1033.5254
 11
1961.8189000000002
 21
1033.5254
  0
LINE
  8
_0-0_LAYER001
  6
DASHED1
 62
    2
 10
1956.8189000000002
 20
978.62930000000006
 11
1953.7687999999998
 21
964.12040000000002
  0
LINE
  8
_0-0_LAYER001
  6
DASHED1
 62
    2
 10
1956.8189000000002
 20
1033.5254
 11
1956.8189000000002
 21
978.62930000000006
  0
LINE
  8
_0-0_LAYER001
  6
DASHED1
 62
    2
 10
1953.7687999999998
 20
964.12040000000002
 11
1950.8189000000002
 21
978.37789999999995
  0
LINE
  8
_0-0_LAYER001
  6
DASHED1
 62
    2
 10
1950.8189000000002
 20
1033.5254
 11
1950.8189000000002
 21
978.37789999999995
  0
LINE
  8
_0-0_LAYER001
  6
CONTINUOUS
 62
    4
 10
1093.0705
 20
1090.4503999999999
 11
1093.0705
 21
1072.2454
  0
LINE
  8
_0-0_LAYER001
  6
CONTINUOUS
 62
    4
 10
1093.0705
 20
1068.1006
 11
1093.0705
 21
1048.6619000000001
  0
LINE
  8
_0-0_LAYER001
  6
CONTINUOUS
 62
    4
 10
1576.2440999999999
 20
1036.6365000000001
 11
1576.2440999999999
 21
1053.8338000000001
  0
LINE
  8
_0-0_LAYER001
  6
CONTINUOUS
 62
    4
 10
1436.5174999999999
 20
992.7971
 11
1427.982
 21
1007.3304000000001
  0
LINE
  8
_0-0_LAYER001
  6
CONTINUOUS
 62
    4
 10
1444.6853999999998
 20
992.14679999999998
 11
1452.9915999999998
 21
1002.2122999999999
  0
ARC
  8
_0-0_LAYER001
  6
CONTINUOUS
 62
    4
 10
1440.8289
 20
995.3291999999999
 40
5
 50
210.42578
 51
320.47001
  0
LINE
  8
_0-0_LAYER001
  6
CONTINUOUS
 62
    4
 10
1520.6309999999999
 20
991.67689999999993
 11
1513.3056000000001
 21
1002.9829999999999
  0
LINE
  8
_0-0_LAYER001
  6
CONTINUOUS
 62
    4
 10
1529.1405
 20
991.86689999999999
 11
1538.0790000000002
 21
1007.1125
  0
ARC
  8
_0-0_LAYER001
  6
CONTINUOUS
 62
    4
 10
1524.8272000000002
 20
994.39570000000003
 40
5
 50
212.93986000000001
 51
329.61716000000001
  0
LINE
  8
_0-0_LAYER001
  6
CONTINUOUS
 62
    4
 10
1568.4225999999999
 20
1031.4245000000001
 11
1570.8507
 21
1031.8284000000001
  0
LINE
  8
_0-0_LAYER001
  6
CONTINUOUS
 62
    4
 10
1564.2334999999998
 20
1030.7282
 11
1568.4225999999999
 21
1031.4245000000001
  0
LINE
  8
_0-0_LAYER001
  6
CONTINUOUS
 62
    4
 10
1560.0396999999998
 20
1030.0327
 11
1564.2334999999998
 21
1030.7282
  0
LINE
  8
_0-0_LAYER001
  6
CONTINUOUS
 62
    4
 10
1555.8409000000001
 20
1029.3387
 11
1560.0396999999998
 21
1030.0327
  0
LINE
  8
_0-0_LAYER001
  6
CONTINUOUS
 62
    4
 10
1551.6369
 20
1028.6472000000001
 11
1555.8409000000001
 21
1029.3387
  0
LINE
  8
_0-0_LAYER001
  6
CONTINUOUS
 62
    4
 10
1547.4301
 20
1027.9595999999999
 11
1551.6369
 21
1028.6472000000001
  0
LINE
  8
_0-0_LAYER001
  6
CONTINUOUS
 62
    4
 10
1544.9778000000001
 20
1027.5610999999999
 11
1547.4301
 21
1027.9595999999999
  0
LINE
  8
_0-0_LAYER001
  6
CONTINUOUS
 62
    4
 10
1540.2449999999999
 20
1026.7986000000001
 11
1544.9778000000001
 21
1027.5610999999999
  0
LINE
  8
_0-0_LAYER001
  6
CONTINUOUS
 62
    4
 10
1532.0405999999998
 20
1025.5146999999999
 11
1540.2449999999999
 21
1026.7986000000001
  0
LINE
  8
_0-0_LAYER001
  6
CONTINUOUS
 62
    4
 10
1523.7330999999999
 20
1024.2949000000001
 11
1532.0405999999998
 21
1025.5146999999999
  0
LINE
  8
_0-0_LAYER001
  6
CONTINUOUS
 62
    4
 10
1515.3247999999999
 20
1023.1785
 11
1523.7330999999999
 21
1024.2949000000001
  0
LINE
  8
_0-0_LAYER001
  6
CONTINUOUS
 62
    4
 10
1506.8123000000001
 20
1022.2052000000001
 11
1515.3247999999999
 21
1023.1785
  0
LINE
  8
_0-0_LAYER001
  6
CONTINUOUS
 62
    4
 10
1498.2530999999999
 20
1021.4212
 11
1506.8123000000001
 21
1022.2052000000001
  0
LINE
  8
_0-0_LAYER001
  6
CONTINUOUS
 62
    4
 10
1493.1916000000001
 20
1021.0632000000001
 11
1498.2530999999999
 21
1021.4212
  0
LINE
  8
_0-0_LAYER001
  6
CONTINUOUS
 62
    4
 10
1490.3890000000001
 20
1020.9015999999999
 11
1493.1916000000001
 21
1021.0632000000001
  0
LINE
  8
_0-0_LAYER001
  6
CONTINUOUS
 62
    4
 10
1485.6680000000001
 20
1020.6976
 11
1490.3890000000001
 21
1020.9015999999999
  0
LINE
  8
_0-0_LAYER001
  6
CONTINUOUS
 62
    4
 10
1480.8386999999998
 20
1020.5922
 11
1485.6680000000001
 21
1020.6976
  0
LINE
  8
_0-0_LAYER001
  6
CONTINUOUS
 62
    4
 10
1475.9371000000001
 20
1020.6075000000001
 11
1480.8386999999998
 21
1020.5922
  0
LINE
  8
_0-0_LAYER001
  6
CONTINUOUS
 62
    4
 10
1470.9661000000001
 20
1020.7654
 11
1475.9371000000001
 21
1020.6075000000001
  0
LINE
  8
_0-0_LAYER001
  6
CONTINUOUS
 62
    4
 10
1466.0086999999999
 20
1021.0831000000001
 11
1470.9661000000001
 21
1020.7654
  0
LINE
  8
_0-0_LAYER001
  6
CONTINUOUS
 62
    4
 10
1462.9569999999999
 20
1021.3646000000001
 11
1466.0086999999999
 21
1021.0831000000001
  0
LINE
  8
_0-0_LAYER001
  6
CONTINUOUS
 62
    4
 10
1459.0282000000002
 20
1021.8268
 11
1462.9569999999999
 21
1021.3646000000001
  0
LINE
  8
_0-0_LAYER001
  6
CONTINUOUS
 62
    4
 10
1452.5142000000001
 20
1022.8494000000001
 11
1459.0282000000002
 21
1021.8268
  0
LINE
  8
_0-0_LAYER001
  6
CONTINUOUS
 62
    4
 10
1445.9675999999999
 20
1024.2014999999999
 11
1452.5142000000001
 21
1022.8494000000001
  0
LINE
  8
_0-0_LAYER001
  6
CONTINUOUS
 62
    4
 10
1439.5047
 20
1025.8574000000001
 11
1445.9675999999999
 21
1024.2014999999999
  0
LINE
  8
_0-0_LAYER001
  6
CONTINUOUS
 62
    4
 10
1433.1387
 20
1027.8081
 11
1439.5047
 21
1025.8574000000001
  0
LINE
  8
_0-0_LAYER001
  6
CONTINUOUS
 62
    4
 10
1426.9739999999999
 20
1030.0129999999999
 11
1433.1387
 21
1027.8081
  0
LINE
  8
_0-0_LAYER001
  6
CONTINUOUS
 62
    4
 10
1423.2873
 20
1031.4848
 11
1426.9739999999999
 21
1030.0129999999999
  0
LINE
  8
_0-0_LAYER001
  6
CONTINUOUS
 62
    4
 10
1418.9231
 20
1033.3773000000001
 11
1423.2873
 21
1031.4848
  0
LINE
  8
_0-0_LAYER001
  6
CONTINUOUS
 62
    4
 10
1411.8540000000003
 20
1036.7923000000001
 11
1418.9231
 21
1033.3773000000001
  0
LINE
  8
_0-0_LAYER001
  6
CONTINUOUS
 62
    4
 10
1404.9611
 20
1040.5219
 11
1411.8540000000003
 21
1036.7923000000001
  0
LINE
  8
_0-0_LAYER001
  6
CONTINUOUS
 62
    4
 10
1398.3241
 20
1044.4556
 11
1404.9611
 21
1040.5219
  0
LINE
  8
_0-0_LAYER001
  6
CONTINUOUS
 62
    4
 10
1391.9148
 20
1048.538
 11
1398.3241
 21
1044.4556
  0
LINE
  8
_0-0_LAYER001
  6
CONTINUOUS
 62
    4
 10
1385.7305999999999
 20
1052.7002
 11
1391.9148
 21
1048.538
  0
LINE
  8
_0-0_LAYER001
  6
CONTINUOUS
 62
    4
 10
1382.1882000000001
 20
1055.1639
 11
1385.7305999999999
 21
1052.7002
  0
LINE
  8
_0-0_LAYER001
  6
CONTINUOUS
 62
    4
 10
1379.9562000000001
 20
1056.7373
 11
1382.1882000000001
 21
1055.1639
  0
LINE
  8
_0-0_LAYER001
  6
CONTINUOUS
 62
    4
 10
1376.3326999999999
 20
1059.2764999999999
 11
1379.9562000000001
 21
1056.7373
  0
LINE
  8
_0-0_LAYER001
  6
CONTINUOUS
 62
    4
 10
1372.963
 20
1061.5419999999999
 11
1376.3326999999999
 21
1059.2764999999999
  0
LINE
  8
_0-0_LAYER001
  6
CONTINUOUS
 62
    4
 10
1369.848
 20
1063.4691
 11
1372.963
 21
1061.5419999999999
  0
LINE
  8
_0-0_LAYER001
  6
CONTINUOUS
 62
    4
 10
1366.9808
 20
1065.0247999999999
 11
1369.848
 21
1063.4691
  0
LINE
  8
_0-0_LAYER001
  6
CONTINUOUS
 62
    4
 10
1364.1496999999999
 20
1066.2933
 11
1366.9808
 21
1065.0247999999999
  0
LINE
  8
_0-0_LAYER001
  6
CONTINUOUS
 62
    4
 10
1362.6865
 20
1066.8253999999999
 11
1364.1496999999999
 21
1066.2933
  0
LINE
  8
_0-0_LAYER001
  6
CONTINUOUS
 62
    4
 10
1362.5054
 20
1066.8833999999999
 11
1362.6865
 21
1066.8253999999999
  0
LINE
  8
_0-0_LAYER001
  6
CONTINUOUS
 62
    4
 10
1361.7171000000003
 20
1067.1113
 11
1362.5054
 21
1066.8833999999999
  0
LINE
  8
_0-0_LAYER001
  6
CONTINUOUS
 62
    4
 10
1361.0599
 20
1067.2739999999999
 11
1361.7171000000003
 21
1067.1113
  0
LINE
  8
_0-0_LAYER001
  6
CONTINUOUS
 62
    4
 10
1360.4782
 20
1067.3920000000001
 11
1361.0599
 21
1067.2739999999999
  0
LINE
  8
_0-0_LAYER001
  6
CONTINUOUS
 62
    4
 10
1360.4381000000001
 20
1067.3982000000001
 11
1360.4782
 21
1067.3920000000001
  0
LINE
  8
_0-0_LAYER001
  6
CONTINUOUS
 62
    4
 10
1564.4119999999998
 20
1012.2370000000001
 11
1566.0261
 21
1012.5055
  0
LINE
  8
_0-0_LAYER001
  6
CONTINUOUS
 62
    4
 10
1560.2233999999999
 20
1011.5408
 11
1564.4119999999998
 21
1012.2370000000001
  0
LINE
  8
_0-0_LAYER001
  6
CONTINUOUS
 62
    4
 10
1556.0304999999998
 20
1010.8453999999999
 11
1560.2233999999999
 21
1011.5408
  0
LINE
  8
_0-0_LAYER001
  6
CONTINUOUS
 62
    4
 10
1551.8330000000001
 20
1010.1516999999999
 11
1556.0304999999998
 21
1010.8453999999999
  0
LINE
  8
_0-0_LAYER001
  6
CONTINUOUS
 62
    4
 10
1547.6307000000002
 20
1009.4604999999999
 11
1551.8330000000001
 21
1010.1516999999999
  0
LINE
  8
_0-0_LAYER001
  6
CONTINUOUS
 62
    4
 10
1543.4258
 20
1008.7731000000001
 11
1547.6307000000002
 21
1009.4604999999999
  0
LINE
  8
_0-0_LAYER001
  6
CONTINUOUS
 62
    4
 10
1540.9757
 20
1008.375
 11
1543.4258
 21
1008.7731000000001
  0
LINE
  8
_0-0_LAYER001
  6
CONTINUOUS
 62
    4
 10
1536.2487999999998
 20
1007.6134999999999
 11
1540.9757
 21
1008.375
  0
LINE
  8
_0-0_LAYER001
  6
CONTINUOUS
 62
    4
 10
1528.0581000000002
 20
1006.3317999999999
 11
1536.2487999999998
 21
1007.6134999999999
  0
LINE
  8
_0-0_LAYER001
  6
CONTINUOUS
 62
    4
 10
1519.7736
 20
1005.1152999999999
 11
1528.0581000000002
 21
1006.3317999999999
  0
LINE
  8
_0-0_LAYER001
  6
CONTINUOUS
 62
    4
 10
1511.3969999999999
 20
1004.0030999999999
 11
1519.7736
 21
1005.1152999999999
  0
LINE
  8
_0-0_LAYER001
  6
CONTINUOUS
 62
    4
 10
1502.9247999999998
 20
1003.0344
 11
1511.3969999999999
 21
1004.0030999999999
  0
LINE
  8
_0-0_LAYER001
  6
CONTINUOUS
 62
    4
 10
1494.4087
 20
1002.2543000000001
 11
1502.9247999999998
 21
1003.0344
  0
LINE
  8
_0-0_LAYER001
  6
CONTINUOUS
 62
    4
 10
1489.3809000000001
 20
1001.8987
 11
1494.4087
 21
1002.2543000000001
  0
LINE
  8
_0-0_LAYER001
  6
CONTINUOUS
 62
    4
 10
1486.6057000000001
 20
1001.7387000000001
 11
1489.3809000000001
 21
1001.8987
  0
LINE
  8
_0-0_LAYER001
  6
CONTINUOUS
 62
    4
 10
1481.9204
 20
1001.5363
 11
1486.6057000000001
 21
1001.7387000000001
  0
LINE
  8
_0-0_LAYER001
  6
CONTINUOUS
 62
    4
 10
1477.1374999999998
 20
1001.4318000000001
 11
1481.9204
 21
1001.5363
  0
LINE
  8
_0-0_LAYER001
  6
CONTINUOUS
 62
    4
 10
1472.2894000000001
 20
1001.4469999999999
 11
1477.1374999999998
 21
1001.4318000000001
  0
LINE
  8
_0-0_LAYER001
  6
CONTINUOUS
 62
    4
 10
1467.3791999999999
 20
1001.6030000000001
 11
1472.2894000000001
 21
1001.4469999999999
  0
LINE
  8
_0-0_LAYER001
  6
CONTINUOUS
 62
    4
 10
1462.4819000000002
 20
1001.9168999999999
 11
1467.3791999999999
 21
1001.6030000000001
  0
LINE
  8
_0-0_LAYER001
  6
CONTINUOUS
 62
    4
 10
1459.4832000000001
 20
1002.1934000000001
 11
1462.4819000000002
 21
1001.9168999999999
  0
LINE
  8
_0-0_LAYER001
  6
CONTINUOUS
 62
    4
 10
1455.6176
 20
1002.6482000000001
 11
1459.4832000000001
 21
1002.1934000000001
  0
LINE
  8
_0-0_LAYER001
  6
CONTINUOUS
 62
    4
 10
1449.1891999999998
 20
1003.6573000000001
 11
1455.6176
 21
1002.6482000000001
  0
LINE
  8
_0-0_LAYER001
  6
CONTINUOUS
 62
    4
 10
1442.7357000000002
 20
1004.9902
 11
1449.1891999999998
 21
1003.6573000000001
  0
LINE
  8
_0-0_LAYER001
  6
CONTINUOUS
 62
    4
 10
1436.3636000000001
 20
1006.6228000000001
 11
1442.7357000000002
 21
1004.9902
  0
LINE
  8
_0-0_LAYER001
  6
CONTINUOUS
 62
    4
 10
1430.0862999999999
 20
1008.5463999999999
 11
1436.3636000000001
 21
1006.6228000000001
  0
LINE
  8
_0-0_LAYER001
  6
CONTINUOUS
 62
    4
 10
1423.9992000000002
 20
1010.7236
 11
1430.0862999999999
 21
1008.5463999999999
  0
LINE
  8
_0-0_LAYER001
  6
CONTINUOUS
 62
    4
 10
1420.3735000000001
 20
1012.171
 11
1423.9992000000002
 21
1010.7236
  0
LINE
  8
_0-0_LAYER001
  6
CONTINUOUS
 62
    4
 10
1416.0736999999999
 20
1014.0355999999999
 11
1420.3735000000001
 21
1012.171
  0
LINE
  8
_0-0_LAYER001
  6
CONTINUOUS
 62
    4
 10
1409.0827999999999
 20
1017.4128000000001
 11
1416.0736999999999
 21
1014.0355999999999
  0
LINE
  8
_0-0_LAYER001
  6
CONTINUOUS
 62
    4
 10
1402.2646
 20
1021.1018999999999
 11
1409.0827999999999
 21
1017.4128000000001
  0
LINE
  8
_0-0_LAYER001
  6
CONTINUOUS
 62
    4
 10
1395.6889000000001
 20
1024.9992999999999
 11
1402.2646
 21
1021.1018999999999
  0
LINE
  8
_0-0_LAYER001
  6
CONTINUOUS
 62
    4
 10
1389.3279000000002
 20
1029.0509
 11
1395.6889000000001
 21
1024.9992999999999
  0
LINE
  8
_0-0_LAYER001
  6
CONTINUOUS
 62
    4
 10
1383.1774
 20
1033.1904
 11
1389.3279000000002
 21
1029.0509
  0
LINE
  8
_0-0_LAYER001
  6
CONTINUOUS
 62
    4
 10
1379.6528000000001
 20
1035.6418000000001
 11
1383.1774
 21
1033.1904
  0
LINE
  8
_0-0_LAYER001
  6
CONTINUOUS
 62
    4
 10
1377.4236999999998
 20
1037.2131999999999
 11
1379.6528000000001
 21
1035.6418000000001
  0
LINE
  8
_0-0_LAYER001
  6
CONTINUOUS
 62
    4
 10
1373.7819999999999
 20
1039.7651000000001
 11
1377.4236999999998
 21
1037.2131999999999
  0
LINE
  8
_0-0_LAYER001
  6
CONTINUOUS
 62
    4
 10
1370.3649
 20
1042.0625
 11
1373.7819999999999
 21
1039.7651000000001
  0
LINE
  8
_0-0_LAYER001
  6
CONTINUOUS
 62
    4
 10
1367.1693
 20
1044.0395000000001
 11
1370.3649
 21
1042.0625
  0
LINE
  8
_0-0_LAYER001
  6
CONTINUOUS
 62
    4
 10
1364.1853000000001
 20
1045.6586
 11
1367.1693
 21
1044.0395000000001
  0
LINE
  8
_0-0_LAYER001
  6
CONTINUOUS
 62
    4
 10
1361.2186999999999
 20
1046.9876999999999
 11
1364.1853000000001
 21
1045.6586
  0
LINE
  8
_0-0_LAYER001
  6
CONTINUOUS
 62
    4
 10
1360.4688000000001
 20
1047.2603999999999
 11
1361.2186999999999
 21
1046.9876999999999
  0
LINE
  8
_0-0_LAYER001
  6
CONTINUOUS
 62
    4
 10
1360.8018999999999
 20
1067.3036
 11
1360.6258
 21
1047.1301000000001
  0
LINE
  8
_0-0_LAYER001
  6
CONTINUOUS
 62
    4
 10
1561.1275000000001
 20
1001.8158000000001
 11
1558.8820000000001
 21
1010.3892000000001
  0
ARC
  8
_0-0_LAYER001
  6
CONTINUOUS
 62
    4
 10
1564.0295999999998
 20
1002.5759
 40
3
 50
194.67639000000003
 51
270.00000000000006
  0
LINE
  8
_0-0_LAYER001
  6
CONTINUOUS
 62
    4
 10
1567.4721
 20
999.57159999999999
 11
1564.0542999999998
 21
999.57159999999999
  0
LINE
  8
_0-0_LAYER001
  6
CONTINUOUS
 62
    4
 10
1570.4312
 20
1002.0784000000001
 11
1572.3652999999999
 21
1013.6824999999999
  0
ARC
  8
_0-0_LAYER001
  6
CONTINUOUS
 62
    4
 10
1567.4721
 20
1002.5716
 40
3
 50
270
 51
350.53766999999999
  0
LINE
  8
_0-0_LAYER001
  6
CONTINUOUS
 62
    4
 10
1313.7057
 20
1076.6938
 11
1314.5196000000001
 21
1077.0003999999999
  0
LINE
  8
_0-0_LAYER001
  6
CONTINUOUS
 62
    4
 10
1314.5196000000001
 20
1077.0003999999999
 11
1318.0688
 21
1078.3399999999999
  0
LINE
  8
_0-0_LAYER001
  6
CONTINUOUS
 62
    4
 10
1318.0688
 20
1078.3399999999999
 11
1321.6255000000001
 21
1079.6889000000001
  0
LINE
  8
_0-0_LAYER001
  6
CONTINUOUS
 62
    4
 10
1321.6255000000001
 20
1079.6889000000001
 11
1325.1940999999999
 21
1081.0528999999999
  0
LINE
  8
_0-0_LAYER001
  6
CONTINUOUS
 62
    4
 10
1325.1940999999999
 20
1081.0528999999999
 11
1328.7795000000001
 21
1082.4380000000001
  0
LINE
  8
_0-0_LAYER001
  6
CONTINUOUS
 62
    4
 10
1328.7795000000001
 20
1082.4380000000001
 11
1332.3861999999999
 21
1083.8499999999999
  0
LINE
  8
_0-0_LAYER001
  6
CONTINUOUS
 62
    4
 10
1332.3861999999999
 20
1083.8499999999999
 11
1334.4897000000001
 21
1084.6836000000001
  0
LINE
  8
_0-0_LAYER001
  6
CONTINUOUS
 62
    4
 10
1334.4897000000001
 20
1084.6836000000001
 11
1336.5690999999997
 21
1085.5124000000001
  0
LINE
  8
_0-0_LAYER001
  6
CONTINUOUS
 62
    4
 10
1336.5690999999997
 20
1085.5124000000001
 11
1340.1756
 21
1086.9139
  0
LINE
  8
_0-0_LAYER001
  6
CONTINUOUS
 62
    4
 10
1340.1756
 20
1086.9139
 11
1343.8083000000001
 21
1088.1966
  0
LINE
  8
_0-0_LAYER001
  6
CONTINUOUS
 62
    4
 10
1343.8083000000001
 20
1088.1966
 11
1347.4663
 21
1089.2632000000001
  0
LINE
  8
_0-0_LAYER001
  6
CONTINUOUS
 62
    4
 10
1347.4663
 20
1089.2632000000001
 11
1351.1484
 21
1090.0165
  0
LINE
  8
_0-0_LAYER001
  6
CONTINUOUS
 62
    4
 10
1351.1484
 20
1090.0165
 11
1354.8536999999999
 21
1090.3589999999999
  0
LINE
  8
_0-0_LAYER001
  6
CONTINUOUS
 62
    4
 10
1354.8536999999999
 20
1090.3589999999999
 11
1357.0129999999999
 21
1090.3311000000001
  0
LINE
  8
_0-0_LAYER001
  6
CONTINUOUS
 62
    4
 10
1357.0129999999999
 20
1090.3311000000001
 11
1357.8621000000001
 21
1090.2697000000001
  0
LINE
  8
_0-0_LAYER001
  6
CONTINUOUS
 62
    4
 10
1357.8621000000001
 20
1090.2697000000001
 11
1359.3264999999999
 21
1090.0990999999999
  0
LINE
  8
_0-0_LAYER001
  6
CONTINUOUS
 62
    4
 10
1359.3264999999999
 20
1090.0990999999999
 11
1360.7876000000001
 21
1089.8524
  0
LINE
  8
_0-0_LAYER001
  6
CONTINUOUS
 62
    4
 10
1360.7876000000001
 20
1089.8524
 11
1362.2411999999999
 21
1089.5364
  0
LINE
  8
_0-0_LAYER001
  6
CONTINUOUS
 62
    4
 10
1362.2411999999999
 20
1089.5364
 11
1363.6833999999999
 21
1089.1578999999999
  0
LINE
  8
_0-0_LAYER001
  6
CONTINUOUS
 62
    4
 10
1363.6833999999999
 20
1089.1578999999999
 11
1365.1098
 21
1088.7237
  0
LINE
  8
_0-0_LAYER001
  6
CONTINUOUS
 62
    4
 10
1365.1098
 20
1088.7237
 11
1365.9283
 21
1088.4491
  0
LINE
  8
_0-0_LAYER001
  6
CONTINUOUS
 62
    4
 10
1365.9283
 20
1088.4491
 11
1368.4265
 21
1087.5009
  0
LINE
  8
_0-0_LAYER001
  6
CONTINUOUS
 62
    4
 10
1368.4265
 20
1087.5009
 11
1372.5853999999999
 21
1085.5673999999999
  0
LINE
  8
_0-0_LAYER001
  6
CONTINUOUS
 62
    4
 10
1372.5853999999999
 20
1085.5673999999999
 11
1376.5893000000001
 21
1083.3219999999999
  0
LINE
  8
_0-0_LAYER001
  6
CONTINUOUS
 62
    4
 10
1376.5893000000001
 20
1083.3219999999999
 11
1380.4761000000003
 21
1080.8416999999999
  0
LINE
  8
_0-0_LAYER001
  6
CONTINUOUS
 62
    4
 10
1380.4761000000003
 20
1080.8416999999999
 11
1384.2841000000001
 21
1078.2035000000001
  0
LINE
  8
_0-0_LAYER001
  6
CONTINUOUS
 62
    4
 10
1384.2841000000001
 20
1078.2035000000001
 11
1388.0513999999998
 21
1075.4845
  0
LINE
  8
_0-0_LAYER001
  6
CONTINUOUS
 62
    4
 10
1388.0513999999998
 20
1075.4845
 11
1390.2327
 21
1073.9006999999999
  0
LINE
  8
_0-0_LAYER001
  6
CONTINUOUS
 62
    4
 10
1390.2327
 20
1073.9006999999999
 11
1393.5643
 21
1071.5137999999999
  0
LINE
  8
_0-0_LAYER001
  6
CONTINUOUS
 62
    4
 10
1393.5643
 20
1071.5137999999999
 11
1399.3565000000001
 21
1067.4969000000001
  0
LINE
  8
_0-0_LAYER001
  6
CONTINUOUS
 62
    4
 10
1399.3565000000001
 20
1067.4969000000001
 11
1405.2286999999999
 21
1063.6403
  0
LINE
  8
_0-0_LAYER001
  6
CONTINUOUS
 62
    4
 10
1405.2286999999999
 20
1063.6403
 11
1411.2028
 21
1059.9857999999999
  0
LINE
  8
_0-0_LAYER001
  6
CONTINUOUS
 62
    4
 10
1411.2028
 20
1059.9857999999999
 11
1417.3009999999999
 21
1056.5753
  0
LINE
  8
_0-0_LAYER001
  6
CONTINUOUS
 62
    4
 10
1417.3009999999999
 20
1056.5753
 11
1423.5453000000002
 21
1053.4504999999999
  0
LINE
  8
_0-0_LAYER001
  6
CONTINUOUS
 62
    4
 10
1423.5453000000002
 20
1053.4504999999999
 11
1427.2426
 21
1051.7855
  0
LINE
  8
_0-0_LAYER001
  6
CONTINUOUS
 62
    4
 10
1427.2426
 20
1051.7855
 11
1430.3018
 21
1050.5144
  0
LINE
  8
_0-0_LAYER001
  6
CONTINUOUS
 62
    4
 10
1430.3018
 20
1050.5144
 11
1435.6624000000002
 21
1048.5121999999999
  0
LINE
  8
_0-0_LAYER001
  6
CONTINUOUS
 62
    4
 10
1435.6624000000002
 20
1048.5121999999999
 11
1441.1181000000001
 21
1046.7566999999999
  0
LINE
  8
_0-0_LAYER001
  6
CONTINUOUS
 62
    4
 10
1441.1181000000001
 20
1046.7566999999999
 11
1446.6529999999998
 21
1045.2560000000001
  0
LINE
  8
_0-0_LAYER001
  6
CONTINUOUS
 62
    4
 10
1446.6529999999998
 20
1045.2560000000001
 11
1452.2512999999999
 21
1044.0179000000001
  0
LINE
  8
_0-0_LAYER001
  6
CONTINUOUS
 62
    4
 10
1452.2512999999999
 20
1044.0179000000001
 11
1457.8971000000001
 21
1043.0507
  0
LINE
  8
_0-0_LAYER001
  6
CONTINUOUS
 62
    4
 10
1457.8971000000001
 20
1043.0507
 11
1461.1869999999999
 21
1042.617
  0
LINE
  8
_0-0_LAYER001
  6
CONTINUOUS
 62
    4
 10
1461.1869999999999
 20
1042.617
 11
1463.7062999999998
 21
1042.3492000000001
  0
LINE
  8
_0-0_LAYER001
  6
CONTINUOUS
 62
    4
 10
1463.7062999999998
 20
1042.3492000000001
 11
1468.0583999999999
 21
1042.0091
  0
LINE
  8
_0-0_LAYER001
  6
CONTINUOUS
 62
    4
 10
1468.0583999999999
 20
1042.0091
 11
1472.4186
 21
1041.8097
  0
LINE
  8
_0-0_LAYER001
  6
CONTINUOUS
 62
    4
 10
1472.4186
 20
1041.8097
 11
1476.7838000000002
 21
1041.7349999999999
  0
LINE
  8
_0-0_LAYER001
  6
CONTINUOUS
 62
    4
 10
1476.7838000000002
 20
1041.7349999999999
 11
1481.1509000000001
 21
1041.7693999999999
  0
LINE
  8
_0-0_LAYER001
  6
CONTINUOUS
 62
    4
 10
1481.1509000000001
 20
1041.7693999999999
 11
1485.5167999999999
 21
1041.8969999999999
  0
LINE
  8
_0-0_LAYER001
  6
CONTINUOUS
 62
    4
 10
1485.5167999999999
 20
1041.8969999999999
 11
1488.0473000000002
 21
1042.0074999999999
  0
LINE
  8
_0-0_LAYER001
  6
CONTINUOUS
 62
    4
 10
1488.0473000000002
 20
1042.0074999999999
 11
1492.7764000000002
 21
1042.2756999999999
  0
LINE
  8
_0-0_LAYER001
  6
CONTINUOUS
 62
    4
 10
1492.7764000000002
 20
1042.2756999999999
 11
1500.9146000000001
 21
1042.9066
  0
LINE
  8
_0-0_LAYER001
  6
CONTINUOUS
 62
    4
 10
1500.9146000000001
 20
1042.9066
 11
1509.0353
 21
1043.7204999999999
  0
LINE
  8
_0-0_LAYER001
  6
CONTINUOUS
 62
    4
 10
1509.0353
 20
1043.7204999999999
 11
1517.1412
 21
1044.6818000000001
  0
LINE
  8
_0-0_LAYER001
  6
CONTINUOUS
 62
    4
 10
1517.1412
 20
1044.6818000000001
 11
1525.2345999999998
 21
1045.7550000000001
  0
LINE
  8
_0-0_LAYER001
  6
CONTINUOUS
 62
    4
 10
1525.2345999999998
 20
1045.7550000000001
 11
1533.3182000000002
 21
1046.9045000000001
  0
LINE
  8
_0-0_LAYER001
  6
CONTINUOUS
 62
    4
 10
1533.3182000000002
 20
1046.9045000000001
 11
1538.0030999999999
 21
1047.5923
  0
LINE
  8
_0-0_LAYER001
  6
CONTINUOUS
 62
    4
 10
1538.0030999999999
 20
1047.5923
 11
1540.4380000000001
 21
1047.9531999999999
  0
LINE
  8
_0-0_LAYER001
  6
CONTINUOUS
 62
    4
 10
1540.4380000000001
 20
1047.9531999999999
 11
1544.6350000000002
 21
1048.5791999999999
  0
LINE
  8
_0-0_LAYER001
  6
CONTINUOUS
 62
    4
 10
1544.6350000000002
 20
1048.5791999999999
 11
1548.8307
 21
1049.2093
  0
LINE
  8
_0-0_LAYER001
  6
CONTINUOUS
 62
    4
 10
1548.8307
 20
1049.2093
 11
1553.0255999999999
 21
1049.8425999999999
  0
LINE
  8
_0-0_LAYER001
  6
CONTINUOUS
 62
    4
 10
1553.0255999999999
 20
1049.8425999999999
 11
1557.2197000000001
 21
1050.4781
  0
LINE
  8
_0-0_LAYER001
  6
CONTINUOUS
 62
    4
 10
1557.2197000000001
 20
1050.4781
 11
1561.4135000000001
 21
1051.1151
  0
LINE
  8
_0-0_LAYER001
  6
CONTINUOUS
 62
    4
 10
1561.4135000000001
 20
1051.1151
 11
1563.8458000000001
 21
1051.4848999999999
  0
LINE
  8
_0-0_LAYER001
  6
CONTINUOUS
 62
    4
 10
1318.8089
 20
1059.3813
 11
1320.8707999999999
 21
1060.1581000000001
  0
LINE
  8
_0-0_LAYER001
  6
CONTINUOUS
 62
    4
 10
1320.8707999999999
 20
1060.1581000000001
 11
1324.4384
 21
1061.5047
  0
LINE
  8
_0-0_LAYER001
  6
CONTINUOUS
 62
    4
 10
1324.4384
 20
1061.5047
 11
1328.0302999999999
 21
1062.8669
  0
LINE
  8
_0-0_LAYER001
  6
CONTINUOUS
 62
    4
 10
1328.0302999999999
 20
1062.8669
 11
1331.6506999999999
 21
1064.2507000000001
  0
LINE
  8
_0-0_LAYER001
  6
CONTINUOUS
 62
    4
 10
1331.6506999999999
 20
1064.2507000000001
 11
1335.3036
 21
1065.6619000000001
  0
LINE
  8
_0-0_LAYER001
  6
CONTINUOUS
 62
    4
 10
1335.3036
 20
1065.6619000000001
 11
1338.9828
 21
1067.1023
  0
LINE
  8
_0-0_LAYER001
  6
CONTINUOUS
 62
    4
 10
1338.9828
 20
1067.1023
 11
1341.1379999999999
 21
1067.9563000000001
  0
LINE
  8
_0-0_LAYER001
  6
CONTINUOUS
 62
    4
 10
1341.1379999999999
 20
1067.9563000000001
 11
1343.1615999999999
 21
1068.7629999999999
  0
LINE
  8
_0-0_LAYER001
  6
CONTINUOUS
 62
    4
 10
1343.1615999999999
 20
1068.7629999999999
 11
1346.4335000000001
 21
1070.0344
  0
LINE
  8
_0-0_LAYER001
  6
CONTINUOUS
 62
    4
 10
1346.4335000000001
 20
1070.0344
 11
1349.3286000000001
 21
1071.0565999999999
  0
LINE
  8
_0-0_LAYER001
  6
CONTINUOUS
 62
    4
 10
1349.3286000000001
 20
1071.0565999999999
 11
1351.7967000000001
 21
1071.7763
  0
LINE
  8
_0-0_LAYER001
  6
CONTINUOUS
 62
    4
 10
1351.7967000000001
 20
1071.7763
 11
1353.7885000000001
 21
1072.1838
  0
LINE
  8
_0-0_LAYER001
  6
CONTINUOUS
 62
    4
 10
1353.7885000000001
 20
1072.1838
 11
1355.5678
 21
1072.3483000000001
  0
LINE
  8
_0-0_LAYER001
  6
CONTINUOUS
 62
    4
 10
1355.5678
 20
1072.3483000000001
 11
1356.2473
 21
1072.3395
  0
LINE
  8
_0-0_LAYER001
  6
CONTINUOUS
 62
    4
 10
1356.2473
 20
1072.3395
 11
1356.1712
 21
1072.345
  0
LINE
  8
_0-0_LAYER001
  6
CONTINUOUS
 62
    4
 10
1356.1712
 20
1072.345
 11
1356.7849000000001
 21
1072.2735
  0
LINE
  8
_0-0_LAYER001
  6
CONTINUOUS
 62
    4
 10
1356.7849000000001
 20
1072.2735
 11
1357.3752999999999
 21
1072.1738
  0
LINE
  8
_0-0_LAYER001
  6
CONTINUOUS
 62
    4
 10
1357.3752999999999
 20
1072.1738
 11
1358.0427
 21
1072.0287000000001
  0
LINE
  8
_0-0_LAYER001
  6
CONTINUOUS
 62
    4
 10
1358.0427
 20
1072.0287000000001
 11
1358.7762
 21
1071.8362
  0
LINE
  8
_0-0_LAYER001
  6
CONTINUOUS
 62
    4
 10
1358.7762
 20
1071.8362
 11
1359.6253999999999
 21
1071.5777
  0
LINE
  8
_0-0_LAYER001
  6
CONTINUOUS
 62
    4
 10
1359.6253999999999
 20
1071.5777
 11
1359.8695
 21
1071.4957999999999
  0
LINE
  8
_0-0_LAYER001
  6
CONTINUOUS
 62
    4
 10
1359.8695
 20
1071.4957999999999
 11
1361.4294
 21
1070.9037000000001
  0
LINE
  8
_0-0_LAYER001
  6
CONTINUOUS
 62
    4
 10
1361.4294
 20
1070.9037000000001
 11
1364.3770999999997
 21
1069.5333000000001
  0
LINE
  8
_0-0_LAYER001
  6
CONTINUOUS
 62
    4
 10
1364.3770999999997
 20
1069.5333000000001
 11
1367.3381999999997
 21
1067.8726999999999
  0
LINE
  8
_0-0_LAYER001
  6
CONTINUOUS
 62
    4
 10
1367.3381999999997
 20
1067.8726999999999
 11
1370.5059000000001
 21
1065.8514
  0
LINE
  8
_0-0_LAYER001
  6
CONTINUOUS
 62
    4
 10
1370.5059000000001
 20
1065.8514
 11
1373.8905999999999
 21
1063.5064
  0
LINE
  8
_0-0_LAYER001
  6
CONTINUOUS
 62
    4
 10
1373.8905999999999
 20
1063.5064
 11
1377.4963
 21
1060.904
  0
LINE
  8
_0-0_LAYER001
  6
CONTINUOUS
 62
    4
 10
1377.4963
 20
1060.904
 11
1379.7032999999999
 21
1059.3015
  0
LINE
  8
_0-0_LAYER001
  6
CONTINUOUS
 62
    4
 10
1379.7032999999999
 20
1059.3015
 11
1383.1932999999999
 21
1056.8012000000001
  0
LINE
  8
_0-0_LAYER001
  6
CONTINUOUS
 62
    4
 10
1383.1932999999999
 20
1056.8012000000001
 11
1389.2854
 21
1052.5762999999999
  0
LINE
  8
_0-0_LAYER001
  6
CONTINUOUS
 62
    4
 10
1389.2854
 20
1052.5762999999999
 11
1395.5891999999999
 21
1048.4362000000001
  0
LINE
  8
_0-0_LAYER001
  6
CONTINUOUS
 62
    4
 10
1395.5891999999999
 20
1048.4362000000001
 11
1402.1098999999999
 21
1044.4474
  0
LINE
  8
_0-0_LAYER001
  6
CONTINUOUS
 62
    4
 10
1402.1098999999999
 20
1044.4474
 11
1408.8758000000003
 21
1040.6633999999999
  0
LINE
  8
_0-0_LAYER001
  6
CONTINUOUS
 62
    4
 10
1408.8758000000003
 20
1040.6633999999999
 11
1415.8188999999998
 21
1037.1889000000001
  0
LINE
  8
_0-0_LAYER001
  6
CONTINUOUS
 62
    4
 10
1415.8188999999998
 20
1037.1889000000001
 11
1420.0923
 21
1035.2645
  0
LINE
  8
_0-0_LAYER001
  6
CONTINUOUS
 62
    4
 10
1420.0923
 20
1035.2645
 11
1423.6974
 21
1033.7665999999999
  0
LINE
  8
_0-0_LAYER001
  6
CONTINUOUS
 62
    4
 10
1423.6974
 20
1033.7665999999999
 11
1429.7534999999998
 21
1031.5046
  0
LINE
  8
_0-0_LAYER001
  6
CONTINUOUS
 62
    4
 10
1429.7534999999998
 20
1031.5046
 11
1436.0032999999999
 21
1029.4936
  0
LINE
  8
_0-0_LAYER001
  6
CONTINUOUS
 62
    4
 10
1436.0032999999999
 20
1029.4936
 11
1442.3521000000001
 21
1027.7722000000001
  0
LINE
  8
_0-0_LAYER001
  6
CONTINUOUS
 62
    4
 10
1442.3521000000001
 20
1027.7722000000001
 11
1448.7863000000002
 21
1026.3493000000001
  0
LINE
  8
_0-0_LAYER001
  6
CONTINUOUS
 62
    4
 10
1448.7863000000002
 20
1026.3493000000001
 11
1455.1999999999998
 21
1025.2506000000001
  0
LINE
  8
_0-0_LAYER001
  6
CONTINUOUS
 62
    4
 10
1455.1999999999998
 20
1025.2506000000001
 11
1459.0587999999998
 21
1024.7418
  0
LINE
  8
_0-0_LAYER001
  6
CONTINUOUS
 62
    4
 10
1459.0587999999998
 20
1024.7418
 11
1462.0533999999998
 21
1024.4233999999999
  0
LINE
  8
_0-0_LAYER001
  6
CONTINUOUS
 62
    4
 10
1462.0533999999998
 20
1024.4233999999999
 11
1466.9459000000002
 21
1024.0411999999999
  0
LINE
  8
_0-0_LAYER001
  6
CONTINUOUS
 62
    4
 10
1466.9459000000002
 20
1024.0411999999999
 11
1471.8534
 21
1023.8167000000001
  0
LINE
  8
_0-0_LAYER001
  6
CONTINUOUS
 62
    4
 10
1471.8534
 20
1023.8167000000001
 11
1476.7008000000001
 21
1023.7338
  0
LINE
  8
_0-0_LAYER001
  6
CONTINUOUS
 62
    4
 10
1476.7008000000001
 20
1023.7338
 11
1481.4847
 21
1023.7715000000001
  0
LINE
  8
_0-0_LAYER001
  6
CONTINUOUS
 62
    4
 10
1481.4847
 20
1023.7715000000001
 11
1486.1723000000002
 21
1023.9084
  0
LINE
  8
_0-0_LAYER001
  6
CONTINUOUS
 62
    4
 10
1486.1723000000002
 20
1023.9084
 11
1488.9495000000002
 21
1024.0297
  0
LINE
  8
_0-0_LAYER001
  6
CONTINUOUS
 62
    4
 10
1488.9495000000002
 20
1024.0297
 11
1493.9818
 21
1024.3151
  0
LINE
  8
_0-0_LAYER001
  6
CONTINUOUS
 62
    4
 10
1493.9818
 20
1024.3151
 11
1502.5079999999998
 21
1024.9762000000001
  0
LINE
  8
_0-0_LAYER001
  6
CONTINUOUS
 62
    4
 10
1502.5079999999998
 20
1024.9762000000001
 11
1510.9929000000002
 21
1025.8264999999999
  0
LINE
  8
_0-0_LAYER001
  6
CONTINUOUS
 62
    4
 10
1510.9929000000002
 20
1025.8264999999999
 11
1519.3842
 21
1026.8217
  0
LINE
  8
_0-0_LAYER001
  6
CONTINUOUS
 62
    4
 10
1519.3842
 20
1026.8217
 11
1527.6849000000002
 21
1027.9223
  0
LINE
  8
_0-0_LAYER001
  6
CONTINUOUS
 62
    4
 10
1527.6849000000002
 20
1027.9223
 11
1535.8926000000001
 21
1029.0896
  0
LINE
  8
_0-0_LAYER001
  6
CONTINUOUS
 62
    4
 10
1535.8926000000001
 20
1029.0896
 11
1540.6298000000002
 21
1029.7850000000001
  0
LINE
  8
_0-0_LAYER001
  6
CONTINUOUS
 62
    4
 10
1540.6298000000002
 20
1029.7850000000001
 11
1543.0850999999998
 21
1030.1488999999999
  0
LINE
  8
_0-0_LAYER001
  6
CONTINUOUS
 62
    4
 10
1543.0850999999998
 20
1030.1488999999999
 11
1547.2991999999999
 21
1030.7774999999999
  0
LINE
  8
_0-0_LAYER001
  6
CONTINUOUS
 62
    4
 10
1547.2991999999999
 20
1030.7774999999999
 11
1551.5108
 21
1031.4099000000001
  0
LINE
  8
_0-0_LAYER001
  6
CONTINUOUS
 62
    4
 10
1551.5108
 20
1031.4099000000001
 11
1555.7175000000002
 21
1032.0450000000001
  0
LINE
  8
_0-0_LAYER001
  6
CONTINUOUS
 62
    4
 10
1555.7175000000002
 20
1032.0450000000001
 11
1559.9196999999999
 21
1032.6818000000001
  0
LINE
  8
_0-0_LAYER001
  6
CONTINUOUS
 62
    4
 10
1559.9196999999999
 20
1032.6818000000001
 11
1564.1176
 21
1033.3194000000001
  0
LINE
  8
_0-0_LAYER001
  6
CONTINUOUS
 62
    4
 10
1564.1176
 20
1033.3194000000001
 11
1565.7352999999998
 21
1033.5653
  0
LINE
  8
_0-0_LAYER001
  6
CONTINUOUS
 62
    4
 10
1313.2800999999999
 20
1076.5314000000001
 11
1313.7059999999999
 21
1076.6945000000001
  0
ARC
  8
_0-0_LAYER001
  6
CONTINUOUS
 62
    4
 10
1314.3526999999999
 20
1073.7297000000001
 40
3
 50
110.94902000000002
 51
178.70000000000002
  0
LINE
  8
_0-0_LAYER001
  6
CONTINUOUS
 62
    4
 10
1311.2440999999999
 20
1057.9586999999999
 11
1311.2440999999999
 21
1073.6812
  0
LINE
  8
_0-0_LAYER001
  6
CONTINUOUS
 62
    4
 10
1312.5980999999999
 20
1057.0234
 11
1318.7728999999999
 21
1059.3606
  0
ARC
  8
_0-0_LAYER001
  6
CONTINUOUS
 62
    4
 10
1312.2440999999999
 20
1057.9586999999999
 40
1
 50
180
 51
290.73165999999998
  0
LINE
  8
_0-0_LAYER001
  6
CONTINUOUS
 62
    4
 10
1563.9706999999999
 20
1051.5202999999999
 11
1608.4250000000002
 21
1061.1682000000001
  0
LINE
  8
_0-0_LAYER001
  6
CONTINUOUS
 62
    4
 10
1570.7159000000001
 20
1031.6866
 11
1609.3877000000002
 21
1040.7365
  0
LINE
  8
_0-0_LAYER001
  6
CONTINUOUS
 62
    4
 10
1609.3877000000002
 20
1041.693
 11
1609.3877000000002
 21
1040.7365
  0
ARC
  8
_0-0_LAYER001
  6
CONTINUOUS
 62
    4
 10
1610.3877000000002
 20
1041.693
 40
1
 50
102.72435
 51
180
  0
LINE
  8
_0-0_LAYER001
  6
CONTINUOUS
 62
    4
 10
1615.2046999999998
 20
1043.8059000000001
 11
1610.1673999999998
 21
1042.6685
  0
ARC
  8
_0-0_LAYER001
  6
CONTINUOUS
 62
    4
 10
1615.4250000000002
 20
1042.8305
 40
1
 50
0
 51
102.72435
  0
LINE
  8
_0-0_LAYER001
  6
CONTINUOUS
 62
    4
 10
1615.6370999999999
 20
1044.3144
 11
1565.5030999999999
 21
1033.4338
  0
ARC
  8
_0-0_LAYER001
  6
CONTINUOUS
 62
    4
 10
1615.4250000000002
 20
1045.2916
 40
1
 50
282.24497000000002
 51
0
  0
LINE
  8
_0-0_LAYER001
  6
CONTINUOUS
 62
    4
 10
1615.6428000000001
 20
1023.5735999999999
 11
1566.0589
 21
1012.5057999999999
  0
LINE
  8
_0-0_LAYER001
  6
CONTINUOUS
 62
    4
 10
1616.4250000000002
 20
1024.5496000000001
 11
1616.4250000000002
 21
1042.8305
  0
ARC
  8
_0-0_LAYER001
  6
CONTINUOUS
 62
    4
 10
1615.4250000000002
 20
1024.5496000000001
 40
1
 50
282.58296000000001
 51
0.0000000000000254
  0
LINE
  8
_0-0_LAYER001
  6
CONTINUOUS
 62
    4
 10
1608.4250000000002
 20
1062.6251999999999
 11
1608.4250000000002
 21
1061.1682000000001
  0
ARC
  8
_0-0_LAYER001
  6
CONTINUOUS
 62
    4
 10
1609.4250000000002
 20
1062.6251999999999
 40
1
 50
101.73308
 51
180
  0
LINE
  8
_0-0_LAYER001
  6
CONTINUOUS
 62
    4
 10
1615.2215999999999
 20
1064.8505
 11
1609.2215999999999
 21
1063.6043
  0
LINE
  8
_0-0_LAYER001
  6
CONTINUOUS
 62
    4
 10
1616.4250000000002
 20
1063.8713
 11
1616.4250000000002
 21
1045.2916
  0
ARC
  8
_0-0_LAYER001
  6
CONTINUOUS
 62
    4
 10
1615.4250000000002
 20
1063.8713
 40
1
 50
0
 51
101.73308
  0
LINE
  8
_0-0_LAYER001
  6
CONTINUOUS
 62
    4
 10
1171.6944000000001
 20
992.98139999999989
 11
1163.1588999999999
 21
1007.5147999999999
  0
LINE
  8
_0-0_LAYER001
  6
CONTINUOUS
 62
    4
 10
1179.8622
 20
992.33110000000011
 11
1188.1684
 21
1002.3966
  0
ARC
  8
_0-0_LAYER001
  6
CONTINUOUS
 62
    4
 10
1176.0057999999999
 20
995.5136
 40
5
 50
210.42578
 51
320.47001
  0
LINE
  8
_0-0_LAYER001
  6
CONTINUOUS
 62
    4
 10
1255.8078
 20
991.86130000000003
 11
1248.4825000000001
 21
1003.1673000000001
  0
LINE
  8
_0-0_LAYER001
  6
CONTINUOUS
 62
    4
 10
1264.3173999999999
 20
992.05120000000011
 11
1273.2557999999999
 21
1007.2969000000001
  0
ARC
  8
_0-0_LAYER001
  6
CONTINUOUS
 62
    4
 10
1260.0041000000001
 20
994.5800999999999
 40
5
 50
212.93986000000001
 51
329.61716000000001
  0
LINE
  8
_0-0_LAYER001
  6
CONTINUOUS
 62
    4
 10
1303.5994000000001
 20
1031.6088
 11
1306.0274999999999
 21
1032.0127
  0
LINE
  8
_0-0_LAYER001
  6
CONTINUOUS
 62
    4
 10
1299.4103999999998
 20
1030.9126000000001
 11
1303.5994000000001
 21
1031.6088
  0
LINE
  8
_0-0_LAYER001
  6
CONTINUOUS
 62
    4
 10
1295.2166
 20
1030.2170000000001
 11
1299.4103999999998
 21
1030.9126000000001
  0
LINE
  8
_0-0_LAYER001
  6
CONTINUOUS
 62
    4
 10
1291.0178000000001
 20
1029.5231000000001
 11
1295.2166
 21
1030.2170000000001
  0
LINE
  8
_0-0_LAYER001
  6
CONTINUOUS
 62
    4
 10
1286.8137999999999
 20
1028.8316
 11
1291.0178000000001
 21
1029.5231000000001
  0
LINE
  8
_0-0_LAYER001
  6
CONTINUOUS
 62
    4
 10
1282.6069000000002
 20
1028.1439
 11
1286.8137999999999
 21
1028.8316
  0
LINE
  8
_0-0_LAYER001
  6
CONTINUOUS
 62
    4
 10
1280.1546000000003
 20
1027.7454
 11
1282.6069000000002
 21
1028.1439
  0
LINE
  8
_0-0_LAYER001
  6
CONTINUOUS
 62
    4
 10
1275.4219000000001
 20
1026.9829999999999
 11
1280.1546000000003
 21
1027.7454
  0
LINE
  8
_0-0_LAYER001
  6
CONTINUOUS
 62
    4
 10
1267.2174
 20
1025.6991
 11
1275.4219000000001
 21
1026.9829999999999
  0
LINE
  8
_0-0_LAYER001
  6
CONTINUOUS
 62
    4
 10
1258.9100000000001
 20
1024.4793
 11
1267.2174
 21
1025.6991
  0
LINE
  8
_0-0_LAYER001
  6
CONTINUOUS
 62
    4
 10
1250.5017
 20
1023.3629000000001
 11
1258.9100000000001
 21
1024.4793
  0
LINE
  8
_0-0_LAYER001
  6
CONTINUOUS
 62
    4
 10
1241.9891
 20
1022.3895
 11
1250.5017
 21
1023.3629000000001
  0
LINE
  8
_0-0_LAYER001
  6
CONTINUOUS
 62
    4
 10
1233.4300000000001
 20
1021.6054999999999
 11
1241.9891
 21
1022.3895
  0
LINE
  8
_0-0_LAYER001
  6
CONTINUOUS
 62
    4
 10
1228.3684000000001
 20
1021.2474999999999
 11
1233.4300000000001
 21
1021.6054999999999
  0
LINE
  8
_0-0_LAYER001
  6
CONTINUOUS
 62
    4
 10
1225.5659000000001
 20
1021.0859
 11
1228.3684000000001
 21
1021.2474999999999
  0
LINE
  8
_0-0_LAYER001
  6
CONTINUOUS
 62
    4
 10
1220.8448000000001
 20
1020.8819000000001
 11
1225.5659000000001
 21
1021.0859
  0
LINE
  8
_0-0_LAYER001
  6
CONTINUOUS
 62
    4
 10
1216.0155999999999
 20
1020.7764999999999
 11
1220.8448000000001
 21
1020.8819000000001
  0
LINE
  8
_0-0_LAYER001
  6
CONTINUOUS
 62
    4
 10
1211.114
 20
1020.7918999999999
 11
1216.0155999999999
 21
1020.7764999999999
  0
LINE
  8
_0-0_LAYER001
  6
CONTINUOUS
 62
    4
 10
1206.1429000000001
 20
1020.9496999999999
 11
1211.114
 21
1020.7918999999999
  0
LINE
  8
_0-0_LAYER001
  6
CONTINUOUS
 62
    4
 10
1201.1855
 20
1021.2674999999999
 11
1206.1429000000001
 21
1020.9496999999999
  0
LINE
  8
_0-0_LAYER001
  6
CONTINUOUS
 62
    4
 10
1198.1339
 20
1021.5489
 11
1201.1855
 21
1021.2674999999999
  0
LINE
  8
_0-0_LAYER001
  6
CONTINUOUS
 62
    4
 10
1194.2049999999999
 20
1022.0111999999999
 11
1198.1339
 21
1021.5489
  0
LINE
  8
_0-0_LAYER001
  6
CONTINUOUS
 62
    4
 10
1187.6911
 20
1023.0337
 11
1194.2049999999999
 21
1022.0111999999999
  0
LINE
  8
_0-0_LAYER001
  6
CONTINUOUS
 62
    4
 10
1181.1445000000001
 20
1024.3858
 11
1187.6911
 21
1023.0337
  0
LINE
  8
_0-0_LAYER001
  6
CONTINUOUS
 62
    4
 10
1174.6814999999999
 20
1026.0417
 11
1181.1445000000001
 21
1024.3858
  0
LINE
  8
_0-0_LAYER001
  6
CONTINUOUS
 62
    4
 10
1168.3155999999999
 20
1027.9924000000001
 11
1174.6814999999999
 21
1026.0417
  0
LINE
  8
_0-0_LAYER001
  6
CONTINUOUS
 62
    4
 10
1162.1507999999999
 20
1030.1974
 11
1168.3155999999999
 21
1027.9924000000001
  0
LINE
  8
_0-0_LAYER001
  6
CONTINUOUS
 62
    4
 10
1158.4641999999999
 20
1031.6692
 11
1162.1507999999999
 21
1030.1974
  0
LINE
  8
_0-0_LAYER001
  6
CONTINUOUS
 62
    4
 10
1154.0998999999999
 20
1033.5617
 11
1158.4641999999999
 21
1031.6692
  0
LINE
  8
_0-0_LAYER001
  6
CONTINUOUS
 62
    4
 10
1147.0309
 20
1036.9766
 11
1154.0998999999999
 21
1033.5617
  0
LINE
  8
_0-0_LAYER001
  6
CONTINUOUS
 62
    4
 10
1140.1379999999999
 20
1040.7063000000001
 11
1147.0309
 21
1036.9766
  0
LINE
  8
_0-0_LAYER001
  6
CONTINUOUS
 62
    4
 10
1133.501
 20
1044.6398999999999
 11
1140.1379999999999
 21
1040.7063000000001
  0
LINE
  8
_0-0_LAYER001
  6
CONTINUOUS
 62
    4
 10
1127.0916
 20
1048.7224000000001
 11
1133.501
 21
1044.6398999999999
  0
LINE
  8
_0-0_LAYER001
  6
CONTINUOUS
 62
    4
 10
1120.9074000000001
 20
1052.8844999999999
 11
1127.0916
 21
1048.7224000000001
  0
LINE
  8
_0-0_LAYER001
  6
CONTINUOUS
 62
    4
 10
1117.3651
 20
1055.3481999999999
 11
1120.9074000000001
 21
1052.8844999999999
  0
LINE
  8
_0-0_LAYER001
  6
CONTINUOUS
 62
    4
 10
1115.1331
 20
1056.9217000000001
 11
1117.3651
 21
1055.3481999999999
  0
LINE
  8
_0-0_LAYER001
  6
CONTINUOUS
 62
    4
 10
1111.5094999999999
 20
1059.4609
 11
1115.1331
 21
1056.9217000000001
  0
LINE
  8
_0-0_LAYER001
  6
CONTINUOUS
 62
    4
 10
1108.1398999999999
 20
1061.7264
 11
1111.5094999999999
 21
1059.4609
  0
LINE
  8
_0-0_LAYER001
  6
CONTINUOUS
 62
    4
 10
1105.0248999999999
 20
1063.6533999999999
 11
1108.1398999999999
 21
1061.7264
  0
LINE
  8
_0-0_LAYER001
  6
CONTINUOUS
 62
    4
 10
1102.1577
 20
1065.2092
 11
1105.0248999999999
 21
1063.6533999999999
  0
LINE
  8
_0-0_LAYER001
  6
CONTINUOUS
 62
    4
 10
1099.3264999999999
 20
1066.4775999999999
 11
1102.1577
 21
1065.2092
  0
LINE
  8
_0-0_LAYER001
  6
CONTINUOUS
 62
    4
 10
1097.8633
 20
1067.0098
 11
1099.3264999999999
 21
1066.4775999999999
  0
LINE
  8
_0-0_LAYER001
  6
CONTINUOUS
 62
    4
 10
1097.6822
 20
1067.0677000000001
 11
1097.8633
 21
1067.0098
  0
LINE
  8
_0-0_LAYER001
  6
CONTINUOUS
 62
    4
 10
1096.894
 20
1067.2956999999999
 11
1097.6822
 21
1067.0677000000001
  0
LINE
  8
_0-0_LAYER001
  6
CONTINUOUS
 62
    4
 10
1096.2367999999999
 20
1067.4584
 11
1096.894
 21
1067.2956999999999
  0
LINE
  8
_0-0_LAYER001
  6
CONTINUOUS
 62
    4
 10
1093.0705
 20
1068.1006
 11
1096.2367999999999
 21
1067.4584
  0
LINE
  8
_0-0_LAYER001
  6
CONTINUOUS
 62
    4
 10
1299.5888
 20
1012.4213999999999
 11
1301.2029000000002
 21
1012.6898000000001
  0
LINE
  8
_0-0_LAYER001
  6
CONTINUOUS
 62
    4
 10
1295.4002
 20
1011.7252000000001
 11
1299.5888
 21
1012.4213999999999
  0
LINE
  8
_0-0_LAYER001
  6
CONTINUOUS
 62
    4
 10
1291.2073
 20
1011.0298
 11
1295.4002
 21
1011.7252000000001
  0
LINE
  8
_0-0_LAYER001
  6
CONTINUOUS
 62
    4
 10
1287.0099
 20
1010.336
 11
1291.2073
 21
1011.0298
  0
LINE
  8
_0-0_LAYER001
  6
CONTINUOUS
 62
    4
 10
1282.8076000000001
 20
1009.6448
 11
1287.0099
 21
1010.336
  0
LINE
  8
_0-0_LAYER001
  6
CONTINUOUS
 62
    4
 10
1278.6025999999999
 20
1008.9575
 11
1282.8076000000001
 21
1009.6448
  0
LINE
  8
_0-0_LAYER001
  6
CONTINUOUS
 62
    4
 10
1276.1525999999999
 20
1008.5592999999999
 11
1278.6025999999999
 21
1008.9575
  0
LINE
  8
_0-0_LAYER001
  6
CONTINUOUS
 62
    4
 10
1271.4256
 20
1007.7978000000001
 11
1276.1525999999999
 21
1008.5592999999999
  0
LINE
  8
_0-0_LAYER001
  6
CONTINUOUS
 62
    4
 10
1263.2349999999999
 20
1006.5161000000001
 11
1271.4256
 21
1007.7978000000001
  0
LINE
  8
_0-0_LAYER001
  6
CONTINUOUS
 62
    4
 10
1254.9504999999999
 20
1005.2997
 11
1263.2349999999999
 21
1006.5161000000001
  0
LINE
  8
_0-0_LAYER001
  6
CONTINUOUS
 62
    4
 10
1246.5739000000001
 20
1004.1875
 11
1254.9504999999999
 21
1005.2997
  0
LINE
  8
_0-0_LAYER001
  6
CONTINUOUS
 62
    4
 10
1238.1016999999999
 20
1003.2186999999999
 11
1246.5739000000001
 21
1004.1875
  0
LINE
  8
_0-0_LAYER001
  6
CONTINUOUS
 62
    4
 10
1229.5856000000001
 20
1002.4386999999999
 11
1238.1016999999999
 21
1003.2186999999999
  0
LINE
  8
_0-0_LAYER001
  6
CONTINUOUS
 62
    4
 10
1224.5577000000001
 20
1002.0830000000001
 11
1229.5856000000001
 21
1002.4386999999999
  0
LINE
  8
_0-0_LAYER001
  6
CONTINUOUS
 62
    4
 10
1221.7825
 20
1001.923
 11
1224.5577000000001
 21
1002.0830000000001
  0
LINE
  8
_0-0_LAYER001
  6
CONTINUOUS
 62
    4
 10
1217.0971999999999
 20
1001.7206000000001
 11
1221.7825
 21
1001.923
  0
LINE
  8
_0-0_LAYER001
  6
CONTINUOUS
 62
    4
 10
1212.3143
 20
1001.6161999999999
 11
1217.0971999999999
 21
1001.7206000000001
  0
LINE
  8
_0-0_LAYER001
  6
CONTINUOUS
 62
    4
 10
1207.4663
 20
1001.6314
 11
1212.3143
 21
1001.6161999999999
  0
LINE
  8
_0-0_LAYER001
  6
CONTINUOUS
 62
    4
 10
1202.5561
 20
1001.7873
 11
1207.4663
 21
1001.6314
  0
LINE
  8
_0-0_LAYER001
  6
CONTINUOUS
 62
    4
 10
1197.6587999999999
 20
1002.1012000000001
 11
1202.5561
 21
1001.7873
  0
LINE
  8
_0-0_LAYER001
  6
CONTINUOUS
 62
    4
 10
1194.6600000000001
 20
1002.3778
 11
1197.6587999999999
 21
1002.1012000000001
  0
LINE
  8
_0-0_LAYER001
  6
CONTINUOUS
 62
    4
 10
1190.7945
 20
1002.8326
 11
1194.6600000000001
 21
1002.3778
  0
LINE
  8
_0-0_LAYER001
  6
CONTINUOUS
 62
    4
 10
1184.3661
 20
1003.8416999999999
 11
1190.7945
 21
1002.8326
  0
LINE
  8
_0-0_LAYER001
  6
CONTINUOUS
 62
    4
 10
1177.9126000000001
 20
1005.1746000000001
 11
1184.3661
 21
1003.8416999999999
  0
LINE
  8
_0-0_LAYER001
  6
CONTINUOUS
 62
    4
 10
1171.5404000000001
 20
1006.8072
 11
1177.9126000000001
 21
1005.1746000000001
  0
LINE
  8
_0-0_LAYER001
  6
CONTINUOUS
 62
    4
 10
1165.2630999999999
 20
1008.7307000000001
 11
1171.5404000000001
 21
1006.8072
  0
LINE
  8
_0-0_LAYER001
  6
CONTINUOUS
 62
    4
 10
1159.1759999999999
 20
1010.9078999999999
 11
1165.2630999999999
 21
1008.7307000000001
  0
LINE
  8
_0-0_LAYER001
  6
CONTINUOUS
 62
    4
 10
1155.5504000000001
 20
1012.3552999999999
 11
1159.1759999999999
 21
1010.9078999999999
  0
LINE
  8
_0-0_LAYER001
  6
CONTINUOUS
 62
    4
 10
1151.2505000000001
 20
1014.2199000000001
 11
1155.5504000000001
 21
1012.3552999999999
  0
LINE
  8
_0-0_LAYER001
  6
CONTINUOUS
 62
    4
 10
1144.2596000000001
 20
1017.5971
 11
1151.2505000000001
 21
1014.2199000000001
  0
LINE
  8
_0-0_LAYER001
  6
CONTINUOUS
 62
    4
 10
1137.4414999999999
 20
1021.2863
 11
1144.2596000000001
 21
1017.5971
  0
LINE
  8
_0-0_LAYER001
  6
CONTINUOUS
 62
    4
 10
1130.8657000000001
 20
1025.1837
 11
1137.4414999999999
 21
1021.2863
  0
LINE
  8
_0-0_LAYER001
  6
CONTINUOUS
 62
    4
 10
1124.5047999999999
 20
1029.2353000000001
 11
1130.8657000000001
 21
1025.1837
  0
LINE
  8
_0-0_LAYER001
  6
CONTINUOUS
 62
    4
 10
1118.3542
 20
1033.3748000000001
 11
1124.5047999999999
 21
1029.2353000000001
  0
LINE
  8
_0-0_LAYER001
  6
CONTINUOUS
 62
    4
 10
1114.8297
 20
1035.8261
 11
1118.3542
 21
1033.3748000000001
  0
LINE
  8
_0-0_LAYER001
  6
CONTINUOUS
 62
    4
 10
1112.6006
 20
1037.3976
 11
1114.8297
 21
1035.8261
  0
LINE
  8
_0-0_LAYER001
  6
CONTINUOUS
 62
    4
 10
1108.9589000000001
 20
1039.9494999999999
 11
1112.6006
 21
1037.3976
  0
LINE
  8
_0-0_LAYER001
  6
CONTINUOUS
 62
    4
 10
1105.5417
 20
1042.2469000000001
 11
1108.9589000000001
 21
1039.9494999999999
  0
LINE
  8
_0-0_LAYER001
  6
CONTINUOUS
 62
    4
 10
1102.3461
 20
1044.2238
 11
1105.5417
 21
1042.2469000000001
  0
LINE
  8
_0-0_LAYER001
  6
CONTINUOUS
 62
    4
 10
1099.3622
 20
1045.8429000000001
 11
1102.3461
 21
1044.2238
  0
LINE
  8
_0-0_LAYER001
  6
CONTINUOUS
 62
    4
 10
1093.0705
 20
1048.6619000000001
 11
1099.3622
 21
1045.8429000000001
  0
LINE
  8
_0-0_LAYER001
  6
CONTINUOUS
 62
    4
 10
1296.3042999999998
 20
1002.0001
 11
1294.0589
 21
1010.5735999999999
  0
ARC
  8
_0-0_LAYER001
  6
CONTINUOUS
 62
    4
 10
1299.2064
 20
1002.7601999999999
 40
3
 50
194.67639000000003
 51
270.00000000000006
  0
LINE
  8
_0-0_LAYER001
  6
CONTINUOUS
 62
    4
 10
1302.6488999999997
 20
999.75590000000011
 11
1299.2311
 21
999.75590000000011
  0
LINE
  8
_0-0_LAYER001
  6
CONTINUOUS
 62
    4
 10
1305.6080999999999
 20
1002.2627
 11
1307.5421000000001
 21
1013.8669
  0
ARC
  8
_0-0_LAYER001
  6
CONTINUOUS
 62
    4
 10
1302.6488999999997
 20
1002.7559000000001
 40
3
 50
270
 51
350.53766999999999
  0
LINE
  8
_0-0_LAYER001
  6
CONTINUOUS
 62
    4
 10
1093.039
 20
1090.4540999999999
 11
1094.5033000000001
 21
1090.2835
  0
LINE
  8
_0-0_LAYER001
  6
CONTINUOUS
 62
    4
 10
1094.5033000000001
 20
1090.2835
 11
1095.9644000000001
 21
1090.0368000000001
  0
LINE
  8
_0-0_LAYER001
  6
CONTINUOUS
 62
    4
 10
1095.9644000000001
 20
1090.0368000000001
 11
1097.4181000000001
 21
1089.7207000000001
  0
LINE
  8
_0-0_LAYER001
  6
CONTINUOUS
 62
    4
 10
1097.4181000000001
 20
1089.7207000000001
 11
1098.8602000000001
 21
1089.3422
  0
LINE
  8
_0-0_LAYER001
  6
CONTINUOUS
 62
    4
 10
1098.8602000000001
 20
1089.3422
 11
1100.2867000000001
 21
1088.9081000000001
  0
LINE
  8
_0-0_LAYER001
  6
CONTINUOUS
 62
    4
 10
1100.2867000000001
 20
1088.9081000000001
 11
1101.1051
 21
1088.6334999999999
  0
LINE
  8
_0-0_LAYER001
  6
CONTINUOUS
 62
    4
 10
1101.1051
 20
1088.6334999999999
 11
1103.6034
 21
1087.6851999999999
  0
LINE
  8
_0-0_LAYER001
  6
CONTINUOUS
 62
    4
 10
1103.6034
 20
1087.6851999999999
 11
1107.7623000000001
 21
1085.7517
  0
LINE
  8
_0-0_LAYER001
  6
CONTINUOUS
 62
    4
 10
1107.7623000000001
 20
1085.7517
 11
1111.7661000000001
 21
1083.5063
  0
LINE
  8
_0-0_LAYER001
  6
CONTINUOUS
 62
    4
 10
1111.7661000000001
 20
1083.5063
 11
1115.653
 21
1081.0261
  0
LINE
  8
_0-0_LAYER001
  6
CONTINUOUS
 62
    4
 10
1115.653
 20
1081.0261
 11
1119.461
 21
1078.3878999999999
  0
LINE
  8
_0-0_LAYER001
  6
CONTINUOUS
 62
    4
 10
1119.461
 20
1078.3878999999999
 11
1123.2282
 21
1075.6687999999999
  0
LINE
  8
_0-0_LAYER001
  6
CONTINUOUS
 62
    4
 10
1123.2282
 20
1075.6687999999999
 11
1125.4096
 21
1074.085
  0
LINE
  8
_0-0_LAYER001
  6
CONTINUOUS
 62
    4
 10
1125.4096
 20
1074.085
 11
1128.7411
 21
1071.6982
  0
LINE
  8
_0-0_LAYER001
  6
CONTINUOUS
 62
    4
 10
1128.7411
 20
1071.6982
 11
1134.5334
 21
1067.6812
  0
LINE
  8
_0-0_LAYER001
  6
CONTINUOUS
 62
    4
 10
1134.5334
 20
1067.6812
 11
1140.4055000000001
 21
1063.8245999999999
  0
LINE
  8
_0-0_LAYER001
  6
CONTINUOUS
 62
    4
 10
1140.4055000000001
 20
1063.8245999999999
 11
1146.3797
 21
1060.1702
  0
LINE
  8
_0-0_LAYER001
  6
CONTINUOUS
 62
    4
 10
1146.3797
 20
1060.1702
 11
1152.4779000000001
 21
1056.7596000000001
  0
LINE
  8
_0-0_LAYER001
  6
CONTINUOUS
 62
    4
 10
1152.4779000000001
 20
1056.7596000000001
 11
1158.7221999999999
 21
1053.6348
  0
LINE
  8
_0-0_LAYER001
  6
CONTINUOUS
 62
    4
 10
1158.7221999999999
 20
1053.6348
 11
1162.4195
 21
1051.9698000000001
  0
LINE
  8
_0-0_LAYER001
  6
CONTINUOUS
 62
    4
 10
1162.4195
 20
1051.9698000000001
 11
1165.4786999999999
 21
1050.6986999999999
  0
LINE
  8
_0-0_LAYER001
  6
CONTINUOUS
 62
    4
 10
1165.4786999999999
 20
1050.6986999999999
 11
1170.8391999999999
 21
1048.6966
  0
LINE
  8
_0-0_LAYER001
  6
CONTINUOUS
 62
    4
 10
1170.8391999999999
 20
1048.6966
 11
1176.2949000000001
 21
1046.9411
  0
LINE
  8
_0-0_LAYER001
  6
CONTINUOUS
 62
    4
 10
1176.2949000000001
 20
1046.9411
 11
1181.8299
 21
1045.4403
  0
LINE
  8
_0-0_LAYER001
  6
CONTINUOUS
 62
    4
 10
1181.8299
 20
1045.4403
 11
1187.4282000000001
 21
1044.2022999999999
  0
LINE
  8
_0-0_LAYER001
  6
CONTINUOUS
 62
    4
 10
1187.4282000000001
 20
1044.2022999999999
 11
1193.0739000000001
 21
1043.2351000000001
  0
LINE
  8
_0-0_LAYER001
  6
CONTINUOUS
 62
    4
 10
1193.0739000000001
 20
1043.2351000000001
 11
1196.3639000000001
 21
1042.8014000000001
  0
LINE
  8
_0-0_LAYER001
  6
CONTINUOUS
 62
    4
 10
1196.3639000000001
 20
1042.8014000000001
 11
1198.8832
 21
1042.5335
  0
LINE
  8
_0-0_LAYER001
  6
CONTINUOUS
 62
    4
 10
1198.8832
 20
1042.5335
 11
1203.2353000000001
 21
1042.1935000000001
  0
LINE
  8
_0-0_LAYER001
  6
CONTINUOUS
 62
    4
 10
1203.2353000000001
 20
1042.1935000000001
 11
1207.5954999999999
 21
1041.9939999999999
  0
LINE
  8
_0-0_LAYER001
  6
CONTINUOUS
 62
    4
 10
1207.5954999999999
 20
1041.9939999999999
 11
1211.9607000000001
 21
1041.9194
  0
LINE
  8
_0-0_LAYER001
  6
CONTINUOUS
 62
    4
 10
1211.9607000000001
 20
1041.9194
 11
1216.3278
 21
1041.9537
  0
LINE
  8
_0-0_LAYER001
  6
CONTINUOUS
 62
    4
 10
1216.3278
 20
1041.9537
 11
1220.6937
 21
1042.0813000000001
  0
LINE
  8
_0-0_LAYER001
  6
CONTINUOUS
 62
    4
 10
1220.6937
 20
1042.0813000000001
 11
1223.2242000000001
 21
1042.1918000000001
  0
LINE
  8
_0-0_LAYER001
  6
CONTINUOUS
 62
    4
 10
1223.2242000000001
 20
1042.1918000000001
 11
1227.9532999999999
 21
1042.46
  0
LINE
  8
_0-0_LAYER001
  6
CONTINUOUS
 62
    4
 10
1227.9532999999999
 20
1042.46
 11
1236.0914
 21
1043.0909999999999
  0
LINE
  8
_0-0_LAYER001
  6
CONTINUOUS
 62
    4
 10
1236.0914
 20
1043.0909999999999
 11
1244.2121999999999
 21
1043.9049
  0
LINE
  8
_0-0_LAYER001
  6
CONTINUOUS
 62
    4
 10
1244.2121999999999
 20
1043.9049
 11
1252.318
 21
1044.8661
  0
LINE
  8
_0-0_LAYER001
  6
CONTINUOUS
 62
    4
 10
1252.318
 20
1044.8661
 11
1260.4114999999999
 21
1045.9393
  0
LINE
  8
_0-0_LAYER001
  6
CONTINUOUS
 62
    4
 10
1260.4114999999999
 20
1045.9393
 11
1268.4949999999999
 21
1047.0889
  0
LINE
  8
_0-0_LAYER001
  6
CONTINUOUS
 62
    4
 10
1268.4949999999999
 20
1047.0889
 11
1273.1799000000001
 21
1047.7766999999999
  0
LINE
  8
_0-0_LAYER001
  6
CONTINUOUS
 62
    4
 10
1273.1799000000001
 20
1047.7766999999999
 11
1275.6148000000001
 21
1048.1375
  0
LINE
  8
_0-0_LAYER001
  6
CONTINUOUS
 62
    4
 10
1275.6148000000001
 20
1048.1375
 11
1279.8117999999999
 21
1048.7635
  0
LINE
  8
_0-0_LAYER001
  6
CONTINUOUS
 62
    4
 10
1279.8117999999999
 20
1048.7635
 11
1284.0075999999999
 21
1049.3936000000001
  0
LINE
  8
_0-0_LAYER001
  6
CONTINUOUS
 62
    4
 10
1284.0075999999999
 20
1049.3936000000001
 11
1288.2023999999999
 21
1050.0269000000001
  0
LINE
  8
_0-0_LAYER001
  6
CONTINUOUS
 62
    4
 10
1288.2023999999999
 20
1050.0269000000001
 11
1292.3966
 21
1050.6624999999999
  0
LINE
  8
_0-0_LAYER001
  6
CONTINUOUS
 62
    4
 10
1292.3966
 20
1050.6624999999999
 11
1296.5903000000001
 21
1051.2995000000001
  0
LINE
  8
_0-0_LAYER001
  6
CONTINUOUS
 62
    4
 10
1296.5903000000001
 20
1051.2995000000001
 11
1299.0226000000002
 21
1051.6692
  0
LINE
  8
_0-0_LAYER001
  6
CONTINUOUS
 62
    4
 10
1093.0705
 20
1072.2454
 11
1093.2195999999999
 21
1072.213
  0
LINE
  8
_0-0_LAYER001
  6
CONTINUOUS
 62
    4
 10
1093.2195999999999
 20
1072.213
 11
1093.9530999999999
 21
1072.0205000000001
  0
LINE
  8
_0-0_LAYER001
  6
CONTINUOUS
 62
    4
 10
1093.9530999999999
 20
1072.0205000000001
 11
1094.8023000000001
 21
1071.7620999999999
  0
LINE
  8
_0-0_LAYER001
  6
CONTINUOUS
 62
    4
 10
1094.8023000000001
 20
1071.7620999999999
 11
1095.0463999999999
 21
1071.6802
  0
LINE
  8
_0-0_LAYER001
  6
CONTINUOUS
 62
    4
 10
1095.0463999999999
 20
1071.6802
 11
1096.6062999999999
 21
1071.0880999999999
  0
LINE
  8
_0-0_LAYER001
  6
CONTINUOUS
 62
    4
 10
1096.6062999999999
 20
1071.0880999999999
 11
1099.5540000000001
 21
1069.7176999999999
  0
LINE
  8
_0-0_LAYER001
  6
CONTINUOUS
 62
    4
 10
1099.5540000000001
 20
1069.7176999999999
 11
1102.5150000000001
 21
1068.0571
  0
LINE
  8
_0-0_LAYER001
  6
CONTINUOUS
 62
    4
 10
1102.5150000000001
 20
1068.0571
 11
1105.6827000000001
 21
1066.0356999999999
  0
LINE
  8
_0-0_LAYER001
  6
CONTINUOUS
 62
    4
 10
1105.6827000000001
 20
1066.0356999999999
 11
1109.0673999999999
 21
1063.6908000000001
  0
LINE
  8
_0-0_LAYER001
  6
CONTINUOUS
 62
    4
 10
1109.0673999999999
 20
1063.6908000000001
 11
1112.6732
 21
1061.0882999999999
  0
LINE
  8
_0-0_LAYER001
  6
CONTINUOUS
 62
    4
 10
1112.6732
 20
1061.0882999999999
 11
1114.8801000000001
 21
1059.4858999999999
  0
LINE
  8
_0-0_LAYER001
  6
CONTINUOUS
 62
    4
 10
1114.8801000000001
 20
1059.4858999999999
 11
1118.3701000000001
 21
1056.9856
  0
LINE
  8
_0-0_LAYER001
  6
CONTINUOUS
 62
    4
 10
1118.3701000000001
 20
1056.9856
 11
1124.4622999999999
 21
1052.7606000000001
  0
LINE
  8
_0-0_LAYER001
  6
CONTINUOUS
 62
    4
 10
1124.4622999999999
 20
1052.7606000000001
 11
1130.7660000000001
 21
1048.6206
  0
LINE
  8
_0-0_LAYER001
  6
CONTINUOUS
 62
    4
 10
1130.7660000000001
 20
1048.6206
 11
1137.2867000000001
 21
1044.6318000000001
  0
LINE
  8
_0-0_LAYER001
  6
CONTINUOUS
 62
    4
 10
1137.2867000000001
 20
1044.6318000000001
 11
1144.0527
 21
1040.8478
  0
LINE
  8
_0-0_LAYER001
  6
CONTINUOUS
 62
    4
 10
1144.0527
 20
1040.8478
 11
1150.9956999999999
 21
1037.3733
  0
LINE
  8
_0-0_LAYER001
  6
CONTINUOUS
 62
    4
 10
1150.9956999999999
 20
1037.3733
 11
1155.2692
 21
1035.4487999999999
  0
LINE
  8
_0-0_LAYER001
  6
CONTINUOUS
 62
    4
 10
1155.2692
 20
1035.4487999999999
 11
1158.8742
 21
1033.9509
  0
LINE
  8
_0-0_LAYER001
  6
CONTINUOUS
 62
    4
 10
1158.8742
 20
1033.9509
 11
1164.9303
 21
1031.6890000000001
  0
LINE
  8
_0-0_LAYER001
  6
CONTINUOUS
 62
    4
 10
1164.9303
 20
1031.6890000000001
 11
1171.1802
 21
1029.6780000000001
  0
LINE
  8
_0-0_LAYER001
  6
CONTINUOUS
 62
    4
 10
1171.1802
 20
1029.6780000000001
 11
1177.5289
 21
1027.9565
  0
LINE
  8
_0-0_LAYER001
  6
CONTINUOUS
 62
    4
 10
1177.5289
 20
1027.9565
 11
1183.9631999999999
 21
1026.5337
  0
LINE
  8
_0-0_LAYER001
  6
CONTINUOUS
 62
    4
 10
1183.9631999999999
 20
1026.5337
 11
1190.3769
 21
1025.4349
  0
LINE
  8
_0-0_LAYER001
  6
CONTINUOUS
 62
    4
 10
1190.3769
 20
1025.4349
 11
1194.2357
 21
1024.9262000000001
  0
LINE
  8
_0-0_LAYER001
  6
CONTINUOUS
 62
    4
 10
1194.2357
 20
1024.9262000000001
 11
1197.2302999999999
 21
1024.6078
  0
LINE
  8
_0-0_LAYER001
  6
CONTINUOUS
 62
    4
 10
1197.2302999999999
 20
1024.6078
 11
1202.1226999999999
 21
1024.2255
  0
LINE
  8
_0-0_LAYER001
  6
CONTINUOUS
 62
    4
 10
1202.1226999999999
 20
1024.2255
 11
1207.0302999999999
 21
1024.0011
  0
LINE
  8
_0-0_LAYER001
  6
CONTINUOUS
 62
    4
 10
1207.0302999999999
 20
1024.0011
 11
1211.8776
 21
1023.9182000000001
  0
LINE
  8
_0-0_LAYER001
  6
CONTINUOUS
 62
    4
 10
1211.8776
 20
1023.9182000000001
 11
1216.6614999999999
 21
1023.9558
  0
LINE
  8
_0-0_LAYER001
  6
CONTINUOUS
 62
    4
 10
1216.6614999999999
 20
1023.9558
 11
1221.3492000000001
 21
1024.0927999999999
  0
LINE
  8
_0-0_LAYER001
  6
CONTINUOUS
 62
    4
 10
1221.3492000000001
 20
1024.0927999999999
 11
1224.1264000000001
 21
1024.2139999999999
  0
LINE
  8
_0-0_LAYER001
  6
CONTINUOUS
 62
    4
 10
1224.1264000000001
 20
1024.2139999999999
 11
1229.1587
 21
1024.4993999999999
  0
LINE
  8
_0-0_LAYER001
  6
CONTINUOUS
 62
    4
 10
1229.1587
 20
1024.4993999999999
 11
1237.6848
 21
1025.1605
  0
LINE
  8
_0-0_LAYER001
  6
CONTINUOUS
 62
    4
 10
1237.6848
 20
1025.1605
 11
1246.1696999999999
 21
1026.0109
  0
LINE
  8
_0-0_LAYER001
  6
CONTINUOUS
 62
    4
 10
1246.1696999999999
 20
1026.0109
 11
1254.5609999999999
 21
1027.0060000000001
  0
LINE
  8
_0-0_LAYER001
  6
CONTINUOUS
 62
    4
 10
1254.5609999999999
 20
1027.0060000000001
 11
1262.8616999999999
 21
1028.1067
  0
LINE
  8
_0-0_LAYER001
  6
CONTINUOUS
 62
    4
 10
1262.8616999999999
 20
1028.1067
 11
1271.0695000000001
 21
1029.2738999999999
  0
LINE
  8
_0-0_LAYER001
  6
CONTINUOUS
 62
    4
 10
1271.0695000000001
 20
1029.2738999999999
 11
1275.8065999999999
 21
1029.9694
  0
LINE
  8
_0-0_LAYER001
  6
CONTINUOUS
 62
    4
 10
1275.8065999999999
 20
1029.9694
 11
1278.2619999999999
 21
1030.3332
  0
LINE
  8
_0-0_LAYER001
  6
CONTINUOUS
 62
    4
 10
1278.2619999999999
 20
1030.3332
 11
1282.4761000000001
 21
1030.9618
  0
LINE
  8
_0-0_LAYER001
  6
CONTINUOUS
 62
    4
 10
1282.4761000000001
 20
1030.9618
 11
1286.6876
 21
1031.5943
  0
LINE
  8
_0-0_LAYER001
  6
CONTINUOUS
 62
    4
 10
1286.6876
 20
1031.5943
 11
1290.8943999999999
 21
1032.2293
  0
LINE
  8
_0-0_LAYER001
  6
CONTINUOUS
 62
    4
 10
1290.8943999999999
 20
1032.2293
 11
1295.0965999999999
 21
1032.8661
  0
LINE
  8
_0-0_LAYER001
  6
CONTINUOUS
 62
    4
 10
1295.0965999999999
 20
1032.8661
 11
1299.2945
 21
1033.5038
  0
LINE
  8
_0-0_LAYER001
  6
CONTINUOUS
 62
    4
 10
1299.2945
 20
1033.5038
 11
1300.9122
 21
1033.7497000000001
  0
LINE
  8
_0-0_LAYER001
  6
CONTINUOUS
 62
    4
 10
1311.421
 20
1036.8208
 11
1311.421
 21
1054.0182
  0
LINE
  8
_0-0_LAYER001
  6
CONTINUOUS
 62
    4
 10
1299.1475
 20
1051.7046
 11
1343.6017999999999
 21
1061.3525
  0
LINE
  8
_0-0_LAYER001
  6
CONTINUOUS
 62
    4
 10
1305.8928000000001
 20
1031.8708999999999
 11
1344.5645999999999
 21
1040.9209000000001
  0
LINE
  8
_0-0_LAYER001
  6
CONTINUOUS
 62
    4
 10
1344.5645999999999
 20
1041.8774000000001
 11
1344.5645999999999
 21
1040.9209000000001
  0
ARC
  8
_0-0_LAYER001
  6
CONTINUOUS
 62
    4
 10
1345.5645999999999
 20
1041.8774000000001
 40
1
 50
102.72435
 51
180
  0
LINE
  8
_0-0_LAYER001
  6
CONTINUOUS
 62
    4
 10
1350.3816000000002
 20
1043.9902
 11
1345.3442999999997
 21
1042.8527999999999
  0
ARC
  8
_0-0_LAYER001
  6
CONTINUOUS
 62
    4
 10
1350.6017999999999
 20
1043.0147999999999
 40
1
 50
0
 51
102.72435
  0
LINE
  8
_0-0_LAYER001
  6
CONTINUOUS
 62
    4
 10
1350.8139000000001
 20
1044.4987000000001
 11
1300.6800000000001
 21
1033.6181999999999
  0
ARC
  8
_0-0_LAYER001
  6
CONTINUOUS
 62
    4
 10
1350.6017999999999
 20
1045.4760000000001
 40
1
 50
282.24497000000002
 51
0
  0
LINE
  8
_0-0_LAYER001
  6
CONTINUOUS
 62
    4
 10
1350.8197
 20
1023.758
 11
1301.2357
 21
1012.6901
  0
LINE
  8
_0-0_LAYER001
  6
CONTINUOUS
 62
    4
 10
1351.6017999999999
 20
1024.7339999999999
 11
1351.6017999999999
 21
1043.0147999999999
  0
ARC
  8
_0-0_LAYER001
  6
CONTINUOUS
 62
    4
 10
1350.6017999999999
 20
1024.7339999999999
 40
1
 50
282.58296000000001
 51
0.0000000000000254
  0
LINE
  8
_0-0_LAYER001
  6
CONTINUOUS
 62
    4
 10
1343.6017999999999
 20
1062.8095000000001
 11
1343.6017999999999
 21
1061.3525
  0
ARC
  8
_0-0_LAYER001
  6
CONTINUOUS
 62
    4
 10
1344.6017999999999
 20
1062.8095000000001
 40
1
 50
101.73308
 51
180
  0
LINE
  8
_0-0_LAYER001
  6
CONTINUOUS
 62
    4
 10
1350.3985
 20
1065.0347999999999
 11
1344.3985
 21
1063.7886000000001
  0
LINE
  8
_0-0_LAYER001
  6
CONTINUOUS
 62
    4
 10
1351.6017999999999
 20
1064.0556999999999
 11
1351.6017999999999
 21
1045.4760000000001
  0
ARC
  8
_0-0_LAYER001
  6
CONTINUOUS
 62
    4
 10
1350.6017999999999
 20
1064.0556999999999
 40
1
 50
0
 51
101.73308
  0
LINE
  8
_0-0_LAYER001
  6
DASHED1
 62
    2
 10
1415.8188999999998
 20
1033.8425999999999
 11
1431.8189000000002
 21
1033.8425999999999
  0
LINE
  8
_0-0_LAYER001
  6
DASHED1
 62
    2
 10
1431.8189000000002
 20
1033.8425999999999
 11
1431.8189000000002
 21
1030.8425999999999
  0
LINE
  8
_0-0_LAYER001
  6
DASHED1
 62
    2
 10
1415.8188999999998
 20
1033.8425999999999
 11
1415.8188999999998
 21
1030.8425999999999
  0
LINE
  8
_0-0_LAYER001
  6
DASHED1
 62
    2
 10
1415.8188999999998
 20
1030.8425999999999
 11
1431.8189000000002
 21
1030.8425999999999
  0
LINE
  8
_0-0_LAYER001
  6
DASHED1
 62
    2
 10
1426.8189000000002
 20
975.94659999999999
 11
1423.7688000000001
 21
961.43769999999995
  0
LINE
  8
_0-0_LAYER001
  6
DASHED1
 62
    2
 10
1426.8189000000002
 20
1030.8425999999999
 11
1426.8189000000002
 21
975.94659999999999
  0
LINE
  8
_0-0_LAYER001
  6
DASHED1
 62
    2
 10
1423.7688000000001
 20
961.43769999999995
 11
1420.8188999999998
 21
975.69520000000011
  0
LINE
  8
_0-0_LAYER001
  6
DASHED1
 62
    2
 10
1420.8188999999998
 20
1030.8425999999999
 11
1420.8188999999998
 21
975.69520000000011
  0
LINE
  8
_0-0_LAYER001
  6
CONTINUOUS
 62
    2
 10
980.70129999999995
 20
979.32220000000007
 11
1008.2012999999999
 21
979.32220000000007
  0
CIRCLE
  8
_0-0_LAYER001
  6
CONTINUOUS
 62
    2
 10
983.20129999999995
 20
979.32220000000007
 40
1.6999999999999997
  0
LINE
  8
_0-0_LAYER001
  6
CONTINUOUS
 62
    2
 10
983.20129999999995
 20
979.32220000000007
 11
983.20129999999995
 21
1094.3222000000001
  0
CIRCLE
  8
_0-0_LAYER001
  6
CONTINUOUS
 62
    2
 10
983.20129999999995
 20
1094.3222000000001
 40
1.6999999999999997
  0
LINE
  8
_0-0_LAYER001
  6
CONTINUOUS
 62
    2
 10
980.70129999999995
 20
1094.3222000000001
 11
1008.2012999999999
 21
1094.3222000000001
  0
LINE
  8
_0-0_LAYER001
  6
CONTINUOUS
 62
    2
 10
1091.7833000000001
 20
1098.2197000000001
 11
1097.1360999999999
 21
1091.2978000000001
  0
LINE
  8
_0-0_LAYER001
  6
CONTINUOUS
 62
    2
 10
1089.2523000000001
 20
1098.2197000000001
 11
1074.0435
 21
1098.2197000000001
  0
LINE
  8
_0-4_LAYER006
  6
CONTINUOUS
 62
    2
 10
1075.0641000000001
 20
1141.6831999999999
 11
1077.0053
 21
1134.4387999999999
  0
LINE
  8
_0-4_LAYER006
  6
CONTINUOUS
 62
    2
 10
1077.0053
 20
1134.4387999999999
 11
1071.702
 21
1139.7420999999999
  0
LINE
  8
_0-4_LAYER006
  6
CONTINUOUS
 62
    2
 10
1077.0053
 20
1134.4387999999999
 11
1042.0473999999999
 21
1194.9876999999999
  0
LINE
  8
_0-4_LAYER006
  6
CONTINUOUS
 62
    2
 10
1042.0473999999999
 20
1194.9876999999999
 11
961.04739999999993
 21
1194.9876999999999
  0
LINE
  8
_0-0_LAYER001
  6
CONTINUOUS
 62
    2
 10
856.09089999999992
 20
1166.9390000000001
 11
908.59089999999992
 21
1166.9390000000001
  0
CIRCLE
  8
_0-0_LAYER001
  6
CONTINUOUS
 62
    2
 10
858.59089999999992
 20
1166.9390000000001
 40
1.6999999999999997
  0
LINE
  8
_0-0_LAYER001
  6
CONTINUOUS
 62
    2
 10
858.59089999999992
 20
1166.9390000000001
 11
858.59089999999992
 21
1316.9390000000001
  0
CIRCLE
  8
_0-0_LAYER001
  6
CONTINUOUS
 62
    2
 10
858.59089999999992
 20
1316.9390000000001
 40
1.6999999999999997
  0
LINE
  8
_0-0_LAYER001
  6
CONTINUOUS
 62
    2
 10
856.09089999999992
 20
1316.9390000000001
 11
908.59089999999992
 21
1316.9390000000001
  0
LINE
  8
_0-0_LAYER001
  6
CONTINUOUS
 62
    2
 10
1092.4463000000001
 20
1170.2492
 11
1104.4463000000001
 21
1170.2492
  0
LINE
  8
_0-2_LAYER004
  6
CONTINUOUS
 62
    2
 10
1944.0862999999999
 20
907.32220000000007
 11
1944.0862999999999
 21
967.32220000000007
  0
LINE
  8
_0-2_LAYER004
  6
CONTINUOUS
 62
    2
 10
1944.0862999999999
 20
967.32220000000007
 11
2004.0862999999999
 21
967.32220000000007
  0
LINE
  8
_0-2_LAYER004
  6
CONTINUOUS
 62
    2
 10
2004.0862999999999
 20
907.32220000000007
 11
1944.0862999999999
 21
907.32220000000007
  0
LINE
  8
_0-2_LAYER004
  6
CONTINUOUS
 62
    2
 10
2004.0862999999999
 20
967.32220000000007
 11
1944.0862999999999
 21
907.32220000000007
  0
LINE
  8
_0-2_LAYER004
  6
CONTINUOUS
 62
    2
 10
1641.0862999999999
 20
907.32220000000007
 11
1641.0862999999999
 21
967.32220000000007
  0
LINE
  8
_0-2_LAYER004
  6
CONTINUOUS
 62
    2
 10
1641.0862999999999
 20
967.32220000000007
 11
1701.0862999999999
 21
967.32220000000007
  0
LINE
  8
_0-2_LAYER004
  6
CONTINUOUS
 62
    2
 10
1701.0862999999999
 20
967.32220000000007
 11
1701.0862999999999
 21
907.32220000000007
  0
LINE
  8
_0-2_LAYER004
  6
CONTINUOUS
 62
    2
 10
1701.0862999999999
 20
907.32220000000007
 11
1641.0862999999999
 21
907.32220000000007
  0
LINE
  8
_0-2_LAYER004
  6
CONTINUOUS
 62
    2
 10
1701.0862999999999
 20
967.32220000000007
 11
1641.0862999999999
 21
907.32220000000007
  0
LINE
  8
_0-2_LAYER004
  6
CONTINUOUS
 62
    2
 10
1338.0862999999999
 20
907.32220000000007
 11
1338.0862999999999
 21
967.32220000000007
  0
LINE
  8
_0-2_LAYER004
  6
CONTINUOUS
 62
    2
 10
1338.0862999999999
 20
967.32220000000007
 11
1398.0862999999999
 21
967.32220000000007
  0
LINE
  8
_0-2_LAYER004
  6
CONTINUOUS
 62
    2
 10
1398.0862999999999
 20
967.32220000000007
 11
1398.0862999999999
 21
907.32220000000007
  0
LINE
  8
_0-2_LAYER004
  6
CONTINUOUS
 62
    2
 10
1398.0862999999999
 20
907.32220000000007
 11
1338.0862999999999
 21
907.32220000000007
  0
LINE
  8
_0-2_LAYER004
  6
CONTINUOUS
 62
    2
 10
1398.0862999999999
 20
967.32220000000007
 11
1338.0862999999999
 21
907.32220000000007
  0
LINE
  8
_0-2_LAYER004
  6
CONTINUOUS
 62
    2
 10
1069.4463000000001
 20
1318.2782
 11
1069.4463000000001
 21
901.55619999999999
  0
LINE
  8
_0-2_LAYER004
  6
CONTINUOUS
 62
    2
 10
1089.2523000000001
 20
983.56819999999993
 11
1089.2523000000001
 21
1098.2197000000001
  0
LINE
  8
_0-2_LAYER004
  6
CONTINUOUS
 62
    2
 10
1074.2523000000001
 20
1098.2197000000001
 11
1074.2523000000001
 21
983.56819999999993
  0
LINE
  8
_0-2_LAYER004
  6
CONTINUOUS
 62
    2
 10
1216.6323
 20
998.99189999999999
 11
1216.6323
 21
983.99189999999999
  0
LINE
  8
_0-2_LAYER004
  6
CONTINUOUS
 62
    2
 10
1211.3572999999999
 20
984.19419999999991
 11
1211.3572999999999
 21
998.99189999999999
  0
LINE
  8
_0-2_LAYER004
  6
CONTINUOUS
 62
    2
 10
1211.3572999999999
 20
998.99189999999999
 11
1190.8133
 21
998.99189999999999
  0
LINE
  8
_0-2_LAYER004
  6
CONTINUOUS
 62
    2
 10
1091.7833000000001
 20
984.19419999999991
 11
1091.7833000000001
 21
1098.2197000000001
  0
LINE
  8
_0-2_LAYER004
  6
CONTINUOUS
 62
    2
 10
1211.3572999999999
 20
984.19419999999991
 11
1091.7833000000001
 21
984.19419999999991
  0
LINE
  8
_0-2_LAYER004
  6
DASHED3
 62
    2
 10
1071.7692999999999
 20
981.81919999999991
 11
1071.7692999999999
 21
1279.3222000000001
  0
LINE
  8
_0-2_LAYER004
  6
CONTINUOUS
 62
    2
 10
1074.2523000000001
 20
983.56819999999993
 11
1089.2523000000001
 21
983.56819999999993
  0
LINE
  8
_0-2_LAYER004
  6
CONTINUOUS
 62
    3
 10
1069.4463000000001
 20
901.55619999999999
 11
1069.4463000000001
 21
747.46620000000007
  0
LINE
  8
_0-2_LAYER004
  6
CONTINUOUS
 62
    2
 10
1129.4463000000001
 20
907.32220000000007
 11
1129.4463000000001
 21
967.32220000000007
  0
LINE
  8
_0-2_LAYER004
  6
CONTINUOUS
 62
    2
 10
1129.4463000000001
 20
967.32220000000007
 11
1069.4463000000001
 21
967.32220000000007
  0
LINE
  8
_0-2_LAYER004
  6
CONTINUOUS
 62
    2
 10
1069.4463000000001
 20
967.32220000000007
 11
1069.4463000000001
 21
907.32220000000007
  0
LINE
  8
_0-2_LAYER004
  6
CONTINUOUS
 62
    2
 10
1069.4463000000001
 20
907.32220000000007
 11
1129.4463000000001
 21
907.32220000000007
  0
LINE
  8
_0-2_LAYER004
  6
CONTINUOUS
 62
    2
 10
1167.4673
 20
1132.45
 11
1170.1703
 21
1147.204
  0
LINE
  8
_0-2_LAYER004
  6
CONTINUOUS
 62
    2
 10
1170.1703
 20
1147.204
 11
1081.6433
 21
1163.4200000000001
  0
LINE
  8
_0-2_LAYER004
  6
CONTINUOUS
 62
    2
 10
1081.6433
 20
1163.4200000000001
 11
1078.9403
 21
1148.665
  0
LINE
  8
_0-2_LAYER004
  6
CONTINUOUS
 62
    2
 10
1078.9403
 20
1148.665
 11
1167.4673
 21
1132.45
  0
LINE
  8
_0-2_LAYER004
  6
CONTINUOUS
 62
    2
 10
1170.1703
 20
1147.204
 11
1078.9403
 21
1148.665
  0
LINE
  8
_0-2_LAYER004
  6
CONTINUOUS
 62
    2
 10
1179.4463000000001
 20
1147.4473
 11
1179.9943000000001
 21
1129.3683000000001
  0
LINE
  8
_0-2_LAYER004
  6
CONTINUOUS
 62
    2
 10
1092.4463000000001
 20
1181.8585
 11
1092.4463000000001
 21
1221.8585
  0
LINE
  8
_0-2_LAYER004
  6
CONTINUOUS
 62
    2
 10
1092.4463000000001
 20
1221.8585
 11
1074.4463000000001
 21
1221.8585
  0
LINE
  8
_0-2_LAYER004
  6
CONTINUOUS
 62
    2
 10
1074.4463000000001
 20
1221.8585
 11
1074.4463000000001
 21
1181.8585
  0
LINE
  8
_0-2_LAYER004
  6
CONTINUOUS
 62
    2
 10
1074.4463000000001
 20
1181.8585
 11
1092.4463000000001
 21
1181.8585
  0
LINE
  8
_0-2_LAYER004
  6
CONTINUOUS
 62
    2
 10
1074.4463000000001
 20
1221.8585
 11
1092.4463000000001
 21
1181.8585
  0
LINE
  8
_0-2_LAYER004
  6
CONTINUOUS
 62
    2
 10
1179.4463000000001
 20
1147.4473
 11
1073.0323000000001
 21
1166.9390000000001
  0
LINE
  8
_0-2_LAYER004
  6
CONTINUOUS
 62
    2
 10
1073.0323000000001
 20
1166.9390000000001
 11
1073.0323000000001
 21
1316.9390000000001
  0
LINE
  8
_0-5_LAYER007
  6
CONTINUOUS
 62
    3
 10
1069.4463000000001
 20
1396.1502
 11
1069.4463000000001
 21
884.82320000000004
  0
LINE
  8
_0-2_LAYER004
  6
CONTINUOUS
 62
    3
 10
1069.4463000000001
 20
1318.2782
 11
1069.4463000000001
 21
1396.1502
  0
LINE
  8
_0-2_LAYER004
  6
CONTINUOUS
 62
    2
 10
1092.4463000000001
 20
1170.2492
 11
1092.4463000000001
 21
1396.1502
  0
LINE
  8
_0-2_LAYER004
  6
CONTINUOUS
 62
    2
 10
1104.4463000000001
 20
1170.2492
 11
1104.4463000000001
 21
1396.1502
  0
LINE
  8
_0-2_LAYER004
  6
CONTINUOUS
 62
    2
 10
2150.8031999999998
 20
998.99189999999999
 11
1216.6323
 21
998.99189999999999
  0
LINE
  8
_0-2_LAYER004
  6
CONTINUOUS
 62
    2
 10
1095.0862999999999
 20
907.32220000000007
 11
1069.4463000000001
 21
907.32220000000007
  0
LINE
  8
_0-2_LAYER004
  6
CONTINUOUS
 62
    2
 10
1129.4463000000001
 20
967.32220000000007
 11
1069.4463000000001
 21
907.32220000000007
  0
LINE
  8
_0-2_LAYER004
  6
CONTINUOUS
 62
    2
 10
1069.4463000000001
 20
967.32220000000007
 11
1095.0862999999999
 21
967.32220000000007
  0
LINE
  8
_0-2_LAYER004
  6
CONTINUOUS
 62
    2
 10
1216.6323
 20
983.99189999999999
 11
2150.8031999999998
 21
983.99189999999999
  0
LINE
  8
_0-2_LAYER004
  6
DASHED3
 62
    2
 10
2150.8031999999998
 20
981.81919999999991
 11
1071.7692999999999
 21
981.81919999999991
  0
LINE
  8
_0-2_LAYER004
  6
CONTINUOUS
 62
    2
 10
2150.8031999999998
 20
979.32220000000007
 11
1069.4463000000001
 21
979.32220000000007
  0
LINE
  8
_0-2_LAYER004
  6
CONTINUOUS
 62
    2
 10
2150.8031999999998
 20
967.32220000000007
 11
1069.4463000000001
 21
967.32220000000007
  0
LINE
  8
_0-2_LAYER004
  6
CONTINUOUS
 62
    2
 10
2004.0862999999999
 20
967.32220000000007
 11
2004.0862999999999
 21
907.32220000000007
  0
CIRCLE
  8
_0-3_LAYER005
  6
CONTINUOUS
 62
    2
 10
1146.1563000000001
 20
1074.5848000000001
 40
1.1619999999999999
  0
CIRCLE
  8
_0-3_LAYER005
  6
CONTINUOUS
 62
    2
 10
1137.9383
 20
1074.5848000000001
 40
1.1619999999999999
  0
CIRCLE
  8
_0-3_LAYER005
  6
CONTINUOUS
 62
    2
 10
1151.6387
 20
1054.5763999999999
 40
1.1619999999999999
  0
CIRCLE
  8
_0-3_LAYER005
  6
CONTINUOUS
 62
    2
 10
1143.0710999999999
 20
1058.1818000000001
 40
1.1619999999999999
  0
CIRCLE
  8
_0-3_LAYER005
  6
CONTINUOUS
 62
    2
 10
1108.2373
 20
1087.9274
 40
1.1619999999999999
  0
CIRCLE
  8
_0-3_LAYER005
  6
CONTINUOUS
 62
    2
 10
1116.0793000000001
 20
1072.2434000000001
 40
1.1619999999999999
  0
CIRCLE
  8
_0-3_LAYER005
  6
CONTINUOUS
 62
    2
 10
1132.1863000000001
 20
1089.3768
 40
1.1619999999999999
  0
CIRCLE
  8
_0-3_LAYER005
  6
CONTINUOUS
 62
    2
 10
1127.2553
 20
1070.8104000000001
 40
1.1619999999999999
  0
CIRCLE
  8
_0-3_LAYER005
  6
CONTINUOUS
 62
    2
 10
1123.9683
 20
1078.2064
 40
1.1619999999999999
  0
CIRCLE
  8
_0-3_LAYER005
  6
CONTINUOUS
 62
    2
 10
1114.9293
 20
1083.1374000000001
 40
1.1619999999999999
  0
CIRCLE
  8
_0-3_LAYER005
  6
CONTINUOUS
 62
    2
 10
1126.4342999999999
 20
1065.5458000000001
 40
1.1619999999999999
  0
CIRCLE
  8
_0-3_LAYER005
  6
CONTINUOUS
 62
    2
 10
1123.1473000000001
 20
1073.7637999999999
 40
1.1619999999999999
  0
CIRCLE
  8
_0-3_LAYER005
  6
CONTINUOUS
 62
    2
 10
1111.6423
 20
1081.9808
 40
1.1619999999999999
  0
CIRCLE
  8
_0-3_LAYER005
  6
CONTINUOUS
 62
    2
 10
1113.2853
 20
1084.4467999999999
 40
1.1619999999999999
  0
CIRCLE
  8
_0-3_LAYER005
  6
CONTINUOUS
 62
    2
 10
1105.8893
 20
1088.5547999999999
 40
1.1619999999999999
  0
CIRCLE
  8
_0-3_LAYER005
  6
CONTINUOUS
 62
    2
 10
1103.4242999999999
 20
1096.7728
 40
1.1619999999999999
  0
CIRCLE
  8
_0-3_LAYER005
  6
CONTINUOUS
 62
    2
 10
1158.5876000000001
 20
1106.6840999999999
 40
1.1619999999999999
  0
CIRCLE
  8
_0-3_LAYER005
  6
CONTINUOUS
 62
    2
 10
1143.8449000000001
 20
1111.2766999999999
 40
1.1619999999999999
  0
CIRCLE
  8
_0-3_LAYER005
  6
CONTINUOUS
 62
    2
 10
1149.1925000000001
 20
1112.7571
 40
1.1619999999999999
  0
CIRCLE
  8
_0-3_LAYER005
  6
CONTINUOUS
 62
    2
 10
1154.5545
 20
1108.6465000000001
 40
1.1619999999999999
  0
CIRCLE
  8
_0-3_LAYER005
  6
CONTINUOUS
 62
    2
 10
1145.0835
 20
1107.8261
 40
1.1619999999999999
  0
CIRCLE
  8
_0-3_LAYER005
  6
CONTINUOUS
 62
    2
 10
1134.8049000000001
 20
1117.8507
 40
1.1619999999999999
  0
CIRCLE
  8
_0-3_LAYER005
  6
CONTINUOUS
 62
    2
 10
1130.0237999999999
 20
1111.6310000000001
 40
1.1619999999999999
  0
CIRCLE
  8
_0-3_LAYER005
  6
CONTINUOUS
 62
    2
 10
1124.7902999999999
 20
1120.6038000000001
 40
1.1619999999999999
  0
CIRCLE
  8
_0-3_LAYER005
  6
CONTINUOUS
 62
    2
 10
1116.5723
 20
1121.4258
 40
1.1619999999999999
  0
CIRCLE
  8
_0-3_LAYER005
  6
CONTINUOUS
 62
    2
 10
1119.9356
 20
1113.8279
 40
1.1619999999999999
  0
CIRCLE
  8
_0-3_LAYER005
  6
CONTINUOUS
 62
    2
 10
1109.1763000000001
 20
1119.7828
 40
1.1619999999999999
  0
CIRCLE
  8
_0-3_LAYER005
  6
CONTINUOUS
 62
    2
 10
1110.8203000000001
 20
1113.2077999999999
 40
1.1619999999999999
  0
CIRCLE
  8
_0-3_LAYER005
  6
CONTINUOUS
 62
    2
 10
1128.8993
 20
1081.1587999999999
 40
1.1619999999999999
  0
CIRCLE
  8
_0-3_LAYER005
  6
CONTINUOUS
 62
    2
 10
1142.0473
 20
1081.1587999999999
 40
1.1619999999999999
  0
CIRCLE
  8
_0-3_LAYER005
  6
CONTINUOUS
 62
    2
 10
1147.8003000000001
 20
1067.1887999999999
 40
1.1619999999999999
  0
CIRCLE
  8
_0-3_LAYER005
  6
CONTINUOUS
 62
    2
 10
1133.8303000000001
 20
1083.9594
 40
1.1619999999999999
  0
CIRCLE
  8
_0-3_LAYER005
  6
CONTINUOUS
 62
    2
 10
1157.6613
 20
1068.8327999999999
 40
1.1619999999999999
  0
CIRCLE
  8
_0-3_LAYER005
  6
CONTINUOUS
 62
    2
 10
1107.4163000000001
 20
1082.9964
 40
1.1619999999999999
  0
CIRCLE
  8
_0-3_LAYER005
  6
CONTINUOUS
 62
    2
 10
1159.8538000000001
 20
1050.4846
 40
1.1619999999999999
  0
CIRCLE
  8
_0-3_LAYER005
  6
CONTINUOUS
 62
    2
 10
1149.9956999999999
 20
1058.6844000000001
 40
1.1619999999999999
  0
CIRCLE
  8
_0-3_LAYER005
  6
CONTINUOUS
 62
    2
 10
1123.0223000000001
 20
1067.1564000000001
 40
1.1619999999999999
  0
CIRCLE
  8
_0-3_LAYER005
  6
CONTINUOUS
 62
    2
 10
1133.0083
 20
1078.2064
 40
1.1619999999999999
  0
CIRCLE
  8
_0-3_LAYER005
  6
CONTINUOUS
 62
    2
 10
1124.7902999999999
 20
1082.3154
 40
1.1619999999999999
  0
CIRCLE
  8
_0-3_LAYER005
  6
CONTINUOUS
 62
    2
 10
1115.7512999999999
 20
1088.0684000000001
 40
1.1619999999999999
  0
CIRCLE
  8
_0-3_LAYER005
  6
CONTINUOUS
 62
    2
 10
1115.7512999999999
 20
1070.4767999999999
 40
1.1619999999999999
  0
CIRCLE
  8
_0-3_LAYER005
  6
CONTINUOUS
 62
    2
 10
1115.7512999999999
 20
1076.2288000000001
 40
1.1619999999999999
  0
CIRCLE
  8
_0-3_LAYER005
  6
CONTINUOUS
 62
    2
 10
1115.7512999999999
 20
1081.9808
 40
1.1619999999999999
  0
CIRCLE
  8
_0-3_LAYER005
  6
CONTINUOUS
 62
    2
 10
1117.3942999999999
 20
1087.7338
 40
1.1619999999999999
  0
CIRCLE
  8
_0-3_LAYER005
  6
CONTINUOUS
 62
    2
 10
1119.0382999999999
 20
1089.3768
 40
1.1619999999999999
  0
CIRCLE
  8
_0-3_LAYER005
  6
CONTINUOUS
 62
    2
 10
1123.9683
 20
1089.3768
 40
1.1619999999999999
  0
CIRCLE
  8
_0-3_LAYER005
  6
CONTINUOUS
 62
    2
 10
1130.5423000000001
 20
1081.1587999999999
 40
1.1619999999999999
  0
CIRCLE
  8
_0-3_LAYER005
  6
CONTINUOUS
 62
    2
 10
1138.7602999999999
 20
1085.2678000000001
 40
1.1619999999999999
  0
CIRCLE
  8
_0-3_LAYER005
  6
CONTINUOUS
 62
    2
 10
1133.0083
 20
1069.6548
 40
1.1619999999999999
  0
CIRCLE
  8
_0-3_LAYER005
  6
CONTINUOUS
 62
    2
 10
1155.1953000000001
 20
1069.6548
 40
1.1619999999999999
  0
CIRCLE
  8
_0-3_LAYER005
  6
CONTINUOUS
 62
    2
 10
1106.5943
 20
1076.9097999999999
 40
1.1619999999999999
  0
CIRCLE
  8
_0-3_LAYER005
  6
CONTINUOUS
 62
    2
 10
1154.1036999999999
 20
1058.6844000000001
 40
1.1619999999999999
  0
CIRCLE
  8
_0-3_LAYER005
  6
CONTINUOUS
 62
    2
 10
1153.6577
 20
1057.5988
 40
1.1619999999999999
  0
CIRCLE
  8
_0-3_LAYER005
  6
CONTINUOUS
 62
    2
 10
1111.5243
 20
1082.1744000000001
 40
1.1619999999999999
  0
LINE
  8
_0-0_LAYER001
  6
CONTINUOUS
 62
    2
 10
1168.2446
 20
1122.7898
 11
1162.9413
 21
1117.4865
  0
LINE
  8
_0-0_LAYER001
  6
CONTINUOUS
 62
    2
 10
1162.9413
 20
1117.4865
 11
1164.8824
 21
1124.731
  0
LINE
  8
_0-0_LAYER001
  6
CONTINUOUS
 62
    2
 10
1162.9413
 20
1117.4865
 11
1239.9924000000001
 21
1250.943
  0
LINE
  8
_0-0_LAYER001
  6
CONTINUOUS
 62
    2
 10
1239.9924000000001
 20
1250.943
 11
1353.9924000000001
 21
1250.943
  0
LINE
  8
_0-0_LAYER001
  6
CONTINUOUS
 62
    2
 10
1162.4204999999999
 20
1156.8406
 11
1157.1171999999999
 21
1151.5373
  0
LINE
  8
_0-0_LAYER001
  6
CONTINUOUS
 62
    2
 10
1157.1171999999999
 20
1151.5373
 11
1159.0582999999999
 21
1158.7818
  0
LINE
  8
_0-0_LAYER001
  6
CONTINUOUS
 62
    2
 10
1157.1171999999999
 20
1151.5373
 11
1242.4380000000001
 21
1299.3173999999999
  0
LINE
  8
_0-0_LAYER001
  6
CONTINUOUS
 62
    2
 10
1242.4380000000001
 20
1299.3173999999999
 11
1476.4380000000001
 21
1299.3173999999999
  0
LINE
  8
_0-0_LAYER001
  6
CONTINUOUS
 62
    2
 10
1127.9683
 20
1153.2681
 11
1122.665
 21
1147.9648
  0
LINE
  8
_0-0_LAYER001
  6
CONTINUOUS
 62
    2
 10
1122.665
 20
1147.9648
 11
1124.6061999999999
 21
1155.2092
  0
LINE
  8
_0-0_LAYER001
  6
CONTINUOUS
 62
    2
 10
1122.665
 20
1147.9648
 11
1234.8163
 21
1342.2165
  0
LINE
  8
_0-0_LAYER001
  6
CONTINUOUS
 62
    2
 10
1234.8163
 20
1342.2165
 11
1381.8163
 21
1342.2165
  0
LINE
  8
_0-0_LAYER001
  6
CONTINUOUS
 62
    2
 10
1090.9598000000001
 20
814.36400000000003
 11
1090.9598000000001
 21
866.86400000000003
  0
CIRCLE
  8
_0-0_LAYER001
  6
CONTINUOUS
 62
    2
 10
1090.9598000000001
 20
816.86400000000003
 40
1.6999999999999997
  0
LINE
  8
_0-0_LAYER001
  6
CONTINUOUS
 62
    2
 10
1090.9598000000001
 20
816.86400000000003
 11
1310.9598000000001
 21
816.86400000000003
  0
CIRCLE
  8
_0-0_LAYER001
  6
CONTINUOUS
 62
    2
 10
1310.9598000000001
 20
816.86400000000003
 40
1.6999999999999997
  0
LINE
  8
_0-0_LAYER001
  6
CONTINUOUS
 62
    2
 10
1310.9598000000001
 20
814.36400000000003
 11
1310.9598000000001
 21
866.86400000000003
  0
CIRCLE
  8
_0-0_LAYER001
  6
CONTINUOUS
 62
    2
 10
1310.9598000000001
 20
816.86400000000003
 40
1.6999999999999997
  0
LINE
  8
_0-0_LAYER001
  6
CONTINUOUS
 62
    2
 10
1310.9598000000001
 20
816.86400000000003
 11
1575.9598000000001
 21
816.86400000000003
  0
CIRCLE
  8
_0-0_LAYER001
  6
CONTINUOUS
 62
    2
 10
1575.9598000000001
 20
816.86400000000003
 40
1.6999999999999997
  0
LINE
  8
_0-0_LAYER001
  6
CONTINUOUS
 62
    2
 10
1575.9598000000001
 20
814.36400000000003
 11
1575.9598000000001
 21
866.86400000000003
  0
CIRCLE
  8
_0-0_LAYER001
  6
CONTINUOUS
 62
    2
 10
1575.9598000000001
 20
816.86400000000003
 40
1.6999999999999997
  0
LINE
  8
_0-0_LAYER001
  6
CONTINUOUS
 62
    2
 10
1575.9598000000001
 20
816.86400000000003
 11
1840.9598000000001
 21
816.86400000000003
  0
CIRCLE
  8
_0-0_LAYER001
  6
CONTINUOUS
 62
    2
 10
1840.9598000000001
 20
816.86400000000003
 40
1.6999999999999997
  0
LINE
  8
_0-0_LAYER001
  6
CONTINUOUS
 62
    2
 10
1840.9598000000001
 20
814.36400000000003
 11
1840.9598000000001
 21
866.86400000000003
  0
CIRCLE
  8
_0-0_LAYER001
  6
CONTINUOUS
 62
    2
 10
1840.9598000000001
 20
816.86400000000003
 40
1.6999999999999997
  0
LINE
  8
_0-0_LAYER001
  6
CONTINUOUS
 62
    2
 10
1840.9598000000001
 20
816.86400000000003
 11
2105.9598000000001
 21
816.86400000000003
  0
CIRCLE
  8
_0-0_LAYER001
  6
CONTINUOUS
 62
    2
 10
2105.9598000000001
 20
816.86400000000003
 40
1.6999999999999997
  0
LINE
  8
_0-0_LAYER001
  6
CONTINUOUS
 62
    2
 10
2105.9598000000001
 20
814.36400000000003
 11
2105.9598000000001
 21
866.86400000000003
  0
LINE
  8
_0-1_LAYER003
  6
CONTINUOUS
 62
    7
 10
1183.0072
 20
1401.8217
 11
1355.5072
 21
1401.8217
  0
LINE
  8
_0-1_LAYER003
  6
CONTINUOUS
 62
    7
 10
1234.8163
 20
1342.2165
 11
1381.8163
 21
1342.2165
  0
LINE
  8
_0-1_LAYER003
  6
CONTINUOUS
 62
    7
 10
1242.4380000000001
 20
1299.3173999999999
 11
1476.4380000000001
 21
1299.3173999999999
  0
LINE
  8
_0-1_LAYER003
  6
CONTINUOUS
 62
    7
 10
1239.9924000000001
 20
1250.943
 11
1353.9924000000001
 21
1250.943
  0
LINE
  8
_0-1_LAYER003
  6
CONTINUOUS
 62
    7
 10
1243.7420999999999
 20
1213.4905000000001
 11
1307.7075
 21
1213.4905000000001
  0
LINE
  8
_0-1_LAYER003
  6
CONTINUOUS
 62
    7
 10
982.0440000000001
 20
1308.4539
 11
1022.5440000000001
 21
1308.4539
  0
LINE
  8
_0-1_LAYER003
  6
CONTINUOUS
 62
    7
 10
908.59089999999992
 20
1316.9390000000001
 11
856.89089999999987
 21
1316.9390000000001
  0
LINE
  8
_0-1_LAYER003
  6
CONTINUOUS
 62
    7
 10
858.59089999999992
 20
1316.9390000000001
 11
858.59089999999992
 21
1166.9390000000001
  0
LINE
  8
_0-1_LAYER003
  6
CONTINUOUS
 62
    7
 10
856.89089999999987
 20
1166.9390000000001
 11
908.59089999999992
 21
1166.9390000000001
  0
LINE
  8
_0-1_LAYER003
  6
CONTINUOUS
 62
    7
 10
980.70129999999995
 20
979.32220000000007
 11
984.57060000000001
 21
979.32220000000007
  0
LINE
  8
_0-1_LAYER003
  6
CONTINUOUS
 62
    7
 10
983.20129999999995
 20
981.0222
 11
983.20129999999995
 21
979.32220000000007
  0
LINE
  8
_0-1_LAYER003
  6
CONTINUOUS
 62
    7
 10
909.57060000000001
 20
979.32220000000007
 11
909.57060000000001
 21
981.0222
  0
LINE
  8
_0-1_LAYER003
  6
CONTINUOUS
 62
    7
 10
983.20129999999995
 20
979.32220000000007
 11
983.20129999999995
 21
1094.3222000000001
  0
LINE
  8
_0-1_LAYER003
  6
CONTINUOUS
 62
    7
 10
983.20129999999995
 20
1094.3222000000001
 11
981.5012999999999
 21
1094.3222000000001
  0
LINE
  8
_0-1_LAYER003
  6
CONTINUOUS
 62
    7
 10
983.20129999999995
 20
1094.3222000000001
 11
1008.2012999999999
 21
1094.3222000000001
  0
LINE
  8
_0-1_LAYER003
  6
CONTINUOUS
 62
    7
 10
961.04739999999993
 20
1194.9876999999999
 11
1042.0473999999999
 21
1194.9876999999999
  0
LINE
  8
_0-1_LAYER003
  6
CONTINUOUS
 62
    7
 10
1073.0323000000001
 20
1166.9390000000001
 11
1073.0323000000001
 21
1316.9390000000001
  0
LINE
  8
_0-1_LAYER003
  6
CONTINUOUS
 62
    7
 10
1074.4463000000001
 20
1221.8585
 11
1092.4463000000001
 21
1221.8585
  0
LINE
  8
_0-1_LAYER003
  6
CONTINUOUS
 62
    7
 10
1092.4463000000001
 20
1221.8585
 11
1092.4463000000001
 21
1181.8585
  0
LINE
  8
_0-1_LAYER003
  6
CONTINUOUS
 62
    7
 10
1092.4463000000001
 20
1181.8585
 11
1074.4463000000001
 21
1181.8585
  0
LINE
  8
_0-1_LAYER003
  6
CONTINUOUS
 62
    7
 10
1074.4463000000001
 20
1181.8585
 11
1074.4463000000001
 21
1221.8585
  0
LINE
  8
_0-1_LAYER003
  6
CONTINUOUS
 62
    7
 10
1092.4463000000001
 20
1170.2492
 11
1104.4463000000001
 21
1170.2492
  0
LINE
  8
_0-1_LAYER003
  6
CONTINUOUS
 62
    7
 10
1104.4463000000001
 20
1170.2492
 11
1104.4463000000001
 21
1396.1502
  0
LINE
  8
_0-1_LAYER003
  6
CONTINUOUS
 62
    7
 10
1092.4463000000001
 20
1396.1502
 11
1092.4463000000001
 21
1170.2492
  0
LINE
  8
_0-1_LAYER003
  6
CONTINUOUS
 62
    7
 10
1104.4463000000001
 20
1246.8652999999999
 11
1179.4463000000001
 21
1246.8652999999999
  0
LINE
  8
_0-1_LAYER003
  6
CONTINUOUS
 62
    7
 10
1179.4463000000001
 20
1231.8652999999999
 11
1179.4463000000001
 21
1248.5653
  0
LINE
  8
_0-1_LAYER003
  6
CONTINUOUS
 62
    7
 10
1071.7692999999999
 20
1147.0088000000001
 11
1085.7760000000001
 21
1147.0088000000001
  0
LINE
  8
_0-1_LAYER003
  6
CONTINUOUS
 62
    7
 10
1071.7692999999999
 20
1279.3222000000001
 11
1071.7692999999999
 21
983.56819999999993
  0
LINE
  8
_0-1_LAYER003
  6
CONTINUOUS
 62
    7
 10
1071.7692999999999
 20
983.56819999999993
 11
1071.7692999999999
 21
981.81919999999991
  0
LINE
  8
_0-1_LAYER003
  6
CONTINUOUS
 62
    7
 10
1071.7692999999999
 20
981.81919999999991
 11
2150.8031999999998
 21
981.81919999999991
  0
LINE
  8
_0-1_LAYER003
  6
CONTINUOUS
 62
    7
 10
2150.8031999999998
 20
998.99189999999999
 11
1216.6323
 21
998.99189999999999
  0
LINE
  8
_0-1_LAYER003
  6
CONTINUOUS
 62
    7
 10
1216.6323
 20
998.99189999999999
 11
1216.6323
 21
983.99189999999999
  0
LINE
  8
_0-1_LAYER003
  6
CONTINUOUS
 62
    7
 10
1216.6323
 20
983.99189999999999
 11
2150.8031999999998
 21
983.99189999999999
  0
LINE
  8
_0-1_LAYER003
  6
CONTINUOUS
 62
    7
 10
2150.8031999999998
 20
979.32220000000007
 11
1069.4463000000001
 21
979.32220000000007
  0
LINE
  8
_0-1_LAYER003
  6
CONTINUOUS
 62
    7
 10
1069.4463000000001
 20
979.32220000000007
 11
1069.4463000000001
 21
967.32220000000007
  0
LINE
  8
_0-1_LAYER003
  6
CONTINUOUS
 62
    7
 10
1069.4463000000001
 20
967.32220000000007
 11
2150.8031999999998
 21
967.32220000000007
  0
LINE
  8
_0-1_LAYER003
  6
CONTINUOUS
 62
    7
 10
846.48129999999992
 20
878.64529999999991
 11
1009.9812999999999
 21
878.64529999999991
  0
LINE
  8
_0-1_LAYER003
  6
CONTINUOUS
 62
    7
 10
822.7496000000001
 20
801.10500000000002
 11
1023.7496000000001
 21
801.10500000000002
  0
LINE
  8
_0-1_LAYER003
  6
CONTINUOUS
 62
    7
 10
1129.4463000000001
 20
967.32220000000007
 11
1129.4463000000001
 21
907.32220000000007
  0
LINE
  8
_0-1_LAYER003
  6
CONTINUOUS
 62
    7
 10
1129.4463000000001
 20
907.32220000000007
 11
1069.4463000000001
 21
907.32220000000007
  0
LINE
  8
_0-1_LAYER003
  6
CONTINUOUS
 62
    7
 10
1091.7833000000001
 20
907.32220000000007
 11
1091.7833000000001
 21
872.09950000000003
  0
LINE
  8
_0-1_LAYER003
  6
CONTINUOUS
 62
    7
 10
1090.9598000000001
 20
866.86400000000003
 11
1090.9598000000001
 21
814.36400000000003
  0
LINE
  8
_0-1_LAYER003
  6
CONTINUOUS
 62
    7
 10
1091.7833000000001
 20
874.59950000000003
 11
1211.3572999999999
 21
874.59950000000003
  0
LINE
  8
_0-1_LAYER003
  6
CONTINUOUS
 62
    7
 10
1211.3572999999999
 20
872.09950000000003
 11
1211.3572999999999
 21
924.59950000000003
  0
LINE
  8
_0-1_LAYER003
  6
CONTINUOUS
 62
    7
 10
1090.9598000000001
 20
816.86400000000003
 11
2105.9598000000001
 21
816.86400000000003
  0
LINE
  8
_0-1_LAYER003
  6
CONTINUOUS
 62
    7
 10
2105.9598000000001
 20
815.16399999999999
 11
2105.9598000000001
 21
866.86400000000003
  0
LINE
  8
_0-1_LAYER003
  6
CONTINUOUS
 62
    7
 10
1840.9598000000001
 20
815.16399999999999
 11
1840.9598000000001
 21
866.86400000000003
  0
LINE
  8
_0-1_LAYER003
  6
CONTINUOUS
 62
    7
 10
1575.9598000000001
 20
815.16399999999999
 11
1575.9598000000001
 21
866.86400000000003
  0
LINE
  8
_0-1_LAYER003
  6
CONTINUOUS
 62
    7
 10
1641.0862999999999
 20
967.32220000000007
 11
1641.0862999999999
 21
907.32220000000007
  0
LINE
  8
_0-1_LAYER003
  6
CONTINUOUS
 62
    7
 10
1641.0862999999999
 20
907.32220000000007
 11
1701.0862999999999
 21
907.32220000000007
  0
LINE
  8
_0-1_LAYER003
  6
CONTINUOUS
 62
    7
 10
1701.0862999999999
 20
907.32220000000007
 11
1701.0862999999999
 21
967.32220000000007
  0
LINE
  8
_0-1_LAYER003
  6
CONTINUOUS
 62
    7
 10
1338.0862999999999
 20
967.32220000000007
 11
1338.0862999999999
 21
907.32220000000007
  0
LINE
  8
_0-1_LAYER003
  6
CONTINUOUS
 62
    7
 10
1338.0862999999999
 20
907.32220000000007
 11
1398.0862999999999
 21
907.32220000000007
  0
LINE
  8
_0-1_LAYER003
  6
CONTINUOUS
 62
    7
 10
1398.0862999999999
 20
907.32220000000007
 11
1398.0862999999999
 21
967.32220000000007
  0
LINE
  8
_0-1_LAYER003
  6
CONTINUOUS
 62
    7
 10
1190.8133
 20
998.99189999999999
 11
1211.3572999999999
 21
998.99189999999999
  0
LINE
  8
_0-1_LAYER003
  6
CONTINUOUS
 62
    7
 10
1211.3572999999999
 20
998.99189999999999
 11
1211.3572999999999
 21
984.19419999999991
  0
LINE
  8
_0-1_LAYER003
  6
CONTINUOUS
 62
    7
 10
1211.3572999999999
 20
984.19419999999991
 11
1091.7833000000001
 21
984.19419999999991
  0
LINE
  8
_0-1_LAYER003
  6
CONTINUOUS
 62
    7
 10
1091.7833000000001
 20
984.19419999999991
 11
1091.7833000000001
 21
1098.2197000000001
  0
LINE
  8
_0-1_LAYER003
  6
CONTINUOUS
 62
    7
 10
1074.2523000000001
 20
1098.2197000000001
 11
1089.2523000000001
 21
1098.2197000000001
  0
LINE
  8
_0-1_LAYER003
  6
CONTINUOUS
 62
    7
 10
1089.2523000000001
 20
1098.2197000000001
 11
1089.2523000000001
 21
983.56819999999993
  0
LINE
  8
_0-1_LAYER003
  6
CONTINUOUS
 62
    7
 10
1089.2523000000001
 20
983.56819999999993
 11
1074.2523000000001
 21
983.56819999999993
  0
LINE
  8
_0-1_LAYER003
  6
CONTINUOUS
 62
    7
 10
1074.2523000000001
 20
983.56819999999993
 11
1074.2523000000001
 21
1098.2197000000001
  0
LINE
  8
_0-1_LAYER003
  6
CONTINUOUS
 62
    7
 10
1069.4463000000001
 20
1117.0088000000001
 11
1099.4463000000001
 21
1117.0088000000001
  0
LINE
  8
_0-1_LAYER003
  6
CONTINUOUS
 62
    7
 10
1099.4463000000001
 20
1117.0088000000001
 11
1099.4463000000001
 21
1144.5047
  0
LINE
  8
_0-1_LAYER003
  6
CONTINUOUS
 62
    7
 10
1094.7121
 20
1143.201
 11
1094.7121
 21
1124.2393999999999
  0
LINE
  8
_0-1_LAYER003
  6
CONTINUOUS
 62
    7
 10
1094.7121
 20
1125.8536999999999
 11
1104.8543
 21
1125.8536999999999
  0
LINE
  8
_0-1_LAYER003
  6
CONTINUOUS
 62
    7
 10
1104.8543
 20
1125.8536999999999
 11
1104.8543
 21
1143.201
  0
LINE
  8
_0-1_LAYER003
  6
CONTINUOUS
 62
    7
 10
1104.8543
 20
1143.201
 11
1094.7121
 21
1143.201
  0
LINE
  8
_0-1_LAYER003
  6
CONTINUOUS
 62
    7
 10
1115.8785
 20
1110.8634
 11
1115.8785
 21
1092.0489
  0
LINE
  8
_0-1_LAYER003
  6
CONTINUOUS
 62
    7
 10
1069.4463000000001
 20
747.46620000000007
 11
1069.4463000000001
 21
1396.1502
  0
LINE
  8
_0-1_LAYER003
  6
CONTINUOUS
 62
    7
 10
1707.2447999999999
 20
1115.2354
 11
1747.7447999999999
 21
1115.2354
  0
LINE
  8
_0-1_LAYER003
  6
CONTINUOUS
 62
    7
 10
1787.9557
 20
770.62100000000009
 11
1992.7784000000001
 21
770.62100000000009
  0
LINE
  8
_0-1_LAYER003
  6
CONTINUOUS
 62
    7
 10
1805.2651999999998
 20
740.64010000000007
 11
2044.9679999999998
 21
740.64010000000007
  0
LINE
  8
_0-1_LAYER003
  6
CONTINUOUS
 62
    7
 10
1822.6408000000001
 20
710.5447999999999
 11
1994.3121000000001
 21
710.5447999999999
  0
LINE
  8
_0-1_LAYER003
  6
CONTINUOUS
 62
    7
 10
1839.8842
 20
680.67820000000006
 11
1887.8842
 21
680.67820000000006
  0
LINE
  8
_0-1_LAYER003
  6
CONTINUOUS
 62
    7
 10
2004.0862999999999
 20
967.32220000000007
 11
2004.0862999999999
 21
907.32220000000007
  0
LINE
  8
_0-1_LAYER003
  6
CONTINUOUS
 62
    7
 10
2004.0862999999999
 20
907.32220000000007
 11
1944.0862999999999
 21
907.32220000000007
  0
LINE
  8
_0-1_LAYER003
  6
CONTINUOUS
 62
    7
 10
1944.0862999999999
 20
907.32220000000007
 11
1944.0862999999999
 21
967.32220000000007
  0
LINE
  8
_0-1_LAYER003
  6
CONTINUOUS
 62
    7
 10
2004.0862999999999
 20
967.32220000000007
 11
1944.0862999999999
 21
907.32220000000007
  0
LINE
  8
_0-1_LAYER003
  6
CONTINUOUS
 62
    7
 10
1701.0862999999999
 20
967.32220000000007
 11
1641.0862999999999
 21
907.32220000000007
  0
LINE
  8
_0-1_LAYER003
  6
CONTINUOUS
 62
    7
 10
1398.0862999999999
 20
967.32220000000007
 11
1338.0862999999999
 21
907.32220000000007
  0
LINE
  8
_0-1_LAYER003
  6
CONTINUOUS
 62
    7
 10
1310.9598000000001
 20
814.36400000000003
 11
1310.9598000000001
 21
866.86400000000003
  0
LINE
  8
_0-1_LAYER003
  6
CONTINUOUS
 62
    7
 10
1129.4463000000001
 20
967.32220000000007
 11
1069.4463000000001
 21
907.32220000000007
  0
LINE
  8
_0-1_LAYER003
  6
CONTINUOUS
 62
    7
 10
1130.8497
 20
986.60789999999997
 11
1125.5463999999999
 21
981.30459999999994
  0
LINE
  8
_0-1_LAYER003
  6
CONTINUOUS
 62
    7
 10
1130.8497
 20
986.60789999999997
 11
1128.9086
 21
979.36349999999993
  0
LINE
  8
_0-1_LAYER003
  6
CONTINUOUS
 62
    7
 10
1130.8497
 20
986.60789999999997
 11
1023.7496000000001
 21
801.10500000000002
  0
LINE
  8
_0-1_LAYER003
  6
CONTINUOUS
 62
    7
 10
1009.9812999999999
 20
878.64529999999991
 11
1084.5204000000001
 21
1007.7508
  0
LINE
  8
_0-1_LAYER003
  6
CONTINUOUS
 62
    7
 10
1084.5204000000001
 20
1007.7508
 11
1079.2171000000001
 21
1002.4475
  0
LINE
  8
_0-1_LAYER003
  6
CONTINUOUS
 62
    7
 10
1084.5204000000001
 20
1007.7508
 11
1082.5793000000001
 21
1000.5063
  0
LINE
  8
_0-1_LAYER003
  6
CONTINUOUS
 62
    7
 10
1089.2523000000001
 20
983.56819999999993
 11
1074.2523000000001
 21
1098.2197000000001
  0
LINE
  8
_0-1_LAYER003
  6
CONTINUOUS
 62
    7
 10
1099.4463000000001
 20
1117.0088000000001
 11
1069.4463000000001
 21
1147.0088000000001
  0
LINE
  8
_0-1_LAYER003
  6
CONTINUOUS
 62
    7
 10
1069.7480120393598
 20
1147.0088000000001
 11
1071.7692999999999
 21
1147.0088000000001
  0
LINE
  8
_0-1_LAYER003
  6
CONTINUOUS
 62
    7
 10
1078.9403
 20
1148.665
 11
1167.4673
 21
1132.45
  0
LINE
  8
_0-1_LAYER003
  6
CONTINUOUS
 62
    7
 10
1167.4673
 20
1132.45
 11
1170.1703
 21
1147.204
  0
LINE
  8
_0-1_LAYER003
  6
CONTINUOUS
 62
    7
 10
1170.1703
 20
1147.204
 11
1081.6433
 21
1163.4200000000001
  0
LINE
  8
_0-1_LAYER003
  6
CONTINUOUS
 62
    7
 10
1081.6433
 20
1163.4200000000001
 11
1078.9403
 21
1148.665
  0
LINE
  8
_0-1_LAYER003
  6
CONTINUOUS
 62
    7
 10
1078.9403
 20
1148.665
 11
1170.1703
 21
1147.204
  0
LINE
  8
_0-1_LAYER003
  6
CONTINUOUS
 62
    7
 10
1175.3234
 20
1135.529
 11
1179.9943000000001
 21
1129.3683000000001
  0
LINE
  8
_0-1_LAYER003
  6
CONTINUOUS
 62
    7
 10
1179.9943000000001
 20
1129.3683000000001
 11
1179.4463000000001
 21
1147.4473
  0
LINE
  8
_0-1_LAYER003
  6
CONTINUOUS
 62
    7
 10
1179.4463000000001
 20
1147.4473
 11
1073.0323000000001
 21
1166.9390000000001
  0
LINE
  8
_0-1_LAYER003
  6
CONTINUOUS
 62
    7
 10
1075.1710578066072
 20
1141.2840421933927
 11
1077.0053
 21
1134.4387999999999
  0
LINE
  8
_0-1_LAYER003
  6
CONTINUOUS
 62
    7
 10
1077.0053
 20
1134.4387999999999
 11
1071.7692999999999
 21
1139.6748
  0
LINE
  8
_0-1_LAYER003
  6
CONTINUOUS
 62
    7
 10
1124.6061999999999
 20
1155.2092
 11
1122.665
 21
1147.9648
  0
LINE
  8
_0-1_LAYER003
  6
CONTINUOUS
 62
    7
 10
1122.665
 20
1147.9648
 11
1127.9683
 21
1153.2681
  0
LINE
  8
_0-1_LAYER003
  6
CONTINUOUS
 62
    7
 10
1159.0582999999999
 20
1158.7818
 11
1157.1171999999999
 21
1151.5373
  0
LINE
  8
_0-1_LAYER003
  6
CONTINUOUS
 62
    7
 10
1157.1171999999999
 20
1151.5373
 11
1162.4204999999999
 21
1156.8406
  0
LINE
  8
_0-1_LAYER003
  6
CONTINUOUS
 62
    7
 10
1164.8824
 20
1124.731
 11
1162.9413
 21
1117.4865
  0
LINE
  8
_0-1_LAYER003
  6
CONTINUOUS
 62
    7
 10
1162.9413
 20
1117.4865
 11
1168.2446
 21
1122.7898
  0
LINE
  8
_0-1_LAYER003
  6
CONTINUOUS
 62
    7
 10
1168.2446
 20
1122.7898
 11
1162.9413
 21
1117.4865
  0
LINE
  8
_0-1_LAYER003
  6
CONTINUOUS
 62
    7
 10
1162.9413
 20
1117.4865
 11
1239.9924000000001
 21
1250.943
  0
LINE
  8
_0-1_LAYER003
  6
CONTINUOUS
 62
    7
 10
1243.7420999999999
 20
1213.4905000000001
 11
1159.7601
 21
1068.0293999999999
  0
LINE
  8
_0-1_LAYER003
  6
CONTINUOUS
 62
    7
 10
1161.7012
 20
1075.2737999999999
 11
1159.7601
 21
1068.0293999999999
  0
LINE
  8
_0-1_LAYER003
  6
CONTINUOUS
 62
    7
 10
1159.7601
 20
1068.0293999999999
 11
1165.0634
 21
1073.3326999999999
  0
LINE
  8
_0-1_LAYER003
  6
CONTINUOUS
 62
    7
 10
1115.8785
 20
1092.0489
 11
1110.1077
 21
1093.9351999999999
  0
LINE
  8
_0-1_LAYER003
  6
CONTINUOUS
 62
    7
 10
1110.1077
 20
1093.9351999999999
 11
1093.8978979831136
 21
1117.0088000000001
  0
LINE
  8
_0-1_LAYER003
  6
CONTINUOUS
 62
    7
 10
1092.3602000000001
 20
1119.2418
 11
1096.4758999999999
 21
1124.2393999999999
  0
LINE
  8
_0-1_LAYER003
  6
CONTINUOUS
 62
    7
 10
1096.4758999999999
 20
1124.2393999999999
 11
1115.8785
 21
1110.8634
  0
LINE
  8
_0-1_LAYER003
  6
CONTINUOUS
 62
    7
 10
1093.8978979831136
 20
1117.0088000000001
 11
1092.3602000000001
 21
1119.2418
  0
LINE
  8
_0-1_LAYER003
  6
CONTINUOUS
 62
    7
 10
1077.0053
 20
1134.4387999999999
 11
1042.0473999999999
 21
1194.9876999999999
  0
LINE
  8
_0-1_LAYER003
  6
CONTINUOUS
 62
    7
 10
1092.4463000000001
 20
1181.8585
 11
1074.4463000000001
 21
1221.8585
  0
LINE
  8
_0-1_LAYER003
  6
CONTINUOUS
 62
    7
 10
1076.9376999999999
 20
1210.3589999999999
 11
1081.816563636364
 21
1205.4801363636361
  0
LINE
  8
_0-1_LAYER003
  6
CONTINUOUS
 62
    7
 10
1081.816563636364
 20
1205.4801363636361
 11
1080.2998
 21
1212.3000999999999
  0
LINE
  8
_0-1_LAYER003
  6
CONTINUOUS
 62
    7
 10
1081.7041648237876
 20
1205.985525467227
 11
1022.5440000000001
 21
1308.4539
  0
LINE
  8
_0-1_LAYER003
  6
CONTINUOUS
 62
    7
 10
1102.6724999999999
 20
1266.5603000000001
 11
1100.7313999999999
 21
1259.3158000000001
  0
LINE
  8
_0-1_LAYER003
  6
CONTINUOUS
 62
    7
 10
1100.7313999999999
 20
1259.3158000000001
 11
1106.0346999999999
 21
1264.6190999999999
  0
LINE
  8
_0-1_LAYER003
  6
CONTINUOUS
 62
    7
 10
1100.7313999999999
 20
1259.3158000000001
 11
1183.0072
 21
1401.8217
  0
LINE
  8
_0-1_LAYER003
  6
CONTINUOUS
 62
    7
 10
1242.4380000000001
 20
1299.3173999999999
 11
1157.1171999999999
 21
1151.5373
  0
LINE
  8
_0-1_LAYER003
  6
CONTINUOUS
 62
    7
 10
1122.665
 20
1147.9648
 11
1234.8163
 21
1342.2165
  0
LINE
  8
_0-1_LAYER003
  6
CONTINUOUS
 62
    7
 10
1658.6439999999998
 20
994.59539999999993
 11
1660.5852
 21
987.35100000000011
  0
LINE
  8
_0-1_LAYER003
  6
CONTINUOUS
 62
    7
 10
1658.6439999999998
 20
994.59539999999993
 11
1663.9472999999998
 21
989.29209999999989
  0
LINE
  8
_0-1_LAYER003
  6
CONTINUOUS
 62
    7
 10
1658.6439999999998
 20
994.59539999999993
 11
1839.8842
 21
680.67820000000006
  0
LINE
  8
_0-1_LAYER003
  6
CONTINUOUS
 62
    7
 10
1887.8842
 20
680.67820000000006
 11
1902.8836000000001
 21
680.67820000000006
  0
LINE
  8
_0-1_LAYER003
  6
CONTINUOUS
 62
    7
 10
1662.2948999999999
 20
1041.2621999999999
 11
1660.3537000000001
 21
1034.0177000000001
  0
LINE
  8
_0-1_LAYER003
  6
CONTINUOUS
 62
    7
 10
1660.3537000000001
 20
1034.0177000000001
 11
1665.6570000000002
 21
1039.3209999999999
  0
LINE
  8
_0-1_LAYER003
  6
CONTINUOUS
 62
    7
 10
1660.3537000000001
 20
1034.0177000000001
 11
1707.2447999999999
 21
1115.2354
  0
CIRCLE
  8
_0-0_LAYER001
  6
CONTINUOUS
 62
    2
 10
946.03875592573775
 20
1279.3232
 40
1.6999999999999997
  0
LINE
  8
_0-0_LAYER001
  6
CONTINUOUS
 62
    2
 10
943.53875592573775
 20
1279.3232
 11
1021.0387559257377
 21
1279.3232
  0
LINE
  8
_0-0_LAYER001
  6
CONTINUOUS
 62
    2
 10
946.03875592573775
 20
1279.3232
 11
946.03875592573775
 21
979.32220000000007
  0
LINE
  8
_0-0_LAYER001
  6
CONTINUOUS
 62
    2
 10
943.53875592573775
 20
979.32220000000007
 11
1021.0387559257377
 21
979.32220000000007
  0
LINE
  8
_0-1_LAYER003
  6
CONTINUOUS
 62
    7
 10
946.03875592573775
 20
1279.3232
 11
946.03875592573775
 21
981.0222
  0
LINE
  8
_0-1_LAYER003
  6
CONTINUOUS
 62
    7
 10
944.3387559257377
 20
1279.3232
 11
1021.0387559257377
 21
1279.3232
  0
LINE
  8
_0-1_LAYER003
  6
CONTINUOUS
 62
    7
 10
944.3387559257377
 20
979.32220000000007
 11
1044.6694559257376
 21
979.32220000000007
  0
TEXT
  8
_0-1_LAYER003
 62
    7
 10
930.6434999999999
 20
1061.1294
 40
20
 41
1
 50
90
  1
下葺き材立上がり寸法
  0
TEXT
  8
_0-0_LAYER001
 62
    7
 10
1822.640800000001
 20
713.0447999999991
 40
20
 41
1
 50
0
  1
　野地板：杉ｔ＝１２
  0
TEXT
  8
_0-0_LAYER001
 62
    7
 10
1839.8842000000009
 20
683.17819999999915
 40
20
 41
1
 50
0
  1
　垂木
  0
TEXT
  8
_0-2_LAYER004
 62
    7
 10
841.53350902507088
 20
1160.0364325725864
 40
20
 41
1
 50
90
  1
水切り立上がり寸法
  0
TEXT
  8
_0-0_LAYER001
 62
    7
 10
1707.6694682489397
 20
1122.1261466143319
 40
20
 41
1
 50
0
  1
桟　瓦
  0
TEXT
  8
_0-0_LAYER001
 62
    7
 10
1189.8859910289239
 20
1416.9546987991
 40
20
 41
1
 50
0
  1
外壁　防火サイディング
  0
TEXT
  8
_0-0_LAYER001
 62
    7
 10
1232.423443831701
 20
1352.4151152362651
 40
20
 41
1
 50
0
  1
笠木：１５ｘ９０
  0
TEXT
  8
_0-0_LAYER001
 62
    7
 10
1247.0915310050727
 20
1255.6057398920132
 40
20
 41
1
 50
0
  1
熨斗瓦２段積み
  0
TEXT
  8
_0-0_LAYER001
 62
    7
 10
1257.359192026433
 20
1217.4687132412471
 40
20
 41
1
 50
0
  1
葺　土
  0
TEXT
  8
_0-0_LAYER001
 62
    7
 10
980.13234444970976
 20
1314.2780885854993
 40
20
 41
1
 50
0
  1
胴　縁
  0
TEXT
  8
_0-0_LAYER001
 62
    7
 10
1786.8771389851458
 20
774.49248060542516
 40
20
 41
1
 50
0
  1
　瓦桟：１５ｘ３０以上
  0
TEXT
  8
_0-0_LAYER001
 62
    7
 10
1010.2359798030192
 20
1023.2466513338575
 40
20
 41
1
 50
90
  1
115
  0
TEXT
  8
_0-0_LAYER001
 62
    7
 10
1142.7724566083439
 20
885.76677210412913
 40
20
 41
1
 50
0
  1
120
  0
TEXT
  8
_0-0_LAYER001
 62
    7
 10
1193.798079436692
 20
830.71281063143715
 40
20
 41
1
 50
0
  1
220
  0
TEXT
  8
_0-0_LAYER001
 62
    7
 10
1431.4700594529475
 20
833.39836972766511
 40
20
 41
1
 50
0
  1
265
  0
TEXT
  8
_0-0_LAYER001
 62
    7
 10
1693.3120713352628
 20
832.05559017955113
 40
20
 41
1
 50
0
  1
265
  0
TEXT
  8
_0-0_LAYER001
 62
    7
 10
1964.5535400543786
 20
833.39836972766511
 40
20
 41
1
 50
0
  1
265
  0
TEXT
  8
_0-0_LAYER001
 62
    7
 10
1805.2651999999998
 20
743.14009999999917
 40
20
 41
1
 50
0
  1
　下葺材：ルーフィング
  0
TEXT
  8
_0-0_LAYER001
 62
    7
 10
753.45850599185485
 20
803.33978914686043
 40
20
 41
1
 50
0
  1
捨谷カラー鋼板0.35ｍｍ以上
  0
TEXT
  8
_0-0_LAYER001
 62
    7
 10
802.18038563807579
 20
881.03143506921265
 40
20
 41
1
 50
0
  1
下地材：１５ｘ１０５　
  0
TEXT
  8
_0-0_LAYER001
 62
    7
 10
1244.1579135703978
 20
1304.0104275641393
 40
20
 41
1
 50
0
  1
雨押水切カラー鋼板0.35ｍｍ以上
  0
TEXT
  8
_0-0_LAYER001
 62
    7
 10
886.45606935045771
 20
1236.5694757308247
 40
20
 41
1
 50
90
  1
150
  0
TEXT
  8
_0-0_LAYER001
 62
    7
 10
978.63259841087586
 20
1125.9576408583232
 40
20
 41
1
 50
90
  1
300
  0
TEXT
  8
_0-2_LAYER004
 62
    7
 10
979.94940596888171
 20
1199.6988641066578
 40
20
 41
1
 50
0
  1
30×30
  0
TEXT
  8
_0-0_LAYER001
 62
    7
 10
1134.0158902555802
 20
1253.6879739849023
 40
20
 41
1
 50
0
  1
75
  0
ENDSEC
  0
EOF
