  0
SECTION
  2
HEADER
  9
$ACADVER
  1
AC1009
  9
$INSBASE
 10
0
 20
0
 30
0
  9
$EXTMIN
 10
0
 20
0
  9
$EXTMAX
 10
2970
 20
2100
  9
$LIMMIN
 10
0
 20
0
  9
$LIMMAX
 10
2970
 20
2100
  9
$LTSCALE
 40
10
  0
ENDSEC
  0
SECTION
  2
TABLES
  0
TABLE
  2
LTYPE
 70
     9
  0
LTYPE
  2
CONTINUOUS
 70
    64
  3
実線
 72
    65
 73
     0
 40
0.0
  0
LTYPE
  2
DASHED1
 70
    64
  3
--  --  --  --  --  --  --  --  
 72
    65
 73
     2
 40
2.5
 49
1.25
 49
-1.25
  0
LTYPE
  2
DASHED2
 70
    64
  3
----    ----    ----    ----    
 72
    65
 73
     2
 40
5.0
 49
2.5
 49
-2.5
  0
LTYPE
  2
DASHED3
 70
    64
  3
------  ------  ------  ------  
 72
    65
 73
     2
 40
5.0
 49
3.75
 49
-1.25
  0
LTYPE
  2
CENTER1
 70
    64
  3
----- - ----- - ----- - ----- - 
 72
    65
 73
     4
 40
10.0
 49
6.25
 49
-1.25
 49
1.25
 49
-1.25
  0
LTYPE
  2
CENTER2
 70
    64
  3
----------  --  ----------  --  
 72
    65
 73
     4
 40
20.0
 49
12.5
 49
-2.5
 49
2.5
 49
-2.5
  0
LTYPE
  2
PHANTOM1
 70
    64
  3
--- - - --- - - --- - - --- - - 
 72
    65
 73
     6
 40
10.0
 49
3.25
 49
-1.25
 49
1.25
 49
-1.25
 49
1.25
 49
-1.25
  0
LTYPE
  2
PHANTOM2
 70
    64
  3
--------  -  -  --------  -  -  
 72
    65
 73
     6
 40
20.0
 49
10.0
 49
-2.5
 49
1.25
 49
-2.5
 49
1.25
 49
-2.5
  0
LTYPE
  2
DOT
 70
    64
  3
-   -   -   -   -   -   -   -   
 72
    65
 73
     2
 40
2.5
 49
0.625
 49
-1.875
  0
LTYPE
  2
DUMMY
 70
    64
  3
ダミー
 72
    65
 73
     0
 40
0.0
  0
LTYPE
  2
RAND1
 70
    64
  3
ランダム線1
 72
    65
 73
     4
 40
10.0
 49
1.0
 49
-2.0
 49
3.0
 49
-4.0
  0
LTYPE
  2
RAND2
 70
    64
  3
ランダム線2
 72
    65
 73
     4
 40
14.0
 49
2.0
 49
-3.0
 49
4.0
 49
-5.0
  0
LTYPE
  2
RAND3
 70
    64
  3
ランダム線3
 72
    65
 73
     4
 40
18.0
 49
3.0
 49
-4.0
 49
5.0
 49
-6.0
  0
LTYPE
  2
RAND4
 70
    64
  3
ランダム線4
 72
    65
 73
     4
 40
22.0
 49
4.0
 49
-5.0
 49
6.0
 49
-7.0
  0
LTYPE
  2
RAND5
 70
    64
  3
ランダム線5
 72
    65
 73
     4
 40
26.0
 49
5.0
 49
-6.0
 49
7.0
 49
-8.0
  0
LTYPE
  2
LONG1
 70
    64
  3
----------  --  ----------  --  
 72
    65
 73
     4
 40
40.0
 49
32.5
 49
-2.5
 49
2.5
 49
-2.5
  0
LTYPE
  2
LONG2
 70
    64
  3
--------  -  -  --------  -  -  
 72
    65
 73
     6
 40
40.0
 49
30.0
 49
-2.5
 49
1.25
 49
-2.5
 49
1.25
 49
-2.5
  0
LTYPE
  2
LONG3
 70
    64
  3
+++++++++++++++..+++++++++++++++
 72
    65
 73
     2
 40
40.0
 49
37.5
 49
-2.5
  0
LTYPE
  2
LONG4
 70
    64
  3
+++++++++++++++..+++++++++++++++
 72
    65
 73
     2
 40
80.0
 49
75.0
 49
-5.0
  0
LTYPE
  2
LONG5
 70
    64
  3
----------  --  ----------  --  
 72
    65
 73
     4
 40
60.0
 49
37.5
 49
-7.5
 49
7.5
 49
-7.5
  0
LTYPE
  2
dashed
 70
   64
  3
-------   -------------   ------
 72
   65
 73
    2
 40
7.5
 49
6
 49
-1.5
  0
LTYPE
  2
dashed_spaced
 70
   64
  3
----        --------        ----
 72
   65
 73
    2
 40
12
 49
6
 49
-6
  0
LTYPE
  2
long_dashed_dotted
 70
   64
  3
------------- --- --------------
 72
   65
 73
    4
 40
15.25
 49
12
 49
-1.5
 49
0.25
 49
-1.5
  0
LTYPE
  2
long_dashed_double-dotted
 70
   64
  3
----------- --- --- ------------
 72
   65
 73
    6
 40
17
 49
12
 49
-1.5
 49
0.25
 49
-1.5
 49
0.25
 49
-1.5
  0
LTYPE
  2
long_dashed_triplicate-dotted
 70
   64
  3
--------- --- --- --- ----------
 72
   65
 73
    8
 40
18.75
 49
12
 49
-1.5
 49
0.25
 49
-1.5
 49
0.25
 49
-1.5
 49
0.25
 49
-1.5
  0
LTYPE
  2
dotted
 70
   64
  3
   -       -       -       -    
 72
   65
 73
    2
 40
1.75
 49
0.25
 49
-1.5
  0
LTYPE
  2
chain
 70
   64
  3
-------------- -- --------------
 72
   65
 73
    4
 40
18.5
 49
12
 49
-1.5
 49
3.5
 49
-1.5
  0
LTYPE
  2
chain_double_dash
 70
   64
  3
------------ -- -- -------------
 72
   65
 73
    6
 40
23.5
 49
12
 49
-1.5
 49
3.5
 49
-1.5
 49
3.5
 49
-1.5
  0
LTYPE
  2
dashed_dotted
 70
   64
  3
-----------     -     ----------
 72
   65
 73
    4
 40
9.25
 49
6
 49
-1.5
 49
0.25
 49
-1.5
  0
LTYPE
  2
double-dashed_dotted
 70
   64
  3
------   -----------   -   -----
 72
   65
 73
    6
 40
16.75
 49
6
 49
-1.5
 49
6
 49
-1.5
 49
0.25
 49
-1.5
  0
LTYPE
  2
dashed_double-dotted
 70
   64
  3
---------    -    -    ---------
 72
   65
 73
    6
 40
11
 49
6
 49
-1.5
 49
0.25
 49
-1.5
 49
0.25
 49
-1.5
  0
LTYPE
  2
double-dashed_double-dotted
 70
   64
  3
-----   ---------   -   -   ----
 72
   65
 73
    8
 40
18.5
 49
6
 49
-1.5
 49
6
 49
-1.5
 49
0.25
 49
-1.5
 49
0.25
 49
-1.5
  0
LTYPE
  2
dashed_triplicate-dotted
 70
   64
  3
-------    -    -    -    ------
 72
   65
 73
    8
 40
12.75
 49
6
 49
-1.5
 49
0.25
 49
-1.5
 49
0.25
 49
-1.5
 49
0.25
 49
-1.5
  0
LTYPE
  2
double-dashed_triplicate-dotted
 70
   64
  3
-----  ---------  -  -  -  -----
 72
   65
 73
   10
 40
20.25
 49
6
 49
-1.5
 49
6
 49
-1.5
 49
0.25
 49
-1.5
 49
0.25
 49
-1.5
 49
0.25
 49
-1.5
  0
LTYPE
  2
undefined
 70
   64
  3
--------------------------------
 72
   65
 73
    0
 40
0
  0
LTYPE
  2
HIDDEN
 70
   64
  3
----        --------        ----
 72
   65
 73
    2
 40
10
 49
5
 49
-5
  0
LTYPE
  2
DASHED
 70
   64
  3
-------   -------------   ------
 72
   65
 73
    2
 40
50
 49
40
 49
-10
  0
LTYPE
  2
CENTER
 70
   64
  3
------------   ---   -----------
 72
   65
 73
    4
 40
100
 49
70
 49
-10
 49
10
 49
-10
  0
LTYPE
  2
PHANTOM
 70
   64
  3
---------   ---   ---   --------
 72
   65
 73
    6
 40
100
 49
50
 49
-10
 49
10
 49
-10
 49
10
 49
-10
  0
ENDTAB
  0
TABLE
  2
STYLE
  5
3
100
AcDbSymbolTable
 70
     1
  0
STYLE
  5
10
100
AcDbSymbolTableRecord
100
AcDbTextStyleTableRecord
  2
STANDARD
 70
     0
 40
0.0
 41
1.0
 50
0.0
 71
     0
 42
0.2
  3
txt
  4
bigfont.shx
  0
STYLE
  5
26
100
AcDbSymbolTableRecord
100
AcDbTextStyleTableRecord
  2
TATEGAKI
 70
    68
 40
0.0
 41
1.0
 50
0.0
 71
     0
 42
1.0
  3
txt
  4
bigfont.shx
  0
ENDTAB
  0
TABLE
  2
LAYER
 70
    2
  0
LAYER
  2
_0-0_LAYER001
 70
   64
 62
    7
  6
CONTINUOUS
  0
LAYER
  2
ADD_LINE
 70
   64
 62
    7
  6
CONTINUOUS
  0
ENDTAB
  0
ENDSEC
  0
SECTION
  2
BLOCKS
  0
ENDSEC
  0
SECTION
  2
ENTITIES
  0
LINE
  8
_0-0_LAYER001
  6
CONTINUOUS
 62
    4
 10
1773.1870589999999
 20
1046.7440635
 11
1778.7910199999997
 21
1048.5143324999999
  0
ARC
  8
_0-0_LAYER001
  6
CONTINUOUS
 62
    4
 10
1795.5757979999998
 20
1050.2278624999999
 40
16.872017
 50
103.35714900000002
 51
185.82903500000003
  0
LINE
  8
_0-0_LAYER001
  6
CONTINUOUS
 62
    4
 10
1797.2219580000001
 20
1050.0423765
 11
2103.396452
 21
1146.7616825
  0
LINE
  8
_0-0_LAYER001
  6
CONTINUOUS
 62
    4
 10
2097.3174760000002
 20
1166.0052794999999
 11
2073.9324919999999
 21
1158.6180565
  0
LINE
  8
_0-0_LAYER001
  6
CONTINUOUS
 62
    4
 10
1791.6780189999999
 20
1066.6434735
 11
2071.5231739999999
 21
1155.0454465
  0
ARC
  8
_0-0_LAYER001
  6
CONTINUOUS
 62
    4
 10
2077.1539419999999
 20
1153.5654784999999
 40
5.8220139999999994
 50
113.701938
 51
165.27368200000001
  0
LINE
  8
_0-0_LAYER001
  6
CONTINUOUS
 62
    4
 10
1773.1776650000002
 20
1046.7738015
 11
1779.0607669999999
 21
1028.1502594999999
  0
ARC
  8
_0-0_LAYER001
  6
CONTINUOUS
 62
    4
 10
1801.1197359999996
 20
1033.6267654999999
 40
16.872017
 50
103.35714900000002
 51
192.69455200000002
  0
LINE
  8
_0-0_LAYER001
  6
CONTINUOUS
 62
    4
 10
2104.5524070000001
 20
1127.6506205000001
 11
2102.7909019999997
 21
1133.2268385
  0
LINE
  8
_0-0_LAYER001
  6
CONTINUOUS
 62
    4
 10
2097.3174760000002
 20
1166.0052794999999
 11
2108.9906650000003
 21
1129.0526485
  0
LINE
  8
_0-0_LAYER001
  6
CONTINUOUS
 62
    4
 10
2104.5524070000001
 20
1127.6506205000001
 11
2108.9906650000003
 21
1129.0526485
  0
LINE
  8
_0-0_LAYER001
  6
CONTINUOUS
 62
    4
 10
1784.6601479999999
 20
1029.9190814999999
 11
1779.0607669999999
 21
1028.1502594999999
  0
LINE
  8
_0-0_LAYER001
  6
CONTINUOUS
 62
    4
 10
1784.2896579999997
 20
1032.6135604999999
 11
2102.7909019999997
 21
1133.2268385
  0
LINE
  8
_0-0_LAYER001
  6
CONTINUOUS
 62
    4
 10
2027.7077899999995
 20
1163.8531874999999
 11
2033.3262249999998
 21
1165.5769674999999
  0
ARC
  8
_0-0_LAYER001
  6
CONTINUOUS
 62
    4
 10
2050.124624
 20
1167.1513754999999
 40
16.872017
 50
102.88244700000001
 51
185.354333
  0
LINE
  8
_0-0_LAYER001
  6
CONTINUOUS
 62
    4
 10
2051.76919
 20
1166.9522574999999
 11
2220.0028860000002
 21
1218.5676535
  0
LINE
  8
_0-0_LAYER001
  6
CONTINUOUS
 62
    4
 10
2046.3629819999996
 20
1183.5987164999999
 11
2212.8321180000003
 21
1234.6727315000001
  0
LINE
  8
_0-0_LAYER001
  6
CONTINUOUS
 62
    4
 10
2027.6986429999997
 20
1163.8830025
 11
2033.4272460000002
 21
1145.2113574999998
  0
ARC
  8
_0-0_LAYER001
  6
CONTINUOUS
 62
    4
 10
2055.530831
 20
1150.5049165
 40
16.872017
 50
102.88244700000001
 51
192.21985000000001
  0
LINE
  8
_0-0_LAYER001
  6
CONTINUOUS
 62
    4
 10
2039.0410890000003
 20
1146.9337284999999
 11
2033.4272460000002
 21
1145.2113574999998
  0
LINE
  8
_0-0_LAYER001
  6
CONTINUOUS
 62
    4
 10
2038.6929360000004
 20
1149.6311845
 11
2225.216563
 21
1206.8580724999999
  0
LINE
  8
_0-0_LAYER001
  6
CONTINUOUS
 62
    4
 10
1519.945866
 20
932.1729744999999
 11
1525.5498269999998
 21
933.94324350000011
  0
ARC
  8
_0-0_LAYER001
  6
CONTINUOUS
 62
    4
 10
1542.334605
 20
935.65677349999999
 40
16.872017
 50
103.35714900000002
 51
185.82903500000003
  0
LINE
  8
_0-0_LAYER001
  6
CONTINUOUS
 62
    4
 10
1543.9807649999998
 20
935.47128649999991
 11
1850.1552590000001
 21
1032.1905935
  0
LINE
  8
_0-0_LAYER001
  6
CONTINUOUS
 62
    4
 10
1844.0762830000003
 20
1051.4341904999999
 11
1820.6912979999997
 21
1044.0469665000001
  0
LINE
  8
_0-0_LAYER001
  6
CONTINUOUS
 62
    4
 10
1538.4368260000001
 20
952.0723845
 11
1818.2819810000001
 21
1040.4743575
  0
ARC
  8
_0-0_LAYER001
  6
CONTINUOUS
 62
    4
 10
1823.9127479999997
 20
1038.9943885
 40
5.8220139999999994
 50
113.701938
 51
165.27368200000001
  0
LINE
  8
_0-0_LAYER001
  6
CONTINUOUS
 62
    4
 10
1519.9364719999999
 20
932.20271249999996
 11
1525.8195740000001
 21
913.57916949999992
  0
ARC
  8
_0-0_LAYER001
  6
CONTINUOUS
 62
    4
 10
1547.8785429999998
 20
919.05567649999989
 40
16.872017
 50
103.35714900000002
 51
192.69455200000002
  0
LINE
  8
_0-0_LAYER001
  6
CONTINUOUS
 62
    4
 10
1851.3112140000003
 20
1013.0795304999999
 11
1849.5497089999999
 21
1018.6557495
  0
LINE
  8
_0-0_LAYER001
  6
CONTINUOUS
 62
    4
 10
1844.0762830000003
 20
1051.4341904999999
 11
1855.7494719999995
 21
1014.4815584999999
  0
LINE
  8
_0-0_LAYER001
  6
CONTINUOUS
 62
    4
 10
1851.3112140000003
 20
1013.0795304999999
 11
1855.7494719999995
 21
1014.4815584999999
  0
LINE
  8
_0-0_LAYER001
  6
CONTINUOUS
 62
    4
 10
1531.4189550000001
 20
915.34799150000003
 11
1525.8195740000001
 21
913.57916949999992
  0
LINE
  8
_0-0_LAYER001
  6
CONTINUOUS
 62
    4
 10
1531.0484649999999
 20
918.04247149999992
 11
1849.5497089999999
 21
1018.6557495
  0
LINE
  8
_0-0_LAYER001
  6
CONTINUOUS
 62
    4
 10
1181.534686
 20
1046.7440635
 11
1175.9307249999997
 21
1048.5143324999999
  0
ARC
  8
_0-0_LAYER001
  6
CONTINUOUS
 62
    4
 10
1159.145947
 20
1050.2278624999999
 40
16.872017
 50
354.17096500000002
 51
76.642851000000007
  0
LINE
  8
_0-0_LAYER001
  6
CONTINUOUS
 62
    4
 10
1157.4997880000001
 20
1050.0423765
 11
851.32529399999976
 21
1146.7616825
  0
LINE
  8
_0-0_LAYER001
  6
CONTINUOUS
 62
    4
 10
857.40426900000011
 20
1166.0052794999999
 11
880.7892539999998
 21
1158.6180565
  0
LINE
  8
_0-0_LAYER001
  6
CONTINUOUS
 62
    4
 10
1163.0437259999999
 20
1066.6434735
 11
883.1985709999999
 21
1155.0454465
  0
ARC
  8
_0-0_LAYER001
  6
CONTINUOUS
 62
    4
 10
877.5678039999998
 20
1153.5654784999999
 40
5.8220139999999994
 50
14.726318000000001
 51
66.298061999999987
  0
LINE
  8
_0-0_LAYER001
  6
CONTINUOUS
 62
    4
 10
1181.5440800000001
 20
1046.7738015
 11
1175.6609779999999
 21
1028.1502594999999
  0
ARC
  8
_0-0_LAYER001
  6
CONTINUOUS
 62
    4
 10
1153.6020089999997
 20
1033.6267654999999
 40
16.872017
 50
347.30544800000001
 51
76.642850999999993
  0
LINE
  8
_0-0_LAYER001
  6
CONTINUOUS
 62
    4
 10
850.16933900000004
 20
1127.6506205000001
 11
851.93084399999998
 21
1133.2268385
  0
LINE
  8
_0-0_LAYER001
  6
CONTINUOUS
 62
    4
 10
857.40426900000011
 20
1166.0052794999999
 11
845.7310809999999
 21
1129.0526485
  0
LINE
  8
_0-0_LAYER001
  6
CONTINUOUS
 62
    4
 10
850.16933900000004
 20
1127.6506205000001
 11
845.7310809999999
 21
1129.0526485
  0
LINE
  8
_0-0_LAYER001
  6
CONTINUOUS
 62
    4
 10
1170.0615969999999
 20
1029.9190814999999
 11
1175.6609779999999
 21
1028.1502594999999
  0
LINE
  8
_0-0_LAYER001
  6
CONTINUOUS
 62
    4
 10
1170.4320870000001
 20
1032.6135604999999
 11
851.93084399999998
 21
1133.2268385
  0
LINE
  8
_0-0_LAYER001
  6
CONTINUOUS
 62
    4
 10
927.01395599999978
 20
1163.8531874999999
 11
921.39552000000003
 21
1165.5769674999999
  0
ARC
  8
_0-0_LAYER001
  6
CONTINUOUS
 62
    4
 10
904.59712200000013
 20
1167.1513754999999
 40
16.872017
 50
354.645667
 51
77.117552999999987
  0
LINE
  8
_0-0_LAYER001
  6
CONTINUOUS
 62
    4
 10
902.95255499999985
 20
1166.9522574999999
 11
748.229511
 21
1214.4224815
  0
LINE
  8
_0-0_LAYER001
  6
CONTINUOUS
 62
    4
 10
908.35876299999973
 20
1183.5987164999999
 11
755.02592000000004
 21
1230.6424155
  0
LINE
  8
_0-0_LAYER001
  6
CONTINUOUS
 62
    4
 10
927.02310299999999
 20
1163.8830025
 11
921.29449900000009
 21
1145.2113574999998
  0
ARC
  8
_0-0_LAYER001
  6
CONTINUOUS
 62
    4
 10
899.19091500000013
 20
1150.5049165
 40
16.872017
 50
347.78015000000005
 51
77.117553000000029
  0
LINE
  8
_0-0_LAYER001
  6
CONTINUOUS
 62
    4
 10
915.680656
 20
1146.9337284999999
 11
921.29449900000009
 21
1145.2113574999998
  0
LINE
  8
_0-0_LAYER001
  6
CONTINUOUS
 62
    4
 10
916.02880899999991
 20
1149.6311845
 11
743.28801900000008
 21
1202.6293914999999
  0
LINE
  8
_0-0_LAYER001
  6
CONTINUOUS
 62
    4
 10
1434.7758789999998
 20
932.1729744999999
 11
1429.171918
 21
933.94324350000011
  0
ARC
  8
_0-0_LAYER001
  6
CONTINUOUS
 62
    4
 10
1412.3871399999998
 20
935.65677349999999
 40
16.872017
 50
354.17096500000002
 51
76.642851000000007
  0
LINE
  8
_0-0_LAYER001
  6
CONTINUOUS
 62
    4
 10
1410.7409809999999
 20
935.47128649999991
 11
1104.5664870000001
 21
1032.1905935
  0
LINE
  8
_0-0_LAYER001
  6
CONTINUOUS
 62
    4
 10
1110.645462
 20
1051.4341904999999
 11
1134.0304470000001
 21
1044.0469665000001
  0
LINE
  8
_0-0_LAYER001
  6
CONTINUOUS
 62
    4
 10
1416.2849189999997
 20
952.0723845
 11
1136.4397639999997
 21
1040.4743575
  0
ARC
  8
_0-0_LAYER001
  6
CONTINUOUS
 62
    4
 10
1130.8089970000001
 20
1038.9943885
 40
5.8220139999999994
 50
14.726318000000001
 51
66.298061999999987
  0
LINE
  8
_0-0_LAYER001
  6
CONTINUOUS
 62
    4
 10
1434.785273
 20
932.20271249999996
 11
1428.9021709999997
 21
913.57916949999992
  0
ARC
  8
_0-0_LAYER001
  6
CONTINUOUS
 62
    4
 10
1406.843202
 20
919.05567649999989
 40
16.872017
 50
347.30544800000001
 51
76.642850999999993
  0
LINE
  8
_0-0_LAYER001
  6
CONTINUOUS
 62
    4
 10
1103.4105319999999
 20
1013.0795304999999
 11
1105.1720369999998
 21
1018.6557495
  0
LINE
  8
_0-0_LAYER001
  6
CONTINUOUS
 62
    4
 10
1110.645462
 20
1051.4341904999999
 11
1098.9722739999997
 21
1014.4815584999999
  0
LINE
  8
_0-0_LAYER001
  6
CONTINUOUS
 62
    4
 10
1103.4105319999999
 20
1013.0795304999999
 11
1098.9722739999997
 21
1014.4815584999999
  0
LINE
  8
_0-0_LAYER001
  6
CONTINUOUS
 62
    4
 10
1423.3027910000001
 20
915.34799150000003
 11
1428.9021709999997
 21
913.57916949999992
  0
LINE
  8
_0-0_LAYER001
  6
CONTINUOUS
 62
    4
 10
1423.67328
 20
918.04247149999992
 11
1105.1720369999998
 21
1018.6557495
  0
LINE
  8
_0-0_LAYER001
  6
CONTINUOUS
 62
   18
 10
1477.3608730000001
 20
830.10755949999998
 11
1477.3608730000001
 21
751.1533895
  0
LINE
  8
_0-0_LAYER001
  6
HIDDEN
 62
   18
 10
1751.4699069999997
 20
954.77489949999995
 11
1477.4679109999997
 21
831.4739454999999
  0
LINE
  8
_0-0_LAYER001
  6
HIDDEN
 62
   18
 10
1203.251839
 20
954.77489949999995
 11
1477.253835
 21
831.4739454999999
  0
CIRCLE
  8
_0-0_LAYER001
  6
CONTINUOUS
 62
   18
 10
1823.4198429999997
 20
794.88557249999997
 40
1.6999999999999997
  0
LINE
  8
_0-0_LAYER001
  6
CONTINUOUS
 62
   18
 10
1823.4198429999997
 20
794.88557249999997
 11
1549.8434119999997
 21
671.77612249999993
  0
CIRCLE
  8
_0-0_LAYER001
  6
CONTINUOUS
 62
   18
 10
1549.8434119999997
 20
671.77612249999993
 40
1.6999999999999997
  0
LINE
  8
_0-0_LAYER001
  6
CONTINUOUS
 62
   18
 10
1824.4457549999997
 20
792.60576849999995
 11
1802.9016019999999
 21
840.4816444999999
  0
LINE
  8
_0-0_LAYER001
  6
CONTINUOUS
 62
   18
 10
1550.8693250000001
 20
669.49631950000003
 11
1529.325171
 21
717.37219449999998
  0
CIRCLE
  8
_0-0_LAYER001
  6
CONTINUOUS
 62
   18
 10
1131.3019019999997
 20
794.88557249999997
 40
1.6999999999999997
  0
LINE
  8
_0-0_LAYER001
  6
CONTINUOUS
 62
   18
 10
1131.3019019999997
 20
794.88557249999997
 11
1404.8783330000001
 21
671.77612249999993
  0
CIRCLE
  8
_0-0_LAYER001
  6
CONTINUOUS
 62
   18
 10
1404.8783330000001
 20
671.77612249999993
 40
1.6999999999999997
  0
LINE
  8
_0-0_LAYER001
  6
CONTINUOUS
 62
   18
 10
1130.2759900000001
 20
792.60576849999995
 11
1151.8201439999998
 21
840.4816444999999
  0
LINE
  8
_0-0_LAYER001
  6
CONTINUOUS
 62
   18
 10
1403.852421
 20
669.49631950000003
 11
1425.3965739999999
 21
717.37219449999998
  0
LINE
  8
_0-0_LAYER001
  6
CONTINUOUS
 62
   18
 10
1426.2282169999999
 20
946.47820350000006
 11
1447.7721959999999
 21
898.60224949999997
  0
CIRCLE
  8
_0-0_LAYER001
  6
CONTINUOUS
 62
   18
 10
1427.2541209999999
 20
944.19839649999994
 40
1.6999999999999997
  0
LINE
  8
_0-0_LAYER001
  6
CONTINUOUS
 62
   18
 10
1427.2541209999999
 20
944.19839649999994
 11
1564.0424509999998
 21
1005.7525725
  0
CIRCLE
  8
_0-0_LAYER001
  6
CONTINUOUS
 62
   18
 10
1564.0424509999998
 20
1005.7525725
 40
1.6999999999999997
  0
LINE
  8
_0-0_LAYER001
  6
CONTINUOUS
 62
   18
 10
1563.0165469999997
 20
1008.0323794999999
 11
1584.5605259999998
 21
960.15642549999984
  0
LINE
  8
_0-0_LAYER001
  6
CONTINUOUS
 62
   18
 10
1158.2485299999998
 20
854.7669414999998
 11
1175.6112739999999
 21
852.68494249999992
  0
LINE
  8
_0-0_LAYER001
  6
CONTINUOUS
 62
   18
 10
1158.2556749999999
 20
854.78281850000008
 11
1171.3289249999998
 21
843.1686145000001
  0
LINE
  8
_0-0_LAYER001
  6
CONTINUOUS
 62
   18
 10
1797.0636919999997
 20
853.45477149999988
 11
1779.7009479999997
 21
851.3727725
  0
LINE
  8
_0-0_LAYER001
  6
CONTINUOUS
 62
   18
 10
1797.0565470000001
 20
853.47064949999992
 11
1783.9832969999998
 21
841.85644449999995
  0
LINE
  8
_0-0_LAYER001
  6
HIDDEN
 62
   18
 10
1805.3813250000003
 20
834.97063150000008
 11
1750.9368610000001
 21
955.95827450000002
  0
LINE
  8
_0-0_LAYER001
  6
HIDDEN
 62
   18
 10
1148.8499149999998
 20
833.88113849999991
 11
1203.252082
 21
954.7747895
  0
ARC
  8
_0-0_LAYER001
  6
CONTINUOUS
 62
   18
 10
1479.0656220000001
 20
820.0136265000001
 40
100
 50
252.30316899999997
 51
288.73411800000002
  0
LINE
  8
_0-0_LAYER001
  6
CONTINUOUS
 62
   18
 10
1797.0118139999995
 20
853.43090849999999
 11
1577.5910469999999
 21
754.69151849999992
  0
LINE
  8
_0-0_LAYER001
  6
CONTINUOUS
 62
   18
 10
1158.2320169999998
 20
854.73024549999991
 11
1375.1020559999997
 21
757.13868349999996
  0
LINE
  8
_0-0_LAYER001
  6
CONTINUOUS
 62
   18
 10
1406.657001
 20
874.28863649999994
 11
1406.657001
 21
866.78863649999994
  0
LINE
  8
_0-0_LAYER001
  6
CONTINUOUS
 62
   18
 10
1406.657001
 20
866.78863649999994
 11
1402.907001
 21
873.28382749999992
  0
LINE
  8
_0-0_LAYER001
  6
CONTINUOUS
 62
   18
 10
1406.657001
 20
866.78863649999994
 11
1340.9465700000001
 21
1112.0233025
  0
LINE
  8
_0-0_LAYER001
  6
CONTINUOUS
 62
   18
 10
1340.9465700000001
 20
1112.0233025
 11
1139.9465700000001
 21
1112.0233025
  0
LINE
  8
_0-0_LAYER001
  6
CONTINUOUS
 62
   18
 10
1477.3608730000001
 20
751.1533895
 11
2269.4199499999995
 21
1107.5801354999999
  0
LINE
  8
_0-0_LAYER001
  6
DASHED
 62
   18
 10
2238.8477700000003
 20
1175.5182824999999
 11
1477.3608730000001
 21
832.84902349999993
  0
LINE
  8
_0-0_LAYER001
  6
CONTINUOUS
 62
   18
 10
2239.8736820000004
 20
1173.2384795
 11
1477.3608730000001
 21
830.10755949999998
  0
LINE
  8
_0-0_LAYER001
  6
CONTINUOUS
 62
   18
 10
2244.7980600000001
 20
1162.2954215
 11
1477.3608730000001
 21
816.94853049999995
  0
LINE
  8
_0-0_LAYER001
  6
CONTINUOUS
 62
   18
 10
1477.3608730000001
 20
751.1533895
 11
700.58005000000003
 21
1100.7049175
  0
LINE
  8
_0-0_LAYER001
  6
DASHED
 62
   18
 10
731.15223000000015
 20
1168.6430645
 11
1477.3608730000001
 21
832.84902349999993
  0
LINE
  8
_0-0_LAYER001
  6
CONTINUOUS
 62
   18
 10
730.12631699999974
 20
1166.3632614999999
 11
1477.3608730000001
 21
830.10755949999998
  0
LINE
  8
_0-0_LAYER001
  6
CONTINUOUS
 62
   18
 10
725.20193999999992
 20
1155.4202045
 11
1477.3608730000001
 21
816.94853049999995
  0
LINE
  8
_0-0_LAYER001
  6
CONTINUOUS
 62
   18
 10
1446.927381
 20
1083.9049304999999
 11
1468.4714829999998
 21
1036.0290315
  0
CIRCLE
  8
_0-0_LAYER001
  6
CONTINUOUS
 62
   18
 10
1447.9532899999999
 20
1081.6251255
 40
1.6999999999999997
  0
LINE
  8
_0-0_LAYER001
  6
CONTINUOUS
 62
   18
 10
1447.9532899999999
 20
1081.6251255
 11
1703.291416
 21
1196.5270034999999
  0
CIRCLE
  8
_0-0_LAYER001
  6
CONTINUOUS
 62
   18
 10
1703.291416
 20
1196.5270034999999
 40
1.6999999999999997
  0
LINE
  8
_0-0_LAYER001
  6
CONTINUOUS
 62
   18
 10
1702.2655059999997
 20
1198.8068085
 11
1723.8096089999999
 21
1150.9309105
  0
LINE
  8
_0-0_LAYER001
  6
CONTINUOUS
 62
   18
 10
1694.0582290000002
 20
1217.0452464999998
 11
1715.6023319999995
 21
1169.1693475
  0
CIRCLE
  8
_0-0_LAYER001
  6
CONTINUOUS
 62
   18
 10
1695.0841389999996
 20
1214.7654415
 40
1.6999999999999997
  0
LINE
  8
_0-0_LAYER001
  6
CONTINUOUS
 62
   18
 10
1695.0841389999996
 20
1214.7654415
 11
1950.4222650000002
 21
1329.6673194999998
  0
CIRCLE
  8
_0-0_LAYER001
  6
CONTINUOUS
 62
   18
 10
1950.4222650000002
 20
1329.6673194999998
 40
1.6999999999999997
  0
LINE
  8
_0-0_LAYER001
  6
CONTINUOUS
 62
   18
 10
1949.3963549999999
 20
1331.9471245
 11
1970.9404569999997
 21
1284.0712254999999
  0
LINE
  8
_0-0_LAYER001
  6
CONTINUOUS
 62
   18
 10
1941.1890780000003
 20
1350.1855614999999
 11
1962.7331800000002
 21
1302.3096634999999
  0
CIRCLE
  8
_0-0_LAYER001
  6
CONTINUOUS
 62
   18
 10
1942.2149879999997
 20
1347.9057574999999
 40
1.6999999999999997
  0
LINE
  8
_0-0_LAYER001
  6
CONTINUOUS
 62
   18
 10
1942.2149879999997
 20
1347.9057574999999
 11
2125.766372
 21
1430.5036805
  0
LINE
  8
_0-0_LAYER001
  6
CONTINUOUS
 62
   18
 10
1469.3550380000001
 20
1034.0655704999999
 11
1480.6400439999998
 21
1008.9877194999999
  0
CIRCLE
  8
_0-0_LAYER001
  6
CONTINUOUS
 62
   18
 10
1470.380948
 20
1031.7857664999999
 40
1.6999999999999997
  0
LINE
  8
_0-0_LAYER001
  6
CONTINUOUS
 62
   18
 10
1470.380948
 20
1031.7857664999999
 11
1538.7754879999998
 21
1062.5632344999999
  0
CIRCLE
  8
_0-0_LAYER001
  6
CONTINUOUS
 62
   18
 10
1538.7754879999998
 20
1062.5632344999999
 40
1.6999999999999997
  0
LINE
  8
_0-0_LAYER001
  6
CONTINUOUS
 62
   18
 10
1537.7495789999998
 20
1064.8430395
 11
1549.034584
 21
1039.7651874999999
  0
CIRCLE
  8
_0-0_LAYER001
  6
CONTINUOUS
 62
   18
 10
1538.7754879999998
 20
1062.5632344999999
 40
1.6999999999999997
  0
LINE
  8
_0-0_LAYER001
  6
CONTINUOUS
 62
   18
 10
1538.7754879999998
 20
1062.5632344999999
 11
1725.7190730000002
 21
1146.6876445
  0
CIRCLE
  8
_0-0_LAYER001
  6
CONTINUOUS
 62
   18
 10
1725.7190730000002
 20
1146.6876445
 40
1.6999999999999997
  0
LINE
  8
_0-0_LAYER001
  6
CONTINUOUS
 62
   18
 10
1724.6931640000003
 20
1148.9674494999999
 11
1735.9781700000003
 21
1123.8895975
  0
CIRCLE
  8
_0-0_LAYER001
  6
CONTINUOUS
 62
   18
 10
1725.7190730000002
 20
1146.6876445
 40
1.6999999999999997
  0
LINE
  8
_0-0_LAYER001
  6
CONTINUOUS
 62
   18
 10
1725.7190730000002
 20
1146.6876445
 11
1780.4343859999999
 21
1171.3094755
  0
CIRCLE
  8
_0-0_LAYER001
  6
CONTINUOUS
 62
   18
 10
1780.4343859999999
 20
1171.3094755
 40
1.6999999999999997
  0
LINE
  8
_0-0_LAYER001
  6
CONTINUOUS
 62
   18
 10
1779.4084759999996
 20
1173.5892804999999
 11
1790.6934819999997
 21
1148.5114285
  0
LINE
  8
_0-0_LAYER001
  6
CONTINUOUS
 62
   18
 10
2080.1928559999997
 20
1106.7885994999999
 11
2107.76332
 21
1118.6152434999999
  0
LINE
  8
_0-0_LAYER001
  6
CONTINUOUS
 62
   18
 10
2107.76332
 20
1118.6152434999999
 11
2101.8499979999997
 21
1132.4004754999999
  0
LINE
  8
_0-0_LAYER001
  6
CONTINUOUS
 62
   18
 10
2101.8499979999997
 20
1132.4004754999999
 11
2074.2795340000002
 21
1120.5738314999999
  0
LINE
  8
_0-0_LAYER001
  6
CONTINUOUS
 62
   18
 10
2074.2795340000002
 20
1120.5738314999999
 11
2080.1928559999997
 21
1106.7885994999999
  0
LINE
  8
_0-0_LAYER001
  6
CONTINUOUS
 62
   18
 10
2101.8499979999997
 20
1132.4004754999999
 11
2080.1928559999997
 21
1106.7885994999999
  0
LINE
  8
_0-0_LAYER001
  6
CONTINUOUS
 62
   18
 10
1826.9516629999998
 20
992.21751049999989
 11
1854.5221270000002
 21
1004.0441544999999
  0
LINE
  8
_0-0_LAYER001
  6
CONTINUOUS
 62
   18
 10
1854.5221270000002
 20
1004.0441544999999
 11
1848.6088039999995
 21
1017.8293865000001
  0
LINE
  8
_0-0_LAYER001
  6
CONTINUOUS
 62
   18
 10
1848.6088039999995
 20
1017.8293865000001
 11
1821.0383400000001
 21
1006.0027424999998
  0
LINE
  8
_0-0_LAYER001
  6
CONTINUOUS
 62
   18
 10
1821.0383400000001
 20
1006.0027424999998
 11
1826.9516629999998
 21
992.21751049999989
  0
LINE
  8
_0-0_LAYER001
  6
CONTINUOUS
 62
   18
 10
1848.6088039999995
 20
1017.8293865000001
 11
1826.9516629999998
 21
992.21751049999989
  0
LINE
  8
_0-0_LAYER001
  6
CONTINUOUS
 62
   18
 10
874.52889000000005
 20
1106.7885994999999
 11
846.95842600000014
 21
1118.6152434999999
  0
LINE
  8
_0-0_LAYER001
  6
CONTINUOUS
 62
   18
 10
846.95842600000014
 20
1118.6152434999999
 11
852.87174800000003
 21
1132.4004754999999
  0
LINE
  8
_0-0_LAYER001
  6
CONTINUOUS
 62
   18
 10
852.87174800000003
 20
1132.4004754999999
 11
880.44221199999993
 21
1120.5738314999999
  0
LINE
  8
_0-0_LAYER001
  6
CONTINUOUS
 62
   18
 10
880.44221199999993
 20
1120.5738314999999
 11
874.52889000000005
 21
1106.7885994999999
  0
LINE
  8
_0-0_LAYER001
  6
CONTINUOUS
 62
   18
 10
852.87174800000003
 20
1132.4004754999999
 11
874.52889000000005
 21
1106.7885994999999
  0
LINE
  8
_0-0_LAYER001
  6
CONTINUOUS
 62
   18
 10
1127.7700829999999
 20
992.21751049999989
 11
1100.199619
 21
1004.0441544999999
  0
LINE
  8
_0-0_LAYER001
  6
CONTINUOUS
 62
   18
 10
1100.199619
 20
1004.0441544999999
 11
1106.1129409999999
 21
1017.8293865000001
  0
LINE
  8
_0-0_LAYER001
  6
CONTINUOUS
 62
   18
 10
1106.1129409999999
 20
1017.8293865000001
 11
1133.6834049999998
 21
1006.0027424999998
  0
LINE
  8
_0-0_LAYER001
  6
CONTINUOUS
 62
   18
 10
1133.6834049999998
 20
1006.0027424999998
 11
1127.7700829999999
 21
992.21751049999989
  0
LINE
  8
_0-0_LAYER001
  6
CONTINUOUS
 62
   18
 10
1106.1129409999999
 20
1017.8293865000001
 11
1127.7700829999999
 21
992.21751049999989
  0
LINE
  8
_0-0_LAYER001
  6
CONTINUOUS
 62
   18
 10
1318.7385669999999
 20
950.92390649999993
 11
1358.710986
 21
932.9364855
  0
LINE
  8
_0-0_LAYER001
  6
CONTINUOUS
 62
   18
 10
1320.955618
 20
948.28136649999988
 11
1304.0968849999999
 21
910.81785349999996
  0
LINE
  8
_0-0_LAYER001
  6
CONTINUOUS
 62
   18
 10
1340.572592
 20
894.40377749999993
 11
1357.4312749999999
 21
931.86747349999996
  0
LINE
  8
_0-0_LAYER001
  6
CONTINUOUS
 62
   18
 10
1320.955618
 20
948.28136649999988
 11
1357.4312749999999
 21
931.86747349999996
  0
LINE
  8
_0-0_LAYER001
  6
CONTINUOUS
 62
   18
 10
1358.710986
 20
887.88637549999999
 11
1477.3608730000001
 21
834.49390249999988
  0
LINE
  8
_0-0_LAYER001
  6
CONTINUOUS
 62
   18
 10
1358.710986
 20
932.9364855
 11
1358.710986
 21
887.88637549999999
  0
LINE
  8
_0-0_LAYER001
  6
CONTINUOUS
 62
   18
 10
1357.4312749999999
 20
931.86747349999996
 11
1304.0968849999999
 21
910.81785349999996
  0
LINE
  8
_0-0_LAYER001
  6
CONTINUOUS
 62
   18
 10
1320.955618
 20
948.28136649999988
 11
1340.572592
 21
894.40377749999993
  0
LINE
  8
_0-0_LAYER001
  6
CONTINUOUS
 62
   18
 10
1635.9831779999995
 20
950.92390649999993
 11
1596.0107589999998
 21
932.9364855
  0
LINE
  8
_0-0_LAYER001
  6
CONTINUOUS
 62
   18
 10
1633.7661269999999
 20
948.28136649999988
 11
1650.6248599999999
 21
910.81785349999996
  0
LINE
  8
_0-0_LAYER001
  6
CONTINUOUS
 62
   18
 10
1614.1491530000003
 20
894.40377749999993
 11
1597.2904699999999
 21
931.86747349999996
  0
LINE
  8
_0-0_LAYER001
  6
CONTINUOUS
 62
   18
 10
1633.7661269999999
 20
948.28136649999988
 11
1597.2904699999999
 21
931.86747349999996
  0
LINE
  8
_0-0_LAYER001
  6
CONTINUOUS
 62
   18
 10
1597.2904699999999
 20
931.86747349999996
 11
1650.6248599999999
 21
910.81785349999996
  0
LINE
  8
_0-0_LAYER001
  6
CONTINUOUS
 62
   18
 10
1633.7661269999999
 20
948.28136649999988
 11
1614.1491530000003
 21
894.40377749999993
  0
LINE
  8
_0-0_LAYER001
  6
CONTINUOUS
 62
   18
 10
1596.0107589999998
 20
887.88637549999999
 11
1477.3608730000001
 21
834.49390249999988
  0
LINE
  8
_0-0_LAYER001
  6
CONTINUOUS
 62
   18
 10
1596.0107589999998
 20
932.9364855
 11
1596.0107589999998
 21
887.88637549999999
  0
LINE
  8
_0-0_LAYER001
  6
CONTINUOUS
 62
   18
 10
1318.7385669999999
 20
950.92390649999993
 11
1328.6518809999998
 21
948.6594184999999
  0
LINE
  8
_0-0_LAYER001
  6
CONTINUOUS
 62
   18
 10
1635.9831779999995
 20
950.92390649999993
 11
1626.0698649999995
 21
948.6594184999999
  0
LINE
  8
_0-0_LAYER001
  6
CONTINUOUS
 62
   18
 10
1609.0984269999999
 20
930.26056349999999
 11
1605.3484269999999
 21
923.76537249999978
  0
LINE
  8
_0-0_LAYER001
  6
CONTINUOUS
 62
   18
 10
1605.3484269999999
 20
923.76537249999978
 11
1605.3484269999999
 21
931.26537249999978
  0
LINE
  8
_0-0_LAYER001
  6
CONTINUOUS
 62
   18
 10
1605.3484269999999
 20
923.76537249999978
 11
1642.7739389999997
 21
1063.4392865
  0
LINE
  8
_0-0_LAYER001
  6
CONTINUOUS
 62
   18
 10
1642.7739389999997
 20
1063.4392865
 11
1776.1722749999999
 21
1063.4392865
  0
LINE
  8
_0-0_LAYER001
  6
CONTINUOUS
 62
   18
 10
1938.2880869999999
 20
1096.0307885
 11
1940.2292299999999
 21
1088.7863445
  0
LINE
  8
_0-0_LAYER001
  6
CONTINUOUS
 62
   18
 10
1940.2292299999999
 20
1088.7863445
 11
1934.925929
 21
1094.0896455
  0
LINE
  8
_0-0_LAYER001
  6
CONTINUOUS
 62
   18
 10
1940.2292299999999
 20
1088.7863445
 11
1881.7510199999997
 21
1190.0735755000001
  0
LINE
  8
_0-0_LAYER001
  6
CONTINUOUS
 62
   18
 10
1881.7510199999997
 20
1190.0735755000001
 11
1841.2510199999997
 21
1190.0735755000001
  0
LINE
  8
_0-0_LAYER001
  6
CONTINUOUS
 62
   18
 10
1913.5341349999999
 20
713.87266849999992
 11
1978.1692729999995
 21
713.87266849999992
  0
LINE
  8
_0-0_LAYER001
  6
CONTINUOUS
 62
   18
 10
1906.3609539999998
 20
743.73924249999982
 11
2127.3015820000001
 21
743.73924249999982
  0
LINE
  8
_0-0_LAYER001
  6
CONTINUOUS
 62
   18
 10
1896.8178619999999
 20
773.83456449999994
 11
2138.4312199999995
 21
773.83456449999994
  0
LINE
  8
_0-0_LAYER001
  6
CONTINUOUS
 62
   18
 10
1835.9262950000002
 20
996.00907149999989
 11
1835.9262950000002
 21
1003.5090714999999
  0
LINE
  8
_0-0_LAYER001
  6
CONTINUOUS
 62
   18
 10
1835.9262950000002
 20
1003.5090714999999
 11
1839.6762950000002
 21
997.01388049999991
  0
LINE
  8
_0-0_LAYER001
  6
CONTINUOUS
 62
   18
 10
1835.9262950000002
 20
1003.5090714999999
 11
1913.5341349999999
 21
713.87266849999992
  0
LINE
  8
_0-0_LAYER001
  6
CONTINUOUS
 62
   18
 10
1889.4340229999998
 20
803.81551250000007
 11
2094.2567360000003
 21
803.81551250000007
  0
TEXT
  8
_0-0_LAYER001
 62
    7
 10
1913.5341349999994
 20
716.3726685000006
 40
20
 41
1
 50
0
  1
　垂木
  0
TEXT
  8
_0-0_LAYER001
 62
    7
 10
1906.3609539999993
 20
746.23924250000073
 40
20
 41
1
 50
0
  1
　野地板：耐水合板ｔ＝１２
  0
TEXT
  8
_0-0_LAYER001
 62
    7
 10
1841.454329248043
 20
1192.5179712125157
 40
20
 41
1
 50
0
  1
桟　瓦
  0
TEXT
  8
_0-0_LAYER001
 62
    7
 10
1888.4345170275071
 20
806.84340641831363
 40
20
 41
1
 50
0
  1
　瓦桟：１５ｘ３０以上
  0
TEXT
  8
_0-0_LAYER001
 62
    7
 10
1107.252324880611
 20
1117.1311582640742
 40
20
 41
1
 50
0
  1
谷樋カラー鋼板0.35ｍｍ以上
  0
TEXT
  8
_0-0_LAYER001
 62
    7
 10
1563.4299364927242
 20
1145.9101217943796
 40
20
 41
1
 50
24.227692999999988
  1
280
  0
TEXT
  8
_0-0_LAYER001
 62
    7
 10
1807.5378699778391
 20
1281.9397335837957
 40
20
 41
1
 50
24.227693000000002
  1
280
  0
TEXT
  8
_0-0_LAYER001
 62
    7
 10
2046.0555454442124
 20
1412.3790873544676
 40
20
 41
1
 50
24.227692999999942
  1
280
  0
TEXT
  8
_0-0_LAYER001
 62
    7
 10
1740.4547737529222
 20
1160.8174765110275
 40
20
 41
1
 50
24.227693000000034
  1
60
  0
TEXT
  8
_0-0_LAYER001
 62
    7
 10
1617.4690973405741
 20
1106.7783156631781
 40
20
 41
1
 50
24.227693000000013
  1
205
  0
TEXT
  8
_0-0_LAYER001
 62
    7
 10
1496.3468402678072
 20
1056.46599349449
 40
20
 41
1
 50
24.227693000000002
  1
75
  0
TEXT
  8
_0-0_LAYER001
 62
    7
 10
1479.5760662115772
 20
983.79263925082967
 40
20
 41
1
 50
24.227546
  1
150
  0
TEXT
  8
_0-0_LAYER001
 62
    7
 10
1261.556003480596
 20
745.27496378445767
 40
20
 41
1
 50
-24.227755000000005
  1
300
  0
TEXT
  8
_0-0_LAYER001
 62
    7
 10
1669.6448388488429
 20
737.82128642613259
 40
20
 41
1
 50
24.227755000000005
  1
300
  0
TEXT
  8
_0-0_LAYER001
 62
    7
 10
1316.3468709572458
 20
724.92778530033638
 40
20
 41
1
 50
0
  1
この範囲ルーフィング２枚葺き
  0
TEXT
  8
_0-0_LAYER001
 62
    7
 10
1642.7739389999997
 20
1065.9392865000004
 40
20
 41
1
 50
0
  1
桟木：40x40
  0
TEXT
  8
_0-0_LAYER001
 62
    7
 10
1896.8178619999992
 20
776.33456450000062
 40
20
 41
1
 50
0
  1
　下葺材：ルーフィング
  0
ENDSEC
  0
EOF
