  0
SECTION
  2
HEADER
  9
$ACADVER
  1
AC1009
  9
$INSBASE
 10
0
 20
0
 30
0
  9
$EXTMIN
 10
0
 20
0
  9
$EXTMAX
 10
2970
 20
2100
  9
$LIMMIN
 10
0
 20
0
  9
$LIMMAX
 10
2970
 20
2100
  9
$LTSCALE
 40
10
  0
ENDSEC
  0
SECTION
  2
TABLES
  0
TABLE
  2
LTYPE
 70
     9
  0
LTYPE
  2
CONTINUOUS
 70
    64
  3
実線
 72
    65
 73
     0
 40
0.0
  0
LTYPE
  2
DASHED1
 70
    64
  3
--  --  --  --  --  --  --  --  
 72
    65
 73
     2
 40
2.5
 49
1.25
 49
-1.25
  0
LTYPE
  2
DASHED2
 70
    64
  3
----    ----    ----    ----    
 72
    65
 73
     2
 40
5.0
 49
2.5
 49
-2.5
  0
LTYPE
  2
DASHED3
 70
    64
  3
------  ------  ------  ------  
 72
    65
 73
     2
 40
5.0
 49
3.75
 49
-1.25
  0
LTYPE
  2
CENTER1
 70
    64
  3
----- - ----- - ----- - ----- - 
 72
    65
 73
     4
 40
10.0
 49
6.25
 49
-1.25
 49
1.25
 49
-1.25
  0
LTYPE
  2
CENTER2
 70
    64
  3
----------  --  ----------  --  
 72
    65
 73
     4
 40
20.0
 49
12.5
 49
-2.5
 49
2.5
 49
-2.5
  0
LTYPE
  2
PHANTOM1
 70
    64
  3
--- - - --- - - --- - - --- - - 
 72
    65
 73
     6
 40
10.0
 49
3.25
 49
-1.25
 49
1.25
 49
-1.25
 49
1.25
 49
-1.25
  0
LTYPE
  2
PHANTOM2
 70
    64
  3
--------  -  -  --------  -  -  
 72
    65
 73
     6
 40
20.0
 49
10.0
 49
-2.5
 49
1.25
 49
-2.5
 49
1.25
 49
-2.5
  0
LTYPE
  2
DOT
 70
    64
  3
-   -   -   -   -   -   -   -   
 72
    65
 73
     2
 40
2.5
 49
0.625
 49
-1.875
  0
LTYPE
  2
DUMMY
 70
    64
  3
ダミー
 72
    65
 73
     0
 40
0.0
  0
LTYPE
  2
RAND1
 70
    64
  3
ランダム線1
 72
    65
 73
     4
 40
10.0
 49
1.0
 49
-2.0
 49
3.0
 49
-4.0
  0
LTYPE
  2
RAND2
 70
    64
  3
ランダム線2
 72
    65
 73
     4
 40
14.0
 49
2.0
 49
-3.0
 49
4.0
 49
-5.0
  0
LTYPE
  2
RAND3
 70
    64
  3
ランダム線3
 72
    65
 73
     4
 40
18.0
 49
3.0
 49
-4.0
 49
5.0
 49
-6.0
  0
LTYPE
  2
RAND4
 70
    64
  3
ランダム線4
 72
    65
 73
     4
 40
22.0
 49
4.0
 49
-5.0
 49
6.0
 49
-7.0
  0
LTYPE
  2
RAND5
 70
    64
  3
ランダム線5
 72
    65
 73
     4
 40
26.0
 49
5.0
 49
-6.0
 49
7.0
 49
-8.0
  0
LTYPE
  2
LONG1
 70
    64
  3
----------  --  ----------  --  
 72
    65
 73
     4
 40
40.0
 49
32.5
 49
-2.5
 49
2.5
 49
-2.5
  0
LTYPE
  2
LONG2
 70
    64
  3
--------  -  -  --------  -  -  
 72
    65
 73
     6
 40
40.0
 49
30.0
 49
-2.5
 49
1.25
 49
-2.5
 49
1.25
 49
-2.5
  0
LTYPE
  2
LONG3
 70
    64
  3
+++++++++++++++..+++++++++++++++
 72
    65
 73
     2
 40
40.0
 49
37.5
 49
-2.5
  0
LTYPE
  2
LONG4
 70
    64
  3
+++++++++++++++..+++++++++++++++
 72
    65
 73
     2
 40
80.0
 49
75.0
 49
-5.0
  0
LTYPE
  2
LONG5
 70
    64
  3
----------  --  ----------  --  
 72
    65
 73
     4
 40
60.0
 49
37.5
 49
-7.5
 49
7.5
 49
-7.5
  0
LTYPE
  2
dashed
 70
   64
  3
-------   -------------   ------
 72
   65
 73
    2
 40
7.5
 49
6
 49
-1.5
  0
LTYPE
  2
dashed_spaced
 70
   64
  3
----        --------        ----
 72
   65
 73
    2
 40
12
 49
6
 49
-6
  0
LTYPE
  2
long_dashed_dotted
 70
   64
  3
------------- --- --------------
 72
   65
 73
    4
 40
15.25
 49
12
 49
-1.5
 49
0.25
 49
-1.5
  0
LTYPE
  2
long_dashed_double-dotted
 70
   64
  3
----------- --- --- ------------
 72
   65
 73
    6
 40
17
 49
12
 49
-1.5
 49
0.25
 49
-1.5
 49
0.25
 49
-1.5
  0
LTYPE
  2
long_dashed_triplicate-dotted
 70
   64
  3
--------- --- --- --- ----------
 72
   65
 73
    8
 40
18.75
 49
12
 49
-1.5
 49
0.25
 49
-1.5
 49
0.25
 49
-1.5
 49
0.25
 49
-1.5
  0
LTYPE
  2
dotted
 70
   64
  3
   -       -       -       -    
 72
   65
 73
    2
 40
1.75
 49
0.25
 49
-1.5
  0
LTYPE
  2
chain
 70
   64
  3
-------------- -- --------------
 72
   65
 73
    4
 40
18.5
 49
12
 49
-1.5
 49
3.5
 49
-1.5
  0
LTYPE
  2
chain_double_dash
 70
   64
  3
------------ -- -- -------------
 72
   65
 73
    6
 40
23.5
 49
12
 49
-1.5
 49
3.5
 49
-1.5
 49
3.5
 49
-1.5
  0
LTYPE
  2
dashed_dotted
 70
   64
  3
-----------     -     ----------
 72
   65
 73
    4
 40
9.25
 49
6
 49
-1.5
 49
0.25
 49
-1.5
  0
LTYPE
  2
double-dashed_dotted
 70
   64
  3
------   -----------   -   -----
 72
   65
 73
    6
 40
16.75
 49
6
 49
-1.5
 49
6
 49
-1.5
 49
0.25
 49
-1.5
  0
LTYPE
  2
dashed_double-dotted
 70
   64
  3
---------    -    -    ---------
 72
   65
 73
    6
 40
11
 49
6
 49
-1.5
 49
0.25
 49
-1.5
 49
0.25
 49
-1.5
  0
LTYPE
  2
double-dashed_double-dotted
 70
   64
  3
-----   ---------   -   -   ----
 72
   65
 73
    8
 40
18.5
 49
6
 49
-1.5
 49
6
 49
-1.5
 49
0.25
 49
-1.5
 49
0.25
 49
-1.5
  0
LTYPE
  2
dashed_triplicate-dotted
 70
   64
  3
-------    -    -    -    ------
 72
   65
 73
    8
 40
12.75
 49
6
 49
-1.5
 49
0.25
 49
-1.5
 49
0.25
 49
-1.5
 49
0.25
 49
-1.5
  0
LTYPE
  2
double-dashed_triplicate-dotted
 70
   64
  3
-----  ---------  -  -  -  -----
 72
   65
 73
   10
 40
20.25
 49
6
 49
-1.5
 49
6
 49
-1.5
 49
0.25
 49
-1.5
 49
0.25
 49
-1.5
 49
0.25
 49
-1.5
  0
LTYPE
  2
undefined
 70
   64
  3
--------------------------------
 72
   65
 73
    0
 40
0
  0
LTYPE
  2
HIDDEN
 70
   64
  3
----        --------        ----
 72
   65
 73
    2
 40
10
 49
5
 49
-5
  0
LTYPE
  2
DASHED
 70
   64
  3
-------   -------------   ------
 72
   65
 73
    2
 40
50
 49
40
 49
-10
  0
LTYPE
  2
CENTER
 70
   64
  3
------------   ---   -----------
 72
   65
 73
    4
 40
100
 49
70
 49
-10
 49
10
 49
-10
  0
LTYPE
  2
PHANTOM
 70
   64
  3
---------   ---   ---   --------
 72
   65
 73
    6
 40
100
 49
50
 49
-10
 49
10
 49
-10
 49
10
 49
-10
  0
ENDTAB
  0
TABLE
  2
STYLE
  5
3
100
AcDbSymbolTable
 70
     1
  0
STYLE
  5
10
100
AcDbSymbolTableRecord
100
AcDbTextStyleTableRecord
  2
STANDARD
 70
     0
 40
0.0
 41
1.0
 50
0.0
 71
     0
 42
0.2
  3
txt
  4
bigfont.shx
  0
STYLE
  5
26
100
AcDbSymbolTableRecord
100
AcDbTextStyleTableRecord
  2
TATEGAKI
 70
    68
 40
0.0
 41
1.0
 50
0.0
 71
     0
 42
1.0
  3
txt
  4
bigfont.shx
  0
ENDTAB
  0
TABLE
  2
LAYER
 70
    2
  0
LAYER
  2
_0-0_LAYER001
 70
   64
 62
    7
  6
CONTINUOUS
  0
LAYER
  2
ADD_LINE
 70
   64
 62
    7
  6
CONTINUOUS
  0
ENDTAB
  0
ENDSEC
  0
SECTION
  2
BLOCKS
  0
ENDSEC
  0
SECTION
  2
ENTITIES
  0
LINE
  8
_0-0_LAYER001
  6
CONTINUOUS
 62
    3
 10
1091.744455
 20
777.66458349999994
 11
1173.8174549999999
 21
814.59758349999993
  0
LINE
  8
_0-0_LAYER001
  6
CONTINUOUS
 62
    3
 10
1105.4021869999999
 20
783.8108514999999
 11
1149.332455
 21
686.24458349999986
  0
LINE
  8
_0-0_LAYER001
  6
CONTINUOUS
 62
    3
 10
1149.332455
 20
686.24458349999986
 11
1171.2184549999999
 21
696.09358350000002
  0
LINE
  8
_0-0_LAYER001
  6
CONTINUOUS
 62
    3
 10
1171.2184549999999
 20
696.09358350000002
 11
1127.3094549999998
 21
793.66958350000004
  0
LINE
  8
_0-0_LAYER001
  6
CONTINUOUS
 62
    4
 10
1244.5176709999998
 20
943.75314750000007
 11
1250.1216319999999
 21
945.52341650000017
  0
ARC
  8
_0-0_LAYER001
  6
CONTINUOUS
 62
    4
 10
1266.9064099999998
 20
947.23694650000016
 40
16.872017
 50
103.35714900000002
 51
185.82903500000003
  0
LINE
  8
_0-0_LAYER001
  6
CONTINUOUS
 62
    4
 10
1268.5525699999998
 20
947.05146049999985
 11
1574.7270639999999
 21
1043.7707665000003
  0
LINE
  8
_0-0_LAYER001
  6
CONTINUOUS
 62
    4
 10
1568.6480879999999
 20
1063.0143634999999
 11
1545.2631040000001
 21
1055.6271405000002
  0
LINE
  8
_0-0_LAYER001
  6
CONTINUOUS
 62
    4
 10
1263.0086309999999
 20
963.65255750000006
 11
1542.8537860000001
 21
1052.0545305000001
  0
ARC
  8
_0-0_LAYER001
  6
CONTINUOUS
 62
    4
 10
1548.4845539999997
 20
1050.5745625
 40
5.8220140000000011
 50
113.701938
 51
165.27368200000001
  0
LINE
  8
_0-0_LAYER001
  6
CONTINUOUS
 62
    4
 10
1244.5082769999999
 20
943.78288550000025
 11
1250.39138
 21
925.15934349999998
  0
ARC
  8
_0-0_LAYER001
  6
CONTINUOUS
 62
    4
 10
1272.4503479999998
 20
930.63584949999995
 40
16.872017
 50
103.35714900000002
 51
192.69455200000002
  0
LINE
  8
_0-0_LAYER001
  6
CONTINUOUS
 62
    4
 10
1575.8830189999999
 20
1024.6597035
 11
1574.1215139999999
 21
1030.2359225
  0
LINE
  8
_0-0_LAYER001
  6
CONTINUOUS
 62
    4
 10
1568.6480879999999
 20
1063.0143634999999
 11
1580.321277
 21
1026.0617315
  0
LINE
  8
_0-0_LAYER001
  6
CONTINUOUS
 62
    4
 10
1575.8830189999999
 20
1024.6597035
 11
1580.321277
 21
1026.0617315
  0
LINE
  8
_0-0_LAYER001
  6
CONTINUOUS
 62
    4
 10
1255.9907599999999
 20
926.92816549999998
 11
1250.39138
 21
925.15934349999998
  0
LINE
  8
_0-0_LAYER001
  6
CONTINUOUS
 62
    4
 10
1255.6202699999999
 20
929.62264450000021
 11
1574.1215139999999
 21
1030.2359225
  0
LINE
  8
_0-0_LAYER001
  6
CONTINUOUS
 62
    4
 10
1499.0384019999999
 20
1060.8622715000001
 11
1504.656837
 21
1062.5860514999999
  0
ARC
  8
_0-0_LAYER001
  6
CONTINUOUS
 62
    4
 10
1521.4552359999998
 20
1064.1604594999999
 40
16.872017
 50
102.88244700000001
 51
185.354333
  0
LINE
  8
_0-0_LAYER001
  6
CONTINUOUS
 62
    4
 10
1523.0998019999997
 20
1063.9613414999999
 11
1830.0651089999999
 21
1158.1406655000001
  0
LINE
  8
_0-0_LAYER001
  6
CONTINUOUS
 62
    4
 10
1824.1457760000001
 20
1177.4339665000002
 11
1800.7003909999999
 21
1170.2407415000002
  0
LINE
  8
_0-0_LAYER001
  6
CONTINUOUS
 62
    4
 10
1517.6935939999998
 20
1080.6078004999999
 11
1798.2615570000003
 21
1166.6882165000002
  0
ARC
  8
_0-0_LAYER001
  6
CONTINUOUS
 62
    4
 10
1803.8798689999999
 20
1165.1616475000001
 40
5.8220140000000011
 50
113.22723600000002
 51
164.79898000000003
  0
LINE
  8
_0-0_LAYER001
  6
CONTINUOUS
 62
    4
 10
1499.0292549999999
 20
1060.8920865
 11
1504.7578579999999
 21
1042.2204415000001
  0
ARC
  8
_0-0_LAYER001
  6
CONTINUOUS
 62
    4
 10
1526.861443
 20
1047.5140004999998
 40
16.872017
 50
102.88244700000001
 51
192.21985000000001
  0
LINE
  8
_0-0_LAYER001
  6
CONTINUOUS
 62
    4
 10
1831.0626890000001
 20
1139.0206815000001
 11
1829.3474439999998
 21
1144.6113034999998
  0
LINE
  8
_0-0_LAYER001
  6
CONTINUOUS
 62
    4
 10
1824.1457760000001
 20
1177.4339665000002
 11
1835.5124109999999
 21
1140.3858905000002
  0
LINE
  8
_0-0_LAYER001
  6
CONTINUOUS
 62
    4
 10
1831.0626890000001
 20
1139.0206815000001
 11
1835.5124109999999
 21
1140.3858905000002
  0
LINE
  8
_0-0_LAYER001
  6
CONTINUOUS
 62
    4
 10
1510.371701
 20
1043.9428115000001
 11
1504.7578579999999
 21
1042.2204415000001
  0
LINE
  8
_0-0_LAYER001
  6
CONTINUOUS
 62
    4
 10
1510.0235479999997
 20
1046.6402685000003
 11
1829.3474439999998
 21
1144.6113034999998
  0
LINE
  8
_0-0_LAYER001
  6
CONTINUOUS
 62
    4
 10
1754.3572359999998
 20
1175.8070195
 11
1759.9756709999999
 21
1177.5307995000003
  0
ARC
  8
_0-0_LAYER001
  6
CONTINUOUS
 62
    4
 10
1776.7740699999999
 20
1179.1052085000001
 40
16.872017
 50
102.88244700000001
 51
185.354333
  0
LINE
  8
_0-0_LAYER001
  6
CONTINUOUS
 62
    4
 10
1778.4186359999999
 20
1178.9060895000002
 11
2085.3839429999998
 21
1273.0854144999998
  0
LINE
  8
_0-0_LAYER001
  6
CONTINUOUS
 62
    4
 10
2079.4646099999995
 20
1292.3787145000001
 11
2056.0192249999996
 21
1285.1854905
  0
LINE
  8
_0-0_LAYER001
  6
CONTINUOUS
 62
    4
 10
1773.012428
 20
1195.5525485000003
 11
2053.580391
 21
1281.6329645000001
  0
ARC
  8
_0-0_LAYER001
  6
CONTINUOUS
 62
    4
 10
2059.198703
 20
1280.1063955
 40
5.8220140000000011
 50
113.22723600000002
 51
164.79898000000003
  0
LINE
  8
_0-0_LAYER001
  6
CONTINUOUS
 62
    4
 10
1754.3480889999998
 20
1175.8368344999999
 11
1760.0766919999999
 21
1157.1651904999999
  0
ARC
  8
_0-0_LAYER001
  6
CONTINUOUS
 62
    4
 10
1782.1802769999999
 20
1162.4587495000001
 40
16.872017
 50
102.88244700000001
 51
192.21985000000001
  0
LINE
  8
_0-0_LAYER001
  6
CONTINUOUS
 62
    4
 10
2086.3815229999996
 20
1253.9654304999999
 11
2084.6662780000001
 21
1259.5560515000002
  0
LINE
  8
_0-0_LAYER001
  6
CONTINUOUS
 62
    4
 10
2079.4646099999995
 20
1292.3787145000001
 11
2090.8312449999999
 21
1255.3306385000001
  0
LINE
  8
_0-0_LAYER001
  6
CONTINUOUS
 62
    4
 10
2086.3815229999996
 20
1253.9654304999999
 11
2090.8312449999999
 21
1255.3306385000001
  0
LINE
  8
_0-0_LAYER001
  6
CONTINUOUS
 62
    4
 10
1765.690535
 20
1158.8875604999998
 11
1760.0766919999999
 21
1157.1651904999999
  0
LINE
  8
_0-0_LAYER001
  6
CONTINUOUS
 62
    4
 10
1765.3423819999998
 20
1161.5850165000002
 11
2084.6662780000001
 21
1259.5560515000002
  0
LINE
  8
_0-0_LAYER001
  6
CONTINUOUS
 62
    4
 10
2009.67607
 20
1290.7517685000003
 11
2015.2945049999998
 21
1292.4755475000002
  0
ARC
  8
_0-0_LAYER001
  6
CONTINUOUS
 62
    4
 10
2032.0929039999999
 20
1294.0499565
 40
16.872017
 50
102.88244700000001
 51
185.354333
  0
LINE
  8
_0-0_LAYER001
  6
CONTINUOUS
 62
    4
 10
2033.7374699999998
 20
1293.8508385
 11
2113.3071530000002
 21
1318.2634305000001
  0
LINE
  8
_0-0_LAYER001
  6
CONTINUOUS
 62
    4
 10
2028.3312619999997
 20
1310.4972975000001
 11
2105.629488
 21
1334.2129895000003
  0
LINE
  8
_0-0_LAYER001
  6
CONTINUOUS
 62
    4
 10
2009.666923
 20
1290.7815835000001
 11
2015.3955270000001
 21
1272.1099385000002
  0
ARC
  8
_0-0_LAYER001
  6
CONTINUOUS
 62
    4
 10
2037.4991109999999
 20
1277.4034975
 40
16.872017
 50
102.88244700000001
 51
192.21985000000001
  0
LINE
  8
_0-0_LAYER001
  6
CONTINUOUS
 62
    4
 10
2021.0093690000003
 20
1273.8323085000002
 11
2015.3955270000001
 21
1272.1099385000002
  0
LINE
  8
_0-0_LAYER001
  6
CONTINUOUS
 62
    4
 10
2020.6612159999997
 20
1276.5297654999999
 11
2118.8893820000003
 21
1306.6669245000003
  0
LINE
  8
_0-0_LAYER001
  6
CONTINUOUS
 62
    4
 10
991.276478
 20
829.18205850000004
 11
996.88043900000002
 21
830.95232750000014
  0
ARC
  8
_0-0_LAYER001
  6
CONTINUOUS
 62
    4
 10
1013.665217
 20
832.66585750000013
 40
16.872017
 50
103.35714900000002
 51
185.82903500000003
  0
LINE
  8
_0-0_LAYER001
  6
CONTINUOUS
 62
    4
 10
1015.3113769999999
 20
832.48037049999994
 11
1321.4858709999999
 21
929.19967750000023
  0
LINE
  8
_0-0_LAYER001
  6
CONTINUOUS
 62
    4
 10
1315.4068949999998
 20
948.44327449999992
 11
1292.0219109999998
 21
941.05605049999986
  0
LINE
  8
_0-0_LAYER001
  6
CONTINUOUS
 62
    4
 10
1009.7674379999999
 20
849.08146750000014
 11
1289.6125929999998
 21
937.48344150000003
  0
ARC
  8
_0-0_LAYER001
  6
CONTINUOUS
 62
    4
 10
1295.2433609999998
 20
936.00347250000004
 40
5.8220140000000011
 50
113.701938
 51
165.27368200000001
  0
LINE
  8
_0-0_LAYER001
  6
CONTINUOUS
 62
    4
 10
991.26708399999984
 20
829.21179549999988
 11
997.15018599999985
 21
810.58825350000006
  0
ARC
  8
_0-0_LAYER001
  6
CONTINUOUS
 62
    4
 10
1019.209155
 20
816.06476049999992
 40
16.872017
 50
103.35714900000002
 51
192.69455200000002
  0
LINE
  8
_0-0_LAYER001
  6
CONTINUOUS
 62
    4
 10
1322.641826
 20
910.08861449999995
 11
1320.8803209999999
 21
915.66483349999999
  0
LINE
  8
_0-0_LAYER001
  6
CONTINUOUS
 62
    4
 10
1315.4068949999998
 20
948.44327449999992
 11
1327.0800839999997
 21
911.49064249999992
  0
LINE
  8
_0-0_LAYER001
  6
CONTINUOUS
 62
    4
 10
1322.641826
 20
910.08861449999995
 11
1327.0800839999997
 21
911.49064249999992
  0
LINE
  8
_0-0_LAYER001
  6
CONTINUOUS
 62
    4
 10
1002.7495669999998
 20
812.35707550000006
 11
997.15018599999985
 21
810.58825350000006
  0
LINE
  8
_0-0_LAYER001
  6
CONTINUOUS
 62
    4
 10
1002.3790769999998
 20
815.05155550000018
 11
1320.8803209999999
 21
915.66483349999999
  0
LINE
  8
_0-0_LAYER001
  6
CONTINUOUS
 62
    3
 10
1083.5367539999997
 20
795.90357350000022
 11
1091.744455
 21
777.66458349999994
  0
LINE
  8
_0-0_LAYER001
  6
CONTINUOUS
 62
    3
 10
1173.817227
 20
814.59809050000013
 11
1165.6099299999998
 21
832.83651950000012
  0
LINE
  8
_0-0_LAYER001
  6
CONTINUOUS
 62
    3
 10
1165.6099299999998
 20
832.83651950000012
 11
1083.5367539999997
 21
795.90357350000022
  0
LINE
  8
_0-0_LAYER001
  6
CONTINUOUS
 62
    3
 10
1138.2520399999999
 20
820.52546350000011
 11
1123.4786789999998
 21
853.3545325
  0
LINE
  8
_0-0_LAYER001
  6
CONTINUOUS
 62
    3
 10
1101.775183
 20
804.11087050000015
 11
1087.0018219999999
 21
836.93993950000004
  0
LINE
  8
_0-0_LAYER001
  6
CONTINUOUS
 62
    3
 10
1087.0018219999999
 20
836.93993950000004
 11
1123.4786789999998
 21
853.3545325
  0
LINE
  8
_0-0_LAYER001
  6
CONTINUOUS
 62
   18
 10
1127.3094549999998
 20
793.66958350000004
 11
2147.2895710000003
 21
1252.6608435000003
  0
LINE
  8
_0-0_LAYER001
  6
CONTINUOUS
 62
   18
 10
1127.3094549999998
 20
793.66958350000004
 11
1151.931345
 21
738.95429749999994
  0
LINE
  8
_0-0_LAYER001
  6
CONTINUOUS
 62
   18
 10
1151.931345
 20
738.95429749999994
 11
1161.3694349999996
 21
717.97996950000015
  0
LINE
  8
_0-0_LAYER001
  6
CONTINUOUS
 62
   18
 10
1167.661216
 20
828.27666950000003
 11
2141.1341130000001
 21
1266.3396714999999
  0
LINE
  8
_0-0_LAYER001
  6
CONTINUOUS
 62
   18
 10
1145.456179
 20
694.85354050000012
 11
1152.5963419999998
 21
687.71337750000021
  0
LINE
  8
_0-0_LAYER001
  6
CONTINUOUS
 62
   18
 10
1136.7689009999999
 20
714.14742049999995
 11
1159.911171
 21
691.00515050000013
  0
LINE
  8
_0-0_LAYER001
  6
CONTINUOUS
 62
   18
 10
1128.081623
 20
733.44130050000012
 11
1167.225999
 21
694.29692350000005
  0
LINE
  8
_0-0_LAYER001
  6
CONTINUOUS
 62
   18
 10
1119.3943449999999
 20
752.73518049999984
 11
1167.2769079999998
 21
704.85261649999984
  0
LINE
  8
_0-0_LAYER001
  6
CONTINUOUS
 62
   18
 10
1110.7070659999999
 20
772.02906050000001
 11
1158.5988509999997
 21
724.13727550000021
  0
LINE
  8
_0-0_LAYER001
  6
CONTINUOUS
 62
   18
 10
1108.2504269999999
 20
785.09230149999985
 11
1149.920795
 21
743.42193350000025
  0
LINE
  8
_0-0_LAYER001
  6
CONTINUOUS
 62
   18
 10
1115.5653149999998
 20
788.38401449999992
 11
1141.2427379999999
 21
762.70659250000017
  0
LINE
  8
_0-0_LAYER001
  6
CONTINUOUS
 62
   18
 10
1122.8802039999998
 20
791.67572749999999
 11
1132.5646809999998
 21
781.99125050000021
  0
LINE
  8
_0-0_LAYER001
  6
CONTINUOUS
 62
   18
 10
1699.0844549999999
 20
985.1725835000002
 11
1706.4707509999998
 21
968.75860050000028
  0
LINE
  8
_0-0_LAYER001
  6
CONTINUOUS
 62
   18
 10
1733.73747
 20
1000.7664475000001
 11
1741.1237649999998
 21
984.35246450000022
  0
LINE
  8
_0-0_LAYER001
  6
CONTINUOUS
 62
   18
 10
1425.507734
 20
862.06296449999991
 11
1432.8940149999999
 21
845.64901349999991
  0
LINE
  8
_0-0_LAYER001
  6
CONTINUOUS
 62
   18
 10
1460.1607480000002
 20
877.65682849999985
 11
1467.5470289999998
 21
861.24287749999985
  0
LINE
  8
_0-0_LAYER001
  6
CONTINUOUS
 62
   18
 10
1186.584337
 20
754.54821149999998
 11
1193.970691
 21
738.13346950000005
  0
LINE
  8
_0-0_LAYER001
  6
CONTINUOUS
 62
   18
 10
1185.678418
 20
754.14048749999984
 11
1159.5238929999998
 21
722.63240350000024
  0
LINE
  8
_0-0_LAYER001
  6
CONTINUOUS
 62
   18
 10
1460.1607480000002
 20
877.65682849999985
 11
1432.8940149999999
 21
845.64901349999991
  0
LINE
  8
_0-0_LAYER001
  6
CONTINUOUS
 62
   18
 10
1733.73747
 20
1000.7664475000001
 11
1706.4707509999998
 21
968.75860050000028
  0
LINE
  8
_0-0_LAYER001
  6
CONTINUOUS
 62
   18
 10
937.56634399999984
 20
938.00646349999988
 11
959.11044599999991
 21
890.1305655000001
  0
CIRCLE
  8
_0-0_LAYER001
  6
CONTINUOUS
 62
   18
 10
938.59225299999991
 20
935.7266595000001
 40
1.7000000000000002
  0
LINE
  8
_0-0_LAYER001
  6
CONTINUOUS
 62
   18
 10
938.59225299999991
 20
935.7266595000001
 11
1193.9303789999999
 21
1050.6285375000002
  0
CIRCLE
  8
_0-0_LAYER001
  6
CONTINUOUS
 62
   18
 10
1193.9303789999999
 20
1050.6285375000002
 40
1.7000000000000002
  0
LINE
  8
_0-0_LAYER001
  6
CONTINUOUS
 62
   18
 10
1192.9044689999998
 20
1052.9083415
 11
1214.448572
 21
1005.0324435000002
  0
LINE
  8
_0-0_LAYER001
  6
CONTINUOUS
 62
   18
 10
1184.6971919999999
 20
1071.1467794999999
 11
1206.241295
 21
1023.2708805000002
  0
CIRCLE
  8
_0-0_LAYER001
  6
CONTINUOUS
 62
   18
 10
1185.7231019999999
 20
1068.8669745000002
 40
1.7000000000000002
  0
LINE
  8
_0-0_LAYER001
  6
CONTINUOUS
 62
   18
 10
1185.7231019999999
 20
1068.8669745000002
 11
1441.061228
 21
1183.7688524999999
  0
CIRCLE
  8
_0-0_LAYER001
  6
CONTINUOUS
 62
   18
 10
1441.061228
 20
1183.7688524999999
 40
1.7000000000000002
  0
LINE
  8
_0-0_LAYER001
  6
CONTINUOUS
 62
   18
 10
1440.035318
 20
1186.0486575
 11
1461.57942
 21
1138.1727595000002
  0
LINE
  8
_0-0_LAYER001
  6
CONTINUOUS
 62
   18
 10
1431.828041
 20
1204.2870954999999
 11
1453.3721429999996
 21
1156.4111965000002
  0
CIRCLE
  8
_0-0_LAYER001
  6
CONTINUOUS
 62
   18
 10
1432.8539509999998
 20
1202.0072905000002
 40
1.7000000000000002
  0
LINE
  8
_0-0_LAYER001
  6
CONTINUOUS
 62
   18
 10
1432.8539509999998
 20
1202.0072905000002
 11
1688.1920759999998
 21
1316.9091684999999
  0
CIRCLE
  8
_0-0_LAYER001
  6
CONTINUOUS
 62
   18
 10
1688.1920759999998
 20
1316.9091684999999
 40
1.7000000000000002
  0
LINE
  8
_0-0_LAYER001
  6
CONTINUOUS
 62
   18
 10
1687.1661669999999
 20
1319.1889735
 11
1708.7102690000002
 21
1271.3130744999999
  0
LINE
  8
_0-0_LAYER001
  6
CONTINUOUS
 62
   18
 10
1678.9588899999999
 20
1337.4274105
 11
1700.5029919999997
 21
1289.5515125000002
  0
CIRCLE
  8
_0-0_LAYER001
  6
CONTINUOUS
 62
   18
 10
1679.9847989999998
 20
1335.1476065000002
 40
1.7000000000000002
  0
LINE
  8
_0-0_LAYER001
  6
CONTINUOUS
 62
   18
 10
1679.9847989999998
 20
1335.1476065000002
 11
1935.3229249999999
 21
1450.0494844999998
  0
CIRCLE
  8
_0-0_LAYER001
  6
CONTINUOUS
 62
   18
 10
1935.3229249999999
 20
1450.0494844999998
 40
1.7000000000000002
  0
LINE
  8
_0-0_LAYER001
  6
CONTINUOUS
 62
   18
 10
1934.2970149999999
 20
1452.3292885000001
 11
1955.8411180000003
 21
1404.4533904999998
  0
LINE
  8
_0-0_LAYER001
  6
CONTINUOUS
 62
   18
 10
1926.0897380000001
 20
1470.5677264999999
 11
1947.6338409999998
 21
1422.6918275000003
  0
CIRCLE
  8
_0-0_LAYER001
  6
CONTINUOUS
 62
   18
 10
1927.1156479999995
 20
1468.2879215000003
 40
1.7000000000000002
  0
LINE
  8
_0-0_LAYER001
  6
CONTINUOUS
 62
   18
 10
1927.1156479999995
 20
1468.2879215000003
 11
2020.7967329999999
 21
1510.4443074999999
  0
LINE
  8
_0-0_LAYER001
  6
CONTINUOUS
 62
   18
 10
959.99400100000003
 20
888.16710450000028
 11
971.27900699999987
 21
863.08925249999993
  0
CIRCLE
  8
_0-0_LAYER001
  6
CONTINUOUS
 62
   18
 10
961.01991099999987
 20
885.88729950000015
 40
1.7000000000000002
  0
LINE
  8
_0-0_LAYER001
  6
CONTINUOUS
 62
   18
 10
961.01991099999987
 20
885.88729950000015
 11
1029.4144509999999
 21
916.66476850000026
  0
CIRCLE
  8
_0-0_LAYER001
  6
CONTINUOUS
 62
   18
 10
1029.4144509999999
 20
916.66476850000026
 40
1.7000000000000002
  0
LINE
  8
_0-0_LAYER001
  6
CONTINUOUS
 62
   18
 10
1028.3885419999999
 20
918.94457250000005
 11
1039.673548
 21
893.86672150000004
  0
CIRCLE
  8
_0-0_LAYER001
  6
CONTINUOUS
 62
   18
 10
1029.4144509999999
 20
916.66476850000026
 40
1.7000000000000002
  0
LINE
  8
_0-0_LAYER001
  6
CONTINUOUS
 62
   18
 10
1029.4144509999999
 20
916.66476850000026
 11
1216.358037
 21
1000.7891775000003
  0
CIRCLE
  8
_0-0_LAYER001
  6
CONTINUOUS
 62
   18
 10
1216.358037
 20
1000.7891775000003
 40
1.7000000000000002
  0
LINE
  8
_0-0_LAYER001
  6
CONTINUOUS
 62
   18
 10
1215.3321269999999
 20
1003.0689824999999
 11
1226.617133
 21
977.99113050000005
  0
CIRCLE
  8
_0-0_LAYER001
  6
CONTINUOUS
 62
   18
 10
1216.358037
 20
1000.7891775000003
 40
1.7000000000000002
  0
LINE
  8
_0-0_LAYER001
  6
CONTINUOUS
 62
   18
 10
1216.358037
 20
1000.7891775000003
 11
1271.073349
 21
1025.4110085000002
  0
CIRCLE
  8
_0-0_LAYER001
  6
CONTINUOUS
 62
   18
 10
1271.073349
 20
1025.4110085000002
 40
1.7000000000000002
  0
LINE
  8
_0-0_LAYER001
  6
CONTINUOUS
 62
   18
 10
1270.0474399999998
 20
1027.6908134999999
 11
1281.332445
 21
1002.6129615
  0
LINE
  8
_0-0_LAYER001
  6
CONTINUOUS
 62
   18
 10
1551.5234679999999
 20
1003.7976834999999
 11
1579.0939320000002
 21
1015.6243275000002
  0
LINE
  8
_0-0_LAYER001
  6
CONTINUOUS
 62
   18
 10
1579.0939320000002
 20
1015.6243275000002
 11
1573.1806099999999
 21
1029.4095594999999
  0
LINE
  8
_0-0_LAYER001
  6
CONTINUOUS
 62
   18
 10
1573.1806099999999
 20
1029.4095594999999
 11
1545.610146
 21
1017.5829155000001
  0
LINE
  8
_0-0_LAYER001
  6
CONTINUOUS
 62
   18
 10
1545.610146
 20
1017.5829155000001
 11
1551.5234679999999
 21
1003.7976834999999
  0
LINE
  8
_0-0_LAYER001
  6
CONTINUOUS
 62
   18
 10
1573.1806099999999
 20
1029.4095594999999
 11
1551.5234679999999
 21
1003.7976834999999
  0
LINE
  8
_0-0_LAYER001
  6
CONTINUOUS
 62
   18
 10
1806.5311319999998
 20
1118.3611965
 11
1834.1986329999997
 21
1129.9590134999999
  0
LINE
  8
_0-0_LAYER001
  6
CONTINUOUS
 62
   18
 10
1834.1986329999997
 20
1129.9590134999999
 11
1828.3997249999998
 21
1143.7927635000001
  0
LINE
  8
_0-0_LAYER001
  6
CONTINUOUS
 62
   18
 10
1828.3997249999998
 20
1143.7927635000001
 11
1800.7322239999999
 21
1132.1949475000001
  0
LINE
  8
_0-0_LAYER001
  6
CONTINUOUS
 62
   18
 10
1800.7322239999999
 20
1132.1949475000001
 11
1806.5311319999998
 21
1118.3611965
  0
LINE
  8
_0-0_LAYER001
  6
CONTINUOUS
 62
   18
 10
1828.3997249999998
 20
1143.7927635000001
 11
1806.5311319999998
 21
1118.3611965
  0
LINE
  8
_0-0_LAYER001
  6
CONTINUOUS
 62
   18
 10
2061.8499660000002
 20
1233.3059444999999
 11
2089.5174679999996
 21
1244.9037615000002
  0
LINE
  8
_0-0_LAYER001
  6
CONTINUOUS
 62
   18
 10
2089.5174679999996
 20
1244.9037615000002
 11
2083.7185589999999
 21
1258.7375124999999
  0
LINE
  8
_0-0_LAYER001
  6
CONTINUOUS
 62
   18
 10
2083.7185589999999
 20
1258.7375124999999
 11
2056.051058
 21
1247.1396955
  0
LINE
  8
_0-0_LAYER001
  6
CONTINUOUS
 62
   18
 10
2056.051058
 20
1247.1396955
 11
2061.8499660000002
 21
1233.3059444999999
  0
LINE
  8
_0-0_LAYER001
  6
CONTINUOUS
 62
   18
 10
2083.7185589999999
 20
1258.7375124999999
 11
2061.8499660000002
 21
1233.3059444999999
  0
LINE
  8
_0-0_LAYER001
  6
CONTINUOUS
 62
   18
 10
1298.282275
 20
889.22659449999992
 11
1325.8527389999999
 21
901.05323850000013
  0
LINE
  8
_0-0_LAYER001
  6
CONTINUOUS
 62
   18
 10
1325.8527389999999
 20
901.05323850000013
 11
1319.939417
 21
914.83847049999986
  0
LINE
  8
_0-0_LAYER001
  6
CONTINUOUS
 62
   18
 10
1319.939417
 20
914.83847049999986
 11
1292.3689529999999
 21
903.0118265000001
  0
LINE
  8
_0-0_LAYER001
  6
CONTINUOUS
 62
   18
 10
1292.3689529999999
 20
903.0118265000001
 11
1298.282275
 21
889.22659449999992
  0
LINE
  8
_0-0_LAYER001
  6
CONTINUOUS
 62
   18
 10
1319.939417
 20
914.83847049999986
 11
1298.282275
 21
889.22659449999992
  0
LINE
  8
_0-0_LAYER001
  6
CONTINUOUS
 62
   18
 10
1173.817227
 20
814.59809050000013
 11
1165.6099299999998
 21
832.83651950000012
  0
LINE
  8
_0-0_LAYER001
  6
CONTINUOUS
 62
   18
 10
1156.5805219999997
 20
806.84093250000024
 11
1170.875084
 21
821.13549450000028
  0
LINE
  8
_0-0_LAYER001
  6
CONTINUOUS
 62
   18
 10
1137.2957269999999
 20
798.16273950000004
 11
1167.3812559999999
 21
828.24826849999999
  0
LINE
  8
_0-0_LAYER001
  6
CONTINUOUS
 62
   18
 10
1118.010933
 20
789.48454649999985
 11
1155.5771459999999
 21
827.05075949999991
  0
LINE
  8
_0-0_LAYER001
  6
CONTINUOUS
 62
   18
 10
1098.726138
 20
780.80635350000011
 11
1138.6033259999999
 21
820.68354249999993
  0
LINE
  8
_0-0_LAYER001
  6
CONTINUOUS
 62
   18
 10
1089.644421
 20
782.33123849999993
 11
1119.318589
 21
812.00540649999994
  0
LINE
  8
_0-0_LAYER001
  6
CONTINUOUS
 62
   18
 10
1086.352674
 20
789.64609250000012
 11
1100.0338509999999
 21
803.32727049999994
  0
LINE
  8
_0-0_LAYER001
  6
CONTINUOUS
 62
   18
 10
1123.120046
 20
853.19314750000012
 11
1101.775183
 21
804.11087050000015
  0
LINE
  8
_0-0_LAYER001
  6
CONTINUOUS
 62
   18
 10
1138.6033259999999
 20
820.68354249999993
 11
1087.0018219999999
 21
836.93993950000004
  0
LINE
  8
_0-0_LAYER001
  6
CONTINUOUS
 62
   18
 10
1140.2044559999999
 20
707.20455450000009
 11
1145.5077569999999
 21
712.50785549999989
  0
LINE
  8
_0-0_LAYER001
  6
CONTINUOUS
 62
   18
 10
1145.5077569999999
 20
712.50785549999989
 11
1143.5666139999998
 21
705.26341150000007
  0
LINE
  8
_0-0_LAYER001
  6
CONTINUOUS
 62
   18
 10
1145.5077569999999
 20
712.50785549999989
 11
1074.521293
 21
589.55569250000008
  0
LINE
  8
_0-0_LAYER001
  6
CONTINUOUS
 62
   18
 10
1074.521293
 20
589.55569250000008
 11
1026.521293
 21
589.55569250000008
  0
LINE
  8
_0-0_LAYER001
  6
CONTINUOUS
 62
   18
 10
1072.902922
 20
760.10331450000012
 11
1078.2062229999999
 21
765.40661550000004
  0
LINE
  8
_0-0_LAYER001
  6
CONTINUOUS
 62
   18
 10
1078.2062229999999
 20
765.40661550000004
 11
1076.2650799999999
 21
758.16217150000011
  0
LINE
  8
_0-0_LAYER001
  6
CONTINUOUS
 62
   18
 10
1078.2062229999999
 20
765.40661550000004
 11
1023.710429
 21
671.01713150000023
  0
LINE
  8
_0-0_LAYER001
  6
CONTINUOUS
 62
   18
 10
1023.710429
 20
671.01713150000023
 11
822.71042899999998
 21
671.01713150000023
  0
LINE
  8
_0-0_LAYER001
  6
CONTINUOUS
 62
   18
 10
1138.0749389999999
 20
805.74693849999994
 11
1143.37824
 21
811.05023949999986
  0
LINE
  8
_0-0_LAYER001
  6
CONTINUOUS
 62
   18
 10
1143.37824
 20
811.05023949999986
 11
1141.437097
 21
803.80579549999993
  0
LINE
  8
_0-0_LAYER001
  6
CONTINUOUS
 62
   18
 10
1143.37824
 20
811.05023949999986
 11
1035.6440219999999
 21
624.44910049999999
  0
LINE
  8
_0-0_LAYER001
  6
CONTINUOUS
 62
   18
 10
1035.6440219999999
 20
624.44910049999999
 11
888.64402199999995
 21
624.44910049999999
  0
LINE
  8
_0-0_LAYER001
  6
CONTINUOUS
 62
   18
 10
1124.9013029999996
 20
815.61421449999989
 11
1080.6420679999999
 21
795.69754950000015
  0
LINE
  8
_0-0_LAYER001
  6
CONTINUOUS
 62
   18
 10
1080.6420679999999
 20
795.69754950000015
 11
1078.2062229999999
 21
765.40661550000004
  0
LINE
  8
_0-0_LAYER001
  6
CONTINUOUS
 62
   18
 10
1078.2062229999999
 20
765.40661550000004
 11
1083.050522
 21
772.66287550000015
  0
LINE
  8
_0-0_LAYER001
  6
DASHED
 62
   18
 10
1165.593079
 20
834.4738155
 11
1087.790117
 21
799.46246550000023
  0
LINE
  8
_0-0_LAYER001
  6
DASHED
 62
   18
 10
1168.8951959999999
 20
831.02493850000019
 11
2140.3135780000002
 21
1268.1630865000002
  0
LINE
  8
_0-0_LAYER001
  6
DASHED
 62
   18
 10
1165.593079
 20
834.4738155
 11
1168.8951959999999
 21
831.02493850000019
  0
LINE
  8
_0-0_LAYER001
  6
CONTINUOUS
 62
   18
 10
1110.6103369999998
 20
836.13528850000012
 11
1112.551479
 21
828.89084450000018
  0
LINE
  8
_0-0_LAYER001
  6
CONTINUOUS
 62
   18
 10
1112.551479
 20
828.89084450000018
 11
1107.2481789999999
 21
834.1941455000001
  0
LINE
  8
_0-0_LAYER001
  6
CONTINUOUS
 62
   18
 10
1112.551479
 20
828.89084450000018
 11
1004.4284089999999
 21
1016.1654965000002
  0
LINE
  8
_0-0_LAYER001
  6
CONTINUOUS
 62
   18
 10
1004.4284089999999
 20
1016.1654965000002
 11
884.42840899999987
 21
1016.1654965000002
  0
LINE
  8
_0-0_LAYER001
  6
CONTINUOUS
 62
   18
 10
1035.582625
 20
752.39174950000006
 11
1060.6604649999999
 21
763.67678149999983
  0
CIRCLE
  8
_0-0_LAYER001
  6
CONTINUOUS
 62
   18
 10
1037.8624289999998
 20
753.41766150000012
 40
1.7000000000000002
  0
LINE
  8
_0-0_LAYER001
  6
CONTINUOUS
 62
   18
 10
1037.8624289999998
 20
753.41766150000012
 11
1029.6548539999999
 21
771.65670750000027
  0
CIRCLE
  8
_0-0_LAYER001
  6
CONTINUOUS
 62
   18
 10
1029.6548539999999
 20
771.65670750000027
 40
1.7000000000000002
  0
LINE
  8
_0-0_LAYER001
  6
CONTINUOUS
 62
   18
 10
1027.375051
 20
770.6307955000002
 11
1052.45289
 21
781.91582849999986
  0
CIRCLE
  8
_0-0_LAYER001
  6
CONTINUOUS
 62
   18
 10
1029.6548539999999
 20
771.65670750000027
 40
1.7000000000000002
  0
LINE
  8
_0-0_LAYER001
  6
CONTINUOUS
 62
   18
 10
1029.6548539999999
 20
771.65670750000027
 11
1014.8817209999999
 21
804.48587950000001
  0
CIRCLE
  8
_0-0_LAYER001
  6
CONTINUOUS
 62
   18
 10
1014.8817209999999
 20
804.48587950000001
 40
1.7000000000000002
  0
LINE
  8
_0-0_LAYER001
  6
CONTINUOUS
 62
   18
 10
1012.601917
 20
803.45996749999995
 11
1037.679756
 21
814.74500050000006
  0
LINE
  8
_0-0_LAYER001
  6
CONTINUOUS
 62
   18
 10
1151.931345
 20
738.95429749999994
 11
1772.818853
 21
1018.3538025000003
  0
LINE
  8
_0-0_LAYER001
  6
CONTINUOUS
 62
   18
 10
1159.317912
 20
722.53971150000007
 11
1778.8029769999998
 21
1001.3081175000002
  0
LINE
  8
_0-0_LAYER001
  6
CONTINUOUS
 62
   18
 10
1161.7801009999998
 20
717.06818349999992
 11
1780.797685
 21
995.62622250000004
  0
LINE
  8
_0-0_LAYER001
  6
CONTINUOUS
 62
   18
 10
1627.455424
 20
1100.1395845000002
 11
1629.396567
 21
1092.8951405000003
  0
LINE
  8
_0-0_LAYER001
  6
CONTINUOUS
 62
   18
 10
1629.396567
 20
1092.8951405000003
 11
1624.0932659999999
 21
1098.1984415000002
  0
LINE
  8
_0-0_LAYER001
  6
CONTINUOUS
 62
   18
 10
1629.396567
 20
1092.8951405000003
 11
1583.1317529999999
 21
1173.0281485
  0
LINE
  8
_0-0_LAYER001
  6
CONTINUOUS
 62
   18
 10
1583.1317529999999
 20
1173.0281485
 11
1542.6317530000001
 21
1173.0281485
  0
LINE
  8
_0-0_LAYER001
  6
CONTINUOUS
 62
   18
 10
1642.753847
 20
722.86457449999989
 11
1708.492111
 21
722.86457449999989
  0
LINE
  8
_0-0_LAYER001
  6
CONTINUOUS
 62
   18
 10
1635.5806659999998
 20
752.73114850000002
 11
1856.5212939999997
 21
752.73114850000002
  0
LINE
  8
_0-0_LAYER001
  6
CONTINUOUS
 62
   18
 10
1626.0375739999999
 20
782.82647050000014
 11
1869.8547129999999
 21
782.82647050000014
  0
LINE
  8
_0-0_LAYER001
  6
CONTINUOUS
 62
   18
 10
1565.1460069999998
 20
1005.0009774999999
 11
1565.1460069999998
 21
1012.5009774999999
  0
LINE
  8
_0-0_LAYER001
  6
CONTINUOUS
 62
   18
 10
1565.1460069999998
 20
1012.5009774999999
 11
1568.8960069999998
 21
1006.0057864999999
  0
LINE
  8
_0-0_LAYER001
  6
CONTINUOUS
 62
   18
 10
1565.1460069999998
 20
1012.5009774999999
 11
1642.753847
 21
722.86457449999989
  0
LINE
  8
_0-0_LAYER001
  6
CONTINUOUS
 62
   18
 10
1618.6537349999999
 20
812.80741750000016
 11
1823.4764479999999
 21
812.80741750000016
  0
TEXT
  8
_0-0_LAYER001
 62
    7
 10
1642.7538470000002
 20
725.36457450000012
 40
20
 41
1
 50
0
  1
　垂木
  0
TEXT
  8
_0-0_LAYER001
 62
    7
 10
1635.5806659999989
 20
755.23114850000013
 40
20
 41
1
 50
0
  1
　野地板：耐水合板ｔ＝１２
  0
TEXT
  8
_0-0_LAYER001
 62
    7
 10
1028.628586032967
 20
747.13838312403811
 40
20
 41
1
 50
114.2277550000001
  1
20
  0
TEXT
  8
_0-0_LAYER001
 62
    7
 10
1015.5846506558989
 20
776.95309255733514
 40
20
 41
1
 50
114.22775500000014
  1
36
  0
TEXT
  8
_0-0_LAYER001
 62
    7
 10
1542.286785369175
 20
1175.3287041178671
 40
20
 41
1
 50
0
  1
桟　瓦
  0
TEXT
  8
_0-0_LAYER001
 62
    7
 10
1625.6006421853522
 20
817.48886008772911
 40
20
 41
1
 50
0
  1
　瓦桟：１５ｘ３０以上
  0
TEXT
  8
_0-0_LAYER001
 62
    7
 10
883.97073642823398
 20
1023.7248007310532
 40
20
 41
1
 50
0
  1
瓦座：36x40
  0
TEXT
  8
_0-0_LAYER001
 62
    7
 10
759.68285166967405
 20
674.07976228939106
 40
20
 41
1
 50
0
  1
水切カラ-鋼板0.35ｍｍ以上
  0
TEXT
  8
_0-0_LAYER001
 62
    7
 10
877.14173177117004
 20
629.0083315527711
 40
20
 41
1
 50
0
  1
広小舞：45x90
  0
TEXT
  8
_0-0_LAYER001
 62
    7
 10
1015.8556522244721
 20
592.57828337323201
 40
20
 41
1
 50
0
  1
鼻隠し
  0
TEXT
  8
_0-0_LAYER001
 62
    7
 10
1056.5798761266819
 20
1002.4268326466402
 40
20
 41
1
 50
24.227692999999988
  1
280
  0
TEXT
  8
_0-0_LAYER001
 62
    7
 10
1300.6878096117978
 20
1134.7296057568931
 40
20
 41
1
 50
24.227693000000002
  1
280
  0
TEXT
  8
_0-0_LAYER001
 62
    7
 10
1544.7957430969141
 20
1265.1689595275661
 40
20
 41
1
 50
24.227693000000016
  1
280
  0
TEXT
  8
_0-0_LAYER001
 62
    7
 10
1787.0402572424482
 20
1399.3351519774001
 40
20
 41
1
 50
24.227692999999942
  1
280
  0
TEXT
  8
_0-0_LAYER001
 62
    7
 10
1237.3315520660426
 20
1021.0610260424504
 40
20
 41
1
 50
24.227693000000013
  1
60
  0
TEXT
  8
_0-0_LAYER001
 62
    7
 10
1112.4824563141128
 20
965.15844585501941
 40
20
 41
1
 50
24.227692999999988
  1
205
  0
TEXT
  8
_0-0_LAYER001
 62
    7
 10
989.49677990176497
 20
911.11928500716931
 40
20
 41
1
 50
24.227693000000034
  1
75
  0
TEXT
  8
_0-0_LAYER001
 62
    7
 10
1626.0375739999999
 20
785.32647050000014
 40
20
 41
1
 50
0
  1
　下葺材：ルーフィング
  0
ENDSEC
  0
EOF
