  0
SECTION
  2
HEADER
  9
$ACADVER
  1
AC1009
  9
$INSBASE
 10
0
 20
0
 30
0
  9
$EXTMIN
 10
0
 20
0
  9
$EXTMAX
 10
2970
 20
2100
  9
$LIMMIN
 10
0
 20
0
  9
$LIMMAX
 10
2970
 20
2100
  9
$LTSCALE
 40
10
  0
ENDSEC
  0
SECTION
  2
TABLES
  0
TABLE
  2
LTYPE
 70
     9
  0
LTYPE
  2
CONTINUOUS
 70
    64
  3
実線
 72
    65
 73
     0
 40
0.0
  0
LTYPE
  2
DASHED1
 70
    64
  3
--  --  --  --  --  --  --  --  
 72
    65
 73
     2
 40
2.5
 49
1.25
 49
-1.25
  0
LTYPE
  2
DASHED2
 70
    64
  3
----    ----    ----    ----    
 72
    65
 73
     2
 40
5.0
 49
2.5
 49
-2.5
  0
LTYPE
  2
DASHED3
 70
    64
  3
------  ------  ------  ------  
 72
    65
 73
     2
 40
5.0
 49
3.75
 49
-1.25
  0
LTYPE
  2
CENTER1
 70
    64
  3
----- - ----- - ----- - ----- - 
 72
    65
 73
     4
 40
10.0
 49
6.25
 49
-1.25
 49
1.25
 49
-1.25
  0
LTYPE
  2
CENTER2
 70
    64
  3
----------  --  ----------  --  
 72
    65
 73
     4
 40
20.0
 49
12.5
 49
-2.5
 49
2.5
 49
-2.5
  0
LTYPE
  2
PHANTOM1
 70
    64
  3
--- - - --- - - --- - - --- - - 
 72
    65
 73
     6
 40
10.0
 49
3.25
 49
-1.25
 49
1.25
 49
-1.25
 49
1.25
 49
-1.25
  0
LTYPE
  2
PHANTOM2
 70
    64
  3
--------  -  -  --------  -  -  
 72
    65
 73
     6
 40
20.0
 49
10.0
 49
-2.5
 49
1.25
 49
-2.5
 49
1.25
 49
-2.5
  0
LTYPE
  2
DOT
 70
    64
  3
-   -   -   -   -   -   -   -   
 72
    65
 73
     2
 40
2.5
 49
0.625
 49
-1.875
  0
LTYPE
  2
DUMMY
 70
    64
  3
ダミー
 72
    65
 73
     0
 40
0.0
  0
LTYPE
  2
RAND1
 70
    64
  3
ランダム線1
 72
    65
 73
     4
 40
10.0
 49
1.0
 49
-2.0
 49
3.0
 49
-4.0
  0
LTYPE
  2
RAND2
 70
    64
  3
ランダム線2
 72
    65
 73
     4
 40
14.0
 49
2.0
 49
-3.0
 49
4.0
 49
-5.0
  0
LTYPE
  2
RAND3
 70
    64
  3
ランダム線3
 72
    65
 73
     4
 40
18.0
 49
3.0
 49
-4.0
 49
5.0
 49
-6.0
  0
LTYPE
  2
RAND4
 70
    64
  3
ランダム線4
 72
    65
 73
     4
 40
22.0
 49
4.0
 49
-5.0
 49
6.0
 49
-7.0
  0
LTYPE
  2
RAND5
 70
    64
  3
ランダム線5
 72
    65
 73
     4
 40
26.0
 49
5.0
 49
-6.0
 49
7.0
 49
-8.0
  0
LTYPE
  2
LONG1
 70
    64
  3
----------  --  ----------  --  
 72
    65
 73
     4
 40
40.0
 49
32.5
 49
-2.5
 49
2.5
 49
-2.5
  0
LTYPE
  2
LONG2
 70
    64
  3
--------  -  -  --------  -  -  
 72
    65
 73
     6
 40
40.0
 49
30.0
 49
-2.5
 49
1.25
 49
-2.5
 49
1.25
 49
-2.5
  0
LTYPE
  2
LONG3
 70
    64
  3
+++++++++++++++..+++++++++++++++
 72
    65
 73
     2
 40
40.0
 49
37.5
 49
-2.5
  0
LTYPE
  2
LONG4
 70
    64
  3
+++++++++++++++..+++++++++++++++
 72
    65
 73
     2
 40
80.0
 49
75.0
 49
-5.0
  0
LTYPE
  2
LONG5
 70
    64
  3
----------  --  ----------  --  
 72
    65
 73
     4
 40
60.0
 49
37.5
 49
-7.5
 49
7.5
 49
-7.5
  0
LTYPE
  2
dashed
 70
   64
  3
-------   -------------   ------
 72
   65
 73
    2
 40
7.5
 49
6
 49
-1.5
  0
LTYPE
  2
dashed_spaced
 70
   64
  3
----        --------        ----
 72
   65
 73
    2
 40
12
 49
6
 49
-6
  0
LTYPE
  2
long_dashed_dotted
 70
   64
  3
------------- --- --------------
 72
   65
 73
    4
 40
15.25
 49
12
 49
-1.5
 49
0.25
 49
-1.5
  0
LTYPE
  2
long_dashed_double-dotted
 70
   64
  3
----------- --- --- ------------
 72
   65
 73
    6
 40
17
 49
12
 49
-1.5
 49
0.25
 49
-1.5
 49
0.25
 49
-1.5
  0
LTYPE
  2
long_dashed_triplicate-dotted
 70
   64
  3
--------- --- --- --- ----------
 72
   65
 73
    8
 40
18.75
 49
12
 49
-1.5
 49
0.25
 49
-1.5
 49
0.25
 49
-1.5
 49
0.25
 49
-1.5
  0
LTYPE
  2
dotted
 70
   64
  3
   -       -       -       -    
 72
   65
 73
    2
 40
1.75
 49
0.25
 49
-1.5
  0
LTYPE
  2
chain
 70
   64
  3
-------------- -- --------------
 72
   65
 73
    4
 40
18.5
 49
12
 49
-1.5
 49
3.5
 49
-1.5
  0
LTYPE
  2
chain_double_dash
 70
   64
  3
------------ -- -- -------------
 72
   65
 73
    6
 40
23.5
 49
12
 49
-1.5
 49
3.5
 49
-1.5
 49
3.5
 49
-1.5
  0
LTYPE
  2
dashed_dotted
 70
   64
  3
-----------     -     ----------
 72
   65
 73
    4
 40
9.25
 49
6
 49
-1.5
 49
0.25
 49
-1.5
  0
LTYPE
  2
double-dashed_dotted
 70
   64
  3
------   -----------   -   -----
 72
   65
 73
    6
 40
16.75
 49
6
 49
-1.5
 49
6
 49
-1.5
 49
0.25
 49
-1.5
  0
LTYPE
  2
dashed_double-dotted
 70
   64
  3
---------    -    -    ---------
 72
   65
 73
    6
 40
11
 49
6
 49
-1.5
 49
0.25
 49
-1.5
 49
0.25
 49
-1.5
  0
LTYPE
  2
double-dashed_double-dotted
 70
   64
  3
-----   ---------   -   -   ----
 72
   65
 73
    8
 40
18.5
 49
6
 49
-1.5
 49
6
 49
-1.5
 49
0.25
 49
-1.5
 49
0.25
 49
-1.5
  0
LTYPE
  2
dashed_triplicate-dotted
 70
   64
  3
-------    -    -    -    ------
 72
   65
 73
    8
 40
12.75
 49
6
 49
-1.5
 49
0.25
 49
-1.5
 49
0.25
 49
-1.5
 49
0.25
 49
-1.5
  0
LTYPE
  2
double-dashed_triplicate-dotted
 70
   64
  3
-----  ---------  -  -  -  -----
 72
   65
 73
   10
 40
20.25
 49
6
 49
-1.5
 49
6
 49
-1.5
 49
0.25
 49
-1.5
 49
0.25
 49
-1.5
 49
0.25
 49
-1.5
  0
LTYPE
  2
undefined
 70
   64
  3
--------------------------------
 72
   65
 73
    0
 40
0
  0
LTYPE
  2
HIDDEN
 70
   64
  3
----        --------        ----
 72
   65
 73
    2
 40
10
 49
5
 49
-5
  0
LTYPE
  2
DASHED
 70
   64
  3
-------   -------------   ------
 72
   65
 73
    2
 40
50
 49
40
 49
-10
  0
LTYPE
  2
CENTER
 70
   64
  3
------------   ---   -----------
 72
   65
 73
    4
 40
100
 49
70
 49
-10
 49
10
 49
-10
  0
LTYPE
  2
PHANTOM
 70
   64
  3
---------   ---   ---   --------
 72
   65
 73
    6
 40
100
 49
50
 49
-10
 49
10
 49
-10
 49
10
 49
-10
  0
ENDTAB
  0
TABLE
  2
STYLE
  5
3
100
AcDbSymbolTable
 70
     1
  0
STYLE
  5
10
100
AcDbSymbolTableRecord
100
AcDbTextStyleTableRecord
  2
STANDARD
 70
     0
 40
0.0
 41
1.0
 50
0.0
 71
     0
 42
0.2
  3
txt
  4
bigfont.shx
  0
STYLE
  5
26
100
AcDbSymbolTableRecord
100
AcDbTextStyleTableRecord
  2
TATEGAKI
 70
    68
 40
0.0
 41
1.0
 50
0.0
 71
     0
 42
1.0
  3
txt
  4
bigfont.shx
  0
ENDTAB
  0
TABLE
  2
LAYER
 70
    5
  0
LAYER
  2
_0-0_LAYER001
 70
   64
 62
    7
  6
CONTINUOUS
  0
LAYER
  2
_0-1_LAYER003
 70
   64
 62
    7
  6
CONTINUOUS
  0
LAYER
  2
_0-2_LAYER004
 70
   64
 62
    7
  6
CONTINUOUS
  0
LAYER
  2
_0-3_LAYER006
 70
   64
 62
    7
  6
CONTINUOUS
  0
LAYER
  2
ADD_LINE
 70
   64
 62
    7
  6
CONTINUOUS
  0
ENDTAB
  0
ENDSEC
  0
SECTION
  2
BLOCKS
  0
ENDSEC
  0
SECTION
  2
ENTITIES
  0
LINE
  8
_0-0_LAYER001
  6
CONTINUOUS
 62
    4
 10
1401.4207710000001
 20
1208.9425775
 11
1416.1928869999999
 21
1211.5473004999999
  0
LINE
  8
_0-0_LAYER001
  6
CONTINUOUS
 62
    4
 10
1416.1928869999999
 20
1211.5473004999999
 11
1416.8029769999998
 21
1218.5206635
  0
LINE
  8
_0-0_LAYER001
  6
CONTINUOUS
 62
    4
 10
1401.4207689999998
 20
1208.9425775
 11
1403.7739749999996
 21
1235.8398444999998
  0
LINE
  8
_0-0_LAYER001
  6
CONTINUOUS
 62
    4
 10
1619.4207669999996
 20
1208.9425674999998
 11
1604.6486509999997
 21
1211.5472914999998
  0
LINE
  8
_0-0_LAYER001
  6
CONTINUOUS
 62
    4
 10
1604.6486519999999
 20
1211.5472914999998
 11
1604.0385619999997
 21
1218.5206544999999
  0
LINE
  8
_0-0_LAYER001
  6
CONTINUOUS
 62
    4
 10
1619.4207689999998
 20
1208.9425674999998
 11
1617.0675659999997
 21
1235.8398344999998
  0
LINE
  8
_0-0_LAYER001
  6
CONTINUOUS
 62
    4
 10
1617.0675659999997
 20
1235.8398344999998
 11
1531.3311349999999
 21
1307.7812554999996
  0
LINE
  8
_0-0_LAYER001
  6
CONTINUOUS
 62
    4
 10
1403.7739749999996
 20
1235.8398444999998
 11
1489.5104149999997
 21
1307.7812594999998
  0
ARC
  8
_0-0_LAYER001
  6
CONTINUOUS
 62
    4
 10
1510.4207729999998
 20
1285.0743895000001
 40
30.868188
 50
47.358561000000002
 51
132.64142799999999
  0
LINE
  8
_0-0_LAYER001
  6
CONTINUOUS
 62
    4
 10
1604.0385619999997
 20
1218.5206544999999
 11
1532.1691459999997
 21
1278.8262665
  0
LINE
  8
_0-0_LAYER001
  6
CONTINUOUS
 62
    4
 10
1416.8029769999998
 20
1218.5206635
 11
1493.9823069999998
 21
1283.2818104999999
  0
ARC
  8
_0-0_LAYER001
  6
CONTINUOUS
 62
    4
 10
1510.4207719999997
 20
1258.2993915
 40
29.905591000000001
 50
43.344959000000003
 51
123.34497000000002
  0
LINE
  8
_0-0_LAYER001
  6
CONTINUOUS
 62
    4
 10
636.01887099999999
 20
834.64670549999983
 11
720.89114999999993
 21
861.45752049999987
  0
LINE
  8
_0-0_LAYER001
  6
CONTINUOUS
 62
    4
 10
714.81217399999991
 20
880.70111749999978
 11
691.42718999999988
 21
873.31389449999983
  0
LINE
  8
_0-0_LAYER001
  6
CONTINUOUS
 62
    4
 10
628.78815299999985
 20
850.71495549999986
 11
689.01787200000001
 21
869.74128449999989
  0
ARC
  8
_0-0_LAYER001
  6
CONTINUOUS
 62
    4
 10
694.64863999999989
 20
868.26131649999979
 40
5.8220139999999994
 50
113.701938
 51
165.27368200000001
  0
LINE
  8
_0-0_LAYER001
  6
CONTINUOUS
 62
    4
 10
722.04710499999987
 20
842.34645849999993
 11
720.28559999999993
 21
847.92267649999985
  0
LINE
  8
_0-0_LAYER001
  6
CONTINUOUS
 62
    4
 10
714.81217399999991
 20
880.70111749999978
 11
726.48536299999978
 21
843.7484864999999
  0
LINE
  8
_0-0_LAYER001
  6
CONTINUOUS
 62
    4
 10
722.04710499999987
 20
842.34645849999993
 11
726.48536299999978
 21
843.7484864999999
  0
LINE
  8
_0-0_LAYER001
  6
CONTINUOUS
 62
    4
 10
641.27613599999995
 20
822.96390049999991
 11
720.28559999999993
 21
847.92267649999985
  0
LINE
  8
_0-0_LAYER001
  6
CONTINUOUS
 62
    4
 10
645.2024879999999
 20
878.54902549999997
 11
650.82092299999988
 21
880.27280549999978
  0
ARC
  8
_0-0_LAYER001
  6
CONTINUOUS
 62
    4
 10
667.61932199999978
 20
881.84721349999995
 40
16.872017
 50
102.88244700000001
 51
185.354333
  0
LINE
  8
_0-0_LAYER001
  6
CONTINUOUS
 62
    4
 10
669.26388799999972
 20
881.64809549999995
 11
976.22919499999989
 21
975.82741949999991
  0
LINE
  8
_0-0_LAYER001
  6
CONTINUOUS
 62
    4
 10
970.30986199999984
 20
995.12072049999983
 11
946.86447699999985
 21
987.92749549999985
  0
LINE
  8
_0-0_LAYER001
  6
CONTINUOUS
 62
    4
 10
663.85767999999985
 20
898.29455449999978
 11
944.42564299999981
 21
984.37497049999979
  0
ARC
  8
_0-0_LAYER001
  6
CONTINUOUS
 62
    4
 10
950.04395499999987
 20
982.84840149999991
 40
5.8220139999999994
 50
113.22723600000002
 51
164.79898000000003
  0
LINE
  8
_0-0_LAYER001
  6
CONTINUOUS
 62
    4
 10
645.1933409999998
 20
878.57884049999984
 11
650.92194399999983
 21
859.90719549999994
  0
ARC
  8
_0-0_LAYER001
  6
CONTINUOUS
 62
    4
 10
673.02552899999978
 20
865.20075549999979
 40
16.872017
 50
102.88244700000001
 51
192.21985000000001
  0
LINE
  8
_0-0_LAYER001
  6
CONTINUOUS
 62
    4
 10
977.22677499999986
 20
956.70743549999997
 11
975.51152999999977
 21
962.29805749999991
  0
LINE
  8
_0-0_LAYER001
  6
CONTINUOUS
 62
    4
 10
970.30986199999984
 20
995.12072049999983
 11
981.67649699999993
 21
958.0726444999998
  0
LINE
  8
_0-0_LAYER001
  6
CONTINUOUS
 62
    4
 10
977.22677499999986
 20
956.70743549999997
 11
981.67649699999993
 21
958.0726444999998
  0
LINE
  8
_0-0_LAYER001
  6
CONTINUOUS
 62
    4
 10
656.5357869999998
 20
861.62956649999978
 11
650.92194399999983
 21
859.90719549999994
  0
LINE
  8
_0-0_LAYER001
  6
CONTINUOUS
 62
    4
 10
656.18763399999978
 20
864.32702249999988
 11
975.51152999999977
 21
962.29805749999991
  0
LINE
  8
_0-0_LAYER001
  6
CONTINUOUS
 62
    4
 10
900.52132199999983
 20
993.49377449999997
 11
906.13975699999992
 21
995.21755349999989
  0
ARC
  8
_0-0_LAYER001
  6
CONTINUOUS
 62
    4
 10
922.93815599999994
 20
996.79196249999995
 40
16.872017
 50
102.88244700000001
 51
185.354333
  0
LINE
  8
_0-0_LAYER001
  6
CONTINUOUS
 62
    4
 10
924.58272199999988
 20
996.59284449999996
 11
1231.5480289999998
 21
1090.7721684999999
  0
LINE
  8
_0-0_LAYER001
  6
CONTINUOUS
 62
    4
 10
1225.6286959999998
 20
1110.0654685
 11
1202.1833109999998
 21
1102.8722444999999
  0
LINE
  8
_0-0_LAYER001
  6
CONTINUOUS
 62
    4
 10
919.17651399999977
 20
1013.2393024999999
 11
1199.7444769999997
 21
1099.3197184999999
  0
ARC
  8
_0-0_LAYER001
  6
CONTINUOUS
 62
    4
 10
1205.3627899999999
 20
1097.7931494999998
 40
5.8220139999999994
 50
113.22723600000002
 51
164.79898000000003
  0
LINE
  8
_0-0_LAYER001
  6
CONTINUOUS
 62
    4
 10
900.51217499999984
 20
993.52358849999996
 11
906.24077899999975
 21
974.85194449999995
  0
ARC
  8
_0-0_LAYER001
  6
CONTINUOUS
 62
    4
 10
928.34436299999993
 20
980.1455034999999
 40
16.872017
 50
102.88244700000001
 51
192.21985000000001
  0
LINE
  8
_0-0_LAYER001
  6
CONTINUOUS
 62
    4
 10
1232.5456089999998
 20
1071.6521845
 11
1230.8303639999999
 21
1077.2428054999998
  0
LINE
  8
_0-0_LAYER001
  6
CONTINUOUS
 62
    4
 10
1225.6286959999998
 20
1110.0654685
 11
1236.9953309999999
 21
1073.0173934999998
  0
LINE
  8
_0-0_LAYER001
  6
CONTINUOUS
 62
    4
 10
1232.5456089999998
 20
1071.6521845
 11
1236.9953309999999
 21
1073.0173934999998
  0
LINE
  8
_0-0_LAYER001
  6
CONTINUOUS
 62
    4
 10
911.85462099999972
 20
976.5743144999999
 11
906.24077899999975
 21
974.85194449999995
  0
LINE
  8
_0-0_LAYER001
  6
CONTINUOUS
 62
    4
 10
911.50646799999981
 20
979.27177049999977
 11
1230.8303639999999
 21
1077.2428054999998
  0
LINE
  8
_0-0_LAYER001
  6
CONTINUOUS
 62
    4
 10
1155.8401559999998
 20
1108.4385224999999
 11
1161.4585910000001
 21
1110.1623014999998
  0
ARC
  8
_0-0_LAYER001
  6
CONTINUOUS
 62
    4
 10
1178.2569899999999
 20
1111.7367104999998
 40
16.872017
 50
102.88244700000001
 51
185.354333
  0
LINE
  8
_0-0_LAYER001
  6
CONTINUOUS
 62
    4
 10
1179.9015559999998
 20
1111.5375924999998
 11
1486.8668629999997
 21
1205.7169164999998
  0
LINE
  8
_0-0_LAYER001
  6
CONTINUOUS
 62
    4
 10
1480.9475299999999
 20
1225.0102175
 11
1457.5021449999999
 21
1217.8169925
  0
LINE
  8
_0-0_LAYER001
  6
CONTINUOUS
 62
    4
 10
1174.4953479999999
 20
1128.1840514999999
 11
1455.0633109999999
 21
1214.2644674999999
  0
ARC
  8
_0-0_LAYER001
  6
CONTINUOUS
 62
    4
 10
1460.6816239999998
 20
1212.7378984999998
 40
5.8220139999999994
 50
113.22723600000002
 51
164.79898000000003
  0
LINE
  8
_0-0_LAYER001
  6
CONTINUOUS
 62
    4
 10
1155.8310089999998
 20
1108.4683375
 11
1161.5596129999999
 21
1089.7966924999998
  0
ARC
  8
_0-0_LAYER001
  6
CONTINUOUS
 62
    4
 10
1183.6631969999999
 20
1095.0902514999998
 40
16.872017
 50
102.88244700000001
 51
192.21985000000001
  0
LINE
  8
_0-0_LAYER001
  6
CONTINUOUS
 62
    4
 10
1487.8644429999999
 20
1186.5969324999999
 11
1486.1491980000001
 21
1192.1875544999998
  0
LINE
  8
_0-0_LAYER001
  6
CONTINUOUS
 62
    4
 10
1480.9475299999999
 20
1225.0102175
 11
1492.3141649999998
 21
1187.9621414999999
  0
LINE
  8
_0-0_LAYER001
  6
CONTINUOUS
 62
    4
 10
1487.8644429999999
 20
1186.5969324999999
 11
1492.3141649999998
 21
1187.9621414999999
  0
LINE
  8
_0-0_LAYER001
  6
CONTINUOUS
 62
    4
 10
1167.173456
 20
1091.5190624999998
 11
1161.5596129999999
 21
1089.7966924999998
  0
LINE
  8
_0-0_LAYER001
  6
CONTINUOUS
 62
    4
 10
1166.8253019999997
 20
1094.2165194999998
 11
1486.1491980000001
 21
1192.1875544999998
  0
LINE
  8
_0-0_LAYER001
  6
CONTINUOUS
 62
    4
 10
2384.7771549999998
 20
834.64670549999983
 11
2299.9048759999996
 21
861.45752049999987
  0
LINE
  8
_0-0_LAYER001
  6
CONTINUOUS
 62
    4
 10
2305.983851
 20
880.70111749999978
 11
2329.3688359999996
 21
873.31389449999983
  0
LINE
  8
_0-0_LAYER001
  6
CONTINUOUS
 62
    4
 10
2392.007873
 20
850.71495549999986
 11
2331.7781529999997
 21
869.74128449999989
  0
ARC
  8
_0-0_LAYER001
  6
CONTINUOUS
 62
    4
 10
2326.1473859999996
 20
868.26131649999979
 40
5.8220139999999994
 50
14.726318000000001
 51
66.298061999999987
  0
LINE
  8
_0-0_LAYER001
  6
CONTINUOUS
 62
    4
 10
2298.74892
 20
842.34645849999993
 11
2300.5104259999998
 21
847.92267649999985
  0
LINE
  8
_0-0_LAYER001
  6
CONTINUOUS
 62
    4
 10
2305.983851
 20
880.70111749999978
 11
2294.3106619999999
 21
843.7484864999999
  0
LINE
  8
_0-0_LAYER001
  6
CONTINUOUS
 62
    4
 10
2298.74892
 20
842.34645849999993
 11
2294.3106619999999
 21
843.7484864999999
  0
LINE
  8
_0-0_LAYER001
  6
CONTINUOUS
 62
    4
 10
2379.5198889999992
 20
822.96390049999991
 11
2300.5104259999998
 21
847.92267649999985
  0
LINE
  8
_0-0_LAYER001
  6
CONTINUOUS
 62
    4
 10
2375.5935369999997
 20
878.54902549999997
 11
2369.9751019999999
 21
880.27280549999978
  0
ARC
  8
_0-0_LAYER001
  6
CONTINUOUS
 62
    4
 10
2353.176704
 20
881.84721349999995
 40
16.872017
 50
354.645667
 51
77.117552999999987
  0
LINE
  8
_0-0_LAYER001
  6
CONTINUOUS
 62
    4
 10
2351.5321369999997
 20
881.64809549999995
 11
2044.5668299999998
 21
975.82741949999991
  0
LINE
  8
_0-0_LAYER001
  6
CONTINUOUS
 62
    4
 10
2050.486163
 20
995.12072049999983
 11
2073.9315489999999
 21
987.92749549999985
  0
LINE
  8
_0-0_LAYER001
  6
CONTINUOUS
 62
    4
 10
2356.9383449999996
 20
898.29455449999978
 11
2076.3703829999999
 21
984.37497049999979
  0
ARC
  8
_0-0_LAYER001
  6
CONTINUOUS
 62
    4
 10
2070.7520699999995
 20
982.84840149999991
 40
5.8220139999999994
 50
15.201020000000003
 51
66.772764000000009
  0
LINE
  8
_0-0_LAYER001
  6
CONTINUOUS
 62
    4
 10
2375.6026849999998
 20
878.57884049999984
 11
2369.8740809999999
 21
859.90719549999994
  0
ARC
  8
_0-0_LAYER001
  6
CONTINUOUS
 62
    4
 10
2347.7704970000004
 20
865.20075549999979
 40
16.872017
 50
347.78015000000005
 51
77.117553000000029
  0
LINE
  8
_0-0_LAYER001
  6
CONTINUOUS
 62
    4
 10
2043.56925
 20
956.70743549999997
 11
2045.2844959999998
 21
962.29805749999991
  0
LINE
  8
_0-0_LAYER001
  6
CONTINUOUS
 62
    4
 10
2050.486163
 20
995.12072049999983
 11
2039.1195289999996
 21
958.0726444999998
  0
LINE
  8
_0-0_LAYER001
  6
CONTINUOUS
 62
    4
 10
2043.56925
 20
956.70743549999997
 11
2039.1195289999996
 21
958.0726444999998
  0
LINE
  8
_0-0_LAYER001
  6
CONTINUOUS
 62
    4
 10
2364.2602379999998
 20
861.62956649999978
 11
2369.8740809999999
 21
859.90719549999994
  0
LINE
  8
_0-0_LAYER001
  6
CONTINUOUS
 62
    4
 10
2364.6083909999998
 20
864.32702249999988
 11
2045.2844959999998
 21
962.29805749999991
  0
LINE
  8
_0-0_LAYER001
  6
CONTINUOUS
 62
    4
 10
2120.274703
 20
993.49377449999997
 11
2114.6562679999997
 21
995.21755349999989
  0
ARC
  8
_0-0_LAYER001
  6
CONTINUOUS
 62
    4
 10
2097.8578689999999
 20
996.79196249999995
 40
16.872017
 50
354.645667
 51
77.117552999999987
  0
LINE
  8
_0-0_LAYER001
  6
CONTINUOUS
 62
    4
 10
2096.213303
 20
996.59284449999996
 11
1789.2479959999996
 21
1090.7721684999999
  0
LINE
  8
_0-0_LAYER001
  6
CONTINUOUS
 62
    4
 10
1795.1673289999999
 20
1110.0654685
 11
1818.6127139999999
 21
1102.8722444999999
  0
LINE
  8
_0-0_LAYER001
  6
CONTINUOUS
 62
    4
 10
2101.6195109999999
 20
1013.2393024999999
 11
1821.0515489999998
 21
1099.3197184999999
  0
ARC
  8
_0-0_LAYER001
  6
CONTINUOUS
 62
    4
 10
1815.4332359999999
 20
1097.7931494999998
 40
5.8220139999999994
 50
15.201020000000003
 51
66.772764000000009
  0
LINE
  8
_0-0_LAYER001
  6
CONTINUOUS
 62
    4
 10
2120.2838509999997
 20
993.52358849999996
 11
2114.5552469999998
 21
974.85194449999995
  0
ARC
  8
_0-0_LAYER001
  6
CONTINUOUS
 62
    4
 10
2092.4516619999999
 20
980.1455034999999
 40
16.872017
 50
347.78015000000005
 51
77.117553000000029
  0
LINE
  8
_0-0_LAYER001
  6
CONTINUOUS
 62
    4
 10
1788.2504159999999
 20
1071.6521845
 11
1789.9656619999996
 21
1077.2428054999998
  0
LINE
  8
_0-0_LAYER001
  6
CONTINUOUS
 62
    4
 10
1795.1673289999999
 20
1110.0654685
 11
1783.8006949999999
 21
1073.0173934999998
  0
LINE
  8
_0-0_LAYER001
  6
CONTINUOUS
 62
    4
 10
1788.2504159999999
 20
1071.6521845
 11
1783.8006949999999
 21
1073.0173934999998
  0
LINE
  8
_0-0_LAYER001
  6
CONTINUOUS
 62
    4
 10
2108.9414039999997
 20
976.5743144999999
 11
2114.5552469999998
 21
974.85194449999995
  0
LINE
  8
_0-0_LAYER001
  6
CONTINUOUS
 62
    4
 10
2109.2895569999996
 20
979.27177049999977
 11
1789.9656619999996
 21
1077.2428054999998
  0
LINE
  8
_0-0_LAYER001
  6
CONTINUOUS
 62
    4
 10
1864.9558689999999
 20
1108.4385224999999
 11
1859.337434
 21
1110.1623014999998
  0
ARC
  8
_0-0_LAYER001
  6
CONTINUOUS
 62
    4
 10
1842.5390349999998
 20
1111.7367104999998
 40
16.872017
 50
354.645667
 51
77.117552999999987
  0
LINE
  8
_0-0_LAYER001
  6
CONTINUOUS
 62
    4
 10
1840.8944689999998
 20
1111.5375924999998
 11
1533.9291619999999
 21
1205.7169164999998
  0
LINE
  8
_0-0_LAYER001
  6
CONTINUOUS
 62
    4
 10
1539.8484949999997
 20
1225.0102175
 11
1563.2938799999997
 21
1217.8169925
  0
LINE
  8
_0-0_LAYER001
  6
CONTINUOUS
 62
    4
 10
1846.3006769999997
 20
1128.1840514999999
 11
1565.7327139999998
 21
1214.2644674999999
  0
ARC
  8
_0-0_LAYER001
  6
CONTINUOUS
 62
    4
 10
1560.1144019999997
 20
1212.7378984999998
 40
5.8220139999999994
 50
15.201020000000003
 51
66.772764000000009
  0
LINE
  8
_0-0_LAYER001
  6
CONTINUOUS
 62
    4
 10
1864.9650159999997
 20
1108.4683375
 11
1859.2364129999996
 21
1089.7966924999998
  0
ARC
  8
_0-0_LAYER001
  6
CONTINUOUS
 62
    4
 10
1837.1328279999998
 20
1095.0902514999998
 40
16.872017
 50
347.78015000000005
 51
77.117553000000029
  0
LINE
  8
_0-0_LAYER001
  6
CONTINUOUS
 62
    4
 10
1532.9315819999999
 20
1186.5969324999999
 11
1534.6468279999999
 21
1192.1875544999998
  0
LINE
  8
_0-0_LAYER001
  6
CONTINUOUS
 62
    4
 10
1539.8484949999997
 20
1225.0102175
 11
1528.4818609999998
 21
1187.9621414999999
  0
LINE
  8
_0-0_LAYER001
  6
CONTINUOUS
 62
    4
 10
1532.9315819999999
 20
1186.5969324999999
 11
1528.4818609999998
 21
1187.9621414999999
  0
LINE
  8
_0-0_LAYER001
  6
CONTINUOUS
 62
    4
 10
1853.62257
 20
1091.5190624999998
 11
1859.2364129999996
 21
1089.7966924999998
  0
LINE
  8
_0-0_LAYER001
  6
CONTINUOUS
 62
    4
 10
1853.9707229999999
 20
1094.2165194999998
 11
1534.6468279999999
 21
1192.1875544999998
  0
LINE
  8
_0-0_LAYER001
  6
CONTINUOUS
 62
    1
 10
1426.8547680000001
 20
1205.6098684999999
 11
1426.9891259999999
 21
1205.7442265
  0
LINE
  8
_0-0_LAYER001
  6
CONTINUOUS
 62
    1
 10
1421.7544029999999
 20
1204.0450374999998
 11
1426.0085289999997
 21
1208.2991634999998
  0
LINE
  8
_0-0_LAYER001
  6
CONTINUOUS
 62
    1
 10
1418.1878579999998
 20
1204.0140264999998
 11
1425.0279309999999
 21
1210.8540994999998
  0
LINE
  8
_0-0_LAYER001
  6
CONTINUOUS
 62
    1
 10
1417.1539079999998
 20
1206.5156094999998
 11
1424.0473339999999
 21
1213.4090365
  0
LINE
  8
_0-0_LAYER001
  6
CONTINUOUS
 62
    1
 10
1415.8498299999999
 20
1208.7470655
 11
1423.0667369999996
 21
1215.9639725
  0
LINE
  8
_0-0_LAYER001
  6
CONTINUOUS
 62
    1
 10
1414.4431319999999
 20
1210.8759024999999
 11
1414.8898749999998
 21
1211.3226454999999
  0
LINE
  8
_0-0_LAYER001
  6
CONTINUOUS
 62
    1
 10
1416.296276
 20
1212.7290464999999
 11
1422.086139
 21
1218.5189094999998
  0
LINE
  8
_0-0_LAYER001
  6
CONTINUOUS
 62
    1
 10
1416.6352519999998
 20
1216.6035554999999
 11
1421.1055419999998
 21
1221.0738454999998
  0
LINE
  8
_0-0_LAYER001
  6
CONTINUOUS
 62
    1
 10
1420.7986549999998
 20
1221.8734354999999
 11
1427.0211059999999
 21
1205.6609024999998
  0
LINE
  8
_0-0_LAYER001
  6
CONTINUOUS
 62
    1
 10
1426.4700469999998
 20
1226.6322984999999
 11
1428.1234289999998
 21
1205.9991034999998
  0
LINE
  8
_0-0_LAYER001
  6
CONTINUOUS
 62
    1
 10
1432.6034729999997
 20
1207.3736154999999
 11
1420.7986549999998
 21
1221.8734354999999
  0
LINE
  8
_0-0_LAYER001
  6
CONTINUOUS
 62
    1
 10
1593.9412569999995
 20
1205.6098684999999
 11
1593.8068989999999
 21
1205.7442265
  0
LINE
  8
_0-0_LAYER001
  6
CONTINUOUS
 62
    1
 10
1599.0416230000001
 20
1204.0450374999998
 11
1594.7874969999998
 21
1208.2991634999998
  0
LINE
  8
_0-0_LAYER001
  6
CONTINUOUS
 62
    1
 10
1602.6081669999999
 20
1204.0140264999998
 11
1595.7680939999998
 21
1210.8540994999998
  0
LINE
  8
_0-0_LAYER001
  6
CONTINUOUS
 62
    1
 10
1603.6421179999998
 20
1206.5156094999998
 11
1596.7486909999998
 21
1213.4090365
  0
LINE
  8
_0-0_LAYER001
  6
CONTINUOUS
 62
    1
 10
1604.9461959999999
 20
1208.7470655
 11
1597.7292889999999
 21
1215.9639725
  0
LINE
  8
_0-0_LAYER001
  6
CONTINUOUS
 62
    1
 10
1606.3528929999998
 20
1210.8759024999999
 11
1605.9061499999998
 21
1211.3226454999999
  0
LINE
  8
_0-0_LAYER001
  6
CONTINUOUS
 62
    1
 10
1604.4997489999996
 20
1212.7290464999999
 11
1598.7098859999996
 21
1218.5189094999998
  0
LINE
  8
_0-0_LAYER001
  6
CONTINUOUS
 62
    1
 10
1604.1607739999997
 20
1216.6035554999999
 11
1599.6904829999999
 21
1221.0738454999998
  0
LINE
  8
_0-0_LAYER001
  6
CONTINUOUS
 62
    1
 10
1599.9973699999998
 20
1221.8734354999999
 11
1593.7749189999997
 21
1205.6609024999998
  0
LINE
  8
_0-0_LAYER001
  6
CONTINUOUS
 62
    1
 10
1594.3259779999998
 20
1226.6322984999999
 11
1592.6725959999999
 21
1205.9991034999998
  0
LINE
  8
_0-0_LAYER001
  6
CONTINUOUS
 62
    1
 10
1588.192552
 20
1207.3736154999999
 11
1599.9973699999998
 21
1221.8734354999999
  0
LINE
  8
_0-0_LAYER001
  6
DASHED
 62
   18
 10
652.45413599999995
 20
798.12391949999983
 11
1509.7824649999998
 21
1183.9219504999999
  0
LINE
  8
_0-0_LAYER001
  6
DASHED
 62
   18
 10
2371.757697
 20
796.5863804999999
 11
1511.0135609999998
 21
1183.9219504999999
  0
LINE
  8
_0-0_LAYER001
  6
CONTINUOUS
 62
   18
 10
1510.3980769999998
 20
1182.5540684999999
 11
2371.2195099999999
 21
795.1841394999999
  0
LINE
  8
_0-0_LAYER001
  6
CONTINUOUS
 62
   18
 10
1510.3980129999995
 20
1182.5540684999999
 11
653.06968299999983
 21
796.75603749999982
  0
LINE
  8
_0-0_LAYER001
  6
CONTINUOUS
 62
   18
 10
1510.3980129999995
 20
1103.5998944999999
 11
2345.3794019999996
 21
727.8579944999999
  0
LINE
  8
_0-0_LAYER001
  6
CONTINUOUS
 62
   18
 10
1510.3980129999995
 20
1103.5998944999999
 11
682.61595799999998
 21
731.09769749999987
  0
LINE
  8
_0-0_LAYER001
  6
CONTINUOUS
 62
   18
 10
1510.3980449999999
 20
1169.3950534999999
 11
2366.9128269999997
 21
783.96311949999995
  0
LINE
  8
_0-0_LAYER001
  6
CONTINUOUS
 62
   18
 10
1510.3980449999999
 20
1169.3950534999999
 11
657.99406299999998
 21
785.81298149999975
  0
LINE
  8
_0-0_LAYER001
  6
CONTINUOUS
 62
   18
 10
1510.3980129999995
 20
1182.5540684999999
 11
1510.3980129999995
 21
1103.5998944999999
  0
LINE
  8
_0-0_LAYER001
  6
CONTINUOUS
 62
   18
 10
1571.7957359999996
 20
1075.9708985
 11
1571.7957359999996
 21
960.80888749999986
  0
LINE
  8
_0-0_LAYER001
  6
CONTINUOUS
 62
   18
 10
1571.7957359999996
 20
960.80888749999986
 11
1451.7957359999996
 21
960.80888749999986
  0
LINE
  8
_0-0_LAYER001
  6
CONTINUOUS
 62
   18
 10
1451.7957359999996
 20
960.80888749999986
 11
1451.7957359999996
 21
1077.2288504999999
  0
LINE
  8
_0-0_LAYER001
  6
CONTINUOUS
 62
   18
 10
1571.7957359999996
 20
1075.9708985
 11
1451.7957359999996
 21
960.80888749999986
  0
LINE
  8
_0-0_LAYER001
  6
CONTINUOUS
 62
   18
 10
1571.7957359999996
 20
960.80888749999986
 11
1451.7957359999996
 21
1077.2288504999999
  0
LINE
  8
_0-0_LAYER001
  6
CONTINUOUS
 62
   18
 10
1603.0325899999998
 20
1221.2672734999999
 11
1597.7292889999999
 21
1215.9639725
  0
LINE
  8
_0-0_LAYER001
  6
CONTINUOUS
 62
   18
 10
1597.7292889999999
 20
1215.9639725
 11
1599.6704319999999
 21
1223.2084164999999
  0
LINE
  8
_0-0_LAYER001
  6
CONTINUOUS
 62
   18
 10
1597.7292889999999
 20
1215.9639725
 11
1640.3111999999999
 21
1289.7180064999998
  0
LINE
  8
_0-0_LAYER001
  6
CONTINUOUS
 62
   18
 10
1640.3111999999999
 20
1289.7180064999998
 11
1737.8111999999996
 21
1289.7180064999998
  0
LINE
  8
_0-0_LAYER001
  6
CONTINUOUS
 62
   18
 10
1544.5556339999998
 20
1293.6573264999997
 11
1539.2523329999999
 21
1288.3540254999998
  0
LINE
  8
_0-0_LAYER001
  6
CONTINUOUS
 62
   18
 10
1539.2523329999999
 20
1288.3540254999998
 11
1541.1934759999999
 21
1295.5984695000002
  0
LINE
  8
_0-0_LAYER001
  6
CONTINUOUS
 62
   18
 10
1539.2523329999999
 20
1288.3540254999998
 11
1588.1399510000001
 21
1373.0298624999998
  0
LINE
  8
_0-0_LAYER001
  6
CONTINUOUS
 62
   18
 10
1588.1399510000001
 20
1373.0298624999998
 11
1628.6399509999999
 21
1373.0298624999998
  0
LINE
  8
_0-0_LAYER001
  6
CONTINUOUS
 62
   18
 10
1915.9675789999997
 20
1052.4499684999998
 11
1910.6642779999997
 21
1047.1466684999998
  0
LINE
  8
_0-0_LAYER001
  6
CONTINUOUS
 62
   18
 10
1910.6642779999997
 20
1047.1466684999998
 11
1912.6054209999998
 21
1054.3911114999999
  0
LINE
  8
_0-0_LAYER001
  6
CONTINUOUS
 62
   18
 10
1910.6642779999997
 20
1047.1466684999998
 11
1972.2382789999997
 21
1153.7959664999998
  0
LINE
  8
_0-0_LAYER001
  6
CONTINUOUS
 62
   18
 10
1972.2382789999997
 20
1153.7959664999998
 11
2012.7382789999997
 21
1153.7959664999998
  0
LINE
  8
_0-0_LAYER001
  6
CONTINUOUS
 62
   18
 10
697.68755399999986
 20
821.48443749999979
 11
725.25801799999977
 21
833.31108149999977
  0
LINE
  8
_0-0_LAYER001
  6
CONTINUOUS
 62
   18
 10
725.25801799999977
 20
833.31108149999977
 11
719.344696
 21
847.09631349999995
  0
LINE
  8
_0-0_LAYER001
  6
CONTINUOUS
 62
   18
 10
719.344696
 20
847.09631349999995
 11
691.77423199999976
 21
835.26966949999996
  0
LINE
  8
_0-0_LAYER001
  6
CONTINUOUS
 62
   18
 10
691.77423199999976
 20
835.26966949999996
 11
697.68755399999986
 21
821.48443749999979
  0
LINE
  8
_0-0_LAYER001
  6
CONTINUOUS
 62
   18
 10
719.344696
 20
847.09631349999995
 11
697.68755399999986
 21
821.48443749999979
  0
LINE
  8
_0-0_LAYER001
  6
CONTINUOUS
 62
   18
 10
952.69521799999984
 20
936.04795049999984
 11
980.36271999999997
 21
947.64576749999992
  0
LINE
  8
_0-0_LAYER001
  6
CONTINUOUS
 62
   18
 10
980.36271999999997
 20
947.64576749999992
 11
974.56381099999976
 21
961.47951849999981
  0
LINE
  8
_0-0_LAYER001
  6
CONTINUOUS
 62
   18
 10
974.56381099999976
 20
961.47951849999981
 11
946.89630999999986
 21
949.88170149999996
  0
LINE
  8
_0-0_LAYER001
  6
CONTINUOUS
 62
   18
 10
946.89630999999986
 20
949.88170149999996
 11
952.69521799999984
 21
936.04795049999984
  0
LINE
  8
_0-0_LAYER001
  6
CONTINUOUS
 62
   18
 10
974.56381099999976
 20
961.47951849999981
 11
952.69521799999984
 21
936.04795049999984
  0
LINE
  8
_0-0_LAYER001
  6
CONTINUOUS
 62
   18
 10
1208.0140519999998
 20
1050.9926994999998
 11
1235.6815539999998
 21
1062.5905154999998
  0
LINE
  8
_0-0_LAYER001
  6
CONTINUOUS
 62
   18
 10
1235.6815539999998
 20
1062.5905154999998
 11
1229.8826449999999
 21
1076.4242664999999
  0
LINE
  8
_0-0_LAYER001
  6
CONTINUOUS
 62
   18
 10
1229.8826449999999
 20
1076.4242664999999
 11
1202.2151439999998
 21
1064.8264505
  0
LINE
  8
_0-0_LAYER001
  6
CONTINUOUS
 62
   18
 10
1202.2151439999998
 20
1064.8264505
 11
1208.0140519999998
 21
1050.9926994999998
  0
LINE
  8
_0-0_LAYER001
  6
CONTINUOUS
 62
   18
 10
1229.8826449999999
 20
1076.4242664999999
 11
1208.0140519999998
 21
1050.9926994999998
  0
LINE
  8
_0-0_LAYER001
  6
CONTINUOUS
 62
   18
 10
1463.3328860000001
 20
1165.9374475
 11
1491.0003879999999
 21
1177.5352634999999
  0
LINE
  8
_0-0_LAYER001
  6
CONTINUOUS
 62
   18
 10
1491.0003879999999
 20
1177.5352634999999
 11
1485.2014799999997
 21
1191.3690144999998
  0
LINE
  8
_0-0_LAYER001
  6
CONTINUOUS
 62
   18
 10
1485.2014799999997
 20
1191.3690144999998
 11
1457.5339779999999
 21
1179.7711984999999
  0
LINE
  8
_0-0_LAYER001
  6
CONTINUOUS
 62
   18
 10
1457.5339779999999
 20
1179.7711984999999
 11
1463.3328860000001
 21
1165.9374475
  0
LINE
  8
_0-0_LAYER001
  6
CONTINUOUS
 62
   18
 10
1485.2014799999997
 20
1191.3690144999998
 11
1463.3328860000001
 21
1165.9374475
  0
LINE
  8
_0-0_LAYER001
  6
CONTINUOUS
 62
   18
 10
577.99212699999987
 20
1021.9738494999999
 11
599.53622899999982
 21
974.0979504999998
  0
CIRCLE
  8
_0-0_LAYER001
  6
CONTINUOUS
 62
   18
 10
579.01803699999982
 20
1019.6940444999998
 40
1.6999999999999997
  0
LINE
  8
_0-0_LAYER001
  6
CONTINUOUS
 62
   18
 10
579.01803699999982
 20
1019.6940444999998
 11
834.35616199999981
 21
1134.5959224999999
  0
CIRCLE
  8
_0-0_LAYER001
  6
CONTINUOUS
 62
   18
 10
834.35616199999981
 20
1134.5959224999999
 40
1.6999999999999997
  0
LINE
  8
_0-0_LAYER001
  6
CONTINUOUS
 62
   18
 10
833.33025299999986
 20
1136.8757274999998
 11
854.87435500000004
 21
1088.9998284999999
  0
LINE
  8
_0-0_LAYER001
  6
CONTINUOUS
 62
   18
 10
825.12297599999999
 20
1155.1141644999998
 11
846.66707799999972
 21
1107.2382664999998
  0
CIRCLE
  8
_0-0_LAYER001
  6
CONTINUOUS
 62
   18
 10
826.14888499999984
 20
1152.8343604999998
 40
1.6999999999999997
  0
LINE
  8
_0-0_LAYER001
  6
CONTINUOUS
 62
   18
 10
826.14888499999984
 20
1152.8343604999998
 11
1081.4870109999999
 21
1267.7362384999999
  0
CIRCLE
  8
_0-0_LAYER001
  6
CONTINUOUS
 62
   18
 10
1081.4870109999999
 20
1267.7362384999999
 40
1.6999999999999997
  0
LINE
  8
_0-0_LAYER001
  6
CONTINUOUS
 62
   18
 10
1080.4611009999999
 20
1270.0160424999999
 11
1102.0052039999998
 21
1222.1401444999999
  0
LINE
  8
_0-0_LAYER001
  6
CONTINUOUS
 62
   18
 10
1072.2538239999999
 20
1288.2544804999998
 11
1093.7979270000001
 21
1240.3785814999999
  0
CIRCLE
  8
_0-0_LAYER001
  6
CONTINUOUS
 62
   18
 10
1073.2797339999997
 20
1285.9746754999996
 40
1.6999999999999997
  0
LINE
  8
_0-0_LAYER001
  6
CONTINUOUS
 62
   18
 10
1073.2797339999997
 20
1285.9746754999996
 11
1328.6178599999998
 21
1400.8765534999998
  0
CIRCLE
  8
_0-0_LAYER001
  6
CONTINUOUS
 62
   18
 10
1328.6178599999998
 20
1400.8765534999998
 40
1.6999999999999997
  0
LINE
  8
_0-0_LAYER001
  6
CONTINUOUS
 62
   18
 10
1327.5919499999998
 20
1403.1563584999999
 11
1349.1360519999998
 21
1355.2804605000001
  0
LINE
  8
_0-0_LAYER001
  6
CONTINUOUS
 62
   18
 10
2323.1084719999999
 20
821.48443749999979
 11
2295.5380079999995
 21
833.31108149999977
  0
LINE
  8
_0-0_LAYER001
  6
CONTINUOUS
 62
   18
 10
2295.5380079999995
 20
833.31108149999977
 11
2301.4513299999999
 21
847.09631349999995
  0
LINE
  8
_0-0_LAYER001
  6
CONTINUOUS
 62
   18
 10
2301.4513299999999
 20
847.09631349999995
 11
2329.0217939999998
 21
835.26966949999996
  0
LINE
  8
_0-0_LAYER001
  6
CONTINUOUS
 62
   18
 10
2329.0217939999998
 20
835.26966949999996
 11
2323.1084719999999
 21
821.48443749999979
  0
LINE
  8
_0-0_LAYER001
  6
CONTINUOUS
 62
   18
 10
2301.4513299999999
 20
847.09631349999995
 11
2323.1084719999999
 21
821.48443749999979
  0
LINE
  8
_0-0_LAYER001
  6
CONTINUOUS
 62
   18
 10
2068.1008079999997
 20
936.04795049999984
 11
2040.4333059999999
 21
947.64576749999992
  0
LINE
  8
_0-0_LAYER001
  6
CONTINUOUS
 62
   18
 10
2040.4333059999999
 20
947.64576749999992
 11
2046.2322139999997
 21
961.47951849999981
  0
LINE
  8
_0-0_LAYER001
  6
CONTINUOUS
 62
   18
 10
2046.2322139999997
 20
961.47951849999981
 11
2073.8997159999999
 21
949.88170149999996
  0
LINE
  8
_0-0_LAYER001
  6
CONTINUOUS
 62
   18
 10
2073.8997159999999
 20
949.88170149999996
 11
2068.1008079999997
 21
936.04795049999984
  0
LINE
  8
_0-0_LAYER001
  6
CONTINUOUS
 62
   18
 10
2046.2322139999997
 20
961.47951849999981
 11
2068.1008079999997
 21
936.04795049999984
  0
LINE
  8
_0-0_LAYER001
  6
CONTINUOUS
 62
   18
 10
1812.7819729999997
 20
1050.9926994999998
 11
1785.1144719999998
 21
1062.5905154999998
  0
LINE
  8
_0-0_LAYER001
  6
CONTINUOUS
 62
   18
 10
1785.1144719999998
 20
1062.5905154999998
 11
1790.91338
 21
1076.4242664999999
  0
LINE
  8
_0-0_LAYER001
  6
CONTINUOUS
 62
   18
 10
1790.91338
 20
1076.4242664999999
 11
1818.5808819999997
 21
1064.8264505
  0
LINE
  8
_0-0_LAYER001
  6
CONTINUOUS
 62
   18
 10
1818.5808819999997
 20
1064.8264505
 11
1812.7819729999997
 21
1050.9926994999998
  0
LINE
  8
_0-0_LAYER001
  6
CONTINUOUS
 62
   18
 10
1790.91338
 20
1076.4242664999999
 11
1812.7819729999997
 21
1050.9926994999998
  0
LINE
  8
_0-0_LAYER001
  6
CONTINUOUS
 62
   18
 10
1557.4631389999995
 20
1165.9374475
 11
1529.7956380000001
 21
1177.5352634999999
  0
LINE
  8
_0-0_LAYER001
  6
CONTINUOUS
 62
   18
 10
1529.7956380000001
 20
1177.5352634999999
 11
1535.5945459999998
 21
1191.3690144999998
  0
LINE
  8
_0-0_LAYER001
  6
CONTINUOUS
 62
   18
 10
1535.5945459999998
 20
1191.3690144999998
 11
1563.2620479999996
 21
1179.7711984999999
  0
LINE
  8
_0-0_LAYER001
  6
CONTINUOUS
 62
   18
 10
1563.2620479999996
 20
1179.7711984999999
 11
1557.4631389999995
 21
1165.9374475
  0
LINE
  8
_0-0_LAYER001
  6
CONTINUOUS
 62
   18
 10
1535.5945459999998
 20
1191.3690144999998
 11
1557.4631389999995
 21
1165.9374475
  0
LINE
  8
_0-0_LAYER001
  6
CONTINUOUS
 62
   18
 10
1426.4700469999998
 20
1226.6322984999999
 11
1433.7290800000001
 21
1207.7189604999999
  0
ARC
  8
_0-0_LAYER001
  6
CONTINUOUS
 62
   18
 10
1395.7802269999997
 20
1196.1448344999999
 40
23.813002999999998
 50
16.897987000000001
 51
39.238689000000001
  0
LINE
  8
_0-0_LAYER001
  6
CONTINUOUS
 62
   18
 10
1594.3259779999998
 20
1226.6322984999999
 11
1587.0669449999996
 21
1207.7189604999999
  0
ARC
  8
_0-0_LAYER001
  6
CONTINUOUS
 62
   18
 10
1625.0157989999998
 20
1196.1448344999999
 40
23.813002999999998
 50
140.76131100000001
 51
163.102013
  0
LINE
  8
_0-0_LAYER001
  6
CONTINUOUS
 62
   18
 10
1507.9584719999998
 20
1314.5626734999998
 11
1504.7064519999999
 21
1316.6229534999998
  0
LINE
  8
_0-0_LAYER001
  6
CONTINUOUS
 62
   18
 10
1507.9761119999998
 20
1253.5338434999999
 11
1510.4202719999998
 21
1241.8832734999999
  0
LINE
  8
_0-0_LAYER001
  6
CONTINUOUS
 62
   18
 10
1510.4202719999998
 20
1241.8832734999999
 11
1512.6371319999998
 21
1252.1642634999998
  0
LINE
  8
_0-2_LAYER004
  6
CONTINUOUS
 62
   18
 10
1488.7897419999999
 20
1226.1283794999999
 11
1488.7897419999999
 21
1269.1283094999999
  0
LINE
  8
_0-2_LAYER004
  6
CONTINUOUS
 62
   18
 10
1531.7900019999997
 20
1269.1283094999999
 11
1531.7900019999997
 21
1226.1283794999999
  0
LINE
  8
_0-2_LAYER004
  6
CONTINUOUS
 62
   18
 10
1531.7900019999997
 20
1226.1283794999999
 11
1488.7897419999999
 21
1226.1283794999999
  0
LINE
  8
_0-1_LAYER003
  6
CONTINUOUS
 62
   18
 10
1533.7899119999997
 20
1224.1282994999999
 11
1486.7894619999997
 21
1224.1282994999999
  0
LINE
  8
_0-1_LAYER003
  6
CONTINUOUS
 62
   18
 10
1486.7894619999997
 20
1251.6175694999999
 11
1488.7897419999999
 21
1251.6175694999999
  0
LINE
  8
_0-1_LAYER003
  6
CONTINUOUS
 62
   18
 10
1486.7894619999997
 20
1224.1282994999999
 11
1486.7894619999997
 21
1251.6175694999999
  0
LINE
  8
_0-1_LAYER003
  6
CONTINUOUS
 62
   18
 10
1531.7900019999997
 20
1251.6175694999999
 11
1533.7899119999997
 21
1251.6175694999999
  0
LINE
  8
_0-1_LAYER003
  6
CONTINUOUS
 62
   18
 10
1533.7899119999997
 20
1251.6175694999999
 11
1533.7899119999997
 21
1224.1282994999999
  0
LINE
  8
_0-0_LAYER001
  6
CONTINUOUS
 62
   18
 10
1507.959312
 20
1312.1776234999998
 11
1507.9761119999998
 21
1253.5338434999999
  0
LINE
  8
_0-0_LAYER001
  6
CONTINUOUS
 62
   18
 10
1512.6376119999998
 20
1312.1557334999998
 11
1512.6371319999998
 21
1252.1642634999998
  0
LINE
  8
_0-0_LAYER001
  6
CONTINUOUS
 62
   18
 10
1505.7207619999999
 20
1314.5632535
 11
1505.7207619999999
 21
1312.1452334999999
  0
LINE
  8
_0-0_LAYER001
  6
CONTINUOUS
 62
   18
 10
1505.7207619999999
 20
1312.1452334999999
 11
1514.6189419999998
 21
1312.1452334999999
  0
LINE
  8
_0-0_LAYER001
  6
CONTINUOUS
 62
   18
 10
1514.6189419999998
 20
1312.1452334999999
 11
1514.6189419999998
 21
1314.5632535
  0
LINE
  8
_0-0_LAYER001
  6
CONTINUOUS
 62
   18
 10
1514.6189419999998
 20
1314.5632535
 11
1505.7207619999999
 21
1314.5632535
  0
LINE
  8
_0-0_LAYER001
  6
CONTINUOUS
 62
   18
 10
1512.6376119999998
 20
1314.4941234999999
 11
1516.2228519999999
 21
1316.6229534999998
  0
LINE
  8
_0-0_LAYER001
  6
CONTINUOUS
 62
   18
 10
1504.7064519999999
 20
1316.6229534999998
 11
1516.2228519999999
 21
1316.6229534999998
  0
LINE
  8
_0-0_LAYER001
  6
CONTINUOUS
 62
   18
 10
1500.3977519999999
 20
1197.9180694999998
 11
1520.3977419999999
 21
1197.9180694999998
  0
LINE
  8
_0-0_LAYER001
  6
CONTINUOUS
 62
   18
 10
1500.3977519999999
 20
1181.7369654999998
 11
1412.8024119999998
 21
1142.5499394999999
  0
LINE
  8
_0-0_LAYER001
  6
CONTINUOUS
 62
   18
 10
1500.3977519999999
 20
1181.7369654999998
 11
1500.3977519999999
 21
1197.9180694999998
  0
LINE
  8
_0-0_LAYER001
  6
CONTINUOUS
 62
   18
 10
1510.3980129999995
 20
1185.1150344999999
 11
1413.2107019999999
 21
1141.6370894999998
  0
LINE
  8
_0-0_LAYER001
  6
CONTINUOUS
 62
   18
 10
1501.3977819999996
 20
1181.0886694999999
 11
1501.3977819999996
 21
1196.9179794999998
  0
LINE
  8
_0-0_LAYER001
  6
CONTINUOUS
 62
   18
 10
1501.3977819999996
 20
1196.9179794999998
 11
1519.3978619999998
 21
1196.9179794999998
  0
LINE
  8
_0-0_LAYER001
  6
CONTINUOUS
 62
   18
 10
1412.8024119999998
 20
1142.5499394999999
 11
1413.2107019999999
 21
1141.6370894999998
  0
LINE
  8
_0-0_LAYER001
  6
CONTINUOUS
 62
   18
 10
1607.9932319999998
 20
1142.5499394999999
 11
1607.5849919999998
 21
1141.6370894999998
  0
LINE
  8
_0-0_LAYER001
  6
CONTINUOUS
 62
   18
 10
1520.3977419999999
 20
1181.7370234999999
 11
1607.9932319999998
 21
1142.5499394999999
  0
LINE
  8
_0-0_LAYER001
  6
CONTINUOUS
 62
   18
 10
1520.3977419999999
 20
1197.9180694999998
 11
1520.3977419999999
 21
1181.7370234999999
  0
LINE
  8
_0-0_LAYER001
  6
CONTINUOUS
 62
   18
 10
1510.3980129999995
 20
1185.1150344999999
 11
1607.5849919999998
 21
1141.6370894999998
  0
LINE
  8
_0-0_LAYER001
  6
CONTINUOUS
 62
   18
 10
1519.3978619999998
 20
1196.9179794999998
 11
1519.3978619999998
 21
1181.0888264999999
  0
LINE
  8
_0-1_LAYER003
  6
CONTINUOUS
 62
   18
 10
1510.4162219999998
 20
1131.3341894999999
 11
1506.3979119999999
 21
1165.4547395
  0
LINE
  8
_0-1_LAYER003
  6
CONTINUOUS
 62
   18
 10
1510.4162219999998
 20
1131.3341894999999
 11
1514.3977319999999
 21
1165.1421194999998
  0
LINE
  8
_0-1_LAYER003
  6
CONTINUOUS
 62
   18
 10
1506.3979119999999
 20
1224.1282994999999
 11
1506.3979119999999
 21
1165.4547395
  0
LINE
  8
_0-1_LAYER003
  6
CONTINUOUS
 62
   18
 10
1514.3977319999999
 20
1224.1282994999999
 11
1514.3977319999999
 21
1165.1421194999998
  0
LINE
  8
_0-3_LAYER006
  6
CONTINUOUS
 62
   18
 10
1531.7900019999997
 20
1269.1283094999999
 11
1488.7897419999999
 21
1226.1283794999999
  0
LINE
  8
_0-3_LAYER006
  6
CONTINUOUS
 62
   18
 10
1488.7897419999999
 20
1269.1283094999999
 11
1531.7900019999997
 21
1226.1283794999999
  0
LINE
  8
_0-2_LAYER004
  6
CONTINUOUS
 62
   18
 10
1488.7897419999999
 20
1269.1283094999999
 11
1531.7900019999997
 21
1269.1283094999999
  0
LINE
  8
_0-3_LAYER006
  6
CONTINUOUS
 62
   18
 10
1506.9761719999999
 20
1253.2659234999999
 11
1513.6371219999999
 21
1255.0507234999998
  0
LINE
  8
_0-3_LAYER006
  6
CONTINUOUS
 62
   18
 10
1506.9761719999999
 20
1257.2659134999999
 11
1513.6371219999999
 21
1259.0507134999998
  0
LINE
  8
_0-3_LAYER006
  6
CONTINUOUS
 62
   18
 10
1506.9761719999999
 20
1261.2658934999999
 11
1513.6371219999999
 21
1263.0507034999998
  0
LINE
  8
_0-3_LAYER006
  6
CONTINUOUS
 62
   18
 10
1506.9761719999999
 20
1265.2659434999998
 11
1513.6371219999999
 21
1267.0507435
  0
LINE
  8
_0-3_LAYER006
  6
CONTINUOUS
 62
   18
 10
1506.9761719999999
 20
1269.2659234999999
 11
1513.6371219999999
 21
1271.0507234999998
  0
LINE
  8
_0-3_LAYER006
  6
CONTINUOUS
 62
   18
 10
1506.9761719999999
 20
1273.2659134999999
 11
1513.6371219999999
 21
1275.0507134999998
  0
LINE
  8
_0-3_LAYER006
  6
CONTINUOUS
 62
   18
 10
1506.9761719999999
 20
1277.2659034999999
 11
1513.6371219999999
 21
1279.0507034999998
  0
LINE
  8
_0-3_LAYER006
  6
CONTINUOUS
 62
   18
 10
1506.9761719999999
 20
1281.2659434999998
 11
1513.6371219999999
 21
1283.0507435
  0
LINE
  8
_0-3_LAYER006
  6
CONTINUOUS
 62
   18
 10
1506.9761719999999
 20
1285.2659334999998
 11
1513.6371219999999
 21
1287.0507334999998
  0
LINE
  8
_0-3_LAYER006
  6
CONTINUOUS
 62
   18
 10
1506.9761719999999
 20
1289.2659234999999
 11
1513.6371219999999
 21
1291.0507234999998
  0
LINE
  8
_0-3_LAYER006
  6
CONTINUOUS
 62
   18
 10
1506.9761719999999
 20
1293.2659035000001
 11
1513.6371219999999
 21
1295.0507034999998
  0
ARC
  8
_0-0_LAYER001
  6
CONTINUOUS
 62
   18
 10
1510.4645719999999
 20
1309.5357734999998
 40
9.1314759999999993
 50
50.907179999999997
 51
129.09278
  0
LINE
  8
_0-0_LAYER001
  6
CONTINUOUS
 62
   18
 10
1524.7011629999997
 20
1202.2212804999999
 11
1519.3978619999998
 21
1196.9179794999998
  0
LINE
  8
_0-0_LAYER001
  6
CONTINUOUS
 62
   18
 10
1519.3978619999998
 20
1196.9179794999998
 11
1521.3390049999998
 21
1204.1624234999999
  0
LINE
  8
_0-0_LAYER001
  6
CONTINUOUS
 62
   18
 10
1519.3978619999998
 20
1196.9179794999998
 11
1593.4070470000001
 21
1325.1056484999999
  0
LINE
  8
_0-0_LAYER001
  6
CONTINUOUS
 62
   18
 10
1593.4070470000001
 20
1325.1056484999999
 11
1691.0546499999998
 21
1325.1056484999999
  0
LINE
  8
_0-0_LAYER001
  6
CONTINUOUS
 62
   18
 10
1480.7218639999999
 20
1090.2456184999999
 11
1541.5902029999997
 21
1090.2456184999999
  0
LINE
  8
_0-0_LAYER001
  6
CONTINUOUS
 62
   18
 10
1494.2327969999999
 20
1267.2009494999998
 11
1496.1739399999999
 21
1259.9565064999999
  0
LINE
  8
_0-0_LAYER001
  6
CONTINUOUS
 62
   18
 10
1496.1739399999999
 20
1259.9565064999999
 11
1490.8706389999998
 21
1265.2598074999999
  0
LINE
  8
_0-0_LAYER001
  6
CONTINUOUS
 62
   18
 10
1496.1739399999999
 20
1259.9565064999999
 11
1401.4956539999998
 21
1423.9441075
  0
LINE
  8
_0-0_LAYER001
  6
CONTINUOUS
 62
   18
 10
1401.4956539999998
 20
1423.9441075
 11
1227.0954779999997
 21
1423.9441075
  0
LINE
  8
_0-0_LAYER001
  6
CONTINUOUS
 62
   18
 10
1513.3364129999998
 20
1305.8267504999999
 11
1508.0331120000001
 21
1300.5234495
  0
LINE
  8
_0-0_LAYER001
  6
CONTINUOUS
 62
   18
 10
1508.0331120000001
 20
1300.5234495
 11
1509.9742549999999
 21
1307.7678934999999
  0
LINE
  8
_0-0_LAYER001
  6
CONTINUOUS
 62
   18
 10
1508.0331120000001
 20
1300.5234495
 11
1572.3281929999998
 21
1411.8857965000002
  0
LINE
  8
_0-0_LAYER001
  6
CONTINUOUS
 62
   18
 10
1572.3281929999998
 20
1411.8857965000002
 11
1775.4214749999996
 21
1411.8857965000002
  0
LINE
  8
_0-0_LAYER001
  6
CONTINUOUS
 62
   18
 10
1035.1790679999999
 20
658.5558924999998
 11
1099.8142059999998
 21
658.5558924999998
  0
LINE
  8
_0-0_LAYER001
  6
CONTINUOUS
 62
   18
 10
1028.0058869999998
 20
688.42246549999982
 11
1248.9465149999999
 21
688.42246549999982
  0
LINE
  8
_0-0_LAYER001
  6
CONTINUOUS
 62
   18
 10
1018.4627949999998
 20
718.51778749999994
 11
1260.0761529999997
 21
718.51778749999994
  0
LINE
  8
_0-0_LAYER001
  6
CONTINUOUS
 62
   18
 10
957.57122799999991
 20
940.69229449999989
 11
957.57122799999991
 21
948.19229449999989
  0
LINE
  8
_0-0_LAYER001
  6
CONTINUOUS
 62
   18
 10
957.57122799999991
 20
948.19229449999989
 11
961.32122799999991
 21
941.6971044999998
  0
LINE
  8
_0-0_LAYER001
  6
CONTINUOUS
 62
   18
 10
957.57122799999991
 20
948.19229449999989
 11
1035.1790679999999
 21
658.5558924999998
  0
LINE
  8
_0-0_LAYER001
  6
CONTINUOUS
 62
   18
 10
1011.0789559999998
 20
748.49873549999984
 11
1215.9016689999999
 21
748.49873549999984
  0
TEXT
  8
_0-0_LAYER001
 62
    7
 10
1640.3111999999999
 20
1292.2180064999995
 40
20
 41
1
 50
0
  1
弾性シール材
  0
TEXT
  8
_0-0_LAYER001
 62
    7
 10
1593.4070469999997
 20
1327.6056484999995
 40
20
 41
1
 50
0
  1
棟補強金物
  0
TEXT
  8
_0-0_LAYER001
 62
    7
 10
1035.1790679999997
 20
661.05589249999957
 40
20
 41
1
 50
0
  1
　垂木
  0
TEXT
  8
_0-0_LAYER001
 62
    7
 10
1028.0058869999998
 20
690.92246549999936
 40
20
 41
1
 50
0
  1
　野地板：耐水合板ｔ＝１２
  0
TEXT
  8
_0-0_LAYER001
 62
    7
 10
1971.186994533442
 20
1156.0117717172418
 40
20
 41
1
 50
0
  1
桟　瓦
  0
TEXT
  8
_0-0_LAYER001
 62
    7
 10
1013.0196389097298
 20
755.4664017433945
 40
20
 41
1
 50
0
  1
　瓦桟：１５ｘ３０以上
  0
TEXT
  8
_0-0_LAYER001
 62
    7
 10
1576.924689186636
 20
1419.9004860529526
 40
20
 41
1
 50
0
  1
　パッキンステンレスネジ
  0
TEXT
  8
_0-0_LAYER001
 62
    7
 10
1589.4908184407168
 20
1374.3482675069074
 40
20
 41
1
 50
0
  1
棟　瓦
  0
TEXT
  8
_0-0_LAYER001
 62
    7
 10
1185.1558105577737
 20
1354.6130878274557
 40
20
 41
1
 50
24.227693000000027
  1
280
  0
TEXT
  8
_0-0_LAYER001
 62
    7
 10
939.08913261300768
 20
1221.2986874414128
 40
20
 41
1
 50
24.227693000000002
  1
280
  0
TEXT
  8
_0-0_LAYER001
 62
    7
 10
688.77971603673905
 20
1086.7392900911643
 40
20
 41
1
 50
24.227692999999988
  1
280
  0
TEXT
  8
_0-0_LAYER001
 62
    7
 10
1231.3561346993952
 20
1430.8958491502733
 40
20
 41
1
 50
0
  1
芯木：40x30以上
  0
TEXT
  8
_0-0_LAYER001
 62
    7
 10
1018.4627949999998
 20
721.01778750000051
 40
20
 41
1
 50
0
  1
　下葺材：ルーフィング
  0
ENDSEC
  0
EOF
