  0
SECTION
  2
HEADER
  9
$ACADVER
  1
AC1009
  9
$INSBASE
 10
0
 20
0
 30
0
  9
$EXTMIN
 10
0
 20
0
  9
$EXTMAX
 10
2970
 20
2100
  9
$LIMMIN
 10
0
 20
0
  9
$LIMMAX
 10
2970
 20
2100
  9
$LTSCALE
 40
10
  0
ENDSEC
  0
SECTION
  2
TABLES
  0
TABLE
  2
LTYPE
 70
     9
  0
LTYPE
  2
CONTINUOUS
 70
    64
  3
実線
 72
    65
 73
     0
 40
0.0
  0
LTYPE
  2
DASHED1
 70
    64
  3
--  --  --  --  --  --  --  --  
 72
    65
 73
     2
 40
2.5
 49
1.25
 49
-1.25
  0
LTYPE
  2
DASHED2
 70
    64
  3
----    ----    ----    ----    
 72
    65
 73
     2
 40
5.0
 49
2.5
 49
-2.5
  0
LTYPE
  2
DASHED3
 70
    64
  3
------  ------  ------  ------  
 72
    65
 73
     2
 40
5.0
 49
3.75
 49
-1.25
  0
LTYPE
  2
CENTER1
 70
    64
  3
----- - ----- - ----- - ----- - 
 72
    65
 73
     4
 40
10.0
 49
6.25
 49
-1.25
 49
1.25
 49
-1.25
  0
LTYPE
  2
CENTER2
 70
    64
  3
----------  --  ----------  --  
 72
    65
 73
     4
 40
20.0
 49
12.5
 49
-2.5
 49
2.5
 49
-2.5
  0
LTYPE
  2
PHANTOM1
 70
    64
  3
--- - - --- - - --- - - --- - - 
 72
    65
 73
     6
 40
10.0
 49
3.25
 49
-1.25
 49
1.25
 49
-1.25
 49
1.25
 49
-1.25
  0
LTYPE
  2
PHANTOM2
 70
    64
  3
--------  -  -  --------  -  -  
 72
    65
 73
     6
 40
20.0
 49
10.0
 49
-2.5
 49
1.25
 49
-2.5
 49
1.25
 49
-2.5
  0
LTYPE
  2
DOT
 70
    64
  3
-   -   -   -   -   -   -   -   
 72
    65
 73
     2
 40
2.5
 49
0.625
 49
-1.875
  0
LTYPE
  2
DUMMY
 70
    64
  3
ダミー
 72
    65
 73
     0
 40
0.0
  0
LTYPE
  2
RAND1
 70
    64
  3
ランダム線1
 72
    65
 73
     4
 40
10.0
 49
1.0
 49
-2.0
 49
3.0
 49
-4.0
  0
LTYPE
  2
RAND2
 70
    64
  3
ランダム線2
 72
    65
 73
     4
 40
14.0
 49
2.0
 49
-3.0
 49
4.0
 49
-5.0
  0
LTYPE
  2
RAND3
 70
    64
  3
ランダム線3
 72
    65
 73
     4
 40
18.0
 49
3.0
 49
-4.0
 49
5.0
 49
-6.0
  0
LTYPE
  2
RAND4
 70
    64
  3
ランダム線4
 72
    65
 73
     4
 40
22.0
 49
4.0
 49
-5.0
 49
6.0
 49
-7.0
  0
LTYPE
  2
RAND5
 70
    64
  3
ランダム線5
 72
    65
 73
     4
 40
26.0
 49
5.0
 49
-6.0
 49
7.0
 49
-8.0
  0
LTYPE
  2
LONG1
 70
    64
  3
----------  --  ----------  --  
 72
    65
 73
     4
 40
40.0
 49
32.5
 49
-2.5
 49
2.5
 49
-2.5
  0
LTYPE
  2
LONG2
 70
    64
  3
--------  -  -  --------  -  -  
 72
    65
 73
     6
 40
40.0
 49
30.0
 49
-2.5
 49
1.25
 49
-2.5
 49
1.25
 49
-2.5
  0
LTYPE
  2
LONG3
 70
    64
  3
+++++++++++++++..+++++++++++++++
 72
    65
 73
     2
 40
40.0
 49
37.5
 49
-2.5
  0
LTYPE
  2
LONG4
 70
    64
  3
+++++++++++++++..+++++++++++++++
 72
    65
 73
     2
 40
80.0
 49
75.0
 49
-5.0
  0
LTYPE
  2
LONG5
 70
    64
  3
----------  --  ----------  --  
 72
    65
 73
     4
 40
60.0
 49
37.5
 49
-7.5
 49
7.5
 49
-7.5
  0
LTYPE
  2
dashed
 70
   64
  3
-------   -------------   ------
 72
   65
 73
    2
 40
7.5
 49
6
 49
-1.5
  0
LTYPE
  2
dashed_spaced
 70
   64
  3
----        --------        ----
 72
   65
 73
    2
 40
12
 49
6
 49
-6
  0
LTYPE
  2
long_dashed_dotted
 70
   64
  3
------------- --- --------------
 72
   65
 73
    4
 40
15.25
 49
12
 49
-1.5
 49
0.25
 49
-1.5
  0
LTYPE
  2
long_dashed_double-dotted
 70
   64
  3
----------- --- --- ------------
 72
   65
 73
    6
 40
17
 49
12
 49
-1.5
 49
0.25
 49
-1.5
 49
0.25
 49
-1.5
  0
LTYPE
  2
long_dashed_triplicate-dotted
 70
   64
  3
--------- --- --- --- ----------
 72
   65
 73
    8
 40
18.75
 49
12
 49
-1.5
 49
0.25
 49
-1.5
 49
0.25
 49
-1.5
 49
0.25
 49
-1.5
  0
LTYPE
  2
dotted
 70
   64
  3
   -       -       -       -    
 72
   65
 73
    2
 40
1.75
 49
0.25
 49
-1.5
  0
LTYPE
  2
chain
 70
   64
  3
-------------- -- --------------
 72
   65
 73
    4
 40
18.5
 49
12
 49
-1.5
 49
3.5
 49
-1.5
  0
LTYPE
  2
chain_double_dash
 70
   64
  3
------------ -- -- -------------
 72
   65
 73
    6
 40
23.5
 49
12
 49
-1.5
 49
3.5
 49
-1.5
 49
3.5
 49
-1.5
  0
LTYPE
  2
dashed_dotted
 70
   64
  3
-----------     -     ----------
 72
   65
 73
    4
 40
9.25
 49
6
 49
-1.5
 49
0.25
 49
-1.5
  0
LTYPE
  2
double-dashed_dotted
 70
   64
  3
------   -----------   -   -----
 72
   65
 73
    6
 40
16.75
 49
6
 49
-1.5
 49
6
 49
-1.5
 49
0.25
 49
-1.5
  0
LTYPE
  2
dashed_double-dotted
 70
   64
  3
---------    -    -    ---------
 72
   65
 73
    6
 40
11
 49
6
 49
-1.5
 49
0.25
 49
-1.5
 49
0.25
 49
-1.5
  0
LTYPE
  2
double-dashed_double-dotted
 70
   64
  3
-----   ---------   -   -   ----
 72
   65
 73
    8
 40
18.5
 49
6
 49
-1.5
 49
6
 49
-1.5
 49
0.25
 49
-1.5
 49
0.25
 49
-1.5
  0
LTYPE
  2
dashed_triplicate-dotted
 70
   64
  3
-------    -    -    -    ------
 72
   65
 73
    8
 40
12.75
 49
6
 49
-1.5
 49
0.25
 49
-1.5
 49
0.25
 49
-1.5
 49
0.25
 49
-1.5
  0
LTYPE
  2
double-dashed_triplicate-dotted
 70
   64
  3
-----  ---------  -  -  -  -----
 72
   65
 73
   10
 40
20.25
 49
6
 49
-1.5
 49
6
 49
-1.5
 49
0.25
 49
-1.5
 49
0.25
 49
-1.5
 49
0.25
 49
-1.5
  0
LTYPE
  2
undefined
 70
   64
  3
--------------------------------
 72
   65
 73
    0
 40
0
  0
LTYPE
  2
HIDDEN
 70
   64
  3
----        --------        ----
 72
   65
 73
    0
 40
0
  0
LTYPE
  2
DASHED
 70
   64
  3
-------   -------------   ------
 72
   65
 73
    0
 40
0
  0
LTYPE
  2
CENTER
 70
   64
  3
------------   ---   -----------
 72
   65
 73
    0
 40
0
  0
LTYPE
  2
PHANTOM
 70
   64
  3
---------   ---   ---   --------
 72
   65
 73
    0
 40
0
  0
ENDTAB
  0
TABLE
  2
STYLE
  5
3
100
AcDbSymbolTable
 70
     1
  0
STYLE
  5
10
100
AcDbSymbolTableRecord
100
AcDbTextStyleTableRecord
  2
STANDARD
 70
     0
 40
0.0
 41
1.0
 50
0.0
 71
     0
 42
0.2
  3
txt
  4
bigfont.shx
  0
STYLE
  5
26
100
AcDbSymbolTableRecord
100
AcDbTextStyleTableRecord
  2
TATEGAKI
 70
    68
 40
0.0
 41
1.0
 50
0.0
 71
     0
 42
1.0
  3
txt
  4
bigfont.shx
  0
ENDTAB
  0
TABLE
  2
LAYER
 70
    3
  0
LAYER
  2
_0-0_LAYER002
 70
   64
 62
    7
  6
CONTINUOUS
  0
LAYER
  2
_0-1_ADD_LINE
 70
   64
 62
    7
  6
CONTINUOUS
  0
LAYER
  2
ADD_LINE
 70
   64
 62
    7
  6
CONTINUOUS
  0
ENDTAB
  0
ENDSEC
  0
SECTION
  2
BLOCKS
  0
ENDSEC
  0
SECTION
  2
ENTITIES
  0
LINE
  8
_0-0_LAYER002
  6
CONTINUOUS
 62
    2
 10
939.93949999999995
 20
1461.6382000000001
 11
871.78729999999996
 21
1461.6382000000001
  0
LINE
  8
_0-0_LAYER002
  6
CONTINUOUS
 62
    3
 10
899.93949999999995
 20
1458.6189999999999
 11
829.93949999999995
 21
1458.6189999999999
  0
LINE
  8
_0-0_LAYER002
  6
CONTINUOUS
 62
    3
 10
829.93949999999995
 20
1458.6382000000001
 11
850.90589999999997
 21
1458.6382000000001
  0
LINE
  8
_0-0_LAYER002
  6
CONTINUOUS
 62
    3
 10
850.90589999999997
 20
1458.6382000000001
 11
850.90589999999997
 21
1360.6382000000003
  0
LINE
  8
_0-0_LAYER002
  6
CONTINUOUS
 62
    3
 10
850.90589999999997
 20
1360.6382000000003
 11
829.93949999999995
 21
1360.6382000000003
  0
LINE
  8
_0-0_LAYER002
  6
CONTINUOUS
 62
    3
 10
829.93949999999995
 20
1360.6382000000003
 11
829.93949999999995
 21
1458.6382000000001
  0
LINE
  8
_0-0_LAYER002
  6
CONTINUOUS
 62
    2
 10
910.90589999999997
 20
1386.6382000000001
 11
850.90589999999997
 21
1386.6382000000001
  0
LINE
  8
_0-0_LAYER002
  6
CONTINUOUS
 62
    2
 10
850.90589999999997
 20
1386.6382000000001
 11
850.90589999999997
 21
1446.6382000000001
  0
LINE
  8
_0-0_LAYER002
  6
CONTINUOUS
 62
    2
 10
850.90589999999997
 20
1446.6382000000001
 11
910.90589999999997
 21
1446.6382000000001
  0
LINE
  8
_0-0_LAYER002
  6
CONTINUOUS
 62
    2
 10
910.90589999999997
 20
1446.6382000000001
 11
910.90589999999997
 21
1386.6382000000001
  0
LINE
  8
_0-0_LAYER002
  6
CONTINUOUS
 62
    2
 10
910.90589999999997
 20
1446.6382000000001
 11
850.90589999999997
 21
1386.6382000000001
  0
LINE
  8
_0-0_LAYER002
  6
CONTINUOUS
 62
    2
 10
829.93949999999995
 20
1362.9320000000002
 11
832.2333000000001
 21
1360.6382000000003
  0
LINE
  8
_0-0_LAYER002
  6
CONTINUOUS
 62
    2
 10
829.93949999999995
 20
1373.5385999999999
 11
842.83989999999994
 21
1360.6382000000003
  0
LINE
  8
_0-0_LAYER002
  6
CONTINUOUS
 62
    2
 10
829.93949999999995
 20
1384.1451999999999
 11
850.90589999999997
 21
1363.1788000000001
  0
LINE
  8
_0-0_LAYER002
  6
CONTINUOUS
 62
    2
 10
829.93949999999995
 20
1394.7518
 11
850.90589999999997
 21
1373.7853999999998
  0
LINE
  8
_0-0_LAYER002
  6
CONTINUOUS
 62
    2
 10
829.93949999999995
 20
1405.3584000000001
 11
850.90589999999997
 21
1384.3920000000001
  0
LINE
  8
_0-0_LAYER002
  6
CONTINUOUS
 62
    2
 10
829.93949999999995
 20
1415.9649999999999
 11
850.90589999999997
 21
1394.9985999999999
  0
LINE
  8
_0-0_LAYER002
  6
CONTINUOUS
 62
    2
 10
829.93949999999995
 20
1426.5716
 11
850.90589999999997
 21
1405.6052
  0
LINE
  8
_0-0_LAYER002
  6
CONTINUOUS
 62
    2
 10
829.93949999999995
 20
1437.1782000000003
 11
850.90589999999997
 21
1416.2118
  0
LINE
  8
_0-0_LAYER002
  6
CONTINUOUS
 62
    2
 10
829.93949999999995
 20
1447.7847999999999
 11
850.90589999999997
 21
1426.8184000000001
  0
LINE
  8
_0-0_LAYER002
  6
CONTINUOUS
 62
    2
 10
829.93949999999995
 20
1458.3914
 11
850.90589999999997
 21
1437.4250000000002
  0
LINE
  8
_0-0_LAYER002
  6
CONTINUOUS
 62
    2
 10
840.2992999999999
 20
1458.6382000000001
 11
850.90589999999997
 21
1448.0315999999998
  0
LINE
  8
_0-0_LAYER002
  6
CONTINUOUS
 62
    2
 10
1213.9059
 20
1386.6382000000001
 11
1153.9059
 21
1386.6382000000001
  0
LINE
  8
_0-0_LAYER002
  6
CONTINUOUS
 62
    2
 10
1153.9059
 20
1386.6382000000001
 11
1153.9059
 21
1446.6382000000001
  0
LINE
  8
_0-0_LAYER002
  6
CONTINUOUS
 62
    2
 10
1153.9059
 20
1446.6382000000001
 11
1213.9059
 21
1446.6382000000001
  0
LINE
  8
_0-0_LAYER002
  6
CONTINUOUS
 62
    2
 10
1213.9059
 20
1446.6382000000001
 11
1213.9059
 21
1386.6382000000001
  0
LINE
  8
_0-0_LAYER002
  6
CONTINUOUS
 62
    2
 10
1213.9059
 20
1446.6382000000001
 11
1153.9059
 21
1386.6382000000001
  0
LINE
  8
_0-0_LAYER002
  6
CONTINUOUS
 62
    2
 10
1516.9059000000002
 20
1386.6382000000001
 11
1456.9059000000002
 21
1386.6382000000001
  0
LINE
  8
_0-0_LAYER002
  6
CONTINUOUS
 62
    2
 10
1456.9059000000002
 20
1386.6382000000001
 11
1456.9059000000002
 21
1446.6382000000001
  0
LINE
  8
_0-0_LAYER002
  6
CONTINUOUS
 62
    2
 10
1456.9059000000002
 20
1446.6382000000001
 11
1516.9059000000002
 21
1446.6382000000001
  0
LINE
  8
_0-0_LAYER002
  6
CONTINUOUS
 62
    2
 10
1516.9059000000002
 20
1446.6382000000001
 11
1516.9059000000002
 21
1386.6382000000001
  0
LINE
  8
_0-0_LAYER002
  6
CONTINUOUS
 62
    2
 10
1516.9059000000002
 20
1446.6382000000001
 11
1456.9059000000002
 21
1386.6382000000001
  0
LINE
  8
_0-0_LAYER002
  6
CONTINUOUS
 62
    2
 10
1819.9059000000002
 20
1386.6382000000001
 11
1759.9059000000002
 21
1386.6382000000001
  0
LINE
  8
_0-0_LAYER002
  6
CONTINUOUS
 62
    2
 10
1759.9059000000002
 20
1386.6382000000001
 11
1759.9059000000002
 21
1446.6382000000001
  0
LINE
  8
_0-0_LAYER002
  6
CONTINUOUS
 62
    2
 10
1759.9059000000002
 20
1446.6382000000001
 11
1819.9059000000002
 21
1446.6382000000001
  0
LINE
  8
_0-0_LAYER002
  6
CONTINUOUS
 62
    2
 10
1819.9059000000002
 20
1446.6382000000001
 11
1819.9059000000002
 21
1386.6382000000001
  0
LINE
  8
_0-0_LAYER002
  6
CONTINUOUS
 62
    2
 10
1819.9059000000002
 20
1446.6382000000001
 11
1759.9059000000002
 21
1386.6382000000001
  0
LINE
  8
_0-0_LAYER002
  6
CONTINUOUS
 62
    2
 10
1945.0834
 20
1386.6382000000001
 11
850.90589999999997
 21
1386.6382000000001
  0
LINE
  8
_0-0_LAYER002
  6
CONTINUOUS
 62
    2
 10
1945.0834
 20
1380.6382000000003
 11
850.90589999999997
 21
1380.6382000000003
  0
LINE
  8
_0-0_LAYER002
  6
CONTINUOUS
 62
    2
 10
1945.0834
 20
1446.6382000000001
 11
850.90589999999997
 21
1446.6382000000001
  0
LINE
  8
_0-0_LAYER002
  6
CONTINUOUS
 62
    2
 10
1945.0834
 20
1458.6382000000001
 11
829.93949999999995
 21
1458.6382000000001
  0
LINE
  8
_0-0_LAYER002
  6
CONTINUOUS
 62
    2
 10
1945.0834
 20
1460.1382000000001
 11
831.36339999999996
 21
1460.1382000000001
  0
LINE
  8
_0-0_LAYER002
  6
CONTINUOUS
 62
    2
 10
1945.0834
 20
1477.6125999999999
 11
940.52350000000001
 21
1477.6125999999999
  0
LINE
  8
_0-0_LAYER002
  6
CONTINUOUS
 62
    2
 10
835.6427000000001
 20
1389.0486000000001
 11
840.94599999999991
 21
1394.3518999999997
  0
LINE
  8
_0-0_LAYER002
  6
CONTINUOUS
 62
    2
 10
840.94599999999991
 20
1394.3518999999997
 11
839.00479999999993
 21
1387.1075000000001
  0
LINE
  8
_0-0_LAYER002
  6
CONTINUOUS
 62
    2
 10
840.94599999999991
 20
1394.3518999999997
 11
793.99340000000007
 21
1313.0277000000001
  0
LINE
  8
_0-0_LAYER002
  6
CONTINUOUS
 62
    2
 10
793.99340000000007
 20
1313.0277000000001
 11
745.99340000000007
 21
1313.0277000000001
  0
LINE
  8
_0-0_LAYER002
  6
CONTINUOUS
 62
    2
 10
917.62179999999989
 20
1454.3938000000001
 11
915.68059999999991
 21
1461.6382000000001
  0
LINE
  8
_0-0_LAYER002
  6
CONTINUOUS
 62
    2
 10
915.68059999999991
 20
1461.6382000000001
 11
920.98389999999995
 21
1456.3348999999998
  0
LINE
  8
_0-0_LAYER002
  6
CONTINUOUS
 62
    2
 10
915.68059999999991
 20
1461.6382000000001
 11
1005.1570999999999
 21
1306.6605
  0
LINE
  8
_0-0_LAYER002
  6
CONTINUOUS
 62
    2
 10
1005.1570999999999
 20
1306.6605
 11
1222.6570999999999
 21
1306.6605
  0
LINE
  8
_0-0_LAYER002
  6
CONTINUOUS
 62
    2
 10
1320.6914999999999
 20
1513.2293999999999
 11
1315.3882000000001
 21
1507.9260999999999
  0
LINE
  8
_0-0_LAYER002
  6
CONTINUOUS
 62
    2
 10
1315.3882000000001
 20
1507.9260999999999
 11
1317.3293000000001
 21
1515.1704999999997
  0
LINE
  8
_0-0_LAYER002
  6
CONTINUOUS
 62
    2
 10
1315.3882000000001
 20
1507.9260999999999
 11
1358.6532
 21
1582.8631999999998
  0
LINE
  8
_0-0_LAYER002
  6
CONTINUOUS
 62
    2
 10
1358.6532
 20
1582.8631999999998
 11
1399.1532000000002
 21
1582.8631999999998
  0
LINE
  8
_0-0_LAYER002
  6
CONTINUOUS
 62
    2
 10
844.03670000000011
 20
1532.5673999999999
 11
845.97779999999989
 21
1525.3230000000003
  0
LINE
  8
_0-0_LAYER002
  6
CONTINUOUS
 62
    2
 10
845.97779999999989
 20
1525.3230000000003
 11
840.67450000000008
 21
1530.6262999999999
  0
LINE
  8
_0-0_LAYER002
  6
CONTINUOUS
 62
    2
 10
845.97779999999989
 20
1525.3230000000003
 11
791.13740000000007
 21
1620.3092999999999
  0
LINE
  8
_0-0_LAYER002
  6
CONTINUOUS
 62
    2
 10
791.13740000000007
 20
1620.3092999999999
 11
743.13740000000007
 21
1620.3092999999999
  0
LINE
  8
_0-0_LAYER002
  6
CONTINUOUS
 62
    2
 10
934.51189999999997
 20
1519.8326999999999
 11
929.20859999999993
 21
1514.5293999999999
  0
LINE
  8
_0-0_LAYER002
  6
CONTINUOUS
 62
    2
 10
929.20859999999993
 20
1514.5293999999999
 11
931.14969999999994
 21
1521.7739000000001
  0
LINE
  8
_0-0_LAYER002
  6
CONTINUOUS
 62
    2
 10
929.20859999999993
 20
1514.5293999999999
 11
978.8110999999999
 21
1600.4436000000001
  0
LINE
  8
_0-0_LAYER002
  6
CONTINUOUS
 62
    2
 10
978.8110999999999
 20
1600.4436000000001
 11
1076.3110999999999
 21
1600.4436000000001
  0
LINE
  8
_0-0_LAYER002
  6
CONTINUOUS
 62
    2
 10
838.94759999999997
 20
1468.0995000000003
 11
844.2509
 21
1473.4028000000001
  0
LINE
  8
_0-0_LAYER002
  6
CONTINUOUS
 62
    2
 10
844.2509
 20
1473.4028000000001
 11
842.3098
 21
1466.1583999999998
  0
LINE
  8
_0-0_LAYER002
  6
CONTINUOUS
 62
    2
 10
844.2509
 20
1473.4028000000001
 11
785.26420000000007
 21
1371.2348
  0
LINE
  8
_0-0_LAYER002
  6
CONTINUOUS
 62
    2
 10
785.26420000000007
 20
1371.2348
 11
645.41810000000009
 21
1371.2348
  0
LINE
  8
_0-0_LAYER002
  6
CONTINUOUS
 62
    2
 10
1452.8067000000001
 20
1176.7458999999999
 11
1518.5450000000001
 21
1176.7458999999999
  0
LINE
  8
_0-0_LAYER002
  6
CONTINUOUS
 62
    2
 10
1445.6336000000001
 20
1206.6125
 11
1666.5742
 21
1206.6125
  0
LINE
  8
_0-0_LAYER002
  6
CONTINUOUS
 62
    2
 10
1436.0904999999998
 20
1236.7077999999999
 11
1679.9076
 21
1236.7077999999999
  0
LINE
  8
_0-0_LAYER002
  6
CONTINUOUS
 62
    2
 10
1375.1989000000001
 20
1458.8823
 11
1375.1989000000001
 21
1466.3823
  0
LINE
  8
_0-0_LAYER002
  6
CONTINUOUS
 62
    2
 10
1375.1989000000001
 20
1466.3823
 11
1378.9489000000001
 21
1459.8872000000001
  0
LINE
  8
_0-0_LAYER002
  6
CONTINUOUS
 62
    2
 10
1375.1989000000001
 20
1466.3823
 11
1452.8067000000001
 21
1176.7458999999999
  0
LINE
  8
_0-0_LAYER002
  6
CONTINUOUS
 62
    2
 10
1428.7066
 20
1266.6887999999999
 11
1633.5293000000001
 21
1266.6887999999999
  0
LINE
  8
_0-0_LAYER002
  6
CONTINUOUS
 62
    4
 10
1858.6536000000001
 20
1490.5678
 11
1852.9652999999998
 21
1474.9670000000001
  0
LINE
  8
_0-0_LAYER002
  6
CONTINUOUS
 62
    4
 10
1834.9340000000002
 20
1492.5646000000002
 11
1797.7303999999999
 21
1492.5646000000002
  0
LINE
  8
_0-0_LAYER002
  6
CONTINUOUS
 62
    4
 10
1834.9340000000002
 20
1492.5646000000002
 11
1841.6599999999999
 21
1474.3089
  0
LINE
  8
_0-0_LAYER002
  6
CONTINUOUS
 62
    4
 10
1945.0834
 20
1490.5678
 11
1924.5065
 21
1490.5678
  0
LINE
  8
_0-0_LAYER002
  6
CONTINUOUS
 62
    4
 10
1916.5192999999999
 20
1490.5678
 11
1858.6536000000001
 21
1490.5678
  0
LINE
  8
_0-0_LAYER002
  6
CONTINUOUS
 62
    4
 10
1797.7303999999999
 20
1509.5373999999997
 11
1949.7600000000002
 21
1509.5373999999997
  0
LINE
  8
_0-0_LAYER002
  6
CONTINUOUS
 62
    4
 10
1916.5192999999999
 20
1490.5678
 11
1916.5192999999999
 21
1479.5853999999999
  0
LINE
  8
_0-0_LAYER002
  6
CONTINUOUS
 62
    4
 10
1924.5065
 20
1479.5853999999999
 11
1916.5192999999999
 21
1479.5853999999999
  0
LINE
  8
_0-0_LAYER002
  6
CONTINUOUS
 62
    4
 10
1924.5065
 20
1490.5678
 11
1924.5065
 21
1479.5853999999999
  0
LINE
  8
_0-0_LAYER002
  6
CONTINUOUS
 62
    4
 10
1797.7303999999999
 20
1509.5373999999997
 11
1797.7303999999999
 21
1492.5646000000002
  0
ARC
  8
_0-0_LAYER002
  6
CONTINUOUS
 62
    4
 10
1847.1246999999998
 20
1476.5902000000001
 40
5.9904000000000002
 50
199.47121999999999
 51
344.27760999999998
  0
ARC
  8
_0-0_LAYER002
  6
CONTINUOUS
 62
    4
 10
1783.7863000000002
 20
1476.5902000000001
 40
5.9904000000000002
 50
199.47121999999999
 51
344.27760999999998
  0
LINE
  8
_0-0_LAYER002
  6
CONTINUOUS
 62
    4
 10
1772.2568999999999
 20
1490.5678
 11
1778.2473
 21
1474.3089
  0
LINE
  8
_0-0_LAYER002
  6
CONTINUOUS
 62
    4
 10
1550.6536000000001
 20
1490.5678
 11
1544.9652999999998
 21
1474.9670000000001
  0
LINE
  8
_0-0_LAYER002
  6
CONTINUOUS
 62
    4
 10
1790.8724999999999
 20
1478.587
 11
1789.5524999999998
 21
1474.9670000000001
  0
LINE
  8
_0-0_LAYER002
  6
CONTINUOUS
 62
    4
 10
1526.9340000000002
 20
1492.5646000000002
 11
1489.7303999999999
 21
1492.5646000000002
  0
LINE
  8
_0-0_LAYER002
  6
CONTINUOUS
 62
    4
 10
1526.9340000000002
 20
1492.5646000000002
 11
1533.6599999999999
 21
1474.3089
  0
LINE
  8
_0-0_LAYER002
  6
CONTINUOUS
 62
    4
 10
1772.2568999999999
 20
1490.5678
 11
1732.3209000000002
 21
1490.5678
  0
LINE
  8
_0-0_LAYER002
  6
CONTINUOUS
 62
    4
 10
1724.3337000000001
 20
1490.5678
 11
1677.4088999999999
 21
1490.5678
  0
LINE
  8
_0-0_LAYER002
  6
CONTINUOUS
 62
    4
 10
1669.4216999999999
 20
1490.5678
 11
1616.5065
 21
1490.5678
  0
LINE
  8
_0-0_LAYER002
  6
CONTINUOUS
 62
    4
 10
1608.5192999999999
 20
1490.5678
 11
1550.6536000000001
 21
1490.5678
  0
LINE
  8
_0-0_LAYER002
  6
CONTINUOUS
 62
    4
 10
1680.4247999999998
 20
1509.5373999999997
 11
1795.7303999999999
 21
1509.5373999999997
  0
LINE
  8
_0-0_LAYER002
  6
CONTINUOUS
 62
    4
 10
1489.7303999999999
 20
1509.5373999999997
 11
1680.4247999999998
 21
1509.5373999999997
  0
LINE
  8
_0-0_LAYER002
  6
CONTINUOUS
 62
    4
 10
1608.5192999999999
 20
1490.5678
 11
1608.5192999999999
 21
1479.5853999999999
  0
LINE
  8
_0-0_LAYER002
  6
CONTINUOUS
 62
    4
 10
1616.5065
 20
1479.5853999999999
 11
1608.5192999999999
 21
1479.5853999999999
  0
LINE
  8
_0-0_LAYER002
  6
CONTINUOUS
 62
    4
 10
1616.5065
 20
1490.5678
 11
1616.5065
 21
1479.5853999999999
  0
LINE
  8
_0-0_LAYER002
  6
CONTINUOUS
 62
    4
 10
1669.4216999999999
 20
1490.5678
 11
1669.4216999999999
 21
1479.5853999999999
  0
LINE
  8
_0-0_LAYER002
  6
CONTINUOUS
 62
    4
 10
1677.4088999999999
 20
1479.5853999999999
 11
1669.4216999999999
 21
1479.5853999999999
  0
LINE
  8
_0-0_LAYER002
  6
CONTINUOUS
 62
    4
 10
1677.4088999999999
 20
1490.5678
 11
1677.4088999999999
 21
1479.5853999999999
  0
LINE
  8
_0-0_LAYER002
  6
CONTINUOUS
 62
    4
 10
1724.3337000000001
 20
1490.5678
 11
1724.3337000000001
 21
1479.5853999999999
  0
LINE
  8
_0-0_LAYER002
  6
CONTINUOUS
 62
    4
 10
1732.3209000000002
 20
1479.5853999999999
 11
1724.3337000000001
 21
1479.5853999999999
  0
LINE
  8
_0-0_LAYER002
  6
CONTINUOUS
 62
    4
 10
1732.3209000000002
 20
1479.5853999999999
 11
1732.3209000000002
 21
1490.5678
  0
LINE
  8
_0-0_LAYER002
  6
CONTINUOUS
 62
    4
 10
1489.7303999999999
 20
1509.5373999999997
 11
1489.7303999999999
 21
1492.5646000000002
  0
ARC
  8
_0-0_LAYER002
  6
CONTINUOUS
 62
    4
 10
1539.1246999999998
 20
1476.5902000000001
 40
5.9904000000000002
 50
199.47121999999999
 51
344.27760999999998
  0
LINE
  8
_0-0_LAYER002
  6
CONTINUOUS
 62
    4
 10
1795.7303999999999
 20
1509.5373999999997
 11
1795.7303999999999
 21
1490.5678
  0
LINE
  8
_0-0_LAYER002
  6
CONTINUOUS
 62
    4
 10
1795.7303999999999
 20
1509.5373999999997
 11
1795.7303999999999
 21
1492.5646000000002
  0
LINE
  8
_0-0_LAYER002
  6
CONTINUOUS
 62
    4
 10
1834.7303999999999
 20
1478.587
 11
1790.8724999999999
 21
1478.587
  0
LINE
  8
_0-0_LAYER002
  6
CONTINUOUS
 62
    4
 10
1834.7303999999999
 20
1478.587
 11
1834.7303999999999
 21
1490.5678
  0
LINE
  8
_0-0_LAYER002
  6
CONTINUOUS
 62
    4
 10
1834.7303999999999
 20
1490.5678
 11
1795.7303999999999
 21
1490.5678
  0
ARC
  8
_0-0_LAYER002
  6
CONTINUOUS
 62
    4
 10
1475.7863000000002
 20
1476.5902000000001
 40
5.9904000000000002
 50
199.47121999999999
 51
344.27760999999998
  0
LINE
  8
_0-0_LAYER002
  6
CONTINUOUS
 62
    4
 10
1464.2568999999999
 20
1490.5678
 11
1470.2473
 21
1474.3089
  0
LINE
  8
_0-0_LAYER002
  6
CONTINUOUS
 62
    4
 10
1242.6536000000001
 20
1490.5678
 11
1236.9653000000001
 21
1474.9670000000001
  0
LINE
  8
_0-0_LAYER002
  6
CONTINUOUS
 62
    4
 10
1482.8724999999999
 20
1478.587
 11
1481.5524999999998
 21
1474.9670000000001
  0
LINE
  8
_0-0_LAYER002
  6
CONTINUOUS
 62
    4
 10
1218.934
 20
1492.5646000000002
 11
1181.7303999999999
 21
1492.5646000000002
  0
LINE
  8
_0-0_LAYER002
  6
CONTINUOUS
 62
    4
 10
1218.934
 20
1492.5646000000002
 11
1225.6600000000001
 21
1474.3089
  0
LINE
  8
_0-0_LAYER002
  6
CONTINUOUS
 62
    4
 10
1464.2568999999999
 20
1490.5678
 11
1424.3208999999999
 21
1490.5678
  0
LINE
  8
_0-0_LAYER002
  6
CONTINUOUS
 62
    4
 10
1416.3336999999999
 20
1490.5678
 11
1369.4088999999999
 21
1490.5678
  0
LINE
  8
_0-0_LAYER002
  6
CONTINUOUS
 62
    4
 10
1361.4217000000003
 20
1490.5678
 11
1308.5065
 21
1490.5678
  0
LINE
  8
_0-0_LAYER002
  6
CONTINUOUS
 62
    4
 10
1300.5192999999999
 20
1490.5678
 11
1242.6536000000001
 21
1490.5678
  0
LINE
  8
_0-0_LAYER002
  6
CONTINUOUS
 62
    4
 10
1372.4248
 20
1509.5373999999997
 11
1487.7303999999999
 21
1509.5373999999997
  0
LINE
  8
_0-0_LAYER002
  6
CONTINUOUS
 62
    4
 10
1181.7303999999999
 20
1509.5373999999997
 11
1372.4248
 21
1509.5373999999997
  0
LINE
  8
_0-0_LAYER002
  6
CONTINUOUS
 62
    4
 10
1300.5192999999999
 20
1490.5678
 11
1300.5192999999999
 21
1479.5853999999999
  0
LINE
  8
_0-0_LAYER002
  6
CONTINUOUS
 62
    4
 10
1308.5065
 20
1479.5853999999999
 11
1300.5192999999999
 21
1479.5853999999999
  0
LINE
  8
_0-0_LAYER002
  6
CONTINUOUS
 62
    4
 10
1308.5065
 20
1490.5678
 11
1308.5065
 21
1479.5853999999999
  0
LINE
  8
_0-0_LAYER002
  6
CONTINUOUS
 62
    4
 10
1361.4217000000003
 20
1490.5678
 11
1361.4217000000003
 21
1479.5853999999999
  0
LINE
  8
_0-0_LAYER002
  6
CONTINUOUS
 62
    4
 10
1369.4088999999999
 20
1479.5853999999999
 11
1361.4217000000003
 21
1479.5853999999999
  0
LINE
  8
_0-0_LAYER002
  6
CONTINUOUS
 62
    4
 10
1369.4088999999999
 20
1490.5678
 11
1369.4088999999999
 21
1479.5853999999999
  0
LINE
  8
_0-0_LAYER002
  6
CONTINUOUS
 62
    4
 10
1416.3336999999999
 20
1490.5678
 11
1416.3336999999999
 21
1479.5853999999999
  0
LINE
  8
_0-0_LAYER002
  6
CONTINUOUS
 62
    4
 10
1424.3208999999999
 20
1479.5853999999999
 11
1416.3336999999999
 21
1479.5853999999999
  0
LINE
  8
_0-0_LAYER002
  6
CONTINUOUS
 62
    4
 10
1424.3208999999999
 20
1479.5853999999999
 11
1424.3208999999999
 21
1490.5678
  0
LINE
  8
_0-0_LAYER002
  6
CONTINUOUS
 62
    4
 10
1181.7303999999999
 20
1509.5373999999997
 11
1181.7303999999999
 21
1492.5646000000002
  0
ARC
  8
_0-0_LAYER002
  6
CONTINUOUS
 62
    4
 10
1231.1247000000001
 20
1476.5902000000001
 40
5.9904000000000002
 50
199.47121999999999
 51
344.27760999999998
  0
LINE
  8
_0-0_LAYER002
  6
CONTINUOUS
 62
    4
 10
1487.7303999999999
 20
1509.5373999999997
 11
1487.7303999999999
 21
1490.5678
  0
LINE
  8
_0-0_LAYER002
  6
CONTINUOUS
 62
    4
 10
1487.7303999999999
 20
1509.5373999999997
 11
1487.7303999999999
 21
1492.5646000000002
  0
LINE
  8
_0-0_LAYER002
  6
CONTINUOUS
 62
    4
 10
1526.7303999999999
 20
1478.587
 11
1482.8724999999999
 21
1478.587
  0
LINE
  8
_0-0_LAYER002
  6
CONTINUOUS
 62
    4
 10
1526.7303999999999
 20
1478.587
 11
1526.7303999999999
 21
1490.5678
  0
LINE
  8
_0-0_LAYER002
  6
CONTINUOUS
 62
    4
 10
1526.7303999999999
 20
1490.5678
 11
1487.7303999999999
 21
1490.5678
  0
LINE
  8
_0-0_LAYER002
  6
CONTINUOUS
 62
    2
 10
943.2340999999999
 20
1514.5293999999999
 11
943.2340999999999
 21
1509.5373999999997
  0
LINE
  8
_0-0_LAYER002
  6
CONTINUOUS
 62
    2
 10
919.95460000000003
 20
1514.5293999999999
 11
919.95460000000003
 21
1509.5373999999997
  0
LINE
  8
_0-0_LAYER002
  6
CONTINUOUS
 62
    2
 10
919.95460000000003
 20
1509.5395000000003
 11
943.2340999999999
 21
1509.5395000000003
  0
LINE
  8
_0-0_LAYER002
  6
CONTINUOUS
 62
    2
 10
919.95460000000003
 20
1510.7864999999997
 11
943.2340999999999
 21
1510.7864999999997
  0
LINE
  8
_0-0_LAYER002
  6
CONTINUOUS
 62
    2
 10
919.95460000000003
 20
1512.0334
 11
943.2340999999999
 21
1512.0334
  0
LINE
  8
_0-0_LAYER002
  6
CONTINUOUS
 62
    2
 10
919.95460000000003
 20
1513.2804000000001
 11
943.2340999999999
 21
1513.2804000000001
  0
LINE
  8
_0-0_LAYER002
  6
CONTINUOUS
 62
    2
 10
919.95460000000003
 20
1514.5273
 11
943.2340999999999
 21
1514.5273
  0
LINE
  8
_0-0_LAYER002
  6
CONTINUOUS
 62
    3
 10
829.93949999999995
 20
1461.6190000000001
 11
829.93949999999995
 21
1501.6190000000001
  0
ARC
  8
_0-0_LAYER002
  6
CONTINUOUS
 62
    4
 10
1167.7863
 20
1476.5902000000001
 40
5.9904000000000002
 50
199.47121999999999
 51
344.27760999999998
  0
LINE
  8
_0-0_LAYER002
  6
CONTINUOUS
 62
    4
 10
1156.2569000000001
 20
1490.5678
 11
1162.2473
 21
1474.3089
  0
LINE
  8
_0-0_LAYER002
  6
CONTINUOUS
 62
    4
 10
934.6536000000001
 20
1490.5678
 11
928.96530000000007
 21
1474.9670000000001
  0
LINE
  8
_0-0_LAYER002
  6
CONTINUOUS
 62
    4
 10
1174.8724999999999
 20
1478.587
 11
1173.5525
 21
1474.9670000000001
  0
LINE
  8
_0-0_LAYER002
  6
CONTINUOUS
 62
    4
 10
910.93399999999997
 20
1492.5646000000002
 11
873.73039999999992
 21
1492.5646000000002
  0
LINE
  8
_0-0_LAYER002
  6
CONTINUOUS
 62
    4
 10
910.93399999999997
 20
1492.5646000000002
 11
917.66000000000008
 21
1474.3089
  0
LINE
  8
_0-0_LAYER002
  6
CONTINUOUS
 62
    4
 10
1156.2569000000001
 20
1490.5678
 11
1116.3208999999999
 21
1490.5678
  0
LINE
  8
_0-0_LAYER002
  6
CONTINUOUS
 62
    4
 10
1108.3336999999999
 20
1490.5678
 11
1061.4088999999999
 21
1490.5678
  0
LINE
  8
_0-0_LAYER002
  6
CONTINUOUS
 62
    4
 10
1053.4217000000001
 20
1490.5678
 11
1000.5065
 21
1490.5678
  0
LINE
  8
_0-0_LAYER002
  6
CONTINUOUS
 62
    4
 10
992.51929999999993
 20
1490.5678
 11
934.6536000000001
 21
1490.5678
  0
LINE
  8
_0-0_LAYER002
  6
CONTINUOUS
 62
    4
 10
1064.4248
 20
1509.5373999999997
 11
1179.7303999999999
 21
1509.5373999999997
  0
LINE
  8
_0-0_LAYER002
  6
CONTINUOUS
 62
    4
 10
873.73039999999992
 20
1509.5373999999997
 11
1067.3949
 21
1509.5373999999997
  0
LINE
  8
_0-0_LAYER002
  6
CONTINUOUS
 62
    4
 10
992.51929999999993
 20
1490.5678
 11
992.51929999999993
 21
1479.5853999999999
  0
LINE
  8
_0-0_LAYER002
  6
CONTINUOUS
 62
    4
 10
1000.5065
 20
1479.5853999999999
 11
992.51929999999993
 21
1479.5853999999999
  0
LINE
  8
_0-0_LAYER002
  6
CONTINUOUS
 62
    4
 10
1000.5065
 20
1490.5678
 11
1000.5065
 21
1479.5853999999999
  0
LINE
  8
_0-0_LAYER002
  6
CONTINUOUS
 62
    4
 10
1053.4217000000001
 20
1490.5678
 11
1053.4217000000001
 21
1479.5853999999999
  0
LINE
  8
_0-0_LAYER002
  6
CONTINUOUS
 62
    4
 10
1061.4088999999999
 20
1479.5853999999999
 11
1053.4217000000001
 21
1479.5853999999999
  0
LINE
  8
_0-0_LAYER002
  6
CONTINUOUS
 62
    4
 10
1061.4088999999999
 20
1490.5678
 11
1061.4088999999999
 21
1479.5853999999999
  0
LINE
  8
_0-0_LAYER002
  6
CONTINUOUS
 62
    4
 10
1108.3336999999999
 20
1490.5678
 11
1108.3336999999999
 21
1479.5853999999999
  0
LINE
  8
_0-0_LAYER002
  6
CONTINUOUS
 62
    4
 10
1116.3208999999999
 20
1479.5853999999999
 11
1108.3336999999999
 21
1479.5853999999999
  0
LINE
  8
_0-0_LAYER002
  6
CONTINUOUS
 62
    4
 10
1116.3208999999999
 20
1479.5853999999999
 11
1116.3208999999999
 21
1490.5678
  0
LINE
  8
_0-0_LAYER002
  6
CONTINUOUS
 62
    4
 10
873.73039999999992
 20
1509.5373999999997
 11
873.73039999999992
 21
1492.5646000000002
  0
ARC
  8
_0-0_LAYER002
  6
CONTINUOUS
 62
    4
 10
923.12470000000008
 20
1476.5902000000001
 40
5.9904000000000002
 50
199.47121999999999
 51
344.27760999999998
  0
LINE
  8
_0-0_LAYER002
  6
CONTINUOUS
 62
    4
 10
1217.6695999999999
 20
1490.5678
 11
1179.7303999999999
 21
1490.5678
  0
LINE
  8
_0-0_LAYER002
  6
CONTINUOUS
 62
    4
 10
1179.7303999999999
 20
1509.5373999999997
 11
1179.7303999999999
 21
1490.5678
  0
LINE
  8
_0-0_LAYER002
  6
CONTINUOUS
 62
    4
 10
1217.6695999999999
 20
1478.587
 11
1174.8724999999999
 21
1478.587
  0
LINE
  8
_0-0_LAYER002
  6
CONTINUOUS
 62
    4
 10
1217.6695999999999
 20
1490.5678
 11
1217.6695999999999
 21
1478.587
  0
LINE
  8
_0-0_LAYER002
  6
CONTINUOUS
 62
    2
 10
940.52350000000001
 20
1477.5886
 11
940.52350000000001
 21
1462.6125999999999
  0
LINE
  8
_0-0_LAYER002
  6
CONTINUOUS
 62
    2
 10
939.93949999999995
 20
1461.6382000000001
 11
939.93949999999995
 21
1467.8978000000002
  0
LINE
  8
_0-0_LAYER002
  6
CONTINUOUS
 62
    4
 10
953.74109999999996
 20
1538.7213999999999
 11
811.49209999999994
 21
1538.7213999999999
  0
ARC
  8
_0-0_LAYER002
  6
CONTINUOUS
 62
    4
 10
953.74109999999996
 20
1533.8830000000003
 40
4.8384
 50
0
 51
90
  0
LINE
  8
_0-0_LAYER002
  6
CONTINUOUS
 62
    4
 10
958.57950000000005
 20
1512.5941
 11
958.57950000000005
 21
1533.8830000000003
  0
LINE
  8
_0-0_LAYER002
  6
CONTINUOUS
 62
    4
 10
958.57950000000005
 20
1512.5941
 11
950.83799999999997
 21
1512.5941
  0
LINE
  8
_0-0_LAYER002
  6
CONTINUOUS
 62
    4
 10
950.83799999999997
 20
1514.5293999999999
 11
950.83799999999997
 21
1512.5941
  0
LINE
  8
_0-0_LAYER002
  6
CONTINUOUS
 62
    4
 10
827.94270000000006
 20
1514.5293999999999
 11
950.83799999999997
 21
1514.5293999999999
  0
LINE
  8
_0-0_LAYER002
  6
CONTINUOUS
 62
    4
 10
811.49209999999994
 20
1451.6683
 11
811.49209999999994
 21
1538.7213999999999
  0
ARC
  8
_0-0_LAYER002
  6
CONTINUOUS
 62
    4
 10
816.33050000000003
 20
1451.6683
 40
4.8384
 50
180
 51
270
  0
LINE
  8
_0-0_LAYER002
  6
CONTINUOUS
 62
    4
 10
827.94270000000006
 20
1446.8299
 11
816.33050000000003
 21
1446.8299
  0
LINE
  8
_0-0_LAYER002
  6
CONTINUOUS
 62
    4
 10
827.94270000000006
 20
1514.5293999999999
 11
827.94270000000006
 21
1446.8299
  0
LINE
  8
_0-0_LAYER002
  6
CONTINUOUS
 62
    4
 10
1179.7303999999999
 20
1509.5373999999997
 11
1179.7303999999999
 21
1492.5646000000002
  0
LINE
  8
_0-0_LAYER002
  6
CONTINUOUS
 62
    1
 10
833.9701
 20
1490.2114000000001
 11
838.22630000000004
 21
1491.3518999999999
  0
LINE
  8
_0-0_LAYER002
  6
CONTINUOUS
 62
    1
 10
831.52700000000004
 20
1537.8814
 11
831.52700000000004
 21
1538.7213999999999
  0
LINE
  8
_0-0_LAYER002
  6
CONTINUOUS
 62
    1
 10
831.52700000000004
 20
1538.7213999999999
 11
839.8895
 21
1538.7213999999999
  0
LINE
  8
_0-0_LAYER002
  6
CONTINUOUS
 62
    1
 10
839.8895
 20
1537.8814
 11
839.8895
 21
1538.7213999999999
  0
LINE
  8
_0-0_LAYER002
  6
CONTINUOUS
 62
    1
 10
831.52700000000004
 20
1537.8814
 11
839.8895
 21
1537.8814
  0
LINE
  8
_0-0_LAYER002
  6
CONTINUOUS
 62
    1
 10
836.96630000000005
 20
1537.8814
 11
836.96630000000005
 21
1490.8413999999998
  0
LINE
  8
_0-0_LAYER002
  6
CONTINUOUS
 62
    1
 10
835.70630000000006
 20
1483.2814000000003
 11
836.96630000000005
 21
1490.8413999999998
  0
LINE
  8
_0-0_LAYER002
  6
CONTINUOUS
 62
    1
 10
834.44630000000006
 20
1490.8413999999998
 11
834.44630000000006
 21
1537.8814
  0
LINE
  8
_0-0_LAYER002
  6
CONTINUOUS
 62
    1
 10
835.70630000000006
 20
1483.2814000000003
 11
834.44630000000006
 21
1490.8413999999998
  0
LINE
  8
_0-0_LAYER002
  6
CONTINUOUS
 62
    1
 10
833.60629999999992
 20
1518.674
 11
837.80629999999996
 21
1519.7993999999999
  0
LINE
  8
_0-0_LAYER002
  6
CONTINUOUS
 62
    1
 10
833.60629999999992
 20
1516.9939999999999
 11
837.80629999999996
 21
1518.1194
  0
LINE
  8
_0-0_LAYER002
  6
CONTINUOUS
 62
    1
 10
833.60629999999992
 20
1515.3140000000003
 11
837.80629999999996
 21
1516.4393999999998
  0
LINE
  8
_0-0_LAYER002
  6
CONTINUOUS
 62
    1
 10
833.60629999999992
 20
1513.634
 11
837.80629999999996
 21
1514.7593999999999
  0
LINE
  8
_0-0_LAYER002
  6
CONTINUOUS
 62
    1
 10
833.60629999999992
 20
1511.9540000000002
 11
837.80629999999996
 21
1513.0794000000001
  0
LINE
  8
_0-0_LAYER002
  6
CONTINUOUS
 62
    1
 10
833.60629999999992
 20
1510.2739999999999
 11
837.80629999999996
 21
1511.3994
  0
LINE
  8
_0-0_LAYER002
  6
CONTINUOUS
 62
    1
 10
833.60629999999992
 20
1508.5940000000001
 11
837.80629999999996
 21
1509.7194
  0
LINE
  8
_0-0_LAYER002
  6
CONTINUOUS
 62
    1
 10
833.60629999999992
 20
1506.9139999999998
 11
837.80629999999996
 21
1508.0393999999999
  0
LINE
  8
_0-0_LAYER002
  6
CONTINUOUS
 62
    1
 10
833.60629999999992
 20
1505.2339999999999
 11
837.80629999999996
 21
1506.3594000000001
  0
LINE
  8
_0-0_LAYER002
  6
CONTINUOUS
 62
    1
 10
833.60629999999992
 20
1503.5540000000001
 11
837.80629999999996
 21
1504.6794
  0
LINE
  8
_0-0_LAYER002
  6
CONTINUOUS
 62
    1
 10
833.60629999999992
 20
1501.874
 11
837.80629999999996
 21
1502.9993999999999
  0
LINE
  8
_0-0_LAYER002
  6
CONTINUOUS
 62
    1
 10
833.60629999999992
 20
1500.194
 11
837.80629999999996
 21
1501.3194000000001
  0
LINE
  8
_0-0_LAYER002
  6
CONTINUOUS
 62
    1
 10
833.60629999999992
 20
1498.5139999999999
 11
837.80629999999996
 21
1499.6394
  0
LINE
  8
_0-0_LAYER002
  6
CONTINUOUS
 62
    1
 10
833.60629999999992
 20
1496.8340000000001
 11
837.80629999999996
 21
1497.9594
  0
LINE
  8
_0-0_LAYER002
  6
CONTINUOUS
 62
    1
 10
833.60629999999992
 20
1495.154
 11
837.80629999999996
 21
1496.2793999999999
  0
LINE
  8
_0-0_LAYER002
  6
CONTINUOUS
 62
    1
 10
833.60629999999992
 20
1493.4739999999999
 11
837.80629999999996
 21
1494.5994000000001
  0
LINE
  8
_0-0_LAYER002
  6
CONTINUOUS
 62
    1
 10
833.60629999999992
 20
1491.7940000000001
 11
837.80629999999996
 21
1492.9194000000002
  0
LINE
  8
_0-0_LAYER002
  6
CONTINUOUS
 62
    1
 10
860.00209999999993
 20
1471.0473
 11
858.86159999999995
 21
1475.3036
  0
LINE
  8
_0-0_LAYER002
  6
CONTINUOUS
 62
    1
 10
812.33210000000008
 20
1468.6042
 11
811.49209999999994
 21
1468.6042
  0
LINE
  8
_0-0_LAYER002
  6
CONTINUOUS
 62
    1
 10
811.49209999999994
 20
1468.6042
 11
811.49209999999994
 21
1476.9666999999999
  0
LINE
  8
_0-0_LAYER002
  6
CONTINUOUS
 62
    1
 10
812.33210000000008
 20
1476.9666999999999
 11
811.49209999999994
 21
1476.9666999999999
  0
LINE
  8
_0-0_LAYER002
  6
CONTINUOUS
 62
    1
 10
812.33210000000008
 20
1468.6042
 11
812.33210000000008
 21
1476.9666999999999
  0
LINE
  8
_0-0_LAYER002
  6
CONTINUOUS
 62
    1
 10
812.33210000000008
 20
1474.0436
 11
859.37210000000005
 21
1474.0436
  0
LINE
  8
_0-0_LAYER002
  6
CONTINUOUS
 62
    1
 10
866.93209999999999
 20
1472.7836
 11
859.37210000000005
 21
1474.0436
  0
LINE
  8
_0-0_LAYER002
  6
CONTINUOUS
 62
    1
 10
859.37210000000005
 20
1471.5236
 11
812.33210000000008
 21
1471.5236
  0
LINE
  8
_0-0_LAYER002
  6
CONTINUOUS
 62
    1
 10
866.93209999999999
 20
1472.7836
 11
859.37210000000005
 21
1471.5236
  0
LINE
  8
_0-0_LAYER002
  6
CONTINUOUS
 62
    1
 10
831.53960000000006
 20
1470.6836000000001
 11
830.41419999999994
 21
1474.8836000000001
  0
LINE
  8
_0-0_LAYER002
  6
CONTINUOUS
 62
    1
 10
833.2195999999999
 20
1470.6836000000001
 11
832.0942
 21
1474.8836000000001
  0
LINE
  8
_0-0_LAYER002
  6
CONTINUOUS
 62
    1
 10
834.89959999999996
 20
1470.6836000000001
 11
833.77420000000006
 21
1474.8836000000001
  0
LINE
  8
_0-0_LAYER002
  6
CONTINUOUS
 62
    1
 10
836.57960000000003
 20
1470.6836000000001
 11
835.4541999999999
 21
1474.8836000000001
  0
LINE
  8
_0-0_LAYER002
  6
CONTINUOUS
 62
    1
 10
838.25960000000009
 20
1470.6836000000001
 11
837.13419999999996
 21
1474.8836000000001
  0
LINE
  8
_0-0_LAYER002
  6
CONTINUOUS
 62
    1
 10
839.93959999999993
 20
1470.6836000000001
 11
838.81420000000003
 21
1474.8836000000001
  0
LINE
  8
_0-0_LAYER002
  6
CONTINUOUS
 62
    1
 10
841.61959999999999
 20
1470.6836000000001
 11
840.49420000000009
 21
1474.8836000000001
  0
LINE
  8
_0-0_LAYER002
  6
CONTINUOUS
 62
    1
 10
843.29960000000005
 20
1470.6836000000001
 11
842.17419999999993
 21
1474.8836000000001
  0
LINE
  8
_0-0_LAYER002
  6
CONTINUOUS
 62
    1
 10
844.97959999999989
 20
1470.6836000000001
 11
843.85419999999999
 21
1474.8836000000001
  0
LINE
  8
_0-0_LAYER002
  6
CONTINUOUS
 62
    1
 10
846.65959999999995
 20
1470.6836000000001
 11
845.53420000000006
 21
1474.8836000000001
  0
LINE
  8
_0-0_LAYER002
  6
CONTINUOUS
 62
    1
 10
848.33960000000002
 20
1470.6836000000001
 11
847.21419999999989
 21
1474.8836000000001
  0
LINE
  8
_0-0_LAYER002
  6
CONTINUOUS
 62
    1
 10
850.01960000000008
 20
1470.6836000000001
 11
848.89419999999996
 21
1474.8836000000001
  0
LINE
  8
_0-0_LAYER002
  6
CONTINUOUS
 62
    1
 10
851.69959999999992
 20
1470.6836000000001
 11
850.57420000000002
 21
1474.8836000000001
  0
LINE
  8
_0-0_LAYER002
  6
CONTINUOUS
 62
    1
 10
853.37959999999998
 20
1470.6836000000001
 11
852.25420000000008
 21
1474.8836000000001
  0
LINE
  8
_0-0_LAYER002
  6
CONTINUOUS
 62
    1
 10
855.05960000000005
 20
1470.6836000000001
 11
853.93419999999992
 21
1474.8836000000001
  0
LINE
  8
_0-0_LAYER002
  6
CONTINUOUS
 62
    1
 10
856.73960000000011
 20
1470.6836000000001
 11
855.61419999999998
 21
1474.8836000000001
  0
LINE
  8
_0-0_LAYER002
  6
CONTINUOUS
 62
    1
 10
858.41959999999995
 20
1470.6836000000001
 11
857.29420000000005
 21
1474.8836000000001
  0
LINE
  8
_0-0_LAYER002
  6
CONTINUOUS
 62
    2
 10
1945.0834
 20
1462.6125999999999
 11
940.52350000000001
 21
1462.6125999999999
  0
LINE
  8
_0-0_LAYER002
  6
CONTINUOUS
 62
    2
 10
1833.6696000000002
 20
1522.5677999999998
 11
1833.6696000000002
 21
1515.0707
  0
LINE
  8
_0-0_LAYER002
  6
CONTINUOUS
 62
    2
 10
1834.9340000000002
 20
1524.5645999999999
 11
1834.9340000000002
 21
1515.0707
  0
LINE
  8
_0-0_LAYER002
  6
CONTINUOUS
 62
    2
 10
1834.9340000000002
 20
1524.5645999999999
 11
1797.7303999999999
 21
1524.5645999999999
  0
LINE
  8
_0-0_LAYER002
  6
CONTINUOUS
 62
    2
 10
1833.6696000000002
 20
1522.5677999999998
 11
1795.7303999999999
 21
1522.5677999999998
  0
LINE
  8
_0-0_LAYER002
  6
CONTINUOUS
 62
    2
 10
1525.6696000000002
 20
1522.5677999999998
 11
1525.6696000000002
 21
1515.0707
  0
LINE
  8
_0-0_LAYER002
  6
CONTINUOUS
 62
    2
 10
1526.9340000000002
 20
1524.5645999999999
 11
1526.9340000000002
 21
1515.0707
  0
LINE
  8
_0-0_LAYER002
  6
CONTINUOUS
 62
    2
 10
1526.9340000000002
 20
1524.5645999999999
 11
1489.7303999999999
 21
1524.5645999999999
  0
LINE
  8
_0-0_LAYER002
  6
CONTINUOUS
 62
    2
 10
1525.6696000000002
 20
1522.5677999999998
 11
1487.7303999999999
 21
1522.5677999999998
  0
LINE
  8
_0-0_LAYER002
  6
CONTINUOUS
 62
    2
 10
1217.6695999999999
 20
1522.5677999999998
 11
1217.6695999999999
 21
1515.0707
  0
LINE
  8
_0-0_LAYER002
  6
CONTINUOUS
 62
    2
 10
1218.934
 20
1524.5645999999999
 11
1218.934
 21
1515.0707
  0
LINE
  8
_0-0_LAYER002
  6
CONTINUOUS
 62
    2
 10
1218.934
 20
1524.5645999999999
 11
1181.7303999999999
 21
1524.5645999999999
  0
LINE
  8
_0-0_LAYER002
  6
CONTINUOUS
 62
    2
 10
1217.6695999999999
 20
1522.5677999999998
 11
1179.7303999999999
 21
1522.5677999999998
  0
LINE
  8
_0-0_LAYER002
  6
CONTINUOUS
 62
    2
 10
1945.0834
 20
1515.0707
 11
1834.9340000000002
 21
1515.0707
  0
LINE
  8
_0-0_LAYER002
  6
CONTINUOUS
 62
    2
 10
1833.6696000000002
 20
1515.0707
 11
1526.9340000000002
 21
1515.0707
  0
LINE
  8
_0-0_LAYER002
  6
CONTINUOUS
 62
    2
 10
1525.6696000000002
 20
1515.0707
 11
1218.934
 21
1515.0707
  0
LINE
  8
_0-0_LAYER002
  6
CONTINUOUS
 62
    2
 10
1217.6695999999999
 20
1515.0707
 11
966.65049999999997
 21
1515.0707
  0
LINE
  8
_0-0_LAYER002
  6
CONTINUOUS
 62
    2
 10
1064.4248
 20
1541.5373999999999
 11
1179.7303999999999
 21
1541.5373999999999
  0
LINE
  8
_0-0_LAYER002
  6
CONTINUOUS
 62
    2
 10
966.65049999999997
 20
1541.5373999999999
 11
1064.4248
 21
1541.5373999999999
  0
LINE
  8
_0-0_LAYER002
  6
CONTINUOUS
 62
    2
 10
1179.7303999999999
 20
1541.5373999999999
 11
1179.7303999999999
 21
1522.5677999999998
  0
LINE
  8
_0-0_LAYER002
  6
CONTINUOUS
 62
    2
 10
1372.4248
 20
1541.5373999999999
 11
1487.7303999999999
 21
1541.5373999999999
  0
LINE
  8
_0-0_LAYER002
  6
CONTINUOUS
 62
    2
 10
1181.7303999999999
 20
1541.5373999999999
 11
1372.4248
 21
1541.5373999999999
  0
LINE
  8
_0-0_LAYER002
  6
CONTINUOUS
 62
    2
 10
1181.7303999999999
 20
1541.5373999999999
 11
1181.7303999999999
 21
1524.5645999999999
  0
LINE
  8
_0-0_LAYER002
  6
CONTINUOUS
 62
    2
 10
1487.7303999999999
 20
1541.5373999999999
 11
1487.7303999999999
 21
1522.5677999999998
  0
LINE
  8
_0-0_LAYER002
  6
CONTINUOUS
 62
    2
 10
1487.7303999999999
 20
1541.5373999999999
 11
1487.7303999999999
 21
1524.5645999999999
  0
LINE
  8
_0-0_LAYER002
  6
CONTINUOUS
 62
    2
 10
1680.4247999999998
 20
1541.5373999999999
 11
1795.7303999999999
 21
1541.5373999999999
  0
LINE
  8
_0-0_LAYER002
  6
CONTINUOUS
 62
    2
 10
1489.7303999999999
 20
1541.5373999999999
 11
1680.4247999999998
 21
1541.5373999999999
  0
LINE
  8
_0-0_LAYER002
  6
CONTINUOUS
 62
    2
 10
1489.7303999999999
 20
1541.5373999999999
 11
1489.7303999999999
 21
1524.5645999999999
  0
LINE
  8
_0-0_LAYER002
  6
CONTINUOUS
 62
    2
 10
1795.7303999999999
 20
1541.5373999999999
 11
1795.7303999999999
 21
1522.5677999999998
  0
LINE
  8
_0-0_LAYER002
  6
CONTINUOUS
 62
    2
 10
1795.7303999999999
 20
1541.5373999999999
 11
1795.7303999999999
 21
1524.5645999999999
  0
LINE
  8
_0-0_LAYER002
  6
CONTINUOUS
 62
    2
 10
1797.7303999999999
 20
1541.5373999999999
 11
1945.0834
 21
1541.5373999999999
  0
LINE
  8
_0-0_LAYER002
  6
CONTINUOUS
 62
    2
 10
1797.7303999999999
 20
1541.5373999999999
 11
1797.7303999999999
 21
1524.5645999999999
  0
LINE
  8
_0-0_LAYER002
  6
CONTINUOUS
 62
    2
 10
951.93429999999989
 20
1567.6648
 11
809.6853000000001
 21
1567.6648
  0
ARC
  8
_0-0_LAYER002
  6
CONTINUOUS
 62
    2
 10
951.93429999999989
 20
1562.8263999999999
 40
4.8384
 50
0
 51
90
  0
LINE
  8
_0-0_LAYER002
  6
CONTINUOUS
 62
    2
 10
956.77269999999999
 20
1541.5373999999999
 11
956.77269999999999
 21
1562.8263999999999
  0
LINE
  8
_0-0_LAYER002
  6
CONTINUOUS
 62
    2
 10
956.77269999999999
 20
1541.5373999999999
 11
949.0311999999999
 21
1541.5373999999999
  0
LINE
  8
_0-0_LAYER002
  6
CONTINUOUS
 62
    2
 10
949.0311999999999
 20
1543.4728
 11
949.0311999999999
 21
1541.5373999999999
  0
LINE
  8
_0-0_LAYER002
  6
CONTINUOUS
 62
    2
 10
826.13589999999999
 20
1543.4728
 11
949.0311999999999
 21
1543.4728
  0
LINE
  8
_0-0_LAYER002
  6
CONTINUOUS
 62
    2
 10
809.6853000000001
 20
1480.6116
 11
809.6853000000001
 21
1567.6648
  0
ARC
  8
_0-0_LAYER002
  6
CONTINUOUS
 62
    2
 10
814.52369999999996
 20
1480.6116
 40
4.8384
 50
180
 51
231.20250999999996
  0
LINE
  8
_0-0_LAYER002
  6
CONTINUOUS
 62
    2
 10
826.13589999999999
 20
1543.4728
 11
826.13589999999999
 21
1538.7213999999999
  0
LINE
  8
_0-0_LAYER002
  6
CONTINUOUS
 62
    2
 10
873.73039999999992
 20
1725.3638999999998
 11
873.73039999999992
 21
1672.8638999999998
  0
CIRCLE
  8
_0-0_LAYER002
  6
CONTINUOUS
 62
    2
 10
873.73039999999992
 20
1722.8638999999998
 40
1.25
  0
LINE
  8
_0-0_LAYER002
  6
CONTINUOUS
 62
    2
 10
873.73039999999992
 20
1722.8638999999998
 11
1181.7303999999999
 21
1722.8638999999998
  0
CIRCLE
  8
_0-0_LAYER002
  6
CONTINUOUS
 62
    2
 10
1181.7303999999999
 20
1722.8638999999998
 40
1.25
  0
LINE
  8
_0-0_LAYER002
  6
CONTINUOUS
 62
    2
 10
1181.7303999999999
 20
1725.3638999999998
 11
1181.7303999999999
 21
1672.8638999999998
  0
CIRCLE
  8
_0-0_LAYER002
  6
CONTINUOUS
 62
    2
 10
1181.7303999999999
 20
1722.8638999999998
 40
1.25
  0
LINE
  8
_0-0_LAYER002
  6
CONTINUOUS
 62
    2
 10
1181.7303999999999
 20
1722.8638999999998
 11
1489.7303999999999
 21
1722.8638999999998
  0
CIRCLE
  8
_0-0_LAYER002
  6
CONTINUOUS
 62
    2
 10
1489.7303999999999
 20
1722.8638999999998
 40
1.25
  0
LINE
  8
_0-0_LAYER002
  6
CONTINUOUS
 62
    2
 10
1489.7303999999999
 20
1725.3638999999998
 11
1489.7303999999999
 21
1672.8638999999998
  0
CIRCLE
  8
_0-0_LAYER002
  6
CONTINUOUS
 62
    2
 10
1489.7303999999999
 20
1722.8638999999998
 40
1.25
  0
LINE
  8
_0-0_LAYER002
  6
CONTINUOUS
 62
    2
 10
1489.7303999999999
 20
1722.8638999999998
 11
1797.7303999999999
 21
1722.8638999999998
  0
CIRCLE
  8
_0-0_LAYER002
  6
CONTINUOUS
 62
    2
 10
1797.7303999999999
 20
1722.8638999999998
 40
1.25
  0
LINE
  8
_0-0_LAYER002
  6
CONTINUOUS
 62
    2
 10
1797.7303999999999
 20
1725.3638999999998
 11
1797.7303999999999
 21
1672.8638999999998
  0
LINE
  8
_0-0_LAYER002
  6
CONTINUOUS
 62
    3
 10
829.93949999999995
 20
1461.6190000000001
 11
869.93949999999995
 21
1461.6190000000001
  0
LINE
  8
_0-0_LAYER002
  6
CONTINUOUS
 62
    3
 10
869.93949999999995
 20
1461.6190000000001
 11
869.93949999999995
 21
1501.6190000000001
  0
LINE
  8
_0-0_LAYER002
  6
CONTINUOUS
 62
    3
 10
869.93949999999995
 20
1501.6190000000001
 11
829.93949999999995
 21
1501.6190000000001
  0
LINE
  8
_0-0_LAYER002
  6
CONTINUOUS
 62
    2
 10
871.78729999999996
 20
1461.6382000000001
 11
871.78729999999996
 21
1503.6382000000001
  0
LINE
  8
_0-0_LAYER002
  6
CONTINUOUS
 62
    2
 10
871.78729999999996
 20
1503.6382000000001
 11
828.78729999999996
 21
1503.6382000000001
  0
LINE
  8
_0-0_LAYER002
  6
CONTINUOUS
 62
    2
 10
828.78729999999996
 20
1503.6382000000001
 11
828.78729999999996
 21
1488.6382000000001
  0
LINE
  8
_0-0_LAYER002
  6
CONTINUOUS
 62
    2
 10
869.9389000000001
 20
1491.6014999999998
 11
859.92020000000002
 21
1501.6201000000001
  0
LINE
  8
_0-0_LAYER002
  6
CONTINUOUS
 62
    2
 10
869.9389000000001
 20
1476.6107999999999
 11
844.92949999999996
 21
1501.6201000000001
  0
LINE
  8
_0-0_LAYER002
  6
CONTINUOUS
 62
    2
 10
869.9389000000001
 20
1461.6201000000001
 11
829.9389000000001
 21
1501.6201000000001
  0
LINE
  8
_0-0_LAYER002
  6
CONTINUOUS
 62
    2
 10
854.94820000000004
 20
1461.6201000000001
 11
829.9389000000001
 21
1486.6295
  0
LINE
  8
_0-0_LAYER002
  6
CONTINUOUS
 62
    2
 10
839.95749999999998
 20
1461.6201000000001
 11
829.9389000000001
 21
1471.6388000000002
  0
LINE
  8
_0-1_ADD_LINE
  6
CONTINUOUS
 62
    7
 10
873.73039999999992
 20
1672.8638999999998
 11
873.73039999999992
 21
1725.3638999999998
  0
LINE
  8
_0-1_ADD_LINE
  6
CONTINUOUS
 62
    7
 10
873.73039999999992
 20
1722.8638999999998
 11
1797.7303999999999
 21
1722.8638999999998
  0
LINE
  8
_0-1_ADD_LINE
  6
CONTINUOUS
 62
    7
 10
1797.7303999999999
 20
1672.8638999999998
 11
1797.7303999999999
 21
1724.1138999999998
  0
LINE
  8
_0-1_ADD_LINE
  6
CONTINUOUS
 62
    7
 10
1489.7303999999999
 20
1672.8638999999998
 11
1489.7303999999999
 21
1724.1138999999998
  0
LINE
  8
_0-1_ADD_LINE
  6
CONTINUOUS
 62
    7
 10
1181.7303999999999
 20
1672.8638999999998
 11
1181.7303999999999
 21
1724.1138999999998
  0
LINE
  8
_0-1_ADD_LINE
  6
CONTINUOUS
 62
    7
 10
978.8110999999999
 20
1600.4436000000001
 11
1076.3110999999999
 21
1600.4436000000001
  0
LINE
  8
_0-1_ADD_LINE
  6
CONTINUOUS
 62
    7
 10
809.6853000000001
 20
1567.6648
 11
956.77269999999999
 21
1567.6648
  0
LINE
  8
_0-1_ADD_LINE
  6
CONTINUOUS
 62
    7
 10
956.77269999999999
 20
1562.8263999999999
 11
956.77269999999999
 21
1541.5373999999999
  0
LINE
  8
_0-1_ADD_LINE
  6
CONTINUOUS
 62
    7
 10
956.77269999999999
 20
1541.5373999999999
 11
949.0311999999999
 21
1541.5373999999999
  0
LINE
  8
_0-1_ADD_LINE
  6
CONTINUOUS
 62
    7
 10
949.0311999999999
 20
1543.4728
 11
949.0311999999999
 21
1541.5373999999999
  0
LINE
  8
_0-1_ADD_LINE
  6
CONTINUOUS
 62
    7
 10
949.0311999999999
 20
1543.4728
 11
826.13589999999999
 21
1543.4728
  0
LINE
  8
_0-1_ADD_LINE
  6
CONTINUOUS
 62
    7
 10
826.13589999999999
 20
1543.4728
 11
826.13589999999999
 21
1538.7213999999999
  0
LINE
  8
_0-1_ADD_LINE
  6
CONTINUOUS
 62
    7
 10
956.77269999999999
 20
1562.2719049185023
 11
956.77269999999999
 21
1567.6648
  0
LINE
  8
_0-1_ADD_LINE
  6
CONTINUOUS
 62
    7
 10
809.6853000000001
 20
1567.6648
 11
809.6853000000001
 21
1480.6116
  0
LINE
  8
_0-1_ADD_LINE
  6
CONTINUOUS
 62
    7
 10
809.68529999999998
 20
1480.6116
 11
811.5107045317277
 21
1480.6116
  0
LINE
  8
_0-1_ADD_LINE
  6
CONTINUOUS
 62
    7
 10
743.13740000000007
 20
1620.3092999999999
 11
791.13740000000007
 21
1620.3092999999999
  0
LINE
  8
_0-1_ADD_LINE
  6
CONTINUOUS
 62
    7
 10
966.65049999999997
 20
1541.5373999999999
 11
1179.7303999999999
 21
1541.5373999999999
  0
LINE
  8
_0-1_ADD_LINE
  6
CONTINUOUS
 62
    7
 10
1179.7303999999999
 20
1541.5373999999999
 11
1179.7303999999999
 21
1522.5677999999998
  0
LINE
  8
_0-1_ADD_LINE
  6
CONTINUOUS
 62
    7
 10
1179.7303999999999
 20
1522.5677999999998
 11
1217.6695999999999
 21
1522.5677999999998
  0
LINE
  8
_0-1_ADD_LINE
  6
CONTINUOUS
 62
    7
 10
1217.6695999999999
 20
1522.5677999999998
 11
1217.6695999999999
 21
1515.0707
  0
LINE
  8
_0-1_ADD_LINE
  6
CONTINUOUS
 62
    7
 10
1217.6695999999999
 20
1515.0707
 11
966.65049999999997
 21
1515.0707
  0
LINE
  8
_0-1_ADD_LINE
  6
CONTINUOUS
 62
    7
 10
919.95460000000003
 20
1514.5293999999999
 11
919.95460000000003
 21
1509.5373999999997
  0
LINE
  8
_0-1_ADD_LINE
  6
CONTINUOUS
 62
    7
 10
919.95460000000003
 20
1513.2804000000001
 11
943.2340999999999
 21
1513.2804000000001
  0
LINE
  8
_0-1_ADD_LINE
  6
CONTINUOUS
 62
    7
 10
943.2340999999999
 20
1514.5273
 11
943.2340999999999
 21
1509.5373999999997
  0
LINE
  8
_0-1_ADD_LINE
  6
CONTINUOUS
 62
    7
 10
943.2340999999999
 20
1510.7864999999997
 11
919.95460000000003
 21
1510.7864999999997
  0
LINE
  8
_0-1_ADD_LINE
  6
CONTINUOUS
 62
    7
 10
919.95460000000003
 20
1512.0334
 11
943.2340999999999
 21
1512.0334
  0
LINE
  8
_0-1_ADD_LINE
  6
CONTINUOUS
 62
    7
 10
871.78729999999996
 20
1503.6382000000001
 11
871.78729999999996
 21
1461.6201000000001
  0
LINE
  8
_0-1_ADD_LINE
  6
CONTINUOUS
 62
    7
 10
871.78729999999996
 20
1461.6201000000001
 11
939.93949999999995
 21
1461.6201000000001
  0
LINE
  8
_0-1_ADD_LINE
  6
CONTINUOUS
 62
    7
 10
940.52350000000001
 20
1462.6125999999999
 11
940.52350000000001
 21
1477.6125999999999
  0
LINE
  8
_0-1_ADD_LINE
  6
CONTINUOUS
 62
    7
 10
939.93949999999995
 20
1467.8978000000002
 11
939.93949999999995
 21
1461.6201000000001
  0
LINE
  8
_0-1_ADD_LINE
  6
CONTINUOUS
 62
    7
 10
940.52350000000001
 20
1462.6125999999999
 11
1945.0834
 21
1462.6125999999999
  0
LINE
  8
_0-1_ADD_LINE
  6
CONTINUOUS
 62
    7
 10
1945.0834
 20
1477.6125999999999
 11
940.52350000000001
 21
1477.6125999999999
  0
LINE
  8
_0-1_ADD_LINE
  6
CONTINUOUS
 62
    7
 10
831.36339999999996
 20
1460.1382000000001
 11
1945.0834
 21
1460.1382000000001
  0
LINE
  8
_0-1_ADD_LINE
  6
CONTINUOUS
 62
    7
 10
1945.0834
 20
1458.6382000000001
 11
850.90589999999997
 21
1458.6382000000001
  0
LINE
  8
_0-1_ADD_LINE
  6
CONTINUOUS
 62
    7
 10
850.90589999999997
 20
1458.6189999999999
 11
850.90589999999997
 21
1448.0315999999998
  0
LINE
  8
_0-1_ADD_LINE
  6
CONTINUOUS
 62
    7
 10
850.90589999999997
 20
1446.6382000000001
 11
1945.0834
 21
1446.6382000000001
  0
LINE
  8
_0-1_ADD_LINE
  6
CONTINUOUS
 62
    7
 10
1945.0834
 20
1386.6382000000001
 11
850.90589999999997
 21
1386.6382000000001
  0
LINE
  8
_0-1_ADD_LINE
  6
CONTINUOUS
 62
    7
 10
850.90589999999997
 20
1380.6382000000003
 11
1945.0834
 21
1380.6382000000003
  0
LINE
  8
_0-1_ADD_LINE
  6
CONTINUOUS
 62
    7
 10
1819.9059000000002
 20
1446.6382000000001
 11
1819.9059000000002
 21
1386.6382000000001
  0
LINE
  8
_0-1_ADD_LINE
  6
CONTINUOUS
 62
    7
 10
1759.9059000000002
 20
1446.6382000000001
 11
1759.9059000000002
 21
1386.6382000000001
  0
LINE
  8
_0-1_ADD_LINE
  6
CONTINUOUS
 62
    7
 10
1759.9059000000002
 20
1386.6382000000001
 11
1516.9059000000002
 21
1386.6382000000001
  0
LINE
  8
_0-1_ADD_LINE
  6
CONTINUOUS
 62
    7
 10
1516.9059000000002
 20
1446.6382000000001
 11
1516.9059000000002
 21
1386.6382000000001
  0
LINE
  8
_0-1_ADD_LINE
  6
CONTINUOUS
 62
    7
 10
1456.9059000000002
 20
1446.6382000000001
 11
1456.9059000000002
 21
1386.6382000000001
  0
LINE
  8
_0-1_ADD_LINE
  6
CONTINUOUS
 62
    7
 10
1428.7066
 20
1266.6887999999999
 11
1633.5293000000001
 21
1266.6887999999999
  0
LINE
  8
_0-1_ADD_LINE
  6
CONTINUOUS
 62
    7
 10
1436.7399654914232
 20
1236.7077999999999
 11
1665.5904999999998
 21
1236.7077999999999
  0
LINE
  8
_0-1_ADD_LINE
  6
CONTINUOUS
 62
    7
 10
1679.9076
 20
1236.7077999999999
 11
1665.5904999999998
 21
1236.7077999999999
  0
LINE
  8
_0-1_ADD_LINE
  6
CONTINUOUS
 62
    7
 10
1666.5742
 20
1206.6125
 11
1445.6336000000001
 21
1206.6125
  0
LINE
  8
_0-1_ADD_LINE
  6
CONTINUOUS
 62
    7
 10
1452.8067000000001
 20
1176.7458999999999
 11
1518.5450000000001
 21
1176.7458999999999
  0
LINE
  8
_0-1_ADD_LINE
  6
CONTINUOUS
 62
    7
 10
1797.7303999999999
 20
1541.5373999999999
 11
1797.7303999999999
 21
1524.5645999999999
  0
LINE
  8
_0-1_ADD_LINE
  6
CONTINUOUS
 62
    7
 10
1797.7303999999999
 20
1524.5645999999999
 11
1834.9340000000002
 21
1524.5645999999999
  0
LINE
  8
_0-1_ADD_LINE
  6
CONTINUOUS
 62
    7
 10
1834.9340000000002
 20
1524.5645999999999
 11
1834.9340000000002
 21
1515.0707
  0
LINE
  8
_0-1_ADD_LINE
  6
CONTINUOUS
 62
    7
 10
1833.6696000000002
 20
1515.0707
 11
1945.0834
 21
1515.0707
  0
LINE
  8
_0-1_ADD_LINE
  6
CONTINUOUS
 62
    7
 10
1797.7303999999999
 20
1541.5373999999999
 11
1945.0834
 21
1541.5373999999999
  0
LINE
  8
_0-1_ADD_LINE
  6
CONTINUOUS
 62
    7
 10
1489.7303999999999
 20
1541.5373999999999
 11
1489.7303999999999
 21
1524.5645999999999
  0
LINE
  8
_0-1_ADD_LINE
  6
CONTINUOUS
 62
    7
 10
1489.7303999999999
 20
1524.5645999999999
 11
1526.9340000000002
 21
1524.5645999999999
  0
LINE
  8
_0-1_ADD_LINE
  6
CONTINUOUS
 62
    7
 10
1526.9340000000002
 20
1524.5645999999999
 11
1526.9340000000002
 21
1515.0707
  0
LINE
  8
_0-1_ADD_LINE
  6
CONTINUOUS
 62
    7
 10
1526.9340000000002
 20
1515.0707
 11
1833.6696000000002
 21
1515.0707
  0
LINE
  8
_0-1_ADD_LINE
  6
CONTINUOUS
 62
    7
 10
1833.6696000000002
 20
1515.0707
 11
1833.6696000000002
 21
1522.5677999999998
  0
LINE
  8
_0-1_ADD_LINE
  6
CONTINUOUS
 62
    7
 10
1833.6696000000002
 20
1522.5677999999998
 11
1795.7303999999999
 21
1522.5677999999998
  0
LINE
  8
_0-1_ADD_LINE
  6
CONTINUOUS
 62
    7
 10
1795.7303999999999
 20
1522.5677999999998
 11
1795.7303999999999
 21
1541.5373999999999
  0
LINE
  8
_0-1_ADD_LINE
  6
CONTINUOUS
 62
    7
 10
1795.7303999999999
 20
1541.5373999999999
 11
1489.7303999999999
 21
1541.5373999999999
  0
LINE
  8
_0-1_ADD_LINE
  6
CONTINUOUS
 62
    7
 10
1487.7303999999999
 20
1541.5373999999999
 11
1487.7303999999999
 21
1522.5677999999998
  0
LINE
  8
_0-1_ADD_LINE
  6
CONTINUOUS
 62
    7
 10
1487.7303999999999
 20
1522.5677999999998
 11
1525.6696000000002
 21
1522.5677999999998
  0
LINE
  8
_0-1_ADD_LINE
  6
CONTINUOUS
 62
    7
 10
1525.6696000000002
 20
1522.5677999999998
 11
1525.6696000000002
 21
1515.0707
  0
LINE
  8
_0-1_ADD_LINE
  6
CONTINUOUS
 62
    7
 10
1525.6696000000002
 20
1515.0707
 11
1218.934
 21
1515.0707
  0
LINE
  8
_0-1_ADD_LINE
  6
CONTINUOUS
 62
    7
 10
1218.934
 20
1515.0707
 11
1218.934
 21
1524.5645999999999
  0
LINE
  8
_0-1_ADD_LINE
  6
CONTINUOUS
 62
    7
 10
1218.934
 20
1524.5645999999999
 11
1181.7303999999999
 21
1524.5645999999999
  0
LINE
  8
_0-1_ADD_LINE
  6
CONTINUOUS
 62
    7
 10
1181.7303999999999
 20
1524.5645999999999
 11
1181.7303999999999
 21
1541.5373999999999
  0
LINE
  8
_0-1_ADD_LINE
  6
CONTINUOUS
 62
    7
 10
1181.7303999999999
 20
1541.5373999999999
 11
1487.7303999999999
 21
1541.5373999999999
  0
LINE
  8
_0-1_ADD_LINE
  6
CONTINUOUS
 62
    7
 10
1358.6532
 20
1582.8631999999998
 11
1399.1532000000002
 21
1582.8631999999998
  0
LINE
  8
_0-1_ADD_LINE
  6
CONTINUOUS
 62
    7
 10
1213.9059
 20
1446.6382000000001
 11
1213.9059
 21
1386.6382000000001
  0
LINE
  8
_0-1_ADD_LINE
  6
CONTINUOUS
 62
    7
 10
1153.9059
 20
1446.6382000000001
 11
1153.9059
 21
1386.6382000000001
  0
LINE
  8
_0-1_ADD_LINE
  6
CONTINUOUS
 62
    7
 10
1222.6570999999999
 20
1306.6605
 11
1005.1570999999999
 21
1306.6605
  0
LINE
  8
_0-1_ADD_LINE
  6
CONTINUOUS
 62
    7
 10
793.99340000000007
 20
1313.0277000000001
 11
745.99340000000007
 21
1313.0277000000001
  0
LINE
  8
_0-1_ADD_LINE
  6
CONTINUOUS
 62
    7
 10
785.26420000000007
 20
1371.2348
 11
645.41810000000009
 21
1371.2348
  0
LINE
  8
_0-1_ADD_LINE
  6
CONTINUOUS
 62
    7
 10
850.90589999999997
 20
1458.6189999999999
 11
850.90589999999997
 21
1363.1788000000001
  0
LINE
  8
_0-1_ADD_LINE
  6
CONTINUOUS
 62
    7
 10
850.90589999999997
 20
1360.6382000000003
 11
829.93949999999995
 21
1360.6382000000003
  0
LINE
  8
_0-1_ADD_LINE
  6
CONTINUOUS
 62
    7
 10
829.93949999999995
 20
1360.6382000000003
 11
829.93949999999995
 21
1458.6382000000001
  0
LINE
  8
_0-1_ADD_LINE
  6
CONTINUOUS
 62
    7
 10
829.93949999999995
 20
1458.6189999999999
 11
850.90589999999997
 21
1458.6189999999999
  0
LINE
  8
_0-1_ADD_LINE
  6
CONTINUOUS
 62
    7
 10
910.90589999999997
 20
1446.6382000000001
 11
910.90589999999997
 21
1386.6382000000001
  0
LINE
  8
_0-1_ADD_LINE
  6
CONTINUOUS
 62
    7
 10
828.78729999999996
 20
1503.6382000000001
 11
871.78729999999996
 21
1503.6382000000001
  0
LINE
  8
_0-1_ADD_LINE
  6
CONTINUOUS
 62
    7
 10
844.2509
 20
1473.4028000000001
 11
838.94759999999997
 21
1468.0995000000003
  0
LINE
  8
_0-1_ADD_LINE
  6
CONTINUOUS
 62
    7
 10
844.2509
 20
1473.4028000000001
 11
842.3098
 21
1466.1583999999998
  0
LINE
  8
_0-1_ADD_LINE
  6
CONTINUOUS
 62
    7
 10
844.2509
 20
1473.4028000000001
 11
785.26420000000007
 21
1371.2348
  0
LINE
  8
_0-1_ADD_LINE
  6
CONTINUOUS
 62
    7
 10
835.6427000000001
 20
1389.0486000000001
 11
840.94599999999991
 21
1394.3518999999997
  0
LINE
  8
_0-1_ADD_LINE
  6
CONTINUOUS
 62
    7
 10
840.94599999999991
 20
1394.3518999999997
 11
839.00479999999993
 21
1387.1075000000001
  0
LINE
  8
_0-1_ADD_LINE
  6
CONTINUOUS
 62
    7
 10
840.94599999999991
 20
1394.3518999999997
 11
793.99340000000007
 21
1313.0277000000001
  0
LINE
  8
_0-1_ADD_LINE
  6
CONTINUOUS
 62
    7
 10
910.90589999999997
 20
1446.6382000000001
 11
850.90589999999997
 21
1386.6382000000001
  0
LINE
  8
_0-1_ADD_LINE
  6
CONTINUOUS
 62
    7
 10
915.6986999999998
 20
1461.6201000000001
 11
917.62179999999989
 21
1454.3938000000001
  0
LINE
  8
_0-1_ADD_LINE
  6
CONTINUOUS
 62
    7
 10
915.6986999999998
 20
1461.6201000000001
 11
920.98389999999995
 21
1456.3348999999998
  0
LINE
  8
_0-1_ADD_LINE
  6
CONTINUOUS
 62
    7
 10
915.68545005245426
 20
1461.6201000000001
 11
1005.1570999999999
 21
1306.6605
  0
LINE
  8
_0-1_ADD_LINE
  6
CONTINUOUS
 62
    7
 10
844.03670000000011
 20
1532.5673999999999
 11
845.97779999999989
 21
1525.3230000000003
  0
LINE
  8
_0-1_ADD_LINE
  6
CONTINUOUS
 62
    7
 10
845.97779999999989
 20
1525.3230000000003
 11
840.67450000000008
 21
1530.6262999999999
  0
LINE
  8
_0-1_ADD_LINE
  6
CONTINUOUS
 62
    7
 10
845.97779999999989
 20
1525.3230000000003
 11
791.13740000000007
 21
1620.3092999999999
  0
LINE
  8
_0-1_ADD_LINE
  6
CONTINUOUS
 62
    7
 10
931.14969999999994
 20
1521.7739000000001
 11
929.20859999999993
 21
1514.5293999999999
  0
LINE
  8
_0-1_ADD_LINE
  6
CONTINUOUS
 62
    7
 10
929.20859999999993
 20
1514.5293999999999
 11
934.51189999999997
 21
1519.8326999999999
  0
LINE
  8
_0-1_ADD_LINE
  6
CONTINUOUS
 62
    7
 10
929.20859999999993
 20
1514.5293999999999
 11
978.8110999999999
 21
1600.4436000000001
  0
LINE
  8
_0-1_ADD_LINE
  6
CONTINUOUS
 62
    7
 10
1317.3025590994425
 20
1515.0707
 11
1315.3882000000001
 21
1507.9260999999999
  0
LINE
  8
_0-1_ADD_LINE
  6
CONTINUOUS
 62
    7
 10
1315.3882000000001
 20
1507.9260999999999
 11
1320.6914999999999
 21
1513.2293999999999
  0
LINE
  8
_0-1_ADD_LINE
  6
CONTINUOUS
 62
    7
 10
1315.3882000000001
 20
1507.9260999999999
 11
1358.6532
 21
1582.8631999999998
  0
LINE
  8
_0-1_ADD_LINE
  6
CONTINUOUS
 62
    7
 10
1375.1989000000001
 20
1466.3823
 11
1375.1989000000001
 21
1458.8823
  0
LINE
  8
_0-1_ADD_LINE
  6
CONTINUOUS
 62
    7
 10
1375.1989000000001
 20
1466.3823
 11
1378.9489000000001
 21
1459.8872000000001
  0
LINE
  8
_0-1_ADD_LINE
  6
CONTINUOUS
 62
    7
 10
1375.1989000000001
 20
1466.3823
 11
1452.8067000000001
 21
1176.7458999999999
  0
LINE
  8
_0-1_ADD_LINE
  6
CONTINUOUS
 62
    7
 10
1516.9059000000002
 20
1446.6382000000001
 11
1456.9059000000002
 21
1386.6382000000001
  0
LINE
  8
_0-1_ADD_LINE
  6
CONTINUOUS
 62
    7
 10
1213.9059
 20
1446.6382000000001
 11
1153.9059
 21
1386.6382000000001
  0
LINE
  8
_0-1_ADD_LINE
  6
CONTINUOUS
 62
    7
 10
1153.9059
 20
1386.6382000000001
 11
1213.9059
 21
1446.6382000000001
  0
LINE
  8
_0-1_ADD_LINE
  6
CONTINUOUS
 62
    7
 10
1819.9059000000002
 20
1446.6382000000001
 11
1759.9059000000002
 21
1386.6382000000001
  0
TEXT
  8
_0-0_LAYER002
 62
    7
 10
1452.8066999999996
 20
1179.2458999999999
 40
20
 41
1
 50
0
  1
　垂木
  0
TEXT
  8
_0-0_LAYER002
 62
    7
 10
1445.6335999999997
 20
1209.1125
 40
20
 41
1
 50
0
  1
　野地板：耐水合板ｔ＝１２
  0
TEXT
  8
_0-0_LAYER002
 62
    7
 10
984.12484751444356
 20
1604.4040735866502
 40
20
 41
1
 50
0
  1
弾性シール材
  0
TEXT
  8
_0-0_LAYER002
 62
    7
 10
1365.7878150203444
 20
1586.7470679724984
 40
20
 41
1
 50
0
  1
桟瓦
  0
TEXT
  8
_0-0_LAYER002
 62
    7
 10
743.71792492175837
 20
1622.0610792008019
 40
20
 41
1
 50
0
  1
左袖瓦
  0
TEXT
  8
_0-0_LAYER002
 62
    7
 10
1435.0576062758637
 20
1274.3538917221169
 40
20
 41
1
 50
0
  1
　瓦桟：１５ｘ３０以上
  0
TEXT
  8
_0-0_LAYER002
 62
    7
 10
1014.5224645502616
 20
1736.1182984926991
 40
20
 41
1
 50
0
  1
308
  0
TEXT
  8
_0-0_LAYER002
 62
    7
 10
1321.9249306372967
 20
1734.7989746039129
 40
20
 41
1
 50
0
  1
308
  0
TEXT
  8
_0-0_LAYER002
 62
    7
 10
1634.6046922794744
 20
1729.5216790487711
 40
20
 41
1
 50
0
  1
308
  0
TEXT
  8
_0-0_LAYER002
 62
    7
 10
1005.8565467318615
 20
1309.667902950421
 40
20
 41
1
 50
0
  1
捨水切カラー鋼板0.35ｍｍ以上
  0
TEXT
  8
_0-0_LAYER002
 62
    7
 10
1436.0904999999998
 20
1239.2077999999999
 40
20
 41
1
 50
0
  1
　下葺材：ルーフィング
  0
TEXT
  8
_0-0_LAYER002
 62
    7
 10
727.50549283443661
 20
1314.9181805272451
 40
20
 41
1
 50
0
  1
破風板
  0
TEXT
  8
_0-0_LAYER002
 62
    7
 10
610.79723530128672
 20
1377.0780133438141
 40
20
 41
1
 50
0
  1
登り淀（防腐処理）
  0
ENDSEC
  0
EOF
