  0
SECTION
  2
HEADER
  9
$ACADVER
  1
AC1009
  9
$INSBASE
 10
0
 20
0
 30
0
  9
$EXTMIN
 10
0
 20
0
  9
$EXTMAX
 10
2970
 20
2100
  9
$LIMMIN
 10
0
 20
0
  9
$LIMMAX
 10
2970
 20
2100
  9
$LTSCALE
 40
10
  0
ENDSEC
  0
SECTION
  2
TABLES
  0
TABLE
  2
LTYPE
 70
     9
  0
LTYPE
  2
CONTINUOUS
 70
    64
  3
実線
 72
    65
 73
     0
 40
0.0
  0
LTYPE
  2
DASHED1
 70
    64
  3
--  --  --  --  --  --  --  --  
 72
    65
 73
     2
 40
2.5
 49
1.25
 49
-1.25
  0
LTYPE
  2
DASHED2
 70
    64
  3
----    ----    ----    ----    
 72
    65
 73
     2
 40
5.0
 49
2.5
 49
-2.5
  0
LTYPE
  2
DASHED3
 70
    64
  3
------  ------  ------  ------  
 72
    65
 73
     2
 40
5.0
 49
3.75
 49
-1.25
  0
LTYPE
  2
CENTER1
 70
    64
  3
----- - ----- - ----- - ----- - 
 72
    65
 73
     4
 40
10.0
 49
6.25
 49
-1.25
 49
1.25
 49
-1.25
  0
LTYPE
  2
CENTER2
 70
    64
  3
----------  --  ----------  --  
 72
    65
 73
     4
 40
20.0
 49
12.5
 49
-2.5
 49
2.5
 49
-2.5
  0
LTYPE
  2
PHANTOM1
 70
    64
  3
--- - - --- - - --- - - --- - - 
 72
    65
 73
     6
 40
10.0
 49
3.25
 49
-1.25
 49
1.25
 49
-1.25
 49
1.25
 49
-1.25
  0
LTYPE
  2
PHANTOM2
 70
    64
  3
--------  -  -  --------  -  -  
 72
    65
 73
     6
 40
20.0
 49
10.0
 49
-2.5
 49
1.25
 49
-2.5
 49
1.25
 49
-2.5
  0
LTYPE
  2
DOT
 70
    64
  3
-   -   -   -   -   -   -   -   
 72
    65
 73
     2
 40
2.5
 49
0.625
 49
-1.875
  0
LTYPE
  2
DUMMY
 70
    64
  3
ダミー
 72
    65
 73
     0
 40
0.0
  0
LTYPE
  2
RAND1
 70
    64
  3
ランダム線1
 72
    65
 73
     4
 40
10.0
 49
1.0
 49
-2.0
 49
3.0
 49
-4.0
  0
LTYPE
  2
RAND2
 70
    64
  3
ランダム線2
 72
    65
 73
     4
 40
14.0
 49
2.0
 49
-3.0
 49
4.0
 49
-5.0
  0
LTYPE
  2
RAND3
 70
    64
  3
ランダム線3
 72
    65
 73
     4
 40
18.0
 49
3.0
 49
-4.0
 49
5.0
 49
-6.0
  0
LTYPE
  2
RAND4
 70
    64
  3
ランダム線4
 72
    65
 73
     4
 40
22.0
 49
4.0
 49
-5.0
 49
6.0
 49
-7.0
  0
LTYPE
  2
RAND5
 70
    64
  3
ランダム線5
 72
    65
 73
     4
 40
26.0
 49
5.0
 49
-6.0
 49
7.0
 49
-8.0
  0
LTYPE
  2
LONG1
 70
    64
  3
----------  --  ----------  --  
 72
    65
 73
     4
 40
40.0
 49
32.5
 49
-2.5
 49
2.5
 49
-2.5
  0
LTYPE
  2
LONG2
 70
    64
  3
--------  -  -  --------  -  -  
 72
    65
 73
     6
 40
40.0
 49
30.0
 49
-2.5
 49
1.25
 49
-2.5
 49
1.25
 49
-2.5
  0
LTYPE
  2
LONG3
 70
    64
  3
+++++++++++++++..+++++++++++++++
 72
    65
 73
     2
 40
40.0
 49
37.5
 49
-2.5
  0
LTYPE
  2
LONG4
 70
    64
  3
+++++++++++++++..+++++++++++++++
 72
    65
 73
     2
 40
80.0
 49
75.0
 49
-5.0
  0
LTYPE
  2
LONG5
 70
    64
  3
----------  --  ----------  --  
 72
    65
 73
     4
 40
60.0
 49
37.5
 49
-7.5
 49
7.5
 49
-7.5
  0
LTYPE
  2
dashed
 70
   64
  3
-------   -------------   ------
 72
   65
 73
    2
 40
7.5
 49
6
 49
-1.5
  0
LTYPE
  2
dashed_spaced
 70
   64
  3
----        --------        ----
 72
   65
 73
    2
 40
12
 49
6
 49
-6
  0
LTYPE
  2
long_dashed_dotted
 70
   64
  3
------------- --- --------------
 72
   65
 73
    4
 40
15.25
 49
12
 49
-1.5
 49
0.25
 49
-1.5
  0
LTYPE
  2
long_dashed_double-dotted
 70
   64
  3
----------- --- --- ------------
 72
   65
 73
    6
 40
17
 49
12
 49
-1.5
 49
0.25
 49
-1.5
 49
0.25
 49
-1.5
  0
LTYPE
  2
long_dashed_triplicate-dotted
 70
   64
  3
--------- --- --- --- ----------
 72
   65
 73
    8
 40
18.75
 49
12
 49
-1.5
 49
0.25
 49
-1.5
 49
0.25
 49
-1.5
 49
0.25
 49
-1.5
  0
LTYPE
  2
dotted
 70
   64
  3
   -       -       -       -    
 72
   65
 73
    2
 40
1.75
 49
0.25
 49
-1.5
  0
LTYPE
  2
chain
 70
   64
  3
-------------- -- --------------
 72
   65
 73
    4
 40
18.5
 49
12
 49
-1.5
 49
3.5
 49
-1.5
  0
LTYPE
  2
chain_double_dash
 70
   64
  3
------------ -- -- -------------
 72
   65
 73
    6
 40
23.5
 49
12
 49
-1.5
 49
3.5
 49
-1.5
 49
3.5
 49
-1.5
  0
LTYPE
  2
dashed_dotted
 70
   64
  3
-----------     -     ----------
 72
   65
 73
    4
 40
9.25
 49
6
 49
-1.5
 49
0.25
 49
-1.5
  0
LTYPE
  2
double-dashed_dotted
 70
   64
  3
------   -----------   -   -----
 72
   65
 73
    6
 40
16.75
 49
6
 49
-1.5
 49
6
 49
-1.5
 49
0.25
 49
-1.5
  0
LTYPE
  2
dashed_double-dotted
 70
   64
  3
---------    -    -    ---------
 72
   65
 73
    6
 40
11
 49
6
 49
-1.5
 49
0.25
 49
-1.5
 49
0.25
 49
-1.5
  0
LTYPE
  2
double-dashed_double-dotted
 70
   64
  3
-----   ---------   -   -   ----
 72
   65
 73
    8
 40
18.5
 49
6
 49
-1.5
 49
6
 49
-1.5
 49
0.25
 49
-1.5
 49
0.25
 49
-1.5
  0
LTYPE
  2
dashed_triplicate-dotted
 70
   64
  3
-------    -    -    -    ------
 72
   65
 73
    8
 40
12.75
 49
6
 49
-1.5
 49
0.25
 49
-1.5
 49
0.25
 49
-1.5
 49
0.25
 49
-1.5
  0
LTYPE
  2
double-dashed_triplicate-dotted
 70
   64
  3
-----  ---------  -  -  -  -----
 72
   65
 73
   10
 40
20.25
 49
6
 49
-1.5
 49
6
 49
-1.5
 49
0.25
 49
-1.5
 49
0.25
 49
-1.5
 49
0.25
 49
-1.5
  0
LTYPE
  2
undefined
 70
   64
  3
--------------------------------
 72
   65
 73
    0
 40
0
  0
LTYPE
  2
HIDDEN
 70
   64
  3
----        --------        ----
 72
   65
 73
    2
 40
10
 49
5
 49
-5
  0
LTYPE
  2
DASHED
 70
   64
  3
-------   -------------   ------
 72
   65
 73
    2
 40
50
 49
40
 49
-10
  0
LTYPE
  2
CENTER
 70
   64
  3
------------   ---   -----------
 72
   65
 73
    4
 40
100
 49
70
 49
-10
 49
10
 49
-10
  0
LTYPE
  2
PHANTOM
 70
   64
  3
---------   ---   ---   --------
 72
   65
 73
    6
 40
100
 49
50
 49
-10
 49
10
 49
-10
 49
10
 49
-10
  0
ENDTAB
  0
TABLE
  2
STYLE
  5
3
100
AcDbSymbolTable
 70
     1
  0
STYLE
  5
10
100
AcDbSymbolTableRecord
100
AcDbTextStyleTableRecord
  2
STANDARD
 70
     0
 40
0.0
 41
1.0
 50
0.0
 71
     0
 42
0.2
  3
txt
  4
bigfont.shx
  0
STYLE
  5
26
100
AcDbSymbolTableRecord
100
AcDbTextStyleTableRecord
  2
TATEGAKI
 70
    68
 40
0.0
 41
1.0
 50
0.0
 71
     0
 42
1.0
  3
txt
  4
bigfont.shx
  0
ENDTAB
  0
TABLE
  2
LAYER
 70
    4
  0
LAYER
  2
_0-0_LAYER001
 70
   64
 62
    7
  6
CONTINUOUS
  0
LAYER
  2
_0-1_LAYER003
 70
   64
 62
    7
  6
CONTINUOUS
  0
LAYER
  2
_0-2_LAYER009
 70
   64
 62
    7
  6
CONTINUOUS
  0
LAYER
  2
ADD_LINE
 70
   64
 62
    7
  6
CONTINUOUS
  0
ENDTAB
  0
ENDSEC
  0
SECTION
  2
BLOCKS
  0
ENDSEC
  0
SECTION
  2
ENTITIES
  0
LINE
  8
_0-0_LAYER001
  6
CONTINUOUS
 62
    4
 10
964.20433900000012
 20
745.67934000000014
 11
1125.0865630000001
 21
796.50139600000011
  0
LINE
  8
_0-0_LAYER001
  6
CONTINUOUS
 62
    4
 10
1119.0075870000001
 20
815.74499300000025
 11
1095.6226029999998
 21
808.35776900000019
  0
LINE
  8
_0-0_LAYER001
  6
CONTINUOUS
 62
    4
 10
956.87383699999998
 20
761.71606900000052
 11
1093.2132849999998
 21
804.78516000000036
  0
ARC
  8
_0-0_LAYER001
  6
CONTINUOUS
 62
    4
 10
1098.844053
 20
803.30519100000038
 40
5.8220140000000011
 50
113.701938
 51
165.27368200000001
  0
LINE
  8
_0-0_LAYER001
  6
CONTINUOUS
 62
    4
 10
1126.242518
 20
777.39033300000028
 11
1124.4810130000001
 21
782.96655200000032
  0
LINE
  8
_0-0_LAYER001
  6
CONTINUOUS
 62
    4
 10
1119.0075870000001
 20
815.74499300000025
 11
1130.6807760000002
 21
778.79236100000026
  0
LINE
  8
_0-0_LAYER001
  6
CONTINUOUS
 62
    4
 10
1126.242518
 20
777.39033300000028
 11
1130.6807760000002
 21
778.79236100000026
  0
LINE
  8
_0-0_LAYER001
  6
CONTINUOUS
 62
    4
 10
969.53415500000006
 20
734.01945500000011
 11
1124.4810130000001
 21
782.96655200000032
  0
LINE
  8
_0-0_LAYER001
  6
CONTINUOUS
 62
    4
 10
1049.397901
 20
813.59290100000044
 11
1055.0163360000001
 21
815.31668000000036
  0
ARC
  8
_0-0_LAYER001
  6
CONTINUOUS
 62
    4
 10
1071.8147350000002
 20
816.89108900000019
 40
16.872017
 50
102.88244700000001
 51
185.35433299999997
  0
LINE
  8
_0-0_LAYER001
  6
CONTINUOUS
 62
    4
 10
1073.4593010000001
 20
816.69197100000019
 11
1380.4246090000001
 21
910.87129500000037
  0
LINE
  8
_0-0_LAYER001
  6
CONTINUOUS
 62
    4
 10
1374.505275
 20
930.16459600000053
 11
1351.05989
 21
922.97137100000054
  0
LINE
  8
_0-0_LAYER001
  6
CONTINUOUS
 62
    4
 10
1068.053093
 20
833.33843000000024
 11
1348.621056
 21
919.41884600000049
  0
ARC
  8
_0-0_LAYER001
  6
CONTINUOUS
 62
    4
 10
1354.2393689999999
 20
917.89227700000038
 40
5.8220140000000011
 50
113.22723600000002
 51
164.79898000000003
  0
LINE
  8
_0-0_LAYER001
  6
CONTINUOUS
 62
    4
 10
1049.3887540000001
 20
813.62271600000031
 11
1055.1173580000002
 21
794.95107100000041
  0
ARC
  8
_0-0_LAYER001
  6
CONTINUOUS
 62
    4
 10
1077.2209420000002
 20
800.24463000000014
 40
16.872017
 50
102.88244700000001
 51
192.21985000000001
  0
LINE
  8
_0-0_LAYER001
  6
CONTINUOUS
 62
    4
 10
1381.422188
 20
891.75131100000044
 11
1379.7069430000001
 21
897.34193200000027
  0
LINE
  8
_0-0_LAYER001
  6
CONTINUOUS
 62
    4
 10
1374.505275
 20
930.16459600000053
 11
1385.8719100000003
 21
893.11652000000049
  0
LINE
  8
_0-0_LAYER001
  6
CONTINUOUS
 62
    4
 10
1381.422188
 20
891.75131100000044
 11
1385.8719100000003
 21
893.11652000000049
  0
LINE
  8
_0-0_LAYER001
  6
CONTINUOUS
 62
    4
 10
1060.7312010000001
 20
796.67344100000037
 11
1055.1173580000002
 21
794.95107100000041
  0
LINE
  8
_0-0_LAYER001
  6
CONTINUOUS
 62
    4
 10
1060.383047
 20
799.37089800000012
 11
1379.7069430000001
 21
897.34193200000027
  0
LINE
  8
_0-0_LAYER001
  6
CONTINUOUS
 62
    4
 10
1304.716735
 20
928.53764900000033
 11
1310.3351700000003
 21
930.26142900000013
  0
ARC
  8
_0-0_LAYER001
  6
CONTINUOUS
 62
    4
 10
1327.1335690000001
 20
931.83583700000054
 40
16.872017
 50
102.88244700000001
 51
185.35433299999997
  0
LINE
  8
_0-0_LAYER001
  6
CONTINUOUS
 62
    4
 10
1328.778135
 20
931.63671900000054
 11
1635.7434430000003
 21
1025.8160430000003
  0
LINE
  8
_0-0_LAYER001
  6
CONTINUOUS
 62
    4
 10
1629.8241090000001
 20
1045.1093440000004
 11
1606.3787240000001
 21
1037.9161190000004
  0
LINE
  8
_0-0_LAYER001
  6
CONTINUOUS
 62
    4
 10
1323.3719270000001
 20
948.28317800000013
 11
1603.9398900000001
 21
1034.3635940000004
  0
ARC
  8
_0-0_LAYER001
  6
CONTINUOUS
 62
    4
 10
1609.558203
 20
1032.8370250000003
 40
5.8220140000000011
 50
113.22723600000002
 51
164.79898000000003
  0
LINE
  8
_0-0_LAYER001
  6
CONTINUOUS
 62
    4
 10
1304.707588
 20
928.5674640000002
 11
1310.4361920000001
 21
909.8958190000003
  0
ARC
  8
_0-0_LAYER001
  6
CONTINUOUS
 62
    4
 10
1332.5397760000001
 20
915.18937800000049
 40
16.872017
 50
102.88244700000001
 51
192.21985000000001
  0
LINE
  8
_0-0_LAYER001
  6
CONTINUOUS
 62
    4
 10
1636.741023
 20
1006.6960590000003
 11
1635.0257770000003
 21
1012.2866810000005
  0
LINE
  8
_0-0_LAYER001
  6
CONTINUOUS
 62
    4
 10
1629.8241090000001
 20
1045.1093440000004
 11
1641.190744
 21
1008.0612680000004
  0
LINE
  8
_0-0_LAYER001
  6
CONTINUOUS
 62
    4
 10
1636.741023
 20
1006.6960590000003
 11
1641.190744
 21
1008.0612680000004
  0
LINE
  8
_0-0_LAYER001
  6
CONTINUOUS
 62
    4
 10
1316.0500350000002
 20
911.61819000000014
 11
1310.4361920000001
 21
909.8958190000003
  0
LINE
  8
_0-0_LAYER001
  6
CONTINUOUS
 62
    4
 10
1315.7018810000002
 20
914.31564600000047
 11
1635.0257770000003
 21
1012.2866810000005
  0
LINE
  8
_0-0_LAYER001
  6
CONTINUOUS
 62
    4
 10
1560.0355690000001
 20
1043.4823980000006
 11
1565.6540049999999
 21
1045.2061770000005
  0
ARC
  8
_0-0_LAYER001
  6
CONTINUOUS
 62
    4
 10
1582.4524030000002
 20
1046.7805860000003
 40
16.872017
 50
102.88244700000001
 51
185.35433299999997
  0
LINE
  8
_0-0_LAYER001
  6
CONTINUOUS
 62
    4
 10
1584.0969690000002
 20
1046.5814670000004
 11
1891.062277
 21
1140.7607920000005
  0
LINE
  8
_0-0_LAYER001
  6
CONTINUOUS
 62
    4
 10
1885.1429430000003
 20
1160.0540920000003
 11
1861.6975580000003
 21
1152.8608680000002
  0
LINE
  8
_0-0_LAYER001
  6
CONTINUOUS
 62
    4
 10
1578.6907620000002
 20
1063.2279260000005
 11
1859.2587240000003
 21
1149.3083420000003
  0
ARC
  8
_0-0_LAYER001
  6
CONTINUOUS
 62
    4
 10
1864.8770370000002
 20
1147.7817730000002
 40
5.8220140000000011
 50
113.22723600000002
 51
164.79898000000003
  0
LINE
  8
_0-0_LAYER001
  6
CONTINUOUS
 62
    4
 10
1560.0264219999999
 20
1043.5122120000005
 11
1565.7550260000003
 21
1024.8405680000005
  0
ARC
  8
_0-0_LAYER001
  6
CONTINUOUS
 62
    4
 10
1587.8586100000002
 20
1030.1341270000003
 40
16.872017
 50
102.88244700000001
 51
192.21985000000001
  0
LINE
  8
_0-0_LAYER001
  6
CONTINUOUS
 62
    4
 10
1892.0598570000002
 20
1121.6408080000006
 11
1890.344611
 21
1127.2314290000004
  0
LINE
  8
_0-0_LAYER001
  6
CONTINUOUS
 62
    4
 10
1885.1429430000003
 20
1160.0540920000003
 11
1896.5095780000001
 21
1123.0060170000002
  0
LINE
  8
_0-0_LAYER001
  6
CONTINUOUS
 62
    4
 10
1892.0598570000002
 20
1121.6408080000006
 11
1896.5095780000001
 21
1123.0060170000002
  0
LINE
  8
_0-0_LAYER001
  6
CONTINUOUS
 62
    4
 10
1571.3688689999999
 20
1026.5629380000005
 11
1565.7550260000003
 21
1024.8405680000005
  0
LINE
  8
_0-0_LAYER001
  6
CONTINUOUS
 62
    4
 10
1571.020716
 20
1029.2603940000004
 11
1890.344611
 21
1127.2314290000004
  0
LINE
  8
_0-0_LAYER001
  6
CONTINUOUS
 62
    4
 10
1790.7043180000001
 20
1161.7436580000003
 11
1792.6087480000001
 21
1131.7620880000004
  0
LINE
  8
_0-0_LAYER001
  6
CONTINUOUS
 62
    4
 10
1792.6087480000001
 20
1131.7620880000004
 11
1801.1369300000001
 21
1134.6378640000003
  0
ARC
  8
_0-0_LAYER001
  6
CONTINUOUS
 62
    4
 10
1892.9719140000002
 20
1036.7895130000002
 40
134.19375500000001
 50
114.794572
 51
133.18420900000001
  0
ARC
  8
_0-0_LAYER001
  6
CONTINUOUS
 62
    4
 10
1848.4272960000003
 20
1155.1507590000001
 40
12.231889000000002
 50
103.69505300000002
 51
163.558077
  0
LINE
  8
_0-0_LAYER001
  6
CONTINUOUS
 62
    4
 10
1892.2622799999999
 20
1192.3374530000006
 11
1894.5142530000003
 21
1177.5074620000005
  0
ARC
  8
_0-0_LAYER001
  6
CONTINUOUS
 62
    4
 10
1957.2942270000003
 20
764.08027800000036
 40
418.16666700000007
 50
98.634545000000003
 51
105.501806
  0
ARC
  8
_0-0_LAYER001
  6
CONTINUOUS
 62
    4
 10
1948.56158
 20
821.58768700000019
 40
375
 50
98.634545000000003
 51
114.89475
  0
LINE
  8
_0-0_LAYER001
  6
CONTINUOUS
 62
    1
 10
1842.179251
 20
1181.1278830000001
 11
1845.6414100000002
 21
1184.5900420000003
  0
LINE
  8
_0-0_LAYER001
  6
CONTINUOUS
 62
    1
 10
1837.1069499999999
 20
1179.5911150000002
 11
1844.8977460000001
 21
1187.3819110000004
  0
LINE
  8
_0-0_LAYER001
  6
CONTINUOUS
 62
    1
 10
1832.0346480000003
 20
1178.0543480000001
 11
1844.154082
 21
1190.1737810000004
  0
LINE
  8
_0-0_LAYER001
  6
CONTINUOUS
 62
    1
 10
1831.1521729999999
 20
1180.7074060000004
 11
1843.4104179999999
 21
1192.9656510000004
  0
LINE
  8
_0-0_LAYER001
  6
CONTINUOUS
 62
    1
 10
1830.4085089999999
 20
1183.4992760000005
 11
1842.6667540000003
 21
1195.7575210000005
  0
LINE
  8
_0-0_LAYER001
  6
CONTINUOUS
 62
    1
 10
1829.6648450000002
 20
1186.2911460000005
 11
1838.7285879999999
 21
1195.3548890000002
  0
LINE
  8
_0-0_LAYER001
  6
CONTINUOUS
 62
    1
 10
1828.9211810000002
 20
1189.0830160000005
 11
1833.9093700000003
 21
1194.0712050000002
  0
LINE
  8
_0-0_LAYER001
  6
CONTINUOUS
 62
    1
 10
1828.1775170000001
 20
1191.8748860000005
 11
1829.0901520000002
 21
1192.7875210000002
  0
LINE
  8
_0-0_LAYER001
  6
CONTINUOUS
 62
    1
 10
1831.5691139999999
 20
1179.1421220000002
 11
1832.5122019999999
 21
1178.1990340000002
  0
LINE
  8
_0-0_LAYER001
  6
CONTINUOUS
 62
    1
 10
1830.2854299999999
 20
1183.9613400000003
 11
1835.2256390000002
 21
1179.0211300000005
  0
LINE
  8
_0-0_LAYER001
  6
CONTINUOUS
 62
    1
 10
1829.0017459999999
 20
1188.7805580000004
 11
1837.939077
 21
1179.8432270000003
  0
LINE
  8
_0-0_LAYER001
  6
CONTINUOUS
 62
    1
 10
1828.648072
 20
1192.6697650000006
 11
1840.6525139999999
 21
1180.6653240000005
  0
LINE
  8
_0-0_LAYER001
  6
CONTINUOUS
 62
    1
 10
1831.439942
 20
1193.4134290000002
 11
1843.3659510000002
 21
1181.4874200000004
  0
LINE
  8
_0-0_LAYER001
  6
CONTINUOUS
 62
    1
 10
1834.231812
 20
1194.1570930000003
 11
1846.0793880000001
 21
1182.3095170000001
  0
LINE
  8
_0-0_LAYER001
  6
CONTINUOUS
 62
    1
 10
1837.023682
 20
1194.9007570000003
 11
1845.026719
 21
1186.8977200000004
  0
LINE
  8
_0-0_LAYER001
  6
CONTINUOUS
 62
    1
 10
1839.815552
 20
1195.6444210000004
 11
1843.743035
 21
1191.7169380000005
  0
LINE
  8
_0-0_LAYER001
  6
CONTINUOUS
 62
   18
 10
1495.3653690000001
 20
979.87914700000056
 11
1497.3065120000001
 21
972.63470300000017
  0
LINE
  8
_0-0_LAYER001
  6
CONTINUOUS
 62
   18
 10
1497.3065120000001
 20
972.63470300000017
 11
1492.0032110000002
 21
977.93800400000055
  0
LINE
  8
_0-0_LAYER001
  6
CONTINUOUS
 62
   18
 10
1497.3065120000001
 20
972.63470300000017
 11
1452.568448
 21
1050.1233030000003
  0
LINE
  8
_0-0_LAYER001
  6
CONTINUOUS
 62
   18
 10
1452.568448
 20
1050.1233030000003
 11
1412.068448
 21
1050.1233030000003
  0
LINE
  8
_0-0_LAYER001
  6
CONTINUOUS
 62
   18
 10
1913.25209
 20
1022.4890740000005
 11
1838.25209
 21
872.48907400000053
  0
LINE
  8
_0-0_LAYER001
  6
CONTINUOUS
 62
   18
 10
1913.25209
 20
872.48907400000053
 11
1838.25209
 21
872.48907400000053
  0
LINE
  8
_0-0_LAYER001
  6
CONTINUOUS
 62
   18
 10
1838.25209
 20
872.48907400000053
 11
1838.25209
 21
1004.7106560000002
  0
LINE
  8
_0-0_LAYER001
  6
CONTINUOUS
 62
   18
 10
1877.7597730000002
 20
1022.4890740000005
 11
1913.25209
 21
1022.4890740000005
  0
LINE
  8
_0-0_LAYER001
  6
CONTINUOUS
 62
   18
 10
1913.25209
 20
1022.4890740000005
 11
1913.25209
 21
872.48907400000053
  0
LINE
  8
_0-0_LAYER001
  6
CONTINUOUS
 62
   18
 10
1913.25209
 20
1038.4605810000003
 11
1015.116426
 21
634.30043200000046
  0
LINE
  8
_0-0_LAYER001
  6
CONTINUOUS
 62
   18
 10
1913.25209
 20
1104.2556930000005
 11
990.49459100000013
 21
689.0157420000005
  0
LINE
  8
_0-0_LAYER001
  6
CONTINUOUS
 62
   18
 10
1101.882967
 20
756.52831300000025
 11
1129.4534309999999
 21
768.35495700000047
  0
LINE
  8
_0-0_LAYER001
  6
CONTINUOUS
 62
   18
 10
1129.4534309999999
 20
768.35495700000047
 11
1123.540109
 21
782.14018900000019
  0
LINE
  8
_0-0_LAYER001
  6
CONTINUOUS
 62
   18
 10
1123.540109
 20
782.14018900000019
 11
1095.9696450000001
 21
770.31354500000043
  0
LINE
  8
_0-0_LAYER001
  6
CONTINUOUS
 62
   18
 10
1095.9696450000001
 20
770.31354500000043
 11
1101.882967
 21
756.52831300000025
  0
LINE
  8
_0-0_LAYER001
  6
CONTINUOUS
 62
   18
 10
1123.540109
 20
782.14018900000019
 11
1101.882967
 21
756.52831300000025
  0
LINE
  8
_0-0_LAYER001
  6
CONTINUOUS
 62
   18
 10
1356.890631
 20
871.09182600000031
 11
1384.558133
 21
882.68964200000028
  0
LINE
  8
_0-0_LAYER001
  6
CONTINUOUS
 62
   18
 10
1384.558133
 20
882.68964200000028
 11
1378.759225
 21
896.5233930000004
  0
LINE
  8
_0-0_LAYER001
  6
CONTINUOUS
 62
   18
 10
1378.759225
 20
896.5233930000004
 11
1351.091723
 21
884.92557700000043
  0
LINE
  8
_0-0_LAYER001
  6
CONTINUOUS
 62
   18
 10
1351.091723
 20
884.92557700000043
 11
1356.890631
 21
871.09182600000031
  0
LINE
  8
_0-0_LAYER001
  6
CONTINUOUS
 62
   18
 10
1378.759225
 20
896.5233930000004
 11
1356.890631
 21
871.09182600000031
  0
LINE
  8
_0-0_LAYER001
  6
CONTINUOUS
 62
   18
 10
1612.2094649999999
 20
986.0365740000002
 11
1639.8769670000001
 21
997.63439100000051
  0
LINE
  8
_0-0_LAYER001
  6
CONTINUOUS
 62
   18
 10
1639.8769670000001
 20
997.63439100000051
 11
1634.0780589999999
 21
1011.4681420000002
  0
LINE
  8
_0-0_LAYER001
  6
CONTINUOUS
 62
   18
 10
1634.0780589999999
 20
1011.4681420000002
 11
1606.4105570000002
 21
999.87032500000032
  0
LINE
  8
_0-0_LAYER001
  6
CONTINUOUS
 62
   18
 10
1606.4105570000002
 20
999.87032500000032
 11
1612.2094649999999
 21
986.0365740000002
  0
LINE
  8
_0-0_LAYER001
  6
CONTINUOUS
 62
   18
 10
1634.0780589999999
 20
1011.4681420000002
 11
1612.2094649999999
 21
986.0365740000002
  0
LINE
  8
_0-0_LAYER001
  6
CONTINUOUS
 62
   18
 10
1867.5282990000001
 20
1100.9813230000004
 11
1895.1958010000003
 21
1112.5791390000004
  0
LINE
  8
_0-0_LAYER001
  6
CONTINUOUS
 62
   18
 10
1895.1958010000003
 20
1112.5791390000004
 11
1889.3968930000001
 21
1126.4128900000005
  0
LINE
  8
_0-0_LAYER001
  6
CONTINUOUS
 62
   18
 10
1889.3968930000001
 20
1126.4128900000005
 11
1861.7293910000003
 21
1114.8150730000002
  0
LINE
  8
_0-0_LAYER001
  6
CONTINUOUS
 62
   18
 10
1861.7293910000003
 20
1114.8150730000002
 11
1867.5282990000001
 21
1100.9813230000004
  0
LINE
  8
_0-0_LAYER001
  6
CONTINUOUS
 62
   18
 10
1889.3968930000001
 20
1126.4128900000005
 11
1867.5282990000001
 21
1100.9813230000004
  0
LINE
  8
_0-0_LAYER001
  6
CONTINUOUS
 62
   18
 10
1809.189989
 20
1172.4611390000005
 11
1813.5261009999999
 21
1179.5790300000003
  0
LINE
  8
_0-0_LAYER001
  6
CONTINUOUS
 62
   18
 10
1809.189989
 20
1187.4856660000005
 11
1809.189989
 21
1171.8893100000005
  0
LINE
  8
_0-0_LAYER001
  6
CONTINUOUS
 62
   18
 10
1828.0111670000001
 20
1192.4993970000005
 11
1831.8719890000002
 21
1178.0050670000005
  0
LINE
  8
_0-0_LAYER001
  6
CONTINUOUS
 62
   18
 10
1846.366591
 20
1181.8659610000004
 11
1842.5055910000001
 21
1196.3609610000003
  0
LINE
  8
_0-0_LAYER001
  6
CONTINUOUS
 62
   18
 10
1809.189989
 20
1187.4856660000005
 11
1910.25209
 21
1214.4073730000005
  0
LINE
  8
_0-0_LAYER001
  6
CONTINUOUS
 62
   18
 10
1876.25209
 20
1219.9969720000004
 11
1888.25209
 21
1219.9969720000004
  0
LINE
  8
_0-0_LAYER001
  6
CONTINUOUS
 62
   18
 10
1888.25209
 20
1256.9386130000003
 11
1906.25209
 21
1256.9386130000003
  0
LINE
  8
_0-0_LAYER001
  6
CONTINUOUS
 62
   18
 10
1906.25209
 20
1256.9386130000003
 11
1906.25209
 21
1292.9386130000003
  0
LINE
  8
_0-0_LAYER001
  6
CONTINUOUS
 62
   18
 10
1906.25209
 20
1292.9386130000003
 11
1888.25209
 21
1292.9386130000003
  0
LINE
  8
_0-0_LAYER001
  6
CONTINUOUS
 62
   18
 10
1888.25209
 20
1292.9386130000003
 11
1888.25209
 21
1256.9386130000003
  0
LINE
  8
_0-0_LAYER001
  6
CONTINUOUS
 62
   18
 10
1906.25209
 20
1292.9386130000003
 11
1888.25209
 21
1256.9386130000003
  0
LINE
  8
_0-0_LAYER001
  6
CONTINUOUS
 62
   18
 10
1910.25209
 20
1364.4073730000005
 11
1910.25209
 21
1214.4073730000005
  0
LINE
  8
_0-0_LAYER001
  6
CONTINUOUS
 62
   18
 10
1809.189989
 20
1306.1094110000004
 11
1809.189989
 21
1278.6094110000004
  0
CIRCLE
  8
_0-0_LAYER001
  6
CONTINUOUS
 62
   18
 10
1809.189989
 20
1303.6094110000004
 40
1.7000000000000002
  0
LINE
  8
_0-0_LAYER001
  6
CONTINUOUS
 62
   18
 10
1809.189989
 20
1303.6094110000004
 11
1876.25209
 21
1303.6094110000004
  0
CIRCLE
  8
_0-0_LAYER001
  6
CONTINUOUS
 62
   18
 10
1876.25209
 20
1303.6094110000004
 40
1.7000000000000002
  0
LINE
  8
_0-0_LAYER001
  6
CONTINUOUS
 62
   18
 10
1876.25209
 20
1306.1094110000004
 11
1876.25209
 21
1278.6094110000004
  0
LINE
  8
_0-0_LAYER001
  6
CONTINUOUS
 62
   18
 10
1975.0062069999999
 20
1364.4073730000005
 11
1947.5062069999999
 21
1364.4073730000005
  0
CIRCLE
  8
_0-0_LAYER001
  6
CONTINUOUS
 62
   18
 10
1972.5062069999999
 20
1364.4073730000005
 40
1.7000000000000002
  0
LINE
  8
_0-0_LAYER001
  6
CONTINUOUS
 62
   18
 10
1972.5062069999999
 20
1364.4073730000005
 11
1972.5062069999999
 21
1214.4073730000005
  0
CIRCLE
  8
_0-0_LAYER001
  6
CONTINUOUS
 62
   18
 10
1972.5062069999999
 20
1214.4073730000005
 40
1.7000000000000002
  0
LINE
  8
_0-0_LAYER001
  6
CONTINUOUS
 62
   18
 10
1975.0062069999999
 20
1214.4073730000005
 11
1947.5062069999999
 21
1214.4073730000005
  0
LINE
  8
_0-0_LAYER001
  6
CONTINUOUS
 62
   18
 10
1800.4550010000003
 20
1159.4054660000002
 11
1802.3961440000003
 21
1152.1610220000002
  0
LINE
  8
_0-0_LAYER001
  6
CONTINUOUS
 62
   18
 10
1802.3961440000003
 20
1152.1610220000002
 11
1797.0928429999999
 21
1157.4643230000001
  0
LINE
  8
_0-0_LAYER001
  6
CONTINUOUS
 62
   18
 10
1802.3961440000003
 20
1152.1610220000002
 11
1768.539816
 21
1210.8019030000005
  0
LINE
  8
_0-0_LAYER001
  6
CONTINUOUS
 62
   18
 10
1768.539816
 20
1210.8019030000005
 11
1720.539816
 21
1210.8019030000005
  0
LINE
  8
_0-0_LAYER001
  6
CONTINUOUS
 62
   18
 10
1863.5884980000001
 20
1209.7383030000005
 11
1865.5296400000002
 21
1202.4938600000005
  0
LINE
  8
_0-0_LAYER001
  6
CONTINUOUS
 62
   18
 10
1865.5296400000002
 20
1202.4938600000005
 11
1860.2263390000003
 21
1207.7971610000004
  0
LINE
  8
_0-0_LAYER001
  6
CONTINUOUS
 62
   18
 10
1865.5296400000002
 20
1202.4938600000005
 11
1742.9540950000001
 21
1414.8009320000006
  0
LINE
  8
_0-0_LAYER001
  6
CONTINUOUS
 62
   18
 10
1742.9540950000001
 20
1414.8009320000006
 11
1508.9540950000001
 21
1414.8009320000006
  0
LINE
  8
_0-0_LAYER001
  6
CONTINUOUS
 62
   18
 10
1836.3993620000001
 20
1195.1401820000006
 11
1838.3405050000001
 21
1187.8957390000005
  0
LINE
  8
_0-0_LAYER001
  6
CONTINUOUS
 62
   18
 10
1838.3405050000001
 20
1187.8957390000005
 11
1833.0372040000002
 21
1193.1990390000005
  0
LINE
  8
_0-0_LAYER001
  6
CONTINUOUS
 62
   18
 10
1838.3405050000001
 20
1187.8957390000005
 11
1798.231933
 21
1257.3658230000005
  0
LINE
  8
_0-0_LAYER001
  6
CONTINUOUS
 62
   18
 10
1798.231933
 20
1257.3658230000005
 11
1700.731933
 21
1257.3658230000005
  0
LINE
  8
_0-0_LAYER001
  6
CONTINUOUS
 62
   18
 10
1874.3109469999999
 20
1405.6575420000004
 11
1876.25209
 21
1398.4130980000004
  0
LINE
  8
_0-0_LAYER001
  6
CONTINUOUS
 62
   18
 10
1876.25209
 20
1398.4130980000004
 11
1870.948789
 21
1403.7163990000004
  0
LINE
  8
_0-0_LAYER001
  6
CONTINUOUS
 62
   18
 10
1876.25209
 20
1398.4130980000004
 11
1822.2398029999999
 21
1491.9651240000003
  0
LINE
  8
_0-0_LAYER001
  6
CONTINUOUS
 62
   18
 10
1822.2398029999999
 20
1491.9651240000003
 11
1649.7398029999999
 21
1491.9651240000003
  0
LINE
  8
_0-0_LAYER001
  6
CONTINUOUS
 62
   18
 10
1897.2181570000002
 20
1285.9974770000003
 11
1899.1593000000003
 21
1278.7530330000004
  0
LINE
  8
_0-0_LAYER001
  6
CONTINUOUS
 62
   18
 10
1899.1593000000003
 20
1278.7530330000004
 11
1893.8559989999999
 21
1284.0563340000003
  0
LINE
  8
_0-0_LAYER001
  6
CONTINUOUS
 62
   18
 10
1899.1593000000003
 20
1278.7530330000004
 11
1847.3284590000003
 21
1368.5266820000002
  0
LINE
  8
_0-0_LAYER001
  6
CONTINUOUS
 62
   18
 10
1847.3284590000003
 20
1368.5266820000002
 11
1806.8284590000003
 21
1368.5266820000002
  0
LINE
  8
_0-0_LAYER001
  6
CONTINUOUS
 62
   18
 10
1913.25209
 20
765.34014300000035
 11
1913.25209
 21
1460.7087930000002
  0
LINE
  8
_0-2_LAYER009
  6
CONTINUOUS
 62
   18
 10
1913.25209
 20
1117.4147160000002
 11
985.57022399999994
 21
699.95880500000021
  0
LINE
  8
_0-1_LAYER003
  6
DASHED
 62
   18
 10
1911.75209
 20
1118.9329100000004
 11
986.78324000000021
 21
702.69769100000019
  0
LINE
  8
_0-0_LAYER001
  6
DASHED
 62
   18
 10
1911.75209
 20
1118.9329100000004
 11
1911.75209
 21
1368.9329100000004
  0
LINE
  8
_0-0_LAYER001
  6
CONTINUOUS
 62
   18
 10
1888.25209
 20
1460.7087930000002
 11
1888.25209
 21
1219.9969720000004
  0
LINE
  8
_0-0_LAYER001
  6
CONTINUOUS
 62
   18
 10
1876.25209
 20
1455.3769720000005
 11
1876.25209
 21
1219.9969720000004
  0
LINE
  8
_0-0_LAYER001
  6
CONTINUOUS
 62
   18
 10
2066.6433110000003
 20
1368.9329100000004
 11
2014.1433110000003
 21
1368.9329100000004
  0
CIRCLE
  8
_0-0_LAYER001
  6
CONTINUOUS
 62
   18
 10
2064.1433110000003
 20
1368.9329100000004
 40
1.7000000000000002
  0
LINE
  8
_0-0_LAYER001
  6
CONTINUOUS
 62
   18
 10
2064.1433110000003
 20
1368.9329100000004
 11
2064.1433110000003
 21
1118.9329100000004
  0
CIRCLE
  8
_0-0_LAYER001
  6
CONTINUOUS
 62
   18
 10
2064.1433110000003
 20
1118.9329100000004
 40
1.7000000000000002
  0
LINE
  8
_0-0_LAYER001
  6
CONTINUOUS
 62
   18
 10
2066.6433110000003
 20
1118.9329100000004
 11
2014.1433110000003
 21
1118.9329100000004
  0
LINE
  8
_0-0_LAYER001
  6
CONTINUOUS
 62
   18
 10
882.17004900000006
 20
925.63870600000018
 11
977.08739500000001
 21
968.35140800000045
  0
CIRCLE
  8
_0-0_LAYER001
  6
CONTINUOUS
 62
   18
 10
977.08739500000001
 20
968.35140800000045
 40
1.7000000000000002
  0
LINE
  8
_0-0_LAYER001
  6
CONTINUOUS
 62
   18
 10
976.06148600000006
 20
970.63121200000023
 11
997.60558800000013
 21
922.75531400000045
  0
LINE
  8
_0-0_LAYER001
  6
CONTINUOUS
 62
   18
 10
967.85420900000008
 20
988.86965000000055
 11
989.39831100000015
 21
940.99375100000043
  0
CIRCLE
  8
_0-0_LAYER001
  6
CONTINUOUS
 62
   18
 10
968.88011800000004
 20
986.58984500000042
 40
1.7000000000000002
  0
LINE
  8
_0-0_LAYER001
  6
CONTINUOUS
 62
   18
 10
968.88011800000004
 20
986.58984500000042
 11
1224.2182440000001
 21
1101.4917230000005
  0
CIRCLE
  8
_0-0_LAYER001
  6
CONTINUOUS
 62
   18
 10
1224.2182440000001
 20
1101.4917230000005
 40
1.7000000000000002
  0
LINE
  8
_0-0_LAYER001
  6
CONTINUOUS
 62
   18
 10
1223.1923340000001
 20
1103.7715280000002
 11
1244.7364360000001
 21
1055.8956300000004
  0
LINE
  8
_0-0_LAYER001
  6
CONTINUOUS
 62
   18
 10
1214.9850570000001
 20
1122.0099660000005
 11
1236.5291590000002
 21
1074.1340670000004
  0
CIRCLE
  8
_0-0_LAYER001
  6
CONTINUOUS
 62
   18
 10
1216.0109670000002
 20
1119.7301610000004
 40
1.7000000000000002
  0
LINE
  8
_0-0_LAYER001
  6
CONTINUOUS
 62
   18
 10
1216.0109670000002
 20
1119.7301610000004
 11
1471.3490930000003
 21
1234.6320390000005
  0
CIRCLE
  8
_0-0_LAYER001
  6
CONTINUOUS
 62
   18
 10
1471.3490930000003
 20
1234.6320390000005
 40
1.7000000000000002
  0
LINE
  8
_0-0_LAYER001
  6
CONTINUOUS
 62
   18
 10
1470.323183
 20
1236.9118440000002
 11
1491.8672850000003
 21
1189.0359450000005
  0
LINE
  8
_0-0_LAYER001
  6
CONTINUOUS
 62
   18
 10
1439.9173450000003
 20
590.53487600000017
 11
1504.5524820000001
 21
590.53487600000017
  0
LINE
  8
_0-0_LAYER001
  6
CONTINUOUS
 62
   18
 10
1432.7441640000002
 20
620.40144900000041
 11
1653.684792
 21
620.40144900000041
  0
LINE
  8
_0-0_LAYER001
  6
CONTINUOUS
 62
   18
 10
1423.201071
 20
650.49677100000054
 11
1664.8144299999999
 21
650.49677100000054
  0
LINE
  8
_0-0_LAYER001
  6
CONTINUOUS
 62
   18
 10
1362.3095050000002
 20
872.67127800000026
 11
1362.3095050000002
 21
880.17127800000026
  0
LINE
  8
_0-0_LAYER001
  6
CONTINUOUS
 62
   18
 10
1362.3095050000002
 20
880.17127800000026
 11
1366.0595050000002
 21
873.67608800000016
  0
LINE
  8
_0-0_LAYER001
  6
CONTINUOUS
 62
   18
 10
1362.3095050000002
 20
880.17127800000026
 11
1439.9173450000003
 21
590.53487600000017
  0
LINE
  8
_0-0_LAYER001
  6
CONTINUOUS
 62
   18
 10
1415.8172330000002
 20
680.47771900000043
 11
1620.6399460000002
 21
680.47771900000043
  0
TEXT
  8
_0-0_LAYER001
 62
    7
 10
1805.1272920219687
 20
1374.1338324500396
 40
20
 41
1
 50
0
  1
胴　縁
  0
TEXT
  8
_0-0_LAYER001
 62
    7
 10
1720.7781378884097
 20
1215.1681188906405
 40
20
 41
1
 50
0
  1
熨斗瓦
  0
TEXT
  8
_0-0_LAYER001
 62
    7
 10
1410.9572063593778
 20
1054.5803062132888
 40
20
 41
1
 50
0
  1
桟　瓦
  0
TEXT
  8
_0-0_LAYER001
 62
    7
 10
1441.7770896004856
 20
593.90415671462347
 40
20
 41
1
 50
0
  1
　垂木
  0
TEXT
  8
_0-0_LAYER001
 62
    7
 10
1641.2952811087107
 20
1503.9017618862827
 40
20
 41
1
 50
0
  1
外壁　防火サイディング
  0
TEXT
  8
_0-0_LAYER001
 62
    7
 10
1077.3108055965877
 20
1051.2261367735059
 40
20
 41
1
 50
24.227692999999988
  1
280
  0
TEXT
  8
_0-0_LAYER001
 62
    7
 10
1322.5005663721847
 20
1189.0335205670895
 40
20
 41
1
 50
24.227693000000016
  1
280
  0
TEXT
  8
_0-0_LAYER001
 62
    7
 10
1834.3565633197798
 20
1314.3129603794384
 40
20
 41
1
 50
0
  1
65
  0
TEXT
  8
_0-0_LAYER001
 62
    7
 10
2049.1213172838061
 20
1230.1967650768611
 40
20
 41
1
 50
90
  1
250
  0
TEXT
  8
_0-0_LAYER001
 62
    7
 10
1421.9900273607448
 20
687.89689013324801
 40
20
 41
1
 50
0
  1
　瓦桟：１５ｘ３０以上
  0
TEXT
  8
_0-0_LAYER001
 62
    7
 10
1431.9692077012612
 20
626.02597202204515
 40
20
 41
1
 50
0
  1
　野地板：耐水合板ｔ＝１２
  0
TEXT
  8
_0-0_LAYER001
 62
    7
 10
1419.9941912926415
 20
653.96767697549171
 40
20
 41
1
 50
0
  1
　下葺材：ルーフィング
  0
TEXT
  8
_0-0_LAYER001
 62
    7
 10
1675.4612080098664
 20
1262.6976777470043
 40
20
 41
1
 50
0
  1
弾性シール材
  0
TEXT
  8
_0-0_LAYER001
 62
    7
 10
1964.857437884848
 20
1274.6726941556242
 40
20
 41
1
 50
90
  1
150
  0
TEXT
  8
_0-0_LAYER001
 62
    7
 10
1996.7908149745012
 20
1190.8475792952847
 40
20
 41
1
 50
90
  1
水切り鉄板立上がり寸法
  0
TEXT
  8
_0-0_LAYER001
 62
    7
 10
2100.5742905158736
 20
1148.935021865115
 40
20
 41
1
 50
90
  1
下葺き材立上がり寸法
  0
TEXT
  8
_0-0_LAYER001
 62
    7
 10
1477.8734372676377
 20
1424.3603992633732
 40
20
 41
1
 50
0
  1
雨押水切カラー鋼板0.35ｍｍ以上
  0
ENDSEC
  0
EOF
