  0
SECTION
  2
HEADER
  9
$ACADVER
  1
AC1009
  9
$INSBASE
 10
0
 20
0
 30
0
  9
$EXTMIN
 10
0
 20
0
  9
$EXTMAX
 10
2970
 20
2100
  9
$LIMMIN
 10
0
 20
0
  9
$LIMMAX
 10
2970
 20
2100
  9
$LTSCALE
 40
10
  0
ENDSEC
  0
SECTION
  2
TABLES
  0
TABLE
  2
LTYPE
 70
     9
  0
LTYPE
  2
CONTINUOUS
 70
    64
  3
実線
 72
    65
 73
     0
 40
0.0
  0
LTYPE
  2
DASHED1
 70
    64
  3
--  --  --  --  --  --  --  --  
 72
    65
 73
     2
 40
2.5
 49
1.25
 49
-1.25
  0
LTYPE
  2
DASHED2
 70
    64
  3
----    ----    ----    ----    
 72
    65
 73
     2
 40
5.0
 49
2.5
 49
-2.5
  0
LTYPE
  2
DASHED3
 70
    64
  3
------  ------  ------  ------  
 72
    65
 73
     2
 40
5.0
 49
3.75
 49
-1.25
  0
LTYPE
  2
CENTER1
 70
    64
  3
----- - ----- - ----- - ----- - 
 72
    65
 73
     4
 40
10.0
 49
6.25
 49
-1.25
 49
1.25
 49
-1.25
  0
LTYPE
  2
CENTER2
 70
    64
  3
----------  --  ----------  --  
 72
    65
 73
     4
 40
20.0
 49
12.5
 49
-2.5
 49
2.5
 49
-2.5
  0
LTYPE
  2
PHANTOM1
 70
    64
  3
--- - - --- - - --- - - --- - - 
 72
    65
 73
     6
 40
10.0
 49
3.25
 49
-1.25
 49
1.25
 49
-1.25
 49
1.25
 49
-1.25
  0
LTYPE
  2
PHANTOM2
 70
    64
  3
--------  -  -  --------  -  -  
 72
    65
 73
     6
 40
20.0
 49
10.0
 49
-2.5
 49
1.25
 49
-2.5
 49
1.25
 49
-2.5
  0
LTYPE
  2
DOT
 70
    64
  3
-   -   -   -   -   -   -   -   
 72
    65
 73
     2
 40
2.5
 49
0.625
 49
-1.875
  0
LTYPE
  2
DUMMY
 70
    64
  3
ダミー
 72
    65
 73
     0
 40
0.0
  0
LTYPE
  2
RAND1
 70
    64
  3
ランダム線1
 72
    65
 73
     4
 40
10.0
 49
1.0
 49
-2.0
 49
3.0
 49
-4.0
  0
LTYPE
  2
RAND2
 70
    64
  3
ランダム線2
 72
    65
 73
     4
 40
14.0
 49
2.0
 49
-3.0
 49
4.0
 49
-5.0
  0
LTYPE
  2
RAND3
 70
    64
  3
ランダム線3
 72
    65
 73
     4
 40
18.0
 49
3.0
 49
-4.0
 49
5.0
 49
-6.0
  0
LTYPE
  2
RAND4
 70
    64
  3
ランダム線4
 72
    65
 73
     4
 40
22.0
 49
4.0
 49
-5.0
 49
6.0
 49
-7.0
  0
LTYPE
  2
RAND5
 70
    64
  3
ランダム線5
 72
    65
 73
     4
 40
26.0
 49
5.0
 49
-6.0
 49
7.0
 49
-8.0
  0
LTYPE
  2
LONG1
 70
    64
  3
----------  --  ----------  --  
 72
    65
 73
     4
 40
40.0
 49
32.5
 49
-2.5
 49
2.5
 49
-2.5
  0
LTYPE
  2
LONG2
 70
    64
  3
--------  -  -  --------  -  -  
 72
    65
 73
     6
 40
40.0
 49
30.0
 49
-2.5
 49
1.25
 49
-2.5
 49
1.25
 49
-2.5
  0
LTYPE
  2
LONG3
 70
    64
  3
+++++++++++++++..+++++++++++++++
 72
    65
 73
     2
 40
40.0
 49
37.5
 49
-2.5
  0
LTYPE
  2
LONG4
 70
    64
  3
+++++++++++++++..+++++++++++++++
 72
    65
 73
     2
 40
80.0
 49
75.0
 49
-5.0
  0
LTYPE
  2
LONG5
 70
    64
  3
----------  --  ----------  --  
 72
    65
 73
     4
 40
60.0
 49
37.5
 49
-7.5
 49
7.5
 49
-7.5
  0
LTYPE
  2
dashed
 70
   64
  3
-------   -------------   ------
 72
   65
 73
    2
 40
7.5
 49
6
 49
-1.5
  0
LTYPE
  2
dashed_spaced
 70
   64
  3
----        --------        ----
 72
   65
 73
    2
 40
12
 49
6
 49
-6
  0
LTYPE
  2
long_dashed_dotted
 70
   64
  3
------------- --- --------------
 72
   65
 73
    4
 40
15.25
 49
12
 49
-1.5
 49
0.25
 49
-1.5
  0
LTYPE
  2
long_dashed_double-dotted
 70
   64
  3
----------- --- --- ------------
 72
   65
 73
    6
 40
17
 49
12
 49
-1.5
 49
0.25
 49
-1.5
 49
0.25
 49
-1.5
  0
LTYPE
  2
long_dashed_triplicate-dotted
 70
   64
  3
--------- --- --- --- ----------
 72
   65
 73
    8
 40
18.75
 49
12
 49
-1.5
 49
0.25
 49
-1.5
 49
0.25
 49
-1.5
 49
0.25
 49
-1.5
  0
LTYPE
  2
dotted
 70
   64
  3
   -       -       -       -    
 72
   65
 73
    2
 40
1.75
 49
0.25
 49
-1.5
  0
LTYPE
  2
chain
 70
   64
  3
-------------- -- --------------
 72
   65
 73
    4
 40
18.5
 49
12
 49
-1.5
 49
3.5
 49
-1.5
  0
LTYPE
  2
chain_double_dash
 70
   64
  3
------------ -- -- -------------
 72
   65
 73
    6
 40
23.5
 49
12
 49
-1.5
 49
3.5
 49
-1.5
 49
3.5
 49
-1.5
  0
LTYPE
  2
dashed_dotted
 70
   64
  3
-----------     -     ----------
 72
   65
 73
    4
 40
9.25
 49
6
 49
-1.5
 49
0.25
 49
-1.5
  0
LTYPE
  2
double-dashed_dotted
 70
   64
  3
------   -----------   -   -----
 72
   65
 73
    6
 40
16.75
 49
6
 49
-1.5
 49
6
 49
-1.5
 49
0.25
 49
-1.5
  0
LTYPE
  2
dashed_double-dotted
 70
   64
  3
---------    -    -    ---------
 72
   65
 73
    6
 40
11
 49
6
 49
-1.5
 49
0.25
 49
-1.5
 49
0.25
 49
-1.5
  0
LTYPE
  2
double-dashed_double-dotted
 70
   64
  3
-----   ---------   -   -   ----
 72
   65
 73
    8
 40
18.5
 49
6
 49
-1.5
 49
6
 49
-1.5
 49
0.25
 49
-1.5
 49
0.25
 49
-1.5
  0
LTYPE
  2
dashed_triplicate-dotted
 70
   64
  3
-------    -    -    -    ------
 72
   65
 73
    8
 40
12.75
 49
6
 49
-1.5
 49
0.25
 49
-1.5
 49
0.25
 49
-1.5
 49
0.25
 49
-1.5
  0
LTYPE
  2
double-dashed_triplicate-dotted
 70
   64
  3
-----  ---------  -  -  -  -----
 72
   65
 73
   10
 40
20.25
 49
6
 49
-1.5
 49
6
 49
-1.5
 49
0.25
 49
-1.5
 49
0.25
 49
-1.5
 49
0.25
 49
-1.5
  0
LTYPE
  2
undefined
 70
   64
  3
--------------------------------
 72
   65
 73
    0
 40
0
  0
LTYPE
  2
HIDDEN
 70
   64
  3
----        --------        ----
 72
   65
 73
    2
 40
10
 49
5
 49
-5
  0
LTYPE
  2
DASHED
 70
   64
  3
-------   -------------   ------
 72
   65
 73
    2
 40
50
 49
40
 49
-10
  0
LTYPE
  2
CENTER
 70
   64
  3
------------   ---   -----------
 72
   65
 73
    4
 40
100
 49
70
 49
-10
 49
10
 49
-10
  0
LTYPE
  2
PHANTOM
 70
   64
  3
---------   ---   ---   --------
 72
   65
 73
    6
 40
100
 49
50
 49
-10
 49
10
 49
-10
 49
10
 49
-10
  0
ENDTAB
  0
TABLE
  2
STYLE
  5
3
100
AcDbSymbolTable
 70
     1
  0
STYLE
  5
10
100
AcDbSymbolTableRecord
100
AcDbTextStyleTableRecord
  2
STANDARD
 70
     0
 40
0.0
 41
1.0
 50
0.0
 71
     0
 42
0.2
  3
txt
  4
bigfont.shx
  0
STYLE
  5
26
100
AcDbSymbolTableRecord
100
AcDbTextStyleTableRecord
  2
TATEGAKI
 70
    68
 40
0.0
 41
1.0
 50
0.0
 71
     0
 42
1.0
  3
txt
  4
bigfont.shx
  0
ENDTAB
  0
TABLE
  2
LAYER
 70
    2
  0
LAYER
  2
_0-0_LAYER001
 70
   64
 62
    7
  6
CONTINUOUS
  0
LAYER
  2
ADD_LINE
 70
   64
 62
    7
  6
CONTINUOUS
  0
ENDTAB
  0
ENDSEC
  0
SECTION
  2
BLOCKS
  0
ENDSEC
  0
SECTION
  2
ENTITIES
  0
LINE
  8
_0-0_LAYER001
  6
CONTINUOUS
 62
    3
 10
1054.1027654999998
 20
1357.5184895000002
 11
1054.1027654999998
 21
770.39326150000034
  0
LINE
  8
_0-0_LAYER001
  6
CONTINUOUS
 62
    1
 10
1144.8189015
 20
1078.4484895000001
 11
1148.1027655
 21
1081.7323535
  0
LINE
  8
_0-0_LAYER001
  6
CONTINUOUS
 62
    1
 10
1141.2833675000002
 20
1078.4484895000001
 11
1148.1027655
 21
1085.2678875000001
  0
LINE
  8
_0-0_LAYER001
  6
CONTINUOUS
 62
    1
 10
1137.7478335000001
 20
1078.4484895000001
 11
1148.1027655
 21
1088.8034215000002
  0
LINE
  8
_0-0_LAYER001
  6
CONTINUOUS
 62
    1
 10
1134.2122995000002
 20
1078.4484895000001
 11
1148.1027655
 21
1092.3389555000003
  0
LINE
  8
_0-0_LAYER001
  6
CONTINUOUS
 62
    1
 10
1130.6767655000001
 20
1078.4484895000001
 11
1148.1027655
 21
1095.8744895
  0
LINE
  8
_0-0_LAYER001
  6
CONTINUOUS
 62
    1
 10
1127.1412315
 20
1078.4484895000001
 11
1144.5672315000002
 21
1095.8744895
  0
LINE
  8
_0-0_LAYER001
  6
CONTINUOUS
 62
    1
 10
1123.6056975000001
 20
1078.4484895000001
 11
1141.0316975000001
 21
1095.8744895
  0
LINE
  8
_0-0_LAYER001
  6
CONTINUOUS
 62
    1
 10
1123.1027655
 20
1081.4810915000003
 11
1137.4961635000002
 21
1095.8744895
  0
LINE
  8
_0-0_LAYER001
  6
CONTINUOUS
 62
    1
 10
1123.1027655
 20
1085.0166245
 11
1133.9606295000001
 21
1095.8744895
  0
LINE
  8
_0-0_LAYER001
  6
CONTINUOUS
 62
    1
 10
1123.1027655
 20
1088.5521585000001
 11
1130.4250965000001
 21
1095.8744895
  0
LINE
  8
_0-0_LAYER001
  6
CONTINUOUS
 62
    1
 10
1123.1027655
 20
1092.0876925000002
 11
1126.8895625
 21
1095.8744895
  0
LINE
  8
_0-0_LAYER001
  6
CONTINUOUS
 62
    1
 10
1123.1027655
 20
1095.6232265000003
 11
1123.3540285000001
 21
1095.8744895
  0
LINE
  8
_0-0_LAYER001
  6
CONTINUOUS
 62
    1
 10
1123.1027655
 20
1081.9836165000002
 11
1126.6378925000001
 21
1078.4484895000001
  0
LINE
  8
_0-0_LAYER001
  6
CONTINUOUS
 62
    1
 10
1123.1027655
 20
1085.5191505000003
 11
1130.1734265
 21
1078.4484895000001
  0
LINE
  8
_0-0_LAYER001
  6
CONTINUOUS
 62
    1
 10
1123.1027655
 20
1089.0546845000003
 11
1133.7089605000001
 21
1078.4484895000001
  0
LINE
  8
_0-0_LAYER001
  6
CONTINUOUS
 62
    1
 10
1123.1027655
 20
1092.5902185
 11
1137.2444945000002
 21
1078.4484895000001
  0
LINE
  8
_0-0_LAYER001
  6
CONTINUOUS
 62
    1
 10
1123.3540285000001
 20
1095.8744895
 11
1140.7800285000001
 21
1078.4484895000001
  0
LINE
  8
_0-0_LAYER001
  6
CONTINUOUS
 62
    1
 10
1126.8895625
 20
1095.8744895
 11
1144.3155625000002
 21
1078.4484895000001
  0
LINE
  8
_0-0_LAYER001
  6
CONTINUOUS
 62
    1
 10
1130.4250965000001
 20
1095.8744895
 11
1147.8510965
 21
1078.4484895000001
  0
LINE
  8
_0-0_LAYER001
  6
CONTINUOUS
 62
    1
 10
1133.9606295000001
 20
1095.8744895
 11
1148.1027655
 21
1081.7323535
  0
LINE
  8
_0-0_LAYER001
  6
CONTINUOUS
 62
    1
 10
1137.4961635000002
 20
1095.8744895
 11
1148.1027655
 21
1085.2678875000001
  0
LINE
  8
_0-0_LAYER001
  6
CONTINUOUS
 62
    1
 10
1141.0316975000001
 20
1095.8744895
 11
1148.1027655
 21
1088.8034215000002
  0
LINE
  8
_0-0_LAYER001
  6
CONTINUOUS
 62
    1
 10
1144.5672315000002
 20
1095.8744895
 11
1148.1027655
 21
1092.3389555000003
  0
ARC
  8
_0-0_LAYER001
  6
CONTINUOUS
 62
    4
 10
1675.9908235
 20
1012.2227305000001
 40
5.9904000000000002
 50
199.47122100000004
 51
344.27761299999997
  0
LINE
  8
_0-0_LAYER001
  6
CONTINUOUS
 62
    4
 10
1664.4614404999998
 20
1026.2003305000003
 11
1670.4518405000001
 21
1009.9413804999999
  0
LINE
  8
_0-0_LAYER001
  6
CONTINUOUS
 62
    4
 10
1442.8581945000001
 20
1026.2003305000003
 11
1437.1698755
 21
1010.5994725
  0
LINE
  8
_0-0_LAYER001
  6
CONTINUOUS
 62
    4
 10
1683.0770284999999
 20
1014.2195305
 11
1681.7570985
 21
1010.5994725
  0
LINE
  8
_0-0_LAYER001
  6
CONTINUOUS
 62
    4
 10
1419.1385225000001
 20
1028.1971305000002
 11
1381.9350175000002
 21
1028.1971305000002
  0
LINE
  8
_0-0_LAYER001
  6
CONTINUOUS
 62
    4
 10
1419.1385225000001
 20
1028.1971305000002
 11
1425.8646175000001
 21
1009.9413804999999
  0
LINE
  8
_0-0_LAYER001
  6
CONTINUOUS
 62
    4
 10
1664.4614404999998
 20
1026.2003305000003
 11
1624.5254405000003
 21
1026.2003305000003
  0
LINE
  8
_0-0_LAYER001
  6
CONTINUOUS
 62
    4
 10
1616.5382405000003
 20
1026.2003305000003
 11
1569.6134405
 21
1026.2003305000003
  0
LINE
  8
_0-0_LAYER001
  6
CONTINUOUS
 62
    4
 10
1561.6262405
 20
1026.2003305000003
 11
1508.7110405000001
 21
1026.2003305000003
  0
LINE
  8
_0-0_LAYER001
  6
CONTINUOUS
 62
    4
 10
1500.7238405000001
 20
1026.2003305000003
 11
1442.8581945000001
 21
1026.2003305000003
  0
LINE
  8
_0-0_LAYER001
  6
CONTINUOUS
 62
    4
 10
1647.5094175000002
 20
1048.1651305
 11
1647.5094175000002
 21
1045.1699305000002
  0
LINE
  8
_0-0_LAYER001
  6
CONTINUOUS
 62
    4
 10
1572.6294175
 20
1045.1699305000002
 11
1647.5094175000002
 21
1045.1699305000002
  0
LINE
  8
_0-0_LAYER001
  6
CONTINUOUS
 62
    4
 10
1421.8710175000001
 20
1045.1699305000002
 11
1572.6294175
 21
1045.1699305000002
  0
LINE
  8
_0-0_LAYER001
  6
CONTINUOUS
 62
    4
 10
1421.8710175000001
 20
1048.1651305
 11
1421.8710175000001
 21
1045.1699305000002
  0
LINE
  8
_0-0_LAYER001
  6
CONTINUOUS
 62
    4
 10
1421.8710175000001
 20
1048.1651305
 11
1381.9350175000002
 21
1048.1651305
  0
LINE
  8
_0-0_LAYER001
  6
CONTINUOUS
 62
    4
 10
1500.7238405000001
 20
1026.2003305000003
 11
1500.7238405000001
 21
1015.2179305
  0
LINE
  8
_0-0_LAYER001
  6
CONTINUOUS
 62
    4
 10
1508.7110405000001
 20
1015.2179305
 11
1500.7238405000001
 21
1015.2179305
  0
LINE
  8
_0-0_LAYER001
  6
CONTINUOUS
 62
    4
 10
1508.7110405000001
 20
1026.2003305000003
 11
1508.7110405000001
 21
1015.2179305
  0
LINE
  8
_0-0_LAYER001
  6
CONTINUOUS
 62
    4
 10
1561.6262405
 20
1026.2003305000003
 11
1561.6262405
 21
1015.2179305
  0
LINE
  8
_0-0_LAYER001
  6
CONTINUOUS
 62
    4
 10
1569.6134405
 20
1015.2179305
 11
1561.6262405
 21
1015.2179305
  0
LINE
  8
_0-0_LAYER001
  6
CONTINUOUS
 62
    4
 10
1569.6134405
 20
1026.2003305000003
 11
1569.6134405
 21
1015.2179305
  0
LINE
  8
_0-0_LAYER001
  6
CONTINUOUS
 62
    4
 10
1616.5382405000003
 20
1026.2003305000003
 11
1616.5382405000003
 21
1015.2179305
  0
LINE
  8
_0-0_LAYER001
  6
CONTINUOUS
 62
    4
 10
1624.5254405000003
 20
1015.2179305
 11
1616.5382405000003
 21
1015.2179305
  0
LINE
  8
_0-0_LAYER001
  6
CONTINUOUS
 62
    4
 10
1624.5254405000003
 20
1015.2179305
 11
1624.5254405000003
 21
1026.2003305000003
  0
LINE
  8
_0-0_LAYER001
  6
CONTINUOUS
 62
    4
 10
1381.9350175000002
 20
1048.1651305
 11
1381.9350175000002
 21
1028.1971305000002
  0
ARC
  8
_0-0_LAYER001
  6
CONTINUOUS
 62
    4
 10
1431.3292775
 20
1012.2227305000001
 40
5.9904000000000002
 50
199.47122100000004
 51
344.27761299999997
  0
LINE
  8
_0-0_LAYER001
  6
CONTINUOUS
 62
    4
 10
1687.9350175000002
 20
1048.1651305
 11
1647.5094175000002
 21
1048.1651305
  0
LINE
  8
_0-0_LAYER001
  6
CONTINUOUS
 62
    4
 10
1687.9350175000002
 20
1048.1651305
 11
1687.9350175000002
 21
1026.2003305000003
  0
LINE
  8
_0-0_LAYER001
  6
CONTINUOUS
 62
    4
 10
1687.9350175000002
 20
1048.1651305
 11
1687.9350175000002
 21
1028.1971305000002
  0
LINE
  8
_0-0_LAYER001
  6
CONTINUOUS
 62
    4
 10
1726.9350175000002
 20
1014.2195305
 11
1683.0770284999999
 21
1014.2195305
  0
LINE
  8
_0-0_LAYER001
  6
CONTINUOUS
 62
    4
 10
1726.9350175000002
 20
1014.2195305
 11
1726.9350175000002
 21
1026.2003305000003
  0
LINE
  8
_0-0_LAYER001
  6
CONTINUOUS
 62
    4
 10
1726.9350175000002
 20
1026.2003305000003
 11
1687.9350175000002
 21
1026.2003305000003
  0
ARC
  8
_0-0_LAYER001
  6
CONTINUOUS
 62
    4
 10
1983.9908235000003
 20
1012.2227305000001
 40
5.9904000000000002
 50
199.47122100000004
 51
344.27761299999997
  0
LINE
  8
_0-0_LAYER001
  6
CONTINUOUS
 62
    4
 10
1972.4614405
 20
1026.2003305000003
 11
1978.4518404999999
 21
1009.9413804999999
  0
LINE
  8
_0-0_LAYER001
  6
CONTINUOUS
 62
    4
 10
1750.8581945000003
 20
1026.2003305000003
 11
1745.1698755000002
 21
1010.5994725
  0
LINE
  8
_0-0_LAYER001
  6
CONTINUOUS
 62
    4
 10
1991.0770285000001
 20
1014.2195305
 11
1989.7570984999998
 21
1010.5994725
  0
LINE
  8
_0-0_LAYER001
  6
CONTINUOUS
 62
    4
 10
1727.1385224999999
 20
1028.1971305000002
 11
1689.9350175
 21
1028.1971305000002
  0
LINE
  8
_0-0_LAYER001
  6
CONTINUOUS
 62
    4
 10
1727.1385224999999
 20
1028.1971305000002
 11
1733.8646175000003
 21
1009.9413804999999
  0
LINE
  8
_0-0_LAYER001
  6
CONTINUOUS
 62
    4
 10
1972.4614405
 20
1026.2003305000003
 11
1932.5254405000005
 21
1026.2003305000003
  0
LINE
  8
_0-0_LAYER001
  6
CONTINUOUS
 62
    4
 10
1924.5382405000005
 20
1026.2003305000003
 11
1877.6134404999998
 21
1026.2003305000003
  0
LINE
  8
_0-0_LAYER001
  6
CONTINUOUS
 62
    4
 10
1869.6262404999998
 20
1026.2003305000003
 11
1816.7110404999999
 21
1026.2003305000003
  0
LINE
  8
_0-0_LAYER001
  6
CONTINUOUS
 62
    4
 10
1808.7238404999998
 20
1026.2003305000003
 11
1750.8581945000003
 21
1026.2003305000003
  0
LINE
  8
_0-0_LAYER001
  6
CONTINUOUS
 62
    4
 10
1955.5094175000002
 20
1048.1651305
 11
1955.5094175000002
 21
1045.1699305000002
  0
LINE
  8
_0-0_LAYER001
  6
CONTINUOUS
 62
    4
 10
1880.6294174999998
 20
1045.1699305000002
 11
1955.5094175000002
 21
1045.1699305000002
  0
LINE
  8
_0-0_LAYER001
  6
CONTINUOUS
 62
    4
 10
1729.8710174999999
 20
1045.1699305000002
 11
1880.8182925000001
 21
1045.1699305000002
  0
LINE
  8
_0-0_LAYER001
  6
CONTINUOUS
 62
    4
 10
1729.8710174999999
 20
1048.1651305
 11
1729.8710174999999
 21
1045.1699305000002
  0
LINE
  8
_0-0_LAYER001
  6
CONTINUOUS
 62
    4
 10
1729.8710174999999
 20
1048.1651305
 11
1689.9350175
 21
1048.1651305
  0
LINE
  8
_0-0_LAYER001
  6
CONTINUOUS
 62
    4
 10
1808.7238404999998
 20
1026.2003305000003
 11
1808.7238404999998
 21
1015.2179305
  0
LINE
  8
_0-0_LAYER001
  6
CONTINUOUS
 62
    4
 10
1816.7110404999999
 20
1015.2179305
 11
1808.7238404999998
 21
1015.2179305
  0
LINE
  8
_0-0_LAYER001
  6
CONTINUOUS
 62
    4
 10
1816.7110404999999
 20
1026.2003305000003
 11
1816.7110404999999
 21
1015.2179305
  0
LINE
  8
_0-0_LAYER001
  6
CONTINUOUS
 62
    4
 10
1869.6262404999998
 20
1026.2003305000003
 11
1869.6262404999998
 21
1015.2179305
  0
LINE
  8
_0-0_LAYER001
  6
CONTINUOUS
 62
    4
 10
1877.6134404999998
 20
1015.2179305
 11
1869.6262404999998
 21
1015.2179305
  0
LINE
  8
_0-0_LAYER001
  6
CONTINUOUS
 62
    4
 10
1877.6134404999998
 20
1026.2003305000003
 11
1877.6134404999998
 21
1015.2179305
  0
LINE
  8
_0-0_LAYER001
  6
CONTINUOUS
 62
    4
 10
1924.5382405000005
 20
1026.2003305000003
 11
1924.5382405000005
 21
1015.2179305
  0
LINE
  8
_0-0_LAYER001
  6
CONTINUOUS
 62
    4
 10
1932.5254405000005
 20
1015.2179305
 11
1924.5382405000005
 21
1015.2179305
  0
LINE
  8
_0-0_LAYER001
  6
CONTINUOUS
 62
    4
 10
1932.5254405000005
 20
1015.2179305
 11
1932.5254405000005
 21
1026.2003305000003
  0
LINE
  8
_0-0_LAYER001
  6
CONTINUOUS
 62
    4
 10
1689.9350175
 20
1048.1651305
 11
1689.9350175
 21
1028.1971305000002
  0
ARC
  8
_0-0_LAYER001
  6
CONTINUOUS
 62
    4
 10
1739.3292775000004
 20
1012.2227305000001
 40
5.9904000000000002
 50
199.47122100000004
 51
344.27761299999997
  0
LINE
  8
_0-0_LAYER001
  6
CONTINUOUS
 62
    4
 10
1995.9350175000004
 20
1048.1651305
 11
1955.5094175000002
 21
1048.1651305
  0
LINE
  8
_0-0_LAYER001
  6
CONTINUOUS
 62
    4
 10
1995.9350175000004
 20
1048.1651305
 11
1995.9350175000004
 21
1026.2003305000003
  0
LINE
  8
_0-0_LAYER001
  6
CONTINUOUS
 62
    4
 10
1995.9350175000004
 20
1048.1651305
 11
1995.9350175000004
 21
1028.1971305000002
  0
LINE
  8
_0-0_LAYER001
  6
CONTINUOUS
 62
    4
 10
2034.9350175
 20
1014.2195305
 11
1991.0770285000001
 21
1014.2195305
  0
LINE
  8
_0-0_LAYER001
  6
CONTINUOUS
 62
    4
 10
2034.9350175
 20
1014.2195305
 11
2034.9350175
 21
1026.2003305000003
  0
LINE
  8
_0-0_LAYER001
  6
CONTINUOUS
 62
    4
 10
2034.9350175
 20
1026.2003305000003
 11
1995.9350175000004
 21
1026.2003305000003
  0
LINE
  8
_0-0_LAYER001
  6
CONTINUOUS
 62
    4
 10
2058.8581945000005
 20
1026.2003305000003
 11
2053.1698754999998
 21
1010.5994725
  0
LINE
  8
_0-0_LAYER001
  6
CONTINUOUS
 62
    4
 10
2035.1385225000001
 20
1028.1971305000002
 11
1997.9350175000002
 21
1028.1971305000002
  0
LINE
  8
_0-0_LAYER001
  6
CONTINUOUS
 62
    4
 10
2035.1385225000001
 20
1028.1971305000002
 11
2041.8646175000001
 21
1009.9413804999999
  0
LINE
  8
_0-0_LAYER001
  6
CONTINUOUS
 62
    4
 10
2145.2879484999999
 20
1026.2003305000003
 11
2124.7110405000003
 21
1026.2003305000003
  0
LINE
  8
_0-0_LAYER001
  6
CONTINUOUS
 62
    4
 10
2116.7238404999998
 20
1026.2003305000003
 11
2058.8581945000005
 21
1026.2003305000003
  0
LINE
  8
_0-0_LAYER001
  6
CONTINUOUS
 62
    4
 10
2037.8710174999997
 20
1045.1699305000002
 11
2149.0099745000002
 21
1045.1699305000002
  0
LINE
  8
_0-0_LAYER001
  6
CONTINUOUS
 62
    4
 10
2037.8710174999997
 20
1048.1651305
 11
2037.8710174999997
 21
1045.1699305000002
  0
LINE
  8
_0-0_LAYER001
  6
CONTINUOUS
 62
    4
 10
2037.8710174999997
 20
1048.1651305
 11
1997.9350175000002
 21
1048.1651305
  0
LINE
  8
_0-0_LAYER001
  6
CONTINUOUS
 62
    4
 10
2116.7238404999998
 20
1026.2003305000003
 11
2116.7238404999998
 21
1015.2179305
  0
LINE
  8
_0-0_LAYER001
  6
CONTINUOUS
 62
    4
 10
2124.7110405000003
 20
1015.2179305
 11
2116.7238404999998
 21
1015.2179305
  0
LINE
  8
_0-0_LAYER001
  6
CONTINUOUS
 62
    4
 10
2124.7110405000003
 20
1026.2003305000003
 11
2124.7110405000003
 21
1015.2179305
  0
LINE
  8
_0-0_LAYER001
  6
CONTINUOUS
 62
    4
 10
1997.9350175000002
 20
1048.1651305
 11
1997.9350175000002
 21
1028.1971305000002
  0
ARC
  8
_0-0_LAYER001
  6
CONTINUOUS
 62
    4
 10
2047.3292775000002
 20
1012.2227305000001
 40
5.9904000000000002
 50
199.47122100000004
 51
344.27761299999997
  0
ARC
  8
_0-0_LAYER001
  6
CONTINUOUS
 62
    4
 10
1367.9908234999998
 20
1012.2227305000001
 40
5.9904000000000002
 50
199.47122100000004
 51
344.27761299999997
  0
LINE
  8
_0-0_LAYER001
  6
CONTINUOUS
 62
    4
 10
1356.4614405
 20
1026.2003305000003
 11
1362.4518405000001
 21
1009.9413804999999
  0
LINE
  8
_0-0_LAYER001
  6
CONTINUOUS
 62
    4
 10
1134.8581945000001
 20
1026.2003305000003
 11
1129.1698754999998
 21
1010.5994725
  0
LINE
  8
_0-0_LAYER001
  6
CONTINUOUS
 62
    4
 10
1375.0770285000001
 20
1014.2195305
 11
1373.7570985
 21
1010.5994725
  0
LINE
  8
_0-0_LAYER001
  6
CONTINUOUS
 62
    4
 10
1111.1385225000001
 20
1028.1971305000002
 11
1073.9350175000002
 21
1028.1971305000002
  0
LINE
  8
_0-0_LAYER001
  6
CONTINUOUS
 62
    4
 10
1111.1385225000001
 20
1028.1971305000002
 11
1117.8646174999999
 21
1009.9413804999999
  0
LINE
  8
_0-0_LAYER001
  6
CONTINUOUS
 62
    4
 10
1356.4614405
 20
1026.2003305000003
 11
1316.5254405000001
 21
1026.2003305000003
  0
LINE
  8
_0-0_LAYER001
  6
CONTINUOUS
 62
    4
 10
1308.5382405
 20
1026.2003305000003
 11
1261.6134405
 21
1026.2003305000003
  0
LINE
  8
_0-0_LAYER001
  6
CONTINUOUS
 62
    4
 10
1253.6262405
 20
1026.2003305000003
 11
1200.7110405000001
 21
1026.2003305000003
  0
LINE
  8
_0-0_LAYER001
  6
CONTINUOUS
 62
    4
 10
1192.7238405000001
 20
1026.2003305000003
 11
1134.8581945000001
 21
1026.2003305000003
  0
LINE
  8
_0-0_LAYER001
  6
CONTINUOUS
 62
    4
 10
1339.5094175000004
 20
1048.1651305
 11
1339.5094175000004
 21
1045.1699305000002
  0
LINE
  8
_0-0_LAYER001
  6
CONTINUOUS
 62
    4
 10
1264.6294175
 20
1045.1699305000002
 11
1339.5094175000004
 21
1045.1699305000002
  0
LINE
  8
_0-0_LAYER001
  6
CONTINUOUS
 62
    4
 10
1113.8710175000001
 20
1045.1699305000002
 11
1264.6294175
 21
1045.1699305000002
  0
LINE
  8
_0-0_LAYER001
  6
CONTINUOUS
 62
    4
 10
1113.8710175000001
 20
1048.1651305
 11
1113.8710175000001
 21
1045.1699305000002
  0
LINE
  8
_0-0_LAYER001
  6
CONTINUOUS
 62
    4
 10
1113.8710175000001
 20
1048.1651305
 11
1073.9350175000002
 21
1048.1651305
  0
LINE
  8
_0-0_LAYER001
  6
CONTINUOUS
 62
    4
 10
1192.7238405000001
 20
1026.2003305000003
 11
1192.7238405000001
 21
1015.2179305
  0
LINE
  8
_0-0_LAYER001
  6
CONTINUOUS
 62
    4
 10
1200.7110405000001
 20
1015.2179305
 11
1192.7238405000001
 21
1015.2179305
  0
LINE
  8
_0-0_LAYER001
  6
CONTINUOUS
 62
    4
 10
1200.7110405000001
 20
1026.2003305000003
 11
1200.7110405000001
 21
1015.2179305
  0
LINE
  8
_0-0_LAYER001
  6
CONTINUOUS
 62
    4
 10
1253.6262405
 20
1026.2003305000003
 11
1253.6262405
 21
1015.2179305
  0
LINE
  8
_0-0_LAYER001
  6
CONTINUOUS
 62
    4
 10
1261.6134405
 20
1015.2179305
 11
1253.6262405
 21
1015.2179305
  0
LINE
  8
_0-0_LAYER001
  6
CONTINUOUS
 62
    4
 10
1261.6134405
 20
1026.2003305000003
 11
1261.6134405
 21
1015.2179305
  0
LINE
  8
_0-0_LAYER001
  6
CONTINUOUS
 62
    4
 10
1308.5382405
 20
1026.2003305000003
 11
1308.5382405
 21
1015.2179305
  0
LINE
  8
_0-0_LAYER001
  6
CONTINUOUS
 62
    4
 10
1316.5254405000001
 20
1015.2179305
 11
1308.5382405
 21
1015.2179305
  0
LINE
  8
_0-0_LAYER001
  6
CONTINUOUS
 62
    4
 10
1316.5254405000001
 20
1015.2179305
 11
1316.5254405000001
 21
1026.2003305000003
  0
LINE
  8
_0-0_LAYER001
  6
CONTINUOUS
 62
    4
 10
1073.9350175000002
 20
1048.1651305
 11
1073.9350175000002
 21
1028.1971305000002
  0
ARC
  8
_0-0_LAYER001
  6
CONTINUOUS
 62
    4
 10
1123.3292775
 20
1012.2227305000001
 40
5.9904000000000002
 50
199.47122100000004
 51
344.27761299999997
  0
LINE
  8
_0-0_LAYER001
  6
CONTINUOUS
 62
    4
 10
1417.8742175
 20
1026.2003305000003
 11
1379.9350175
 21
1026.2003305000003
  0
LINE
  8
_0-0_LAYER001
  6
CONTINUOUS
 62
    4
 10
1379.9350175
 20
1048.1651305
 11
1339.5094175000004
 21
1048.1651305
  0
LINE
  8
_0-0_LAYER001
  6
CONTINUOUS
 62
    4
 10
1379.9350175
 20
1048.1651305
 11
1379.9350175
 21
1026.2003305000003
  0
LINE
  8
_0-0_LAYER001
  6
CONTINUOUS
 62
    4
 10
1417.8742175
 20
1014.2195305
 11
1375.0770285000001
 21
1014.2195305
  0
LINE
  8
_0-0_LAYER001
  6
CONTINUOUS
 62
    4
 10
1417.8742175
 20
1026.2003305000003
 11
1417.8742175
 21
1014.2195305
  0
LINE
  8
_0-0_LAYER001
  6
CONTINUOUS
 62
    4
 10
1379.9350175
 20
1048.1651305
 11
1379.9350175
 21
1028.1971305000002
  0
LINE
  8
_0-0_LAYER001
  6
CONTINUOUS
 62
   18
 10
1055.1027655
 20
924.15448950000018
 11
1115.1027655
 21
924.15448950000018
  0
LINE
  8
_0-0_LAYER001
  6
CONTINUOUS
 62
   18
 10
1115.1027655
 20
924.15448950000018
 11
1115.1027655
 21
984.15448950000018
  0
LINE
  8
_0-0_LAYER001
  6
CONTINUOUS
 62
   18
 10
1115.1027655
 20
984.15448950000018
 11
1055.1027655
 21
984.15448950000018
  0
LINE
  8
_0-0_LAYER001
  6
CONTINUOUS
 62
   18
 10
1055.1027655
 20
984.15448950000018
 11
1055.1027655
 21
924.15448950000018
  0
LINE
  8
_0-0_LAYER001
  6
CONTINUOUS
 62
   18
 10
1115.1027655
 20
984.15448950000018
 11
1055.1027655
 21
924.15448950000018
  0
LINE
  8
_0-0_LAYER001
  6
CONTINUOUS
 62
   18
 10
1357.1027655
 20
924.15448950000018
 11
1417.1027655
 21
924.15448950000018
  0
LINE
  8
_0-0_LAYER001
  6
CONTINUOUS
 62
   18
 10
1417.1027655
 20
924.15448950000018
 11
1417.1027655
 21
984.15448950000018
  0
LINE
  8
_0-0_LAYER001
  6
CONTINUOUS
 62
   18
 10
1417.1027655
 20
984.15448950000018
 11
1357.1027655
 21
984.15448950000018
  0
LINE
  8
_0-0_LAYER001
  6
CONTINUOUS
 62
   18
 10
1357.1027655
 20
984.15448950000018
 11
1357.1027655
 21
924.15448950000018
  0
LINE
  8
_0-0_LAYER001
  6
CONTINUOUS
 62
   18
 10
1417.1027655
 20
984.15448950000018
 11
1357.1027655
 21
924.15448950000018
  0
LINE
  8
_0-0_LAYER001
  6
CONTINUOUS
 62
   18
 10
1659.1027654999998
 20
924.15448950000018
 11
1719.1027654999998
 21
924.15448950000018
  0
LINE
  8
_0-0_LAYER001
  6
CONTINUOUS
 62
   18
 10
1719.1027654999998
 20
924.15448950000018
 11
1719.1027654999998
 21
984.15448950000018
  0
LINE
  8
_0-0_LAYER001
  6
CONTINUOUS
 62
   18
 10
1719.1027654999998
 20
984.15448950000018
 11
1659.1027654999998
 21
984.15448950000018
  0
LINE
  8
_0-0_LAYER001
  6
CONTINUOUS
 62
   18
 10
1659.1027654999998
 20
984.15448950000018
 11
1659.1027654999998
 21
924.15448950000018
  0
LINE
  8
_0-0_LAYER001
  6
CONTINUOUS
 62
   18
 10
1719.1027654999998
 20
984.15448950000018
 11
1659.1027654999998
 21
924.15448950000018
  0
LINE
  8
_0-0_LAYER001
  6
CONTINUOUS
 62
   18
 10
1961.1027655
 20
924.15448950000018
 11
2021.1027655
 21
924.15448950000018
  0
LINE
  8
_0-0_LAYER001
  6
CONTINUOUS
 62
   18
 10
2021.1027655
 20
924.15448950000018
 11
2021.1027655
 21
984.15448950000018
  0
LINE
  8
_0-0_LAYER001
  6
CONTINUOUS
 62
   18
 10
2021.1027655
 20
984.15448950000018
 11
1961.1027655
 21
984.15448950000018
  0
LINE
  8
_0-0_LAYER001
  6
CONTINUOUS
 62
   18
 10
1961.1027655
 20
984.15448950000018
 11
1961.1027655
 21
924.15448950000018
  0
LINE
  8
_0-0_LAYER001
  6
CONTINUOUS
 62
   18
 10
2021.1027655
 20
984.15448950000018
 11
1961.1027655
 21
924.15448950000018
  0
LINE
  8
_0-0_LAYER001
  6
CONTINUOUS
 62
   18
 10
1166.6544905000001
 20
1014.1544895000002
 11
1166.6544905000001
 21
999.15448950000018
  0
LINE
  8
_0-0_LAYER001
  6
CONTINUOUS
 62
   18
 10
1161.6544905000001
 20
999.15448950000018
 11
1072.6233545
 21
999.15448950000018
  0
LINE
  8
_0-0_LAYER001
  6
CONTINUOUS
 62
   18
 10
1161.6544905000001
 20
999.15448950000018
 11
1151.3499295000001
 21
1006.6120955000001
  0
LINE
  8
_0-0_LAYER001
  6
CONTINUOUS
 62
   18
 10
1055.1027655
 20
984.15448950000018
 11
2149.0099745000002
 21
984.15448950000018
  0
LINE
  8
_0-0_LAYER001
  6
CONTINUOUS
 62
   18
 10
1055.1027655
 20
924.15448950000018
 11
2149.0099745000002
 21
924.15448950000018
  0
LINE
  8
_0-0_LAYER001
  6
CONTINUOUS
 62
   18
 10
1055.1027655
 20
996.15448950000018
 11
2149.0099745000002
 21
996.15448950000018
  0
LINE
  8
_0-0_LAYER001
  6
DASHED
 62
   18
 10
1055.6027655
 20
997.65448950000018
 11
2149.0099745000002
 21
997.65448950000018
  0
LINE
  8
_0-0_LAYER001
  6
CONTINUOUS
 62
   18
 10
1166.6544905000001
 20
1014.1544895000002
 11
2149.0099745000002
 21
1014.1544895000002
  0
LINE
  8
_0-0_LAYER001
  6
CONTINUOUS
 62
   18
 10
1166.6544905000001
 20
999.15448950000018
 11
2149.0099745000002
 21
999.15448950000018
  0
LINE
  8
_0-0_LAYER001
  6
DASHED
 62
   18
 10
1055.6027655
 20
997.65448950000018
 11
1055.6027655
 21
1296.1544895000002
  0
LINE
  8
_0-0_LAYER001
  6
CONTINUOUS
 62
   18
 10
847.78374150000013
 20
996.15448950000018
 11
900.28374150000013
 21
996.15448950000018
  0
CIRCLE
  8
_0-0_LAYER001
  6
CONTINUOUS
 62
   18
 10
850.28374150000013
 20
996.15448950000018
 40
1.7000000000000002
  0
LINE
  8
_0-0_LAYER001
  6
CONTINUOUS
 62
   18
 10
850.28374150000013
 20
996.15448950000018
 11
850.28374150000013
 21
1296.1544895000002
  0
CIRCLE
  8
_0-0_LAYER001
  6
CONTINUOUS
 62
   18
 10
850.28374150000013
 20
1296.1544895000002
 40
1.7000000000000002
  0
LINE
  8
_0-0_LAYER001
  6
CONTINUOUS
 62
   18
 10
847.78374150000013
 20
1296.1544895000002
 11
900.28374150000013
 21
1296.1544895000002
  0
LINE
  8
_0-0_LAYER001
  6
CONTINUOUS
 62
   18
 10
1115.3773625000001
 20
1070.2931834999999
 11
1111.6273625000001
 21
1063.7979925
  0
LINE
  8
_0-0_LAYER001
  6
CONTINUOUS
 62
   18
 10
1111.6273625000001
 20
1063.7979925
 11
1111.6273625000001
 21
1071.2979925
  0
LINE
  8
_0-0_LAYER001
  6
CONTINUOUS
 62
   18
 10
1111.6273625000001
 20
1063.7979925
 11
1147.4859525000002
 21
1197.6240695000001
  0
LINE
  8
_0-0_LAYER001
  6
CONTINUOUS
 62
   18
 10
1147.4859525000002
 20
1197.6240695000001
 11
1381.4859525000002
 21
1197.6240695000001
  0
LINE
  8
_0-0_LAYER001
  6
CONTINUOUS
 62
   18
 10
1114.1739195
 20
993.3402145
 11
1114.1739195
 21
1000.8402145
  0
LINE
  8
_0-0_LAYER001
  6
CONTINUOUS
 62
   18
 10
1114.1739195
 20
1000.8402145
 11
1117.9239195
 21
994.34502450000036
  0
LINE
  8
_0-0_LAYER001
  6
CONTINUOUS
 62
   18
 10
1114.1739195
 20
1000.8402145
 11
1165.4647645
 21
809.42017250000026
  0
LINE
  8
_0-0_LAYER001
  6
CONTINUOUS
 62
   18
 10
1165.4647645
 20
809.42017250000026
 11
1382.9647645
 21
809.42017250000026
  0
LINE
  8
_0-0_LAYER001
  6
CONTINUOUS
 62
   18
 10
1066.2512735
 20
1154.3989615
 11
1068.1924165
 21
1147.1545175000001
  0
LINE
  8
_0-0_LAYER001
  6
CONTINUOUS
 62
   18
 10
1068.1924165
 20
1147.1545175000001
 11
1062.8891155000001
 21
1152.4578185
  0
LINE
  8
_0-0_LAYER001
  6
CONTINUOUS
 62
   18
 10
1068.1924165
 20
1147.1545175000001
 11
1034.6327584999999
 21
1205.2815505000003
  0
LINE
  8
_0-0_LAYER001
  6
CONTINUOUS
 62
   18
 10
1034.6327584999999
 20
1205.2815505000003
 11
994.13275850000014
 21
1205.2815505000003
  0
LINE
  8
_0-0_LAYER001
  6
CONTINUOUS
 62
   18
 10
1073.9350175000002
 20
1277.8818275000003
 11
1073.9350175000002
 21
1225.3818275000003
  0
CIRCLE
  8
_0-0_LAYER001
  6
CONTINUOUS
 62
   18
 10
1073.9350175000002
 20
1275.3818275000003
 40
1.7000000000000002
  0
LINE
  8
_0-0_LAYER001
  6
CONTINUOUS
 62
   18
 10
1073.9350175000002
 20
1275.3818275000003
 11
1381.9350175000002
 21
1275.3818275000003
  0
CIRCLE
  8
_0-0_LAYER001
  6
CONTINUOUS
 62
   18
 10
1381.9350175000002
 20
1275.3818275000003
 40
1.7000000000000002
  0
LINE
  8
_0-0_LAYER001
  6
CONTINUOUS
 62
   18
 10
1381.9350175000002
 20
1277.8818275000003
 11
1381.9350175000002
 21
1225.3818275000003
  0
CIRCLE
  8
_0-0_LAYER001
  6
CONTINUOUS
 62
   18
 10
1381.9350175000002
 20
1275.3818275000003
 40
1.7000000000000002
  0
LINE
  8
_0-0_LAYER001
  6
CONTINUOUS
 62
   18
 10
1381.9350175000002
 20
1275.3818275000003
 11
1689.9350175
 21
1275.3818275000003
  0
CIRCLE
  8
_0-0_LAYER001
  6
CONTINUOUS
 62
   18
 10
1689.9350175
 20
1275.3818275000003
 40
1.7000000000000002
  0
LINE
  8
_0-0_LAYER001
  6
CONTINUOUS
 62
   18
 10
1689.9350175
 20
1277.8818275000003
 11
1689.9350175
 21
1225.3818275000003
  0
CIRCLE
  8
_0-0_LAYER001
  6
CONTINUOUS
 62
   18
 10
1689.9350175
 20
1275.3818275000003
 40
1.7000000000000002
  0
LINE
  8
_0-0_LAYER001
  6
CONTINUOUS
 62
   18
 10
1689.9350175
 20
1275.3818275000003
 11
1997.9350175000002
 21
1275.3818275000003
  0
CIRCLE
  8
_0-0_LAYER001
  6
CONTINUOUS
 62
   18
 10
1997.9350175000002
 20
1275.3818275000003
 40
1.7000000000000002
  0
LINE
  8
_0-0_LAYER001
  6
CONTINUOUS
 62
   18
 10
1997.9350175000002
 20
1277.8818275000003
 11
1997.9350175000002
 21
1225.3818275000003
  0
LINE
  8
_0-0_LAYER001
  6
CONTINUOUS
 62
   18
 10
1089.2273155
 20
1291.7974555000001
 11
1085.4773155
 21
1285.3022655
  0
LINE
  8
_0-0_LAYER001
  6
CONTINUOUS
 62
   18
 10
1085.4773155
 20
1285.3022655
 11
1085.4773155
 21
1292.8022655
  0
LINE
  8
_0-0_LAYER001
  6
CONTINUOUS
 62
   18
 10
1085.4773155
 20
1285.3022655
 11
1107.7328564999998
 21
1368.3610765000003
  0
LINE
  8
_0-0_LAYER001
  6
CONTINUOUS
 62
   18
 10
1107.7328564999998
 20
1368.3610765000003
 11
1280.2328564999998
 21
1368.3610765000003
  0
LINE
  8
_0-0_LAYER001
  6
CONTINUOUS
 62
   18
 10
1071.6544905000001
 20
873.82805050000024
 11
1071.6544905000001
 21
901.32805050000024
  0
CIRCLE
  8
_0-0_LAYER001
  6
CONTINUOUS
 62
   18
 10
1071.6544905000001
 20
876.32805050000024
 40
1.7000000000000002
  0
LINE
  8
_0-0_LAYER001
  6
CONTINUOUS
 62
   18
 10
1071.6544905000001
 20
876.32805050000024
 11
1161.6544905000001
 21
876.32805050000024
  0
CIRCLE
  8
_0-0_LAYER001
  6
CONTINUOUS
 62
   18
 10
1161.6544905000001
 20
876.32805050000024
 40
1.7000000000000002
  0
LINE
  8
_0-0_LAYER001
  6
CONTINUOUS
 62
   18
 10
1161.6544905000001
 20
873.82805050000024
 11
1161.6544905000001
 21
901.32805050000024
  0
LINE
  8
_0-0_LAYER001
  6
CONTINUOUS
 62
   18
 10
1643.6186055000003
 20
714.13892350000015
 11
1708.2537425000005
 21
714.13892350000015
  0
LINE
  8
_0-0_LAYER001
  6
CONTINUOUS
 62
   18
 10
1636.4454234999998
 20
744.00549649999994
 11
1857.3860525000005
 21
744.00549649999994
  0
LINE
  8
_0-0_LAYER001
  6
CONTINUOUS
 62
   18
 10
1626.9023315000002
 20
774.10081850000006
 11
1868.5156895000002
 21
774.10081850000006
  0
LINE
  8
_0-0_LAYER001
  6
CONTINUOUS
 62
   18
 10
1566.0107655000002
 20
996.27532550000024
 11
1566.0107655000002
 21
1003.7753255000002
  0
LINE
  8
_0-0_LAYER001
  6
CONTINUOUS
 62
   18
 10
1566.0107655000002
 20
1003.7753255000002
 11
1569.7607655000002
 21
997.28013550000014
  0
LINE
  8
_0-0_LAYER001
  6
CONTINUOUS
 62
   18
 10
1566.0107655000002
 20
1003.7753255000002
 11
1643.6186055000003
 21
714.13892350000015
  0
LINE
  8
_0-0_LAYER001
  6
CONTINUOUS
 62
   18
 10
1619.5184935
 20
804.08176649999996
 11
1824.3412065000002
 21
804.08176649999996
  0
LINE
  8
_0-0_LAYER001
  6
CONTINUOUS
 62
   18
 10
1166.5007655000002
 20
1083.5014894999999
 11
1160.8127375000001
 21
1090.9364025
  0
LINE
  8
_0-0_LAYER001
  6
CONTINUOUS
 62
   18
 10
1166.5007655000002
 20
1083.5014894999999
 11
1166.5007655000002
 21
1096.1544895000002
  0
LINE
  8
_0-0_LAYER001
  6
CONTINUOUS
 62
   18
 10
1123.1027655
 20
1096.1544895000002
 11
1148.1027655
 21
1096.1544895000002
  0
LINE
  8
_0-0_LAYER001
  6
CONTINUOUS
 62
   18
 10
1148.1027655
 20
1096.1544895000002
 11
1148.1027655
 21
1078.1699305000002
  0
LINE
  8
_0-0_LAYER001
  6
CONTINUOUS
 62
   18
 10
1148.1027655
 20
1078.1699305000002
 11
1123.1027655
 21
1078.1699305000002
  0
LINE
  8
_0-0_LAYER001
  6
CONTINUOUS
 62
   18
 10
1123.1027655
 20
1078.1699305000002
 11
1123.1027655
 21
1096.1544895000002
  0
LINE
  8
_0-0_LAYER001
  6
CONTINUOUS
 62
   18
 10
1071.6544905000001
 20
1092.2099585000001
 11
1056.6544905000001
 21
1092.2099585000001
  0
LINE
  8
_0-0_LAYER001
  6
CONTINUOUS
 62
   18
 10
1058.7183845000002
 20
1193.6433205000003
 11
1078.7183845000002
 21
1193.6433205000003
  0
LINE
  8
_0-0_LAYER001
  6
CONTINUOUS
 62
   18
 10
1078.7183845000002
 20
1193.6433205000003
 11
1078.7183845000002
 21
1153.6423205000001
  0
LINE
  8
_0-0_LAYER001
  6
CONTINUOUS
 62
   18
 10
1078.7183845000002
 20
1153.6423205000001
 11
1058.7183845000002
 21
1153.6423205000001
  0
LINE
  8
_0-0_LAYER001
  6
CONTINUOUS
 62
   18
 10
1058.7183845000002
 20
1153.6423205000001
 11
1058.7183845000002
 21
1193.6433205000003
  0
LINE
  8
_0-0_LAYER001
  6
CONTINUOUS
 62
   18
 10
1058.7183845000002
 20
1193.6433205000003
 11
1078.7183845000002
 21
1153.6423205000001
  0
LINE
  8
_0-0_LAYER001
  6
CONTINUOUS
 62
   18
 10
1166.5007655000002
 20
1096.1544895000002
 11
1057.6085555000002
 21
1098.1074295000003
  0
LINE
  8
_0-0_LAYER001
  6
CONTINUOUS
 62
   18
 10
1078.7183845000002
 20
1106.0994515000002
 11
1090.7183845000002
 21
1106.0994515000002
  0
LINE
  8
_0-0_LAYER001
  6
CONTINUOUS
 62
   18
 10
1072.6233545
 20
1093.8944895
 11
1078.1197545
 21
1085.9433725000004
  0
LINE
  8
_0-0_LAYER001
  6
CONTINUOUS
 62
   18
 10
1056.6544905000001
 20
999.20995850000008
 11
1071.6544905000001
 21
999.20995850000008
  0
LINE
  8
_0-0_LAYER001
  6
CONTINUOUS
 62
   18
 10
1071.6544905000001
 20
999.20995850000008
 11
1071.6544905000001
 21
1092.2099585000001
  0
LINE
  8
_0-0_LAYER001
  6
CONTINUOUS
 62
   18
 10
1056.6544905000001
 20
1092.2099585000001
 11
1056.6544905000001
 21
999.20995850000008
  0
LINE
  8
_0-0_LAYER001
  6
CONTINUOUS
 62
   18
 10
1072.6233545
 20
999.15448950000018
 11
1072.6233545
 21
1093.8944895
  0
LINE
  8
_0-0_LAYER001
  6
CONTINUOUS
 62
   18
 10
1078.7183845000002
 20
1357.5184895000002
 11
1078.7183845000002
 21
1106.0994515000002
  0
LINE
  8
_0-0_LAYER001
  6
CONTINUOUS
 62
   18
 10
1090.7183845000002
 20
1106.0994515000002
 11
1090.7183845000002
 21
1357.5184895000002
  0
LINE
  8
_0-0_LAYER001
  6
CONTINUOUS
 62
   18
 10
954.71301650000009
 20
1098.1074295000003
 11
1007.2130165000001
 21
1098.1074295000003
  0
CIRCLE
  8
_0-0_LAYER001
  6
CONTINUOUS
 62
   18
 10
957.21301650000009
 20
1098.1074295000003
 40
1.7000000000000002
  0
LINE
  8
_0-0_LAYER001
  6
CONTINUOUS
 62
   18
 10
957.21301650000009
 20
1098.1074295000003
 11
957.21301650000009
 21
1248.1074295000003
  0
CIRCLE
  8
_0-0_LAYER001
  6
CONTINUOUS
 62
   18
 10
957.21301650000009
 20
1248.1074295000003
 40
1.7000000000000002
  0
LINE
  8
_0-0_LAYER001
  6
CONTINUOUS
 62
   18
 10
954.71301650000009
 20
1248.1074295000003
 11
1007.2130165000001
 21
1248.1074295000003
  0
LINE
  8
_0-0_LAYER001
  6
CONTINUOUS
 62
   18
 10
1057.6085555000002
 20
1248.1074295000003
 11
1057.6085555000002
 21
1098.1074295000003
  0
LINE
  8
_0-0_LAYER001
  6
CONTINUOUS
 62
   18
 10
954.71301650000009
 20
996.15448950000018
 11
1008.8946875000001
 21
996.15448950000018
  0
CIRCLE
  8
_0-0_LAYER001
  6
CONTINUOUS
 62
   18
 10
957.21301650000009
 20
996.15448950000018
 40
1.7000000000000002
  0
LINE
  8
_0-0_LAYER001
  6
CONTINUOUS
 62
   18
 10
957.21301650000009
 20
996.15448950000018
 11
957.21301650000009
 21
1092.2099585000001
  0
CIRCLE
  8
_0-0_LAYER001
  6
CONTINUOUS
 62
   18
 10
957.21301650000009
 20
1092.2099585000001
 40
1.7000000000000002
  0
LINE
  8
_0-0_LAYER001
  6
CONTINUOUS
 62
   18
 10
954.71301650000009
 20
1092.2099585000001
 11
1007.2130165000001
 21
1092.2099585000001
  0
LINE
  8
_0-0_LAYER001
  6
CONTINUOUS
 62
   18
 10
1059.9783465
 20
1012.8742075
 11
1063.7283465
 21
1019.3693985
  0
LINE
  8
_0-0_LAYER001
  6
CONTINUOUS
 62
   18
 10
1063.7283465
 20
1019.3693985
 11
1063.7283465
 21
1011.8693985
  0
LINE
  8
_0-0_LAYER001
  6
CONTINUOUS
 62
   18
 10
1063.7283465
 20
1019.3693985
 11
1019.6600475
 21
854.90426449999995
  0
LINE
  8
_0-0_LAYER001
  6
CONTINUOUS
 62
   18
 10
1019.6600475
 20
854.90426449999995
 11
872.66004750000002
 21
854.90426449999995
  0
LINE
  8
_0-0_LAYER001
  6
CONTINUOUS
 62
   18
 10
1071.6544905000001
 20
1092.2099585000001
 11
1056.6544905000001
 21
999.20995850000008
  0
LINE
  8
_0-0_LAYER001
  6
CONTINUOUS
 62
   18
 10
1141.2461635000002
 20
1091.7630785000001
 11
1137.4961635000002
 21
1085.2678875000001
  0
LINE
  8
_0-0_LAYER001
  6
CONTINUOUS
 62
   18
 10
1137.4961635000002
 20
1085.2678875000001
 11
1137.4961635000002
 21
1092.7678875000001
  0
LINE
  8
_0-0_LAYER001
  6
CONTINUOUS
 62
   18
 10
1137.4961635000002
 20
1085.2678875000001
 11
1155.3881955000002
 21
1152.0418605
  0
LINE
  8
_0-0_LAYER001
  6
CONTINUOUS
 62
   18
 10
1155.3881955000002
 20
1152.0418605
 11
1252.8881955000002
 21
1152.0418605
  0
LINE
  8
_0-0_LAYER001
  6
CONTINUOUS
 62
   18
 10
1602.7404634999998
 20
1043.1743035
 11
1598.9904634999998
 21
1036.6791135000003
  0
LINE
  8
_0-0_LAYER001
  6
CONTINUOUS
 62
   18
 10
1598.9904634999998
 20
1036.6791135000003
 11
1598.9904634999998
 21
1044.1791135000003
  0
LINE
  8
_0-0_LAYER001
  6
CONTINUOUS
 62
   18
 10
1598.9904634999998
 20
1036.6791135000003
 11
1632.9456135000005
 21
1163.4014575000001
  0
LINE
  8
_0-0_LAYER001
  6
CONTINUOUS
 62
   18
 10
1632.9456135000005
 20
1163.4014575000001
 11
1673.4456135000003
 21
1163.4014575000001
  0
LINE
  8
_0-0_LAYER001
  6
CONTINUOUS
 62
   18
 10
1073.9350175000002
 20
1050.7031405000002
 11
1073.9350175000002
 21
1077.1699305000002
  0
LINE
  8
_0-0_LAYER001
  6
CONTINUOUS
 62
   18
 10
2033.8742174999998
 20
1058.2003305000003
 11
2033.8742174999998
 21
1050.7031405000002
  0
LINE
  8
_0-0_LAYER001
  6
CONTINUOUS
 62
   18
 10
2035.1385225000001
 20
1060.1971305000002
 11
2035.1385225000001
 21
1050.7031405000002
  0
LINE
  8
_0-0_LAYER001
  6
CONTINUOUS
 62
   18
 10
2035.1385225000001
 20
1060.1971305000002
 11
1997.9350175000002
 21
1060.1971305000002
  0
LINE
  8
_0-0_LAYER001
  6
CONTINUOUS
 62
   18
 10
2033.8742174999998
 20
1058.2003305000003
 11
1995.9350175000004
 21
1058.2003305000003
  0
LINE
  8
_0-0_LAYER001
  6
CONTINUOUS
 62
   18
 10
1725.8742175
 20
1058.2003305000003
 11
1725.8742175
 21
1050.7031405000002
  0
LINE
  8
_0-0_LAYER001
  6
CONTINUOUS
 62
   18
 10
1727.1385224999999
 20
1060.1971305000002
 11
1727.1385224999999
 21
1050.7031405000002
  0
LINE
  8
_0-0_LAYER001
  6
CONTINUOUS
 62
   18
 10
1727.1385224999999
 20
1060.1971305000002
 11
1689.9350175
 21
1060.1971305000002
  0
LINE
  8
_0-0_LAYER001
  6
CONTINUOUS
 62
   18
 10
1725.8742175
 20
1058.2003305000003
 11
1687.9350175000002
 21
1058.2003305000003
  0
LINE
  8
_0-0_LAYER001
  6
CONTINUOUS
 62
   18
 10
1417.8742175
 20
1058.2003305000003
 11
1417.8742175
 21
1050.7031405000002
  0
LINE
  8
_0-0_LAYER001
  6
CONTINUOUS
 62
   18
 10
1419.1385225000001
 20
1060.1971305000002
 11
1419.1385225000001
 21
1050.7031405000002
  0
LINE
  8
_0-0_LAYER001
  6
CONTINUOUS
 62
   18
 10
1419.1385225000001
 20
1060.1971305000002
 11
1381.9350175000002
 21
1060.1971305000002
  0
LINE
  8
_0-0_LAYER001
  6
CONTINUOUS
 62
   18
 10
1417.8742175
 20
1058.2003305000003
 11
1379.9350175
 21
1058.2003305000003
  0
LINE
  8
_0-0_LAYER001
  6
CONTINUOUS
 62
   18
 10
2149.0099745000002
 20
1050.7031405000002
 11
2035.1385225000001
 21
1050.7031405000002
  0
LINE
  8
_0-0_LAYER001
  6
CONTINUOUS
 62
   18
 10
2033.8742174999998
 20
1050.7031405000002
 11
1727.1385224999999
 21
1050.7031405000002
  0
LINE
  8
_0-0_LAYER001
  6
CONTINUOUS
 62
   18
 10
1725.8742175
 20
1050.7031405000002
 11
1419.1385225000001
 21
1050.7031405000002
  0
LINE
  8
_0-0_LAYER001
  6
CONTINUOUS
 62
   18
 10
1417.8742175
 20
1050.7031405000002
 11
1073.9350175000002
 21
1050.7031405000002
  0
LINE
  8
_0-0_LAYER001
  6
CONTINUOUS
 62
   18
 10
1339.5094175000004
 20
1080.1651305
 11
1339.5094175000004
 21
1077.1699305000002
  0
LINE
  8
_0-0_LAYER001
  6
CONTINUOUS
 62
   18
 10
1264.6294175
 20
1077.1699305000002
 11
1339.5094175000004
 21
1077.1699305000002
  0
LINE
  8
_0-0_LAYER001
  6
CONTINUOUS
 62
   18
 10
1073.9350175000002
 20
1077.1699305000002
 11
1264.6294175
 21
1077.1699305000002
  0
LINE
  8
_0-0_LAYER001
  6
CONTINUOUS
 62
   18
 10
1379.9350175
 20
1080.1651305
 11
1339.5094175000004
 21
1080.1651305
  0
LINE
  8
_0-0_LAYER001
  6
CONTINUOUS
 62
   18
 10
1379.9350175
 20
1080.1651305
 11
1379.9350175
 21
1058.2003305000003
  0
LINE
  8
_0-0_LAYER001
  6
CONTINUOUS
 62
   18
 10
1647.5094175000002
 20
1080.1651305
 11
1647.5094175000002
 21
1077.1699305000002
  0
LINE
  8
_0-0_LAYER001
  6
CONTINUOUS
 62
   18
 10
1572.6294175
 20
1077.1699305000002
 11
1647.5094175000002
 21
1077.1699305000002
  0
LINE
  8
_0-0_LAYER001
  6
CONTINUOUS
 62
   18
 10
1421.8710175000001
 20
1077.1699305000002
 11
1572.6294175
 21
1077.1699305000002
  0
LINE
  8
_0-0_LAYER001
  6
CONTINUOUS
 62
   18
 10
1421.8710175000001
 20
1080.1651305
 11
1421.8710175000001
 21
1077.1699305000002
  0
LINE
  8
_0-0_LAYER001
  6
CONTINUOUS
 62
   18
 10
1421.8710175000001
 20
1080.1651305
 11
1381.9350175000002
 21
1080.1651305
  0
LINE
  8
_0-0_LAYER001
  6
CONTINUOUS
 62
   18
 10
1381.9350175000002
 20
1080.1651305
 11
1381.9350175000002
 21
1060.1971305000002
  0
LINE
  8
_0-0_LAYER001
  6
CONTINUOUS
 62
   18
 10
1687.9350175000002
 20
1080.1651305
 11
1647.5094175000002
 21
1080.1651305
  0
LINE
  8
_0-0_LAYER001
  6
CONTINUOUS
 62
   18
 10
1687.9350175000002
 20
1080.1651305
 11
1687.9350175000002
 21
1058.2003305000003
  0
LINE
  8
_0-0_LAYER001
  6
CONTINUOUS
 62
   18
 10
1687.9350175000002
 20
1080.1651305
 11
1687.9350175000002
 21
1060.1971305000002
  0
LINE
  8
_0-0_LAYER001
  6
CONTINUOUS
 62
   18
 10
1955.5094175000002
 20
1080.1651305
 11
1955.5094175000002
 21
1077.1699305000002
  0
LINE
  8
_0-0_LAYER001
  6
CONTINUOUS
 62
   18
 10
1880.6294174999998
 20
1077.1699305000002
 11
1955.5094175000002
 21
1077.1699305000002
  0
LINE
  8
_0-0_LAYER001
  6
CONTINUOUS
 62
   18
 10
1729.8710174999999
 20
1077.1699305000002
 11
1880.6294174999998
 21
1077.1699305000002
  0
LINE
  8
_0-0_LAYER001
  6
CONTINUOUS
 62
   18
 10
1729.8710174999999
 20
1080.1651305
 11
1729.8710174999999
 21
1077.1699305000002
  0
LINE
  8
_0-0_LAYER001
  6
CONTINUOUS
 62
   18
 10
1729.8710174999999
 20
1080.1651305
 11
1689.9350175
 21
1080.1651305
  0
LINE
  8
_0-0_LAYER001
  6
CONTINUOUS
 62
   18
 10
1689.9350175
 20
1080.1651305
 11
1689.9350175
 21
1060.1971305000002
  0
LINE
  8
_0-0_LAYER001
  6
CONTINUOUS
 62
   18
 10
1995.9350175000004
 20
1080.1651305
 11
1955.5094175000002
 21
1080.1651305
  0
LINE
  8
_0-0_LAYER001
  6
CONTINUOUS
 62
   18
 10
1995.9350175000004
 20
1080.1651305
 11
1995.9350175000004
 21
1058.2003305000003
  0
LINE
  8
_0-0_LAYER001
  6
CONTINUOUS
 62
   18
 10
1995.9350175000004
 20
1080.1651305
 11
1995.9350175000004
 21
1060.1971305000002
  0
LINE
  8
_0-0_LAYER001
  6
CONTINUOUS
 62
   18
 10
2037.8710174999997
 20
1077.1699305000002
 11
2149.0099745000002
 21
1077.1699305000002
  0
LINE
  8
_0-0_LAYER001
  6
CONTINUOUS
 62
   18
 10
2037.8710174999997
 20
1080.1651305
 11
2037.8710174999997
 21
1077.1699305000002
  0
LINE
  8
_0-0_LAYER001
  6
CONTINUOUS
 62
   18
 10
2037.8710174999997
 20
1080.1651305
 11
1997.9350175000002
 21
1080.1651305
  0
LINE
  8
_0-0_LAYER001
  6
CONTINUOUS
 62
   18
 10
1997.9350175000002
 20
1080.1651305
 11
1997.9350175000002
 21
1060.1971305000002
  0
TEXT
  8
_0-0_LAYER001
 62
    7
 10
1108.0566948153369
 20
1370.4067371491174
 40
20
 41
1
 50
0
  1
外
  0
TEXT
  8
_0-0_LAYER001
 62
    7
 10
1643.6186054999998
 20
716.63892350000037
 40
20
 41
1
 50
0
  1
　垂木
  0
TEXT
  8
_0-0_LAYER001
 62
    7
 10
1636.4454234999998
 20
746.50549650000028
 40
20
 41
1
 50
0
  1
　野地板：耐水合板ｔ＝１２
  0
TEXT
  8
_0-0_LAYER001
 62
    7
 10
1619.5184934999997
 20
806.58176650000041
 40
20
 41
1
 50
0
  1
　瓦桟：１５ｘ３０以上
  0
TEXT
  8
_0-0_LAYER001
 62
    7
 10
1156.2781616084137
 20
1153.3384804779353
 40
20
 41
1
 50
0
  1
弾性シール材
  0
TEXT
  8
_0-0_LAYER001
 62
    7
 10
1632.3298954432678
 20
1165.1740208218957
 40
20
 41
1
 50
0
  1
桟　瓦
  0
TEXT
  8
_0-0_LAYER001
 62
    7
 10
1219.2511733442618
 20
1287.6573577787553
 40
20
 41
1
 50
0
  1
308
  0
TEXT
  8
_0-0_LAYER001
 62
    7
 10
1524.3895097724728
 20
1290.2432758840782
 40
20
 41
1
 50
0
  1
308
  0
TEXT
  8
_0-0_LAYER001
 62
    7
 10
1832.1137643060088
 20
1291.5362349367406
 40
20
 41
1
 50
0
  1
308
  0
TEXT
  8
_0-0_LAYER001
 62
    7
 10
877.90998344151672
 20
1135.0881895646492
 40
20
 41
1
 50
90
  1
300
  0
TEXT
  8
_0-0_LAYER001
 62
    7
 10
987.81150291777976
 20
1163.5332887232112
 40
20
 41
1
 50
90
  1
150
  0
TEXT
  8
_0-0_LAYER001
 62
    7
 10
986.51854386511775
 20
1034.2373834570201
 40
20
 41
1
 50
90
  1
100
  0
TEXT
  8
_0-0_LAYER001
 62
    7
 10
860.38965300940276
 20
860.08009195535931
 40
20
 41
1
 50
0
  1
下地材：15x90
  0
TEXT
  8
_0-0_LAYER001
 62
    7
 10
1110.6426129206607
 20
886.84005145356241
 40
20
 41
1
 50
0
  1
90
  0
TEXT
  8
_0-0_LAYER001
 62
    7
 10
1626.9023314999999
 20
776.6008185000004
 40
20
 41
1
 50
0
  1
　下葺材：ルーフィング
  0
TEXT
  8
_0-0_LAYER001
 62
    7
 10
827.34046740247345
 20
1040.9705852426407
 40
20
 41
1
 50
90
  1
下葺き材立上がり寸法
  0
TEXT
  8
_0-0_LAYER001
 62
    7
 10
932.5452704598996
 20
1018.6544148971261
 40
20
 41
1
 50
90
  1
水切り鉄板立上がり寸法
  0
TEXT
  8
_0-0_LAYER001
 62
    7
 10
989.92970849122321
 20
1213.123899336611
 40
20
 41
1
 50
0
  1
胴　縁
  0
TEXT
  8
_0-0_LAYER001
 62
    7
 10
1103.1045723863331
 20
1375.7131404253607
 40
20
 41
1
 50
0
  1
壁　防火サイディング
  0
TEXT
  8
_0-0_LAYER001
 62
    7
 10
1122.2327183967743
 20
1201.9658141638536
 40
20
 41
1
 50
0
  1
雨押水切カラー鋼板0.35ｍｍ以上
  0
TEXT
  8
_0-0_LAYER001
 62
    7
 10
1166.8650590878037
 20
816.21486961995743
 40
20
 41
1
 50
0
  1
　捨谷カラー鋼板0.35ｍｍ以上
  0
ENDSEC
  0
EOF
