  0
SECTION
  2
HEADER
  9
$ACADVER
  1
AC1009
  9
$INSBASE
 10
0
 20
0
 30
0
  9
$EXTMIN
 10
0
 20
0
  9
$EXTMAX
 10
2970
 20
2100
  9
$LIMMIN
 10
0
 20
0
  9
$LIMMAX
 10
2970
 20
2100
  9
$LTSCALE
 40
10
  0
ENDSEC
  0
SECTION
  2
TABLES
  0
TABLE
  2
LTYPE
 70
     9
  0
LTYPE
  2
CONTINUOUS
 70
    64
  3
実線
 72
    65
 73
     0
 40
0.0
  0
LTYPE
  2
DASHED1
 70
    64
  3
--  --  --  --  --  --  --  --  
 72
    65
 73
     2
 40
2.5
 49
1.25
 49
-1.25
  0
LTYPE
  2
DASHED2
 70
    64
  3
----    ----    ----    ----    
 72
    65
 73
     2
 40
5.0
 49
2.5
 49
-2.5
  0
LTYPE
  2
DASHED3
 70
    64
  3
------  ------  ------  ------  
 72
    65
 73
     2
 40
5.0
 49
3.75
 49
-1.25
  0
LTYPE
  2
CENTER1
 70
    64
  3
----- - ----- - ----- - ----- - 
 72
    65
 73
     4
 40
10.0
 49
6.25
 49
-1.25
 49
1.25
 49
-1.25
  0
LTYPE
  2
CENTER2
 70
    64
  3
----------  --  ----------  --  
 72
    65
 73
     4
 40
20.0
 49
12.5
 49
-2.5
 49
2.5
 49
-2.5
  0
LTYPE
  2
PHANTOM1
 70
    64
  3
--- - - --- - - --- - - --- - - 
 72
    65
 73
     6
 40
10.0
 49
3.25
 49
-1.25
 49
1.25
 49
-1.25
 49
1.25
 49
-1.25
  0
LTYPE
  2
PHANTOM2
 70
    64
  3
--------  -  -  --------  -  -  
 72
    65
 73
     6
 40
20.0
 49
10.0
 49
-2.5
 49
1.25
 49
-2.5
 49
1.25
 49
-2.5
  0
LTYPE
  2
DOT
 70
    64
  3
-   -   -   -   -   -   -   -   
 72
    65
 73
     2
 40
2.5
 49
0.625
 49
-1.875
  0
LTYPE
  2
DUMMY
 70
    64
  3
ダミー
 72
    65
 73
     0
 40
0.0
  0
LTYPE
  2
RAND1
 70
    64
  3
ランダム線1
 72
    65
 73
     4
 40
10.0
 49
1.0
 49
-2.0
 49
3.0
 49
-4.0
  0
LTYPE
  2
RAND2
 70
    64
  3
ランダム線2
 72
    65
 73
     4
 40
14.0
 49
2.0
 49
-3.0
 49
4.0
 49
-5.0
  0
LTYPE
  2
RAND3
 70
    64
  3
ランダム線3
 72
    65
 73
     4
 40
18.0
 49
3.0
 49
-4.0
 49
5.0
 49
-6.0
  0
LTYPE
  2
RAND4
 70
    64
  3
ランダム線4
 72
    65
 73
     4
 40
22.0
 49
4.0
 49
-5.0
 49
6.0
 49
-7.0
  0
LTYPE
  2
RAND5
 70
    64
  3
ランダム線5
 72
    65
 73
     4
 40
26.0
 49
5.0
 49
-6.0
 49
7.0
 49
-8.0
  0
LTYPE
  2
LONG1
 70
    64
  3
----------  --  ----------  --  
 72
    65
 73
     4
 40
40.0
 49
32.5
 49
-2.5
 49
2.5
 49
-2.5
  0
LTYPE
  2
LONG2
 70
    64
  3
--------  -  -  --------  -  -  
 72
    65
 73
     6
 40
40.0
 49
30.0
 49
-2.5
 49
1.25
 49
-2.5
 49
1.25
 49
-2.5
  0
LTYPE
  2
LONG3
 70
    64
  3
+++++++++++++++..+++++++++++++++
 72
    65
 73
     2
 40
40.0
 49
37.5
 49
-2.5
  0
LTYPE
  2
LONG4
 70
    64
  3
+++++++++++++++..+++++++++++++++
 72
    65
 73
     2
 40
80.0
 49
75.0
 49
-5.0
  0
LTYPE
  2
LONG5
 70
    64
  3
----------  --  ----------  --  
 72
    65
 73
     4
 40
60.0
 49
37.5
 49
-7.5
 49
7.5
 49
-7.5
  0
LTYPE
  2
dashed
 70
   64
  3
-------   -------------   ------
 72
   65
 73
    2
 40
7.5
 49
6
 49
-1.5
  0
LTYPE
  2
dashed_spaced
 70
   64
  3
----        --------        ----
 72
   65
 73
    2
 40
12
 49
6
 49
-6
  0
LTYPE
  2
long_dashed_dotted
 70
   64
  3
------------- --- --------------
 72
   65
 73
    4
 40
15.25
 49
12
 49
-1.5
 49
0.25
 49
-1.5
  0
LTYPE
  2
long_dashed_double-dotted
 70
   64
  3
----------- --- --- ------------
 72
   65
 73
    6
 40
17
 49
12
 49
-1.5
 49
0.25
 49
-1.5
 49
0.25
 49
-1.5
  0
LTYPE
  2
long_dashed_triplicate-dotted
 70
   64
  3
--------- --- --- --- ----------
 72
   65
 73
    8
 40
18.75
 49
12
 49
-1.5
 49
0.25
 49
-1.5
 49
0.25
 49
-1.5
 49
0.25
 49
-1.5
  0
LTYPE
  2
dotted
 70
   64
  3
   -       -       -       -    
 72
   65
 73
    2
 40
1.75
 49
0.25
 49
-1.5
  0
LTYPE
  2
chain
 70
   64
  3
-------------- -- --------------
 72
   65
 73
    4
 40
18.5
 49
12
 49
-1.5
 49
3.5
 49
-1.5
  0
LTYPE
  2
chain_double_dash
 70
   64
  3
------------ -- -- -------------
 72
   65
 73
    6
 40
23.5
 49
12
 49
-1.5
 49
3.5
 49
-1.5
 49
3.5
 49
-1.5
  0
LTYPE
  2
dashed_dotted
 70
   64
  3
-----------     -     ----------
 72
   65
 73
    4
 40
9.25
 49
6
 49
-1.5
 49
0.25
 49
-1.5
  0
LTYPE
  2
double-dashed_dotted
 70
   64
  3
------   -----------   -   -----
 72
   65
 73
    6
 40
16.75
 49
6
 49
-1.5
 49
6
 49
-1.5
 49
0.25
 49
-1.5
  0
LTYPE
  2
dashed_double-dotted
 70
   64
  3
---------    -    -    ---------
 72
   65
 73
    6
 40
11
 49
6
 49
-1.5
 49
0.25
 49
-1.5
 49
0.25
 49
-1.5
  0
LTYPE
  2
double-dashed_double-dotted
 70
   64
  3
-----   ---------   -   -   ----
 72
   65
 73
    8
 40
18.5
 49
6
 49
-1.5
 49
6
 49
-1.5
 49
0.25
 49
-1.5
 49
0.25
 49
-1.5
  0
LTYPE
  2
dashed_triplicate-dotted
 70
   64
  3
-------    -    -    -    ------
 72
   65
 73
    8
 40
12.75
 49
6
 49
-1.5
 49
0.25
 49
-1.5
 49
0.25
 49
-1.5
 49
0.25
 49
-1.5
  0
LTYPE
  2
double-dashed_triplicate-dotted
 70
   64
  3
-----  ---------  -  -  -  -----
 72
   65
 73
   10
 40
20.25
 49
6
 49
-1.5
 49
6
 49
-1.5
 49
0.25
 49
-1.5
 49
0.25
 49
-1.5
 49
0.25
 49
-1.5
  0
LTYPE
  2
undefined
 70
   64
  3
--------------------------------
 72
   65
 73
    0
 40
0
  0
ENDTAB
  0
TABLE
  2
STYLE
  5
3
100
AcDbSymbolTable
 70
     1
  0
STYLE
  5
10
100
AcDbSymbolTableRecord
100
AcDbTextStyleTableRecord
  2
STANDARD
 70
     0
 40
0.0
 41
1.0
 50
0.0
 71
     0
 42
0.2
  3
txt
  4
bigfont.shx
  0
STYLE
  5
26
100
AcDbSymbolTableRecord
100
AcDbTextStyleTableRecord
  2
TATEGAKI
 70
    68
 40
0.0
 41
1.0
 50
0.0
 71
     0
 42
1.0
  3
txt
  4
bigfont.shx
  0
ENDTAB
  0
TABLE
  2
LAYER
 70
    7
  0
LAYER
  2
_0-0_LAYER001
 70
   64
 62
    7
  6
CONTINUOUS
  0
LAYER
  2
_0-1_LAYER002
 70
   64
 62
    7
  6
CONTINUOUS
  0
LAYER
  2
_0-2_LAYER003
 70
   64
 62
    7
  6
CONTINUOUS
  0
LAYER
  2
_0-3_LAYER005
 70
   64
 62
    7
  6
CONTINUOUS
  0
LAYER
  2
_0-4_LAYER009
 70
   64
 62
    7
  6
CONTINUOUS
  0
LAYER
  2
_0-5_LAYER014
 70
   64
 62
    7
  6
CONTINUOUS
  0
LAYER
  2
ADD_LINE
 70
   64
 62
    7
  6
CONTINUOUS
  0
ENDTAB
  0
ENDSEC
  0
SECTION
  2
BLOCKS
  0
ENDSEC
  0
SECTION
  2
ENTITIES
  0
LINE
  8
_0-0_LAYER001
  6
CONTINUOUS
 62
    2
 10
1331.5050999999999
 20
928.55120000000011
 11
1340.6253999999999
 21
924.44720000000007
  0
LINE
  8
_0-0_LAYER001
  6
CONTINUOUS
 62
    2
 10
1330.2751000000001
 20
925.8146999999999
 11
1339.3936000000003
 21
921.71199999999999
  0
LINE
  8
_0-0_LAYER001
  6
CONTINUOUS
 62
    2
 10
1340.6253999999999
 20
924.44720000000007
 11
1339.3936000000003
 21
921.71199999999999
  0
LINE
  8
_0-0_LAYER001
  6
CONTINUOUS
 62
    2
 10
1331.5050999999999
 20
928.55120000000011
 11
1330.2751000000001
 21
925.8146999999999
  0
LINE
  8
_0-0_LAYER001
  6
CONTINUOUS
 62
    2
 10
1319.6470999999999
 20
890.13159999999993
 11
1323.7692999999999
 21
894.41779999999994
  0
LINE
  8
_0-0_LAYER001
  6
CONTINUOUS
 62
    2
 10
1319.6470999999999
 20
890.13159999999993
 11
1320.1215999999999
 21
896.05860000000007
  0
LINE
  8
_0-0_LAYER001
  6
CONTINUOUS
 62
    2
 10
1331.1790999999998
 20
907.7512999999999
 11
1325.5513000000001
 21
911.44280000000003
  0
LINE
  8
_0-0_LAYER001
  6
CONTINUOUS
 62
    2
 10
1329.1271000000002
 20
903.19200000000001
 11
1323.4983
 21
906.88259999999991
  0
LINE
  8
_0-0_LAYER001
  6
CONTINUOUS
 62
    2
 10
1335.2788
 20
916.97869999999989
 11
1329.6511
 21
920.67129999999997
  0
LINE
  8
_0-0_LAYER001
  6
CONTINUOUS
 62
    2
 10
1333.2268999999999
 20
912.42049999999995
 11
1327.5992000000001
 21
916.11210000000005
  0
LINE
  8
_0-0_LAYER001
  6
CONTINUOUS
 62
    2
 10
1331.1750999999999
 20
907.86030000000005
 11
1325.5462
 21
911.55210000000011
  0
LINE
  8
_0-0_LAYER001
  6
CONTINUOUS
 62
    2
 10
1329.1221999999998
 20
903.30109999999991
 11
1323.4953999999998
 21
906.99170000000004
  0
LINE
  8
_0-0_LAYER001
  6
CONTINUOUS
 62
    2
 10
1327.0712000000001
 20
898.74090000000001
 11
1321.4435000000001
 21
902.43260000000009
  0
LINE
  8
_0-0_LAYER001
  6
CONTINUOUS
 62
    2
 10
1325.5353
 20
895.3288
 11
1319.9079000000002
 21
899.02050000000008
  0
LINE
  8
_0-0_LAYER001
  6
CONTINUOUS
 62
    2
 10
1331.7554999999998
 20
921.91339999999991
 11
1320.1215999999999
 21
896.05860000000007
  0
LINE
  8
_0-0_LAYER001
  6
CONTINUOUS
 62
    2
 10
1330.2751000000001
 20
925.8146999999999
 11
1331.7554999999998
 21
921.91339999999991
  0
LINE
  8
_0-0_LAYER001
  6
CONTINUOUS
 62
    2
 10
1335.3630000000001
 20
920.18260000000009
 11
1323.7692999999999
 21
894.41779999999994
  0
LINE
  8
_0-0_LAYER001
  6
CONTINUOUS
 62
    2
 10
1339.3936000000003
 20
921.71199999999999
 11
1335.3630000000001
 21
920.18260000000009
  0
LINE
  8
_0-0_LAYER001
  6
CONTINUOUS
 62
    2
 10
1438.4234000000001
 20
880.54459999999995
 11
1448.5637000000002
 21
858.01070000000004
  0
LINE
  8
_0-0_LAYER001
  6
CONTINUOUS
 62
    2
 10
1438.4234000000001
 20
880.54459999999995
 11
1428.0889999999999
 21
857.5791999999999
  0
LINE
  8
_0-0_LAYER001
  6
DASHED1
 62
    2
 10
1438.4234000000001
 20
882.18949999999995
 11
1165.4623999999999
 21
1005.0217
  0
LINE
  8
_0-0_LAYER001
  6
DASHED1
 62
    2
 10
1438.4234000000001
 20
882.18949999999995
 11
1711.3843999999999
 21
1005.0217
  0
CIRCLE
  8
_0-0_LAYER001
  6
CONTINUOUS
 62
    2
 10
1331.3299000000002
 20
642.55850000000009
 40
1.6999999999999997
  0
LINE
  8
_0-0_LAYER001
  6
CONTINUOUS
 62
    2
 10
1331.3299000000002
 20
642.55850000000009
 11
1057.7533000000001
 21
765.66769999999997
  0
CIRCLE
  8
_0-0_LAYER001
  6
CONTINUOUS
 62
    2
 10
1057.7533000000001
 20
765.66769999999997
 40
1.6999999999999997
  0
LINE
  8
_0-0_LAYER001
  6
CONTINUOUS
 62
    2
 10
1330.3040000000001
 20
640.27870000000007
 11
1351.8480999999999
 21
688.15460000000007
  0
LINE
  8
_0-0_LAYER001
  6
CONTINUOUS
 62
    2
 10
1056.7274
 20
763.38789999999995
 11
1078.2715000000001
 21
811.26379999999995
  0
LINE
  8
_0-0_LAYER001
  6
DASHED1
 62
    2
 10
1165.4623999999999
 20
1005.0217
 11
1074.0966000000001
 21
801.98610000000008
  0
LINE
  8
_0-0_LAYER001
  6
DASHED3
 62
    2
 10
1438.4234000000001
 20
883.83429999999998
 11
692.21450000000004
 21
1219.6277
  0
LINE
  8
_0-0_LAYER001
  6
CONTINUOUS
 62
    2
 10
1438.4234000000001
 20
880.54459999999995
 11
690.98340000000007
 21
1216.8919000000001
  0
LINE
  8
_0-4_LAYER009
  6
CONTINUOUS
 62
    2
 10
1417.9051999999999
 20
862.36310000000003
 11
680.72430000000008
 21
1194.0939000000001
  0
LINE
  8
_0-2_LAYER003
  6
CONTINUOUS
 62
    2
 10
1438.4234000000001
 20
729.98340000000007
 11
634.6404
 21
1091.6849999999999
  0
LINE
  8
_0-1_LAYER002
  6
CONTINUOUS
 62
    2
 10
1272.1661999999999
 20
837.69679999999994
 11
1270.0690999999999
 21
838.6404
  0
LINE
  8
_0-1_LAYER002
  6
CONTINUOUS
 62
    2
 10
1296.7899
 20
892.41139999999996
 11
1294.6921
 21
893.35500000000002
  0
LINE
  8
_0-1_LAYER002
  6
CONTINUOUS
 62
    2
 10
1302.9454000000001
 20
906.09099999999989
 11
1296.7899
 21
892.41139999999996
  0
LINE
  8
_0-1_LAYER002
  6
CONTINUOUS
 62
    2
 10
1342.9919
 20
891.0308
 11
1306.5161000000001
 21
907.44479999999999
  0
LINE
  8
_0-1_LAYER002
  6
CONTINUOUS
 62
    2
 10
1307.4586999999999
 20
909.54179999999997
 11
1343.9363000000001
 21
893.1268
  0
LINE
  8
_0-1_LAYER002
  6
CONTINUOUS
 62
    2
 10
1300.8476999999998
 20
907.03449999999998
 11
1294.6921
 21
893.35500000000002
  0
LINE
  8
_0-1_LAYER002
  6
CONTINUOUS
 62
    2
 10
1309.5105000000001
 20
804.44180000000006
 11
1346.4437
 21
886.51559999999995
  0
LINE
  8
_0-1_LAYER002
  6
CONTINUOUS
 62
    2
 10
1266.4208000000001
 20
818.34969999999998
 11
1302.8996000000002
 21
801.93429999999989
  0
LINE
  8
_0-1_LAYER002
  6
CONTINUOUS
 62
    2
 10
1263.9133999999999
 20
824.96080000000006
 11
1270.0690999999999
 21
838.6404
  0
LINE
  8
_0-1_LAYER002
  6
CONTINUOUS
 62
    2
 10
1266.0102999999999
 20
824.0172
 11
1272.1661999999999
 21
837.69679999999994
  0
LINE
  8
_0-1_LAYER002
  6
CONTINUOUS
 62
    2
 10
1303.8420000000001
 20
804.03140000000008
 11
1267.3643999999999
 21
820.44669999999996
  0
LINE
  8
_0-1_LAYER002
  6
CONTINUOUS
 62
    2
 10
1307.4124999999999
 20
805.38550000000009
 11
1344.3457000000001
 21
887.46029999999996
  0
LINE
  8
_0-0_LAYER001
  6
CONTINUOUS
 62
    2
 10
1303.3543
 20
790.76479999999992
 11
1340.2882999999999
 21
872.83760000000007
  0
LINE
  8
_0-0_LAYER001
  6
CONTINUOUS
 62
    2
 10
1344.6196
 20
865.4054000000001
 11
1316.7139999999999
 21
803.39529999999991
  0
LINE
  8
_0-0_LAYER001
  6
CONTINUOUS
 62
    2
 10
1342.1122
 20
872.01749999999993
 11
1340.2882999999999
 21
872.83760000000007
  0
LINE
  8
_0-0_LAYER001
  6
CONTINUOUS
 62
    2
 10
1383.7408
 20
762.2666999999999
 11
1321.7297000000003
 21
790.17229999999995
  0
LINE
  8
_0-0_LAYER001
  6
CONTINUOUS
 62
    2
 10
1325.8800000000001
 20
846.4239
 11
1323.1437000000001
 21
847.65480000000002
  0
LINE
  8
_0-0_LAYER001
  6
CONTINUOUS
 62
    2
 10
1332.4458
 20
861.0141000000001
 11
1329.7095999999999
 21
862.24499999999989
  0
LINE
  8
_0-0_LAYER001
  6
CONTINUOUS
 62
    2
 10
1316.5781999999999
 20
833.06580000000008
 11
1329.7095999999999
 21
862.24499999999989
  0
LINE
  8
_0-0_LAYER001
  6
CONTINUOUS
 62
    2
 10
1319.3145
 20
831.83380000000011
 11
1316.5781999999999
 21
833.06580000000008
  0
LINE
  8
_0-0_LAYER001
  6
CONTINUOUS
 62
    2
 10
1317.3070000000002
 20
859.05340000000001
 11
1306.6379000000002
 21
863.85529999999994
  0
LINE
  8
_0-0_LAYER001
  6
CONTINUOUS
 62
    2
 10
1310.7417
 20
844.46419999999989
 11
1300.0722999999998
 21
849.26510000000007
  0
LINE
  8
_0-0_LAYER001
  6
CONTINUOUS
 62
    2
 10
1312.1596
 20
845.0027
 11
1320.3009
 21
841.33960000000002
  0
LINE
  8
_0-0_LAYER001
  6
CONTINUOUS
 62
    2
 10
1317.8456000000001
 20
857.63719999999989
 11
1325.9859000000001
 21
853.97340000000008
  0
LINE
  8
_0-0_LAYER001
  6
CONTINUOUS
 62
    2
 10
1320.6876999999999
 20
863.9556
 11
1328.8299999999999
 21
860.29150000000004
  0
LINE
  8
_0-0_LAYER001
  6
CONTINUOUS
 62
    2
 10
1318.9503
 20
862.70389999999998
 11
1320.6876999999999
 21
863.9556
  0
LINE
  8
_0-0_LAYER001
  6
CONTINUOUS
 62
    2
 10
1309.1007
 20
840.81750000000011
 11
1318.9503
 21
862.70389999999998
  0
LINE
  8
_0-0_LAYER001
  6
CONTINUOUS
 62
    2
 10
1309.3164999999999
 20
838.68419999999992
 11
1317.4576999999999
 21
835.02040000000011
  0
LINE
  8
_0-0_LAYER001
  6
CONTINUOUS
 62
    2
 10
1309.1007
 20
840.81750000000011
 11
1309.3164999999999
 21
838.68419999999992
  0
LINE
  8
_0-0_LAYER001
  6
CONTINUOUS
 62
    2
 10
1299.0684000000001
 20
851.91010000000006
 11
1300.0722999999998
 21
849.26510000000007
  0
LINE
  8
_0-0_LAYER001
  6
CONTINUOUS
 62
    2
 10
1303.9930999999999
 20
862.85220000000004
 11
1299.0684000000001
 21
851.91010000000006
  0
LINE
  8
_0-0_LAYER001
  6
CONTINUOUS
 62
    2
 10
1306.6379000000002
 20
863.85529999999994
 11
1303.9930999999999
 21
862.85220000000004
  0
LINE
  8
_0-0_LAYER001
  6
CONTINUOUS
 62
    2
 10
1306.6379000000002
 20
863.85529999999994
 11
1300.0722999999998
 21
849.26510000000007
  0
LINE
  8
_0-0_LAYER001
  6
CONTINUOUS
 62
    2
 10
1306.6379000000002
 20
863.85529999999994
 11
1302.6456000000003
 21
848.10719999999992
  0
LINE
  8
_0-0_LAYER001
  6
CONTINUOUS
 62
    2
 10
1312.1940999999997
 20
861.35480000000007
 11
1308.2007000000001
 21
845.60670000000005
  0
LINE
  8
_0-0_LAYER001
  6
CONTINUOUS
 62
    2
 10
1345.3451999999997
 20
845.26070000000004
 11
1337.2039999999997
 21
848.92380000000003
  0
LINE
  8
_0-0_LAYER001
  6
CONTINUOUS
 62
    2
 10
1339.6594
 20
832.62609999999995
 11
1331.518
 21
836.29019999999991
  0
LINE
  8
_0-0_LAYER001
  6
CONTINUOUS
 62
    2
 10
1336.8171000000002
 20
826.30790000000002
 11
1328.6750000000002
 21
829.97180000000003
  0
LINE
  8
_0-0_LAYER001
  6
CONTINUOUS
 62
    2
 10
1338.5546999999999
 20
827.5594000000001
 11
1336.8171000000002
 21
826.30790000000002
  0
LINE
  8
_0-0_LAYER001
  6
CONTINUOUS
 62
    2
 10
1348.4041
 20
849.44599999999991
 11
1338.5546999999999
 21
827.5594000000001
  0
LINE
  8
_0-0_LAYER001
  6
CONTINUOUS
 62
    2
 10
1348.1885
 20
851.57889999999998
 11
1340.0472
 21
855.24299999999994
  0
LINE
  8
_0-0_LAYER001
  6
CONTINUOUS
 62
    2
 10
1348.4041
 20
849.44599999999991
 11
1348.1885
 21
851.57889999999998
  0
LINE
  8
_0-0_LAYER001
  6
CONTINUOUS
 62
    2
 10
1386.2481
 20
755.65550000000007
 11
1385.4272000000001
 21
753.83169999999996
  0
LINE
  8
_0-0_LAYER001
  6
CONTINUOUS
 62
    2
 10
1385.4272000000001
 20
753.83169999999996
 11
1303.3542
 21
790.76440000000002
  0
LINE
  8
_0-5_LAYER014
  6
CONTINUOUS
 62
    2
 10
1417.9051999999999
 20
862.36310000000003
 11
1438.4234000000001
 21
853.13000000000011
  0
LINE
  8
_0-5_LAYER014
  6
CONTINUOUS
 62
    2
 10
1304.7962000000002
 20
910.73990000000003
 11
1305.7400000000002
 21
912.83739999999989
  0
LINE
  8
_0-3_LAYER005
  6
CONTINUOUS
 62
    2
 10
1438.4234000000001
 20
850.6078
 11
1304.7962000000002
 21
910.73990000000003
  0
ARC
  8
_0-1_LAYER002
  6
CONTINUOUS
 62
    2
 10
1305.4078
 20
904.98260000000005
 40
2.7000000000000002
 50
65.767512999999994
 51
155.75962000000001
  0
ARC
  8
_0-1_LAYER002
  6
CONTINUOUS
 62
    2
 10
1341.8834999999999
 20
888.56860000000006
 40
2.7000000000000002
 50
335.78719000000001
 51
65.767513000000022
  0
ARC
  8
_0-1_LAYER002
  6
CONTINUOUS
 62
    2
 10
1341.8856000000001
 20
888.56750000000011
 40
4.9989999999999997
 50
335.76925
 51
65.779904000000073
  0
ARC
  8
_0-1_LAYER002
  6
CONTINUOUS
 62
    2
 10
1305.4068000000002
 20
904.98379999999997
 40
4.9989999999999997
 50
65.758633000000003
 51
155.77564000000004
  0
ARC
  8
_0-1_LAYER002
  6
CONTINUOUS
 62
    2
 10
1304.9514999999999
 20
806.49260000000004
 40
4.9989999999999997
 50
245.76499000000001
 51
335.79052999999999
  0
ARC
  8
_0-1_LAYER002
  6
CONTINUOUS
 62
    2
 10
1268.4718
 20
822.9088999999999
 40
4.9989999999999997
 50
155.75434999999999
 51
245.78627999999998
  0
ARC
  8
_0-1_LAYER002
  6
CONTINUOUS
 62
    2
 10
1268.4729
 20
822.9088999999999
 40
2.7000000000000002
 50
155.75962000000001
 51
245.77932000000004
  0
ARC
  8
_0-1_LAYER002
  6
CONTINUOUS
 62
    2
 10
1304.9505999999999
 20
806.49360000000001
 40
2.7000000000000002
 50
245.77932000000004
 51
335.78719000000007
  0
ARC
  8
_0-0_LAYER001
  6
CONTINUOUS
 62
    2
 10
1325.8353999999999
 20
799.29250000000002
 40
10.001999
 50
155.77610000000004
 51
245.76333000000002
  0
ARC
  8
_0-0_LAYER001
  6
CONTINUOUS
 62
    2
 10
1340.0614
 20
867.45740000000001
 40
4.9989999999999997
 50
335.76925
 51
65.779904000000073
  0
ARC
  8
_0-0_LAYER001
  6
CONTINUOUS
 62
    2
 10
1381.6901000000003
 20
757.70730000000003
 40
4.9989999999999997
 50
335.76925
 51
65.779904000000073
  0
ARC
  8
_0-0_LAYER001
  6
CONTINUOUS
 62
    2
 10
1323.8989999999999
 20
858.72070000000008
 40
6.1470010000000013
 50
156.13025000000002
 51
190.13753
  0
ARC
  8
_0-0_LAYER001
  6
CONTINUOUS
 62
    2
 10
1315.3729000000001
 20
839.7478000000001
 40
6.1580000000000004
 50
121.44441999999999
 51
155.39906999999999
  0
ARC
  8
_0-0_LAYER001
  6
CONTINUOUS
 62
    2
 10
1334.9070999999999
 20
842.36400000000003
 40
22.898997999999999
 50
138.16799
 51
173.3835
  0
ARC
  8
_0-0_LAYER001
  6
CONTINUOUS
 62
    2
 10
1333.605
 20
831.54549999999995
 40
6.1479999999999997
 50
336.10723999999999
 51
10.121989999999981
  0
ARC
  8
_0-0_LAYER001
  6
CONTINUOUS
 62
    2
 10
1342.1386000000002
 20
850.50710000000004
 40
6.1479999999999997
 50
301.44396999999992
 51
335.44623000000001
  0
ARC
  8
_0-0_LAYER001
  6
CONTINUOUS
 62
    2
 10
1322.5623000000001
 20
847.91679999999997
 40
22.936000999999997
 50
318.19590000000005
 51
353.3526700000001
  0
LINE
  8
_0-0_LAYER001
  6
DASHED3
 62
    2
 10
1438.4234000000001
 20
883.83429999999998
 11
2199.9106000000002
 21
1226.5029
  0
LINE
  8
_0-0_LAYER001
  6
CONTINUOUS
 62
    2
 10
1438.4234000000001
 20
880.54459999999995
 11
2201.1417000000001
 21
1223.7672
  0
LINE
  8
_0-4_LAYER009
  6
CONTINUOUS
 62
    2
 10
1458.9416999999999
 20
862.36310000000003
 11
2211.4007999999999
 21
1200.9691
  0
LINE
  8
_0-2_LAYER003
  6
CONTINUOUS
 62
    2
 10
1438.4234000000001
 20
729.98340000000007
 11
2257.4847
 21
1098.5601999999999
  0
LINE
  8
_0-1_LAYER002
  6
CONTINUOUS
 62
    2
 10
1604.6806999999999
 20
837.69679999999994
 11
1606.7777999999998
 21
838.6404
  0
LINE
  8
_0-1_LAYER002
  6
CONTINUOUS
 62
    2
 10
1580.0569
 20
892.41139999999996
 11
1582.1547
 21
893.35500000000002
  0
LINE
  8
_0-1_LAYER002
  6
CONTINUOUS
 62
    2
 10
1573.9014999999999
 20
906.09099999999989
 11
1580.0569
 21
892.41139999999996
  0
LINE
  8
_0-1_LAYER002
  6
CONTINUOUS
 62
    2
 10
1533.855
 20
891.0308
 11
1570.3307
 21
907.44479999999999
  0
LINE
  8
_0-1_LAYER002
  6
CONTINUOUS
 62
    2
 10
1569.3881999999999
 20
909.54179999999997
 11
1532.9105
 21
893.1268
  0
LINE
  8
_0-1_LAYER002
  6
CONTINUOUS
 62
    2
 10
1575.9992000000002
 20
907.03449999999998
 11
1582.1547
 21
893.35500000000002
  0
LINE
  8
_0-1_LAYER002
  6
CONTINUOUS
 62
    2
 10
1567.3362999999999
 20
804.44180000000006
 11
1530.4031
 21
886.51559999999995
  0
LINE
  8
_0-1_LAYER002
  6
CONTINUOUS
 62
    2
 10
1610.4259999999999
 20
818.34969999999998
 11
1573.9472999999998
 21
801.93429999999989
  0
LINE
  8
_0-1_LAYER002
  6
CONTINUOUS
 62
    2
 10
1612.9333999999999
 20
824.96080000000006
 11
1606.7777999999998
 21
838.6404
  0
LINE
  8
_0-1_LAYER002
  6
CONTINUOUS
 62
    2
 10
1610.8366000000001
 20
824.0172
 11
1604.6806999999999
 21
837.69679999999994
  0
LINE
  8
_0-1_LAYER002
  6
CONTINUOUS
 62
    2
 10
1573.0048999999999
 20
804.03140000000008
 11
1609.4823999999999
 21
820.44669999999996
  0
LINE
  8
_0-1_LAYER002
  6
CONTINUOUS
 62
    2
 10
1569.4342999999999
 20
805.38550000000009
 11
1532.5011
 21
887.46029999999996
  0
LINE
  8
_0-0_LAYER001
  6
CONTINUOUS
 62
    2
 10
1573.4924999999998
 20
790.76479999999992
 11
1536.5585999999998
 21
872.83760000000007
  0
LINE
  8
_0-0_LAYER001
  6
CONTINUOUS
 62
    2
 10
1532.2271999999998
 20
865.4054000000001
 11
1560.1327999999999
 21
803.39529999999991
  0
LINE
  8
_0-0_LAYER001
  6
CONTINUOUS
 62
    2
 10
1534.7345999999998
 20
872.01749999999993
 11
1536.5585999999998
 21
872.83760000000007
  0
LINE
  8
_0-0_LAYER001
  6
CONTINUOUS
 62
    2
 10
1493.1060000000002
 20
762.2666999999999
 11
1555.1170999999999
 21
790.17229999999995
  0
LINE
  8
_0-0_LAYER001
  6
CONTINUOUS
 62
    2
 10
1550.9668000000001
 20
846.4239
 11
1553.7031999999999
 21
847.65480000000002
  0
LINE
  8
_0-0_LAYER001
  6
CONTINUOUS
 62
    2
 10
1544.4009999999998
 20
861.0141000000001
 11
1547.1372000000001
 21
862.24499999999989
  0
LINE
  8
_0-0_LAYER001
  6
CONTINUOUS
 62
    2
 10
1560.2685999999999
 20
833.06580000000008
 11
1547.1372000000001
 21
862.24499999999989
  0
LINE
  8
_0-0_LAYER001
  6
CONTINUOUS
 62
    2
 10
1557.5322999999999
 20
831.83380000000011
 11
1560.2685999999999
 21
833.06580000000008
  0
LINE
  8
_0-0_LAYER001
  6
CONTINUOUS
 62
    2
 10
1559.5398
 20
859.05340000000001
 11
1570.2089000000001
 21
863.85529999999994
  0
LINE
  8
_0-0_LAYER001
  6
CONTINUOUS
 62
    2
 10
1566.1052
 20
844.46419999999989
 11
1576.7745
 21
849.26510000000007
  0
LINE
  8
_0-0_LAYER001
  6
CONTINUOUS
 62
    2
 10
1564.6871999999998
 20
845.0027
 11
1556.5459000000001
 21
841.33960000000002
  0
LINE
  8
_0-0_LAYER001
  6
CONTINUOUS
 62
    2
 10
1559.0012999999999
 20
857.63719999999989
 11
1550.8609999999999
 21
853.97340000000008
  0
LINE
  8
_0-0_LAYER001
  6
CONTINUOUS
 62
    2
 10
1556.1592000000001
 20
863.9556
 11
1548.0169000000001
 21
860.29150000000004
  0
LINE
  8
_0-0_LAYER001
  6
CONTINUOUS
 62
    2
 10
1557.8964999999998
 20
862.70389999999998
 11
1556.1592000000001
 21
863.9556
  0
LINE
  8
_0-0_LAYER001
  6
CONTINUOUS
 62
    2
 10
1567.7462
 20
840.81750000000011
 11
1557.8964999999998
 21
862.70389999999998
  0
LINE
  8
_0-0_LAYER001
  6
CONTINUOUS
 62
    2
 10
1567.5302999999999
 20
838.68419999999992
 11
1559.3890999999999
 21
835.02040000000011
  0
LINE
  8
_0-0_LAYER001
  6
CONTINUOUS
 62
    2
 10
1567.7462
 20
840.81750000000011
 11
1567.5302999999999
 21
838.68419999999992
  0
LINE
  8
_0-0_LAYER001
  6
CONTINUOUS
 62
    2
 10
1577.7784999999999
 20
851.91010000000006
 11
1576.7745
 21
849.26510000000007
  0
LINE
  8
_0-0_LAYER001
  6
CONTINUOUS
 62
    2
 10
1572.8537000000001
 20
862.85220000000004
 11
1577.7784999999999
 21
851.91010000000006
  0
LINE
  8
_0-0_LAYER001
  6
CONTINUOUS
 62
    2
 10
1570.2089000000001
 20
863.85529999999994
 11
1572.8537000000001
 21
862.85220000000004
  0
LINE
  8
_0-0_LAYER001
  6
CONTINUOUS
 62
    2
 10
1570.2089000000001
 20
863.85529999999994
 11
1576.7745
 21
849.26510000000007
  0
LINE
  8
_0-0_LAYER001
  6
CONTINUOUS
 62
    2
 10
1570.2089000000001
 20
863.85529999999994
 11
1574.2012
 21
848.10719999999992
  0
LINE
  8
_0-0_LAYER001
  6
CONTINUOUS
 62
    2
 10
1564.6527999999998
 20
861.35480000000007
 11
1568.6462000000001
 21
845.60670000000005
  0
LINE
  8
_0-0_LAYER001
  6
CONTINUOUS
 62
    2
 10
1531.5016999999998
 20
845.26070000000004
 11
1539.6428000000001
 21
848.92380000000003
  0
LINE
  8
_0-0_LAYER001
  6
CONTINUOUS
 62
    2
 10
1537.1875
 20
832.62609999999995
 11
1545.3287999999998
 21
836.29019999999991
  0
LINE
  8
_0-0_LAYER001
  6
CONTINUOUS
 62
    2
 10
1540.0297999999998
 20
826.30790000000002
 11
1548.1718999999998
 21
829.97180000000003
  0
LINE
  8
_0-0_LAYER001
  6
CONTINUOUS
 62
    2
 10
1538.2921000000001
 20
827.5594000000001
 11
1540.0297999999998
 21
826.30790000000002
  0
LINE
  8
_0-0_LAYER001
  6
CONTINUOUS
 62
    2
 10
1528.4427000000001
 20
849.44599999999991
 11
1538.2921000000001
 21
827.5594000000001
  0
LINE
  8
_0-0_LAYER001
  6
CONTINUOUS
 62
    2
 10
1528.6583999999998
 20
851.57889999999998
 11
1536.7995999999998
 21
855.24299999999994
  0
LINE
  8
_0-0_LAYER001
  6
CONTINUOUS
 62
    2
 10
1528.4427000000001
 20
849.44599999999991
 11
1528.6583999999998
 21
851.57889999999998
  0
LINE
  8
_0-0_LAYER001
  6
CONTINUOUS
 62
    2
 10
1490.5988000000002
 20
755.65550000000007
 11
1491.4196000000002
 21
753.83169999999996
  0
LINE
  8
_0-0_LAYER001
  6
CONTINUOUS
 62
    2
 10
1491.4196000000002
 20
753.83169999999996
 11
1573.4926999999998
 21
790.76440000000002
  0
LINE
  8
_0-0_LAYER001
  6
CONTINUOUS
 62
    2
 10
1545.3418000000001
 20
928.55120000000011
 11
1536.2215000000001
 21
924.44720000000007
  0
LINE
  8
_0-0_LAYER001
  6
CONTINUOUS
 62
    2
 10
1546.5717
 20
925.8146999999999
 11
1537.4533000000001
 21
921.71199999999999
  0
LINE
  8
_0-0_LAYER001
  6
CONTINUOUS
 62
    2
 10
1536.2215000000001
 20
924.44720000000007
 11
1537.4533000000001
 21
921.71199999999999
  0
LINE
  8
_0-0_LAYER001
  6
CONTINUOUS
 62
    2
 10
1545.3418000000001
 20
928.55120000000011
 11
1546.5717
 21
925.8146999999999
  0
LINE
  8
_0-0_LAYER001
  6
CONTINUOUS
 62
    2
 10
1557.1997999999999
 20
890.13159999999993
 11
1553.0774999999999
 21
894.41779999999994
  0
LINE
  8
_0-0_LAYER001
  6
CONTINUOUS
 62
    2
 10
1557.1997999999999
 20
890.13159999999993
 11
1556.7253000000001
 21
896.05860000000007
  0
LINE
  8
_0-0_LAYER001
  6
CONTINUOUS
 62
    2
 10
1545.6677
 20
907.7512999999999
 11
1551.2955999999999
 21
911.44280000000003
  0
LINE
  8
_0-0_LAYER001
  6
CONTINUOUS
 62
    2
 10
1547.7197000000001
 20
903.19200000000001
 11
1553.3485999999998
 21
906.88259999999991
  0
LINE
  8
_0-0_LAYER001
  6
CONTINUOUS
 62
    2
 10
1541.5680000000002
 20
916.97869999999989
 11
1547.1957000000002
 21
920.67129999999997
  0
LINE
  8
_0-0_LAYER001
  6
CONTINUOUS
 62
    2
 10
1543.6199999999999
 20
912.42049999999995
 11
1549.2476000000001
 21
916.11210000000005
  0
LINE
  8
_0-0_LAYER001
  6
CONTINUOUS
 62
    2
 10
1545.6718000000001
 20
907.86030000000005
 11
1551.3006
 21
911.55210000000011
  0
LINE
  8
_0-0_LAYER001
  6
CONTINUOUS
 62
    2
 10
1547.7246
 20
903.30109999999991
 11
1553.3515000000002
 21
906.99170000000004
  0
LINE
  8
_0-0_LAYER001
  6
CONTINUOUS
 62
    2
 10
1549.7755999999999
 20
898.74090000000001
 11
1555.4034000000001
 21
902.43260000000009
  0
LINE
  8
_0-0_LAYER001
  6
CONTINUOUS
 62
    2
 10
1551.3116
 20
895.3288
 11
1556.9389999999999
 21
899.02050000000008
  0
LINE
  8
_0-0_LAYER001
  6
CONTINUOUS
 62
    2
 10
1545.0913
 20
921.91339999999991
 11
1556.7253000000001
 21
896.05860000000007
  0
LINE
  8
_0-0_LAYER001
  6
CONTINUOUS
 62
    2
 10
1546.5717
 20
925.8146999999999
 11
1545.0913
 21
921.91339999999991
  0
LINE
  8
_0-0_LAYER001
  6
CONTINUOUS
 62
    2
 10
1541.4838
 20
920.18260000000009
 11
1553.0774999999999
 21
894.41779999999994
  0
LINE
  8
_0-0_LAYER001
  6
CONTINUOUS
 62
    2
 10
1537.4533000000001
 20
921.71199999999999
 11
1541.4838
 21
920.18260000000009
  0
LINE
  8
_0-5_LAYER014
  6
CONTINUOUS
 62
    2
 10
1458.9416999999999
 20
862.36310000000003
 11
1438.4234000000001
 21
853.13000000000011
  0
LINE
  8
_0-5_LAYER014
  6
CONTINUOUS
 62
    2
 10
1572.0506999999998
 20
910.73990000000003
 11
1571.1068
 21
912.83739999999989
  0
LINE
  8
_0-3_LAYER005
  6
CONTINUOUS
 62
    2
 10
1438.4234000000001
 20
850.6078
 11
1572.0506999999998
 21
910.73990000000003
  0
ARC
  8
_0-1_LAYER002
  6
CONTINUOUS
 62
    2
 10
1571.4389999999999
 20
904.98260000000005
 40
2.7000000000000002
 50
24.240378
 51
114.23248
  0
ARC
  8
_0-1_LAYER002
  6
CONTINUOUS
 62
    2
 10
1534.9632999999999
 20
888.56860000000006
 40
2.7000000000000002
 50
114.23248000000001
 51
204.21279999999999
  0
ARC
  8
_0-1_LAYER002
  6
CONTINUOUS
 62
    2
 10
1534.9612999999999
 20
888.56750000000011
 40
4.9989999999999997
 50
114.22009000000001
 51
204.23074000000003
  0
ARC
  8
_0-1_LAYER002
  6
CONTINUOUS
 62
    2
 10
1571.4400000000001
 20
904.98379999999997
 40
4.9989999999999997
 50
24.224357999999999
 51
114.24136
  0
ARC
  8
_0-1_LAYER002
  6
CONTINUOUS
 62
    2
 10
1571.8953999999999
 20
806.49260000000004
 40
4.9989999999999997
 50
204.20946000000004
 51
294.23500000000001
  0
ARC
  8
_0-1_LAYER002
  6
CONTINUOUS
 62
    2
 10
1608.375
 20
822.9088999999999
 40
4.9989999999999997
 50
294.21370999999999
 51
24.24564800000001
  0
ARC
  8
_0-1_LAYER002
  6
CONTINUOUS
 62
    2
 10
1608.3739
 20
822.9088999999999
 40
2.7000000000000002
 50
294.22066999999998
 51
24.240378000000025
  0
ARC
  8
_0-1_LAYER002
  6
CONTINUOUS
 62
    2
 10
1571.8962000000001
 20
806.49360000000001
 40
2.7000000000000002
 50
204.21279999999999
 51
294.22066999999998
  0
ARC
  8
_0-0_LAYER001
  6
CONTINUOUS
 62
    2
 10
1551.0113999999999
 20
799.29250000000002
 40
10.001999
 50
294.23665999999992
 51
24.223897999999988
  0
ARC
  8
_0-0_LAYER001
  6
CONTINUOUS
 62
    2
 10
1536.7854000000002
 20
867.45740000000001
 40
4.9989999999999997
 50
114.22009000000001
 51
204.23074000000003
  0
ARC
  8
_0-0_LAYER001
  6
CONTINUOUS
 62
    2
 10
1495.1568000000002
 20
757.70730000000003
 40
4.9989999999999997
 50
114.22009000000001
 51
204.23074000000003
  0
ARC
  8
_0-0_LAYER001
  6
CONTINUOUS
 62
    2
 10
1552.9477999999999
 20
858.72070000000008
 40
6.1470010000000013
 50
349.86246
 51
23.869747999999994
  0
ARC
  8
_0-0_LAYER001
  6
CONTINUOUS
 62
    2
 10
1561.4739
 20
839.7478000000001
 40
6.1580000000000004
 50
24.600928000000003
 51
58.555578000000004
  0
ARC
  8
_0-0_LAYER001
  6
CONTINUOUS
 62
    2
 10
1541.9396999999999
 20
842.36400000000003
 40
22.898997999999999
 50
6.6164980000000009
 51
41.832008000000016
  0
ARC
  8
_0-0_LAYER001
  6
CONTINUOUS
 62
    2
 10
1543.2417999999998
 20
831.54549999999995
 40
6.1479999999999997
 50
169.87801000000005
 51
203.89275000000004
  0
ARC
  8
_0-0_LAYER001
  6
CONTINUOUS
 62
    2
 10
1534.7082
 20
850.50710000000004
 40
6.1479999999999997
 50
204.55376000000007
 51
238.55601999999999
  0
ARC
  8
_0-0_LAYER001
  6
CONTINUOUS
 62
    2
 10
1554.2846
 20
847.91679999999997
 40
22.936000999999997
 50
186.64732000000006
 51
221.80409000000006
  0
CIRCLE
  8
_0-0_LAYER001
  6
CONTINUOUS
 62
    2
 10
1545.5169999999998
 20
642.55850000000009
 40
1.6999999999999997
  0
LINE
  8
_0-0_LAYER001
  6
CONTINUOUS
 62
    2
 10
1545.5169999999998
 20
642.55850000000009
 11
1819.0934999999999
 21
765.66769999999997
  0
CIRCLE
  8
_0-0_LAYER001
  6
CONTINUOUS
 62
    2
 10
1819.0934999999999
 20
765.66769999999997
 40
1.6999999999999997
  0
LINE
  8
_0-0_LAYER001
  6
CONTINUOUS
 62
    2
 10
1546.5428999999999
 20
640.27870000000007
 11
1524.9987999999998
 21
688.15460000000007
  0
LINE
  8
_0-0_LAYER001
  6
CONTINUOUS
 62
    2
 10
1820.1194
 20
763.38789999999995
 11
1798.5753
 21
811.26379999999995
  0
LINE
  8
_0-0_LAYER001
  6
DASHED1
 62
    2
 10
1710.7689
 20
1006.3896
 11
1798.5753
 21
811.26379999999995
  0
ARC
  8
_0-0_LAYER001
  6
CONTINUOUS
 62
    2
 10
1438.4234000000001
 20
788.11490000000003
 40
100
 50
250.86772999999999
 51
289.41842000000003
  0
LINE
  8
_0-0_LAYER001
  6
CONTINUOUS
 62
    2
 10
1089.1717000000001
 20
835.48630000000003
 11
1106.5344
 21
833.40429999999992
  0
LINE
  8
_0-0_LAYER001
  6
CONTINUOUS
 62
    2
 10
1089.1787999999999
 20
835.5021999999999
 11
1102.252
 21
823.88799999999992
  0
LINE
  8
_0-0_LAYER001
  6
CONTINUOUS
 62
    2
 10
1089.5746999999999
 20
835.4380000000001
 11
1340.1723999999999
 21
722.66920000000005
  0
LINE
  8
_0-0_LAYER001
  6
CONTINUOUS
 62
    2
 10
1787.6752000000001
 20
835.48630000000003
 11
1770.3123999999998
 21
833.40429999999992
  0
LINE
  8
_0-0_LAYER001
  6
CONTINUOUS
 62
    2
 10
1787.6680000000001
 20
835.5021999999999
 11
1774.5947999999999
 21
823.88799999999992
  0
LINE
  8
_0-0_LAYER001
  6
CONTINUOUS
 62
    2
 10
1787.2721000000001
 20
835.4380000000001
 11
1534.3128999999999
 21
721.6065000000001
  0
LINE
  8
_0-0_LAYER001
  6
CONTINUOUS
 62
    1
 10
1429.1902
 20
860.02629999999999
 11
681.75029999999992
 21
1196.3737000000001
  0
LINE
  8
_0-0_LAYER001
  6
CONTINUOUS
 62
    1
 10
1430.2161000000001
 20
862.30619999999999
 11
682.77620000000002
 21
1198.6534999999999
  0
LINE
  8
_0-0_LAYER001
  6
CONTINUOUS
 62
    1
 10
1431.2420999999999
 20
864.58600000000001
 11
683.80210000000011
 21
1200.9332999999999
  0
LINE
  8
_0-0_LAYER001
  6
CONTINUOUS
 62
    1
 10
1432.268
 20
866.86580000000004
 11
684.82799999999997
 21
1203.2130999999999
  0
LINE
  8
_0-0_LAYER001
  6
CONTINUOUS
 62
    1
 10
1433.2939000000001
 20
869.14560000000006
 11
685.85390000000007
 21
1205.4929
  0
LINE
  8
_0-0_LAYER001
  6
CONTINUOUS
 62
    1
 10
1434.3198000000002
 20
871.42540000000008
 11
686.87979999999993
 21
1207.7727
  0
LINE
  8
_0-0_LAYER001
  6
CONTINUOUS
 62
    1
 10
1435.3456999999999
 20
873.7052000000001
 11
687.90570000000002
 21
1210.0525
  0
LINE
  8
_0-0_LAYER001
  6
CONTINUOUS
 62
    1
 10
1436.3715999999999
 20
875.9849999999999
 11
688.93159999999989
 21
1212.3323
  0
LINE
  8
_0-0_LAYER001
  6
CONTINUOUS
 62
    1
 10
1437.3975
 20
878.26479999999992
 11
689.95749999999998
 21
1214.6121000000001
  0
LINE
  8
_0-0_LAYER001
  6
CONTINUOUS
 62
    1
 10
1447.6565999999998
 20
860.02629999999999
 11
2195.0965999999999
 21
1196.3737000000001
  0
LINE
  8
_0-0_LAYER001
  6
CONTINUOUS
 62
    1
 10
1446.6307000000002
 20
862.30619999999999
 11
2194.0707000000002
 21
1198.6534999999999
  0
LINE
  8
_0-0_LAYER001
  6
CONTINUOUS
 62
    1
 10
1445.6048000000001
 20
864.58600000000001
 11
2193.0448000000001
 21
1200.9332999999999
  0
LINE
  8
_0-0_LAYER001
  6
CONTINUOUS
 62
    1
 10
1444.5789
 20
866.86580000000004
 11
2192.0189
 21
1203.2130999999999
  0
LINE
  8
_0-0_LAYER001
  6
CONTINUOUS
 62
    1
 10
1443.5529999999999
 20
869.14560000000006
 11
2190.9929000000002
 21
1205.4929
  0
LINE
  8
_0-0_LAYER001
  6
CONTINUOUS
 62
    1
 10
1442.5270999999998
 20
871.42540000000008
 11
2189.9670000000001
 21
1207.7727
  0
LINE
  8
_0-0_LAYER001
  6
CONTINUOUS
 62
    1
 10
1441.5012000000002
 20
873.7052000000001
 11
2188.9411
 21
1210.0525
  0
LINE
  8
_0-0_LAYER001
  6
CONTINUOUS
 62
    1
 10
1440.4751999999999
 20
875.9849999999999
 11
2187.9151999999999
 21
1212.3323
  0
LINE
  8
_0-0_LAYER001
  6
CONTINUOUS
 62
    1
 10
1439.4493000000002
 20
878.26479999999992
 11
2186.8892999999998
 21
1214.6121000000001
  0
LINE
  8
_0-0_LAYER001
  6
CONTINUOUS
 62
    2
 10
2021.9236999999998
 20
1000.2346
 11
2083.9349000000002
 21
1028.1397999999999
  0
LINE
  8
_0-0_LAYER001
  6
CONTINUOUS
 62
    2
 10
2019.4164000000001
 20
993.62339999999995
 11
2020.2372999999998
 21
991.79950000000008
  0
LINE
  8
_0-0_LAYER001
  6
CONTINUOUS
 62
    2
 10
2020.2372999999998
 20
991.79950000000008
 11
2102.3105
 21
1028.7319
  0
ARC
  8
_0-0_LAYER001
  6
CONTINUOUS
 62
    2
 10
2079.8292000000001
 20
1037.2601
 40
10.001999
 50
294.23626000000002
 51
24.223496000000104
  0
ARC
  8
_0-0_LAYER001
  6
CONTINUOUS
 62
    2
 10
2023.9744999999998
 20
995.6751999999999
 40
4.9989999999999997
 50
114.21980000000001
 51
204.23043999999999
  0
LINE
  8
_0-0_LAYER001
  6
CONTINUOUS
 62
    2
 10
2097.3595
 20
1079.1425999999999
 11
2097.1437000000001
 21
1077.0092999999999
  0
LINE
  8
_0-0_LAYER001
  6
CONTINUOUS
 62
    2
 10
2097.8150000000001
 20
1101.2771
 11
2101.8071
 21
1085.5289
  0
LINE
  8
_0-0_LAYER001
  6
CONTINUOUS
 62
    2
 10
2092.2586999999999
 20
1098.7764999999999
 11
2096.2521000000002
 21
1083.0283999999999
  0
LINE
  8
_0-0_LAYER001
  6
CONTINUOUS
 62
    2
 10
2097.8150000000001
 20
1101.2771
 11
2100.4596999999999
 21
1100.2739999999999
  0
LINE
  8
_0-0_LAYER001
  6
CONTINUOUS
 62
    2
 10
2095.7184000000002
 20
1082.7891999999999
 11
2104.3805000000002
 21
1086.6867999999999
  0
LINE
  8
_0-0_LAYER001
  6
CONTINUOUS
 62
    2
 10
2097.8150000000001
 20
1101.2771
 11
2104.3805000000002
 21
1086.6867999999999
  0
LINE
  8
_0-0_LAYER001
  6
CONTINUOUS
 62
    2
 10
2105.3843999999999
 20
1089.3317
 11
2104.3805000000002
 21
1086.6867999999999
  0
LINE
  8
_0-0_LAYER001
  6
CONTINUOUS
 62
    2
 10
2100.4596999999999
 20
1100.2739999999999
 11
2105.3843999999999
 21
1089.3317
  0
ARC
  8
_0-0_LAYER001
  6
CONTINUOUS
 62
    2
 10
2091.0871999999999
 20
1078.0730000000001
 40
6.1580000000000004
 50
24.600705999999999
 51
58.555360999999998
  0
LINE
  8
_0-0_LAYER001
  6
CONTINUOUS
 62
    2
 10
2063.5527999999999
 20
1109.9853000000001
 11
2065.3766000000001
 21
1110.8053
  0
LINE
  8
_0-0_LAYER001
  6
CONTINUOUS
 62
    2
 10
2102.3103000000001
 20
1028.7322999999999
 11
2065.3766000000001
 21
1110.8053
  0
LINE
  8
_0-0_LAYER001
  6
CONTINUOUS
 62
    2
 10
2061.0454
 20
1103.3731
 11
2088.9506000000001
 21
1041.3629000000001
  0
LINE
  8
_0-0_LAYER001
  6
CONTINUOUS
 62
    2
 10
2080.5801000000001
 20
1084.7491
 11
2083.3164000000002
 21
1085.98
  0
LINE
  8
_0-0_LAYER001
  6
CONTINUOUS
 62
    2
 10
2074.0145000000002
 20
1099.3393000000001
 11
2076.7505999999998
 21
1100.5702000000001
  0
LINE
  8
_0-0_LAYER001
  6
CONTINUOUS
 62
    2
 10
2089.8818999999999
 20
1071.3910000000001
 11
2076.7505999999998
 21
1100.5702000000001
  0
LINE
  8
_0-0_LAYER001
  6
CONTINUOUS
 62
    2
 10
2087.1455999999998
 20
1070.1590000000001
 11
2089.8818999999999
 21
1071.3910000000001
  0
LINE
  8
_0-0_LAYER001
  6
CONTINUOUS
 62
    2
 10
2094.3006
 20
1083.3278
 11
2086.1592999999998
 21
1079.6648
  0
LINE
  8
_0-0_LAYER001
  6
CONTINUOUS
 62
    2
 10
2088.6145999999999
 20
1095.9622999999999
 11
2080.4742999999999
 21
1092.2985000000001
  0
LINE
  8
_0-0_LAYER001
  6
CONTINUOUS
 62
    2
 10
2085.7725999999998
 20
1102.2807
 11
2077.6302999999998
 21
1098.6166000000001
  0
LINE
  8
_0-0_LAYER001
  6
CONTINUOUS
 62
    2
 10
2087.5100000000002
 20
1101.0291
 11
2085.7725999999998
 21
1102.2807
  0
LINE
  8
_0-0_LAYER001
  6
CONTINUOUS
 62
    2
 10
2097.3595
 20
1079.1425999999999
 11
2087.5100000000002
 21
1101.0291
  0
LINE
  8
_0-0_LAYER001
  6
CONTINUOUS
 62
    2
 10
2097.1437000000001
 20
1077.0092999999999
 11
2089.0023999999999
 21
1073.3456000000001
  0
LINE
  8
_0-0_LAYER001
  6
CONTINUOUS
 62
    2
 10
2060.3195999999998
 20
1083.2284999999999
 11
2068.4607999999998
 21
1086.8915
  0
LINE
  8
_0-0_LAYER001
  6
CONTINUOUS
 62
    2
 10
2066.0054
 20
1070.5936999999999
 11
2074.1468
 21
1074.2578000000001
  0
LINE
  8
_0-0_LAYER001
  6
CONTINUOUS
 62
    2
 10
2068.8476000000001
 20
1064.2755
 11
2076.9897000000001
 21
1067.9394
  0
LINE
  8
_0-0_LAYER001
  6
CONTINUOUS
 62
    2
 10
2067.1100999999999
 20
1065.527
 11
2068.8476000000001
 21
1064.2755
  0
LINE
  8
_0-0_LAYER001
  6
CONTINUOUS
 62
    2
 10
2057.2606999999998
 20
1087.4137000000001
 11
2067.1100999999999
 21
1065.527
  0
LINE
  8
_0-0_LAYER001
  6
CONTINUOUS
 62
    2
 10
2057.4764
 20
1089.5465999999999
 11
2065.6176
 21
1093.2106000000001
  0
LINE
  8
_0-0_LAYER001
  6
CONTINUOUS
 62
    2
 10
2057.2606999999998
 20
1087.4137000000001
 11
2057.4764
 21
1089.5465999999999
  0
LINE
  8
_0-0_LAYER001
  6
CONTINUOUS
 62
    2
 10
2089.1527999999998
 20
1097.3785
 11
2097.8150000000001
 21
1101.2771
  0
ARC
  8
_0-0_LAYER001
  6
CONTINUOUS
 62
    2
 10
2065.6035000000002
 20
1105.4250999999999
 40
4.9989999999999997
 50
114.21980000000001
 51
204.23043999999999
  0
ARC
  8
_0-0_LAYER001
  6
CONTINUOUS
 62
    2
 10
2082.5612999999998
 20
1097.0458000000001
 40
6.1470010000000013
 50
349.86201000000005
 51
23.869286000000073
  0
ARC
  8
_0-0_LAYER001
  6
CONTINUOUS
 62
    2
 10
2071.5529999999999
 20
1080.6893
 40
22.898997999999999
 50
6.6163259999999999
 51
41.831846000000006
  0
ARC
  8
_0-0_LAYER001
  6
CONTINUOUS
 62
    2
 10
2072.0598
 20
1069.5130999999999
 40
6.1479999999999997
 50
169.87772000000001
 51
203.89246
  0
ARC
  8
_0-0_LAYER001
  6
CONTINUOUS
 62
    2
 10
2063.5261999999998
 20
1088.4748999999999
 40
6.1479999999999997
 50
204.55347
 51
238.55573000000001
  0
ARC
  8
_0-0_LAYER001
  6
CONTINUOUS
 62
    2
 10
2083.1026000000002
 20
1085.8843999999999
 40
22.936000999999997
 50
186.64698000000004
 51
221.80375000000004
  0
LINE
  8
_0-0_LAYER001
  6
CONTINUOUS
 62
    2
 10
2074.3285999999998
 20
1164.1793
 11
2065.2082
 21
1160.0753
  0
LINE
  8
_0-0_LAYER001
  6
CONTINUOUS
 62
    2
 10
2075.5585000000001
 20
1161.4429
 11
2066.4400999999998
 21
1157.3402000000001
  0
LINE
  8
_0-0_LAYER001
  6
CONTINUOUS
 62
    2
 10
2065.2082
 20
1160.0753
 11
2066.4400999999998
 21
1157.3402000000001
  0
LINE
  8
_0-0_LAYER001
  6
CONTINUOUS
 62
    2
 10
2074.3285999999998
 20
1164.1793
 11
2075.5585000000001
 21
1161.4429
  0
LINE
  8
_0-0_LAYER001
  6
CONTINUOUS
 62
    2
 10
2069.7685000000001
 20
1162.1274000000001
 11
2070.9992999999999
 21
1159.3909000000001
  0
LINE
  8
_0-0_LAYER001
  6
CONTINUOUS
 62
    2
 10
2088.1704
 20
1121.2352000000001
 11
2084.0481
 21
1125.5213000000001
  0
LINE
  8
_0-0_LAYER001
  6
CONTINUOUS
 62
    2
 10
2088.1704
 20
1121.2352000000001
 11
2087.6959000000002
 21
1127.1622
  0
LINE
  8
_0-0_LAYER001
  6
CONTINUOUS
 62
    2
 10
2074.5906
 20
1143.5241000000001
 11
2080.2181999999998
 21
1147.2156
  0
LINE
  8
_0-0_LAYER001
  6
CONTINUOUS
 62
    2
 10
2076.6424000000002
 20
1138.9638
 11
2082.2712000000001
 21
1142.6556
  0
LINE
  8
_0-0_LAYER001
  6
CONTINUOUS
 62
    2
 10
2078.6952000000001
 20
1134.4047
 11
2084.3220999999999
 21
1138.0952
  0
LINE
  8
_0-0_LAYER001
  6
CONTINUOUS
 62
    2
 10
2080.7462
 20
1129.8444
 11
2086.3739999999998
 21
1133.5361
  0
LINE
  8
_0-0_LAYER001
  6
CONTINUOUS
 62
    2
 10
2082.2822000000001
 20
1126.4323999999999
 11
2087.9096
 21
1130.124
  0
LINE
  8
_0-0_LAYER001
  6
CONTINUOUS
 62
    2
 10
2074.0542999999998
 20
1157.4785999999999
 11
2087.6959000000002
 21
1127.1622
  0
LINE
  8
_0-0_LAYER001
  6
CONTINUOUS
 62
    2
 10
2075.5585000000001
 20
1161.4429
 11
2074.0542999999998
 21
1157.4785999999999
  0
LINE
  8
_0-0_LAYER001
  6
CONTINUOUS
 62
    2
 10
2070.4076
 20
1155.8345999999999
 11
2084.0481
 21
1125.5213000000001
  0
LINE
  8
_0-0_LAYER001
  6
CONTINUOUS
 62
    2
 10
2066.4400999999998
 20
1157.3402000000001
 11
2070.4076
 21
1155.8345999999999
  0
LINE
  8
_0-0_LAYER001
  6
CONTINUOUS
 62
    2
 10
2109.2811000000002
 20
1130.5617
 11
2111.3786
 21
1131.5055
  0
LINE
  8
_0-0_LAYER001
  6
CONTINUOUS
 62
    2
 10
2133.9027999999998
 20
1075.8462999999999
 11
2136.0003000000002
 21
1076.7900999999999
  0
LINE
  8
_0-0_LAYER001
  6
CONTINUOUS
 62
    2
 10
2062.4402
 20
1128.893
 11
2100.1939000000002
 21
1145.8820000000001
  0
LINE
  8
_0-0_LAYER001
  6
CONTINUOUS
 62
    2
 10
2109.2811000000002
 20
1130.5617
 11
2102.8384999999998
 21
1144.8788999999999
  0
LINE
  8
_0-0_LAYER001
  6
CONTINUOUS
 62
    2
 10
2140.3454999999999
 20
1061.5291999999999
 11
2133.9027999999998
 21
1075.8462999999999
  0
LINE
  8
_0-0_LAYER001
  6
CONTINUOUS
 62
    2
 10
2101.5888
 20
1041.8955000000001
 11
2139.3422999999998
 21
1058.8843999999999
  0
LINE
  8
_0-0_LAYER001
  6
CONTINUOUS
 62
    2
 10
2111.3786
 20
1131.5055
 11
2104.9358999999999
 21
1145.8226
  0
LINE
  8
_0-0_LAYER001
  6
CONTINUOUS
 62
    2
 10
2061.4962999999998
 20
1130.9902999999999
 11
2099.25
 21
1147.9793
  0
LINE
  8
_0-0_LAYER001
  6
CONTINUOUS
 62
    2
 10
2142.4431
 20
1062.4729
 11
2136.0003000000002
 21
1076.7900999999999
  0
LINE
  8
_0-0_LAYER001
  6
CONTINUOUS
 62
    2
 10
2102.5327000000002
 20
1039.7981
 11
2140.2860999999998
 21
1056.7871
  0
LINE
  8
_0-0_LAYER001
  6
CONTINUOUS
 62
    2
 10
2098.9441999999999
 20
1042.8987
 11
2061.4371000000001
 21
1126.2484999999999
  0
LINE
  8
_0-0_LAYER001
  6
CONTINUOUS
 62
    2
 10
2059.3398999999999
 20
1125.3045
 11
2096.8469
 21
1041.9548
  0
ARC
  8
_0-0_LAYER001
  6
CONTINUOUS
 62
    2
 10
2101.0146
 20
1144.0581
 40
2.000003
 50
24.227636
 51
114.22762
  0
ARC
  8
_0-0_LAYER001
  6
CONTINUOUS
 62
    2
 10
2138.5216
 20
1060.7083
 40
2.000003
 50
294.22762999999998
 51
24.227636000000011
  0
ARC
  8
_0-0_LAYER001
  6
CONTINUOUS
 62
    2
 10
2138.5216
 20
1060.7083
 40
4.2999999999999998
 50
294.22762999999998
 51
24.227636000000011
  0
ARC
  8
_0-0_LAYER001
  6
CONTINUOUS
 62
    2
 10
2101.0146
 20
1144.0581
 40
4.2999999999999998
 50
24.227636
 51
114.22762
  0
ARC
  8
_0-0_LAYER001
  6
CONTINUOUS
 62
    2
 10
2063.2611999999999
 20
1127.0691999999999
 40
2.000003
 50
114.22762000000003
 51
204.22763
  0
ARC
  8
_0-0_LAYER001
  6
CONTINUOUS
 62
    2
 10
2100.7680999999998
 20
1043.7193
 40
2.000003
 50
204.22763000000003
 51
294.22763000000003
  0
ARC
  8
_0-0_LAYER001
  6
CONTINUOUS
 62
    2
 10
2100.7680999999998
 20
1043.7193
 40
4.2999999999999998
 50
204.22763000000003
 51
294.22763000000003
  0
ARC
  8
_0-0_LAYER001
  6
CONTINUOUS
 62
    2
 10
2063.2611999999999
 20
1127.0691999999999
 40
4.2999999999999998
 50
114.22762000000003
 51
204.22763
  0
LINE
  8
_0-0_LAYER001
  6
CONTINUOUS
 62
    2
 10
854.92309999999998
 20
1000.2346
 11
792.91190000000006
 21
1028.1397999999999
  0
LINE
  8
_0-0_LAYER001
  6
CONTINUOUS
 62
    2
 10
857.43039999999996
 20
993.62339999999995
 11
856.60950000000003
 21
991.79950000000008
  0
LINE
  8
_0-0_LAYER001
  6
CONTINUOUS
 62
    2
 10
856.60950000000003
 20
991.79950000000008
 11
774.53639999999996
 21
1028.7319
  0
ARC
  8
_0-0_LAYER001
  6
CONTINUOUS
 62
    2
 10
797.0175999999999
 20
1037.2601
 40
10.001999
 50
155.7765
 51
245.76373000000001
  0
ARC
  8
_0-0_LAYER001
  6
CONTINUOUS
 62
    2
 10
852.8723
 20
995.6751999999999
 40
4.9989999999999997
 50
335.76954999999998
 51
65.780195000000006
  0
LINE
  8
_0-0_LAYER001
  6
CONTINUOUS
 62
    2
 10
779.4873
 20
1079.1425999999999
 11
779.70319999999992
 21
1077.0092999999999
  0
LINE
  8
_0-0_LAYER001
  6
CONTINUOUS
 62
    2
 10
779.03179999999998
 20
1101.2771
 11
775.03970000000004
 21
1085.5289
  0
LINE
  8
_0-0_LAYER001
  6
CONTINUOUS
 62
    2
 10
784.58809999999994
 20
1098.7764999999999
 11
780.5947000000001
 21
1083.0283999999999
  0
LINE
  8
_0-0_LAYER001
  6
CONTINUOUS
 62
    2
 10
779.03179999999998
 20
1101.2771
 11
776.38709999999992
 21
1100.2739999999999
  0
LINE
  8
_0-0_LAYER001
  6
CONTINUOUS
 62
    2
 10
781.12840000000006
 20
1082.7891999999999
 11
772.46640000000002
 21
1086.6867999999999
  0
LINE
  8
_0-0_LAYER001
  6
CONTINUOUS
 62
    2
 10
779.03179999999998
 20
1101.2771
 11
772.46640000000002
 21
1086.6867999999999
  0
LINE
  8
_0-0_LAYER001
  6
CONTINUOUS
 62
    2
 10
771.46250000000009
 20
1089.3317
 11
772.46640000000002
 21
1086.6867999999999
  0
LINE
  8
_0-0_LAYER001
  6
CONTINUOUS
 62
    2
 10
776.38709999999992
 20
1100.2739999999999
 11
771.46250000000009
 21
1089.3317
  0
ARC
  8
_0-0_LAYER001
  6
CONTINUOUS
 62
    2
 10
785.75960000000009
 20
1078.0730000000001
 40
6.1580000000000004
 50
121.44462999999999
 51
155.39929000000001
  0
LINE
  8
_0-0_LAYER001
  6
CONTINUOUS
 62
    2
 10
813.2940000000001
 20
1109.9853000000001
 11
811.47019999999998
 21
1110.8053
  0
LINE
  8
_0-0_LAYER001
  6
CONTINUOUS
 62
    2
 10
774.53659999999991
 20
1028.7322999999999
 11
811.47019999999998
 21
1110.8053
  0
LINE
  8
_0-0_LAYER001
  6
CONTINUOUS
 62
    2
 10
815.80150000000003
 20
1103.3731
 11
787.89619999999991
 21
1041.3629000000001
  0
LINE
  8
_0-0_LAYER001
  6
CONTINUOUS
 62
    2
 10
796.2666999999999
 20
1084.7491
 11
793.5304000000001
 21
1085.98
  0
LINE
  8
_0-0_LAYER001
  6
CONTINUOUS
 62
    2
 10
802.83240000000001
 20
1099.3393000000001
 11
800.09619999999995
 21
1100.5702000000001
  0
LINE
  8
_0-0_LAYER001
  6
CONTINUOUS
 62
    2
 10
786.96489999999994
 20
1071.3910000000001
 11
800.09619999999995
 21
1100.5702000000001
  0
LINE
  8
_0-0_LAYER001
  6
CONTINUOUS
 62
    2
 10
789.70119999999997
 20
1070.1590000000001
 11
786.96489999999994
 21
1071.3910000000001
  0
LINE
  8
_0-0_LAYER001
  6
CONTINUOUS
 62
    2
 10
782.54629999999997
 20
1083.3278
 11
790.68759999999997
 21
1079.6648
  0
LINE
  8
_0-0_LAYER001
  6
CONTINUOUS
 62
    2
 10
788.23219999999992
 20
1095.9622999999999
 11
796.37249999999995
 21
1092.2985000000001
  0
LINE
  8
_0-0_LAYER001
  6
CONTINUOUS
 62
    2
 10
791.07429999999999
 20
1102.2807
 11
799.21659999999997
 21
1098.6166000000001
  0
LINE
  8
_0-0_LAYER001
  6
CONTINUOUS
 62
    2
 10
789.33680000000004
 20
1101.0291
 11
791.07429999999999
 21
1102.2807
  0
LINE
  8
_0-0_LAYER001
  6
CONTINUOUS
 62
    2
 10
779.4873
 20
1079.1425999999999
 11
789.33680000000004
 21
1101.0291
  0
LINE
  8
_0-0_LAYER001
  6
CONTINUOUS
 62
    2
 10
779.70319999999992
 20
1077.0092999999999
 11
787.84449999999993
 21
1073.3456000000001
  0
LINE
  8
_0-0_LAYER001
  6
CONTINUOUS
 62
    2
 10
816.52719999999999
 20
1083.2284999999999
 11
808.38599999999997
 21
1086.8915
  0
LINE
  8
_0-0_LAYER001
  6
CONTINUOUS
 62
    2
 10
810.84140000000002
 20
1070.5936999999999
 11
802.70000000000005
 21
1074.2578000000001
  0
LINE
  8
_0-0_LAYER001
  6
CONTINUOUS
 62
    2
 10
807.99919999999997
 20
1064.2755
 11
799.85709999999995
 21
1067.9394
  0
LINE
  8
_0-0_LAYER001
  6
CONTINUOUS
 62
    2
 10
809.73669999999993
 20
1065.527
 11
807.99919999999997
 21
1064.2755
  0
LINE
  8
_0-0_LAYER001
  6
CONTINUOUS
 62
    2
 10
819.58619999999996
 20
1087.4137000000001
 11
809.73669999999993
 21
1065.527
  0
LINE
  8
_0-0_LAYER001
  6
CONTINUOUS
 62
    2
 10
819.37049999999999
 20
1089.5465999999999
 11
811.22929999999997
 21
1093.2106000000001
  0
LINE
  8
_0-0_LAYER001
  6
CONTINUOUS
 62
    2
 10
819.58619999999996
 20
1087.4137000000001
 11
819.37049999999999
 21
1089.5465999999999
  0
LINE
  8
_0-0_LAYER001
  6
CONTINUOUS
 62
    2
 10
787.69399999999996
 20
1097.3785
 11
779.03179999999998
 21
1101.2771
  0
ARC
  8
_0-0_LAYER001
  6
CONTINUOUS
 62
    2
 10
811.24330000000009
 20
1105.4250999999999
 40
4.9989999999999997
 50
335.76954999999998
 51
65.780195000000006
  0
ARC
  8
_0-0_LAYER001
  6
CONTINUOUS
 62
    2
 10
794.28559999999993
 20
1097.0458000000001
 40
6.1470010000000013
 50
156.13071000000002
 51
190.13798000000003
  0
ARC
  8
_0-0_LAYER001
  6
CONTINUOUS
 62
    2
 10
805.29379999999992
 20
1080.6893
 40
22.898997999999999
 50
138.16815000000003
 51
173.38367000000002
  0
ARC
  8
_0-0_LAYER001
  6
CONTINUOUS
 62
    2
 10
804.78700000000003
 20
1069.5130999999999
 40
6.1479999999999997
 50
336.10753
 51
10.122274000000022
  0
ARC
  8
_0-0_LAYER001
  6
CONTINUOUS
 62
    2
 10
813.32060000000001
 20
1088.4748999999999
 40
6.1479999999999997
 50
301.44425999999999
 51
335.44652000000002
  0
ARC
  8
_0-0_LAYER001
  6
CONTINUOUS
 62
    2
 10
793.74420000000009
 20
1085.8843999999999
 40
22.936000999999997
 50
318.19623999999999
 51
353.35300999999998
  0
LINE
  8
_0-0_LAYER001
  6
CONTINUOUS
 62
    2
 10
802.51829999999995
 20
1164.1793
 11
811.6386
 21
1160.0753
  0
LINE
  8
_0-0_LAYER001
  6
CONTINUOUS
 62
    2
 10
801.28829999999994
 20
1161.4429
 11
810.40679999999998
 21
1157.3402000000001
  0
LINE
  8
_0-0_LAYER001
  6
CONTINUOUS
 62
    2
 10
811.6386
 20
1160.0753
 11
810.40679999999998
 21
1157.3402000000001
  0
LINE
  8
_0-0_LAYER001
  6
CONTINUOUS
 62
    2
 10
802.51829999999995
 20
1164.1793
 11
801.28829999999994
 21
1161.4429
  0
LINE
  8
_0-0_LAYER001
  6
CONTINUOUS
 62
    2
 10
807.0784000000001
 20
1162.1274000000001
 11
805.84750000000008
 21
1159.3909000000001
  0
LINE
  8
_0-0_LAYER001
  6
CONTINUOUS
 62
    2
 10
788.67650000000003
 20
1121.2352000000001
 11
792.79870000000005
 21
1125.5213000000001
  0
LINE
  8
_0-0_LAYER001
  6
CONTINUOUS
 62
    2
 10
788.67650000000003
 20
1121.2352000000001
 11
789.15100000000007
 21
1127.1622
  0
LINE
  8
_0-0_LAYER001
  6
CONTINUOUS
 62
    2
 10
802.25630000000001
 20
1143.5241000000001
 11
796.62869999999998
 21
1147.2156
  0
LINE
  8
_0-0_LAYER001
  6
CONTINUOUS
 62
    2
 10
800.20450000000005
 20
1138.9638
 11
794.57559999999989
 21
1142.6556
  0
LINE
  8
_0-0_LAYER001
  6
CONTINUOUS
 62
    2
 10
798.15159999999992
 20
1134.4047
 11
792.52479999999991
 21
1138.0952
  0
LINE
  8
_0-0_LAYER001
  6
CONTINUOUS
 62
    2
 10
796.10059999999999
 20
1129.8444
 11
790.47289999999998
 21
1133.5361
  0
LINE
  8
_0-0_LAYER001
  6
CONTINUOUS
 62
    2
 10
794.5646999999999
 20
1126.4323999999999
 11
788.93730000000005
 21
1130.124
  0
LINE
  8
_0-0_LAYER001
  6
CONTINUOUS
 62
    2
 10
802.79259999999999
 20
1157.4785999999999
 11
789.15100000000007
 21
1127.1622
  0
LINE
  8
_0-0_LAYER001
  6
CONTINUOUS
 62
    2
 10
801.28829999999994
 20
1161.4429
 11
802.79259999999999
 21
1157.4785999999999
  0
LINE
  8
_0-0_LAYER001
  6
CONTINUOUS
 62
    2
 10
806.43920000000003
 20
1155.8345999999999
 11
792.79870000000005
 21
1125.5213000000001
  0
LINE
  8
_0-0_LAYER001
  6
CONTINUOUS
 62
    2
 10
810.40679999999998
 20
1157.3402000000001
 11
806.43920000000003
 21
1155.8345999999999
  0
LINE
  8
_0-0_LAYER001
  6
CONTINUOUS
 62
    2
 10
767.56570000000011
 20
1130.5617
 11
765.4683
 21
1131.5055
  0
LINE
  8
_0-0_LAYER001
  6
CONTINUOUS
 62
    2
 10
742.94399999999996
 20
1075.8462999999999
 11
740.84650000000011
 21
1076.7900999999999
  0
LINE
  8
_0-0_LAYER001
  6
CONTINUOUS
 62
    2
 10
814.40660000000003
 20
1128.893
 11
776.65290000000005
 21
1145.8820000000001
  0
LINE
  8
_0-0_LAYER001
  6
CONTINUOUS
 62
    2
 10
767.56570000000011
 20
1130.5617
 11
774.00829999999996
 21
1144.8788999999999
  0
LINE
  8
_0-0_LAYER001
  6
CONTINUOUS
 62
    2
 10
736.5014000000001
 20
1061.5291999999999
 11
742.94399999999996
 21
1075.8462999999999
  0
LINE
  8
_0-0_LAYER001
  6
CONTINUOUS
 62
    2
 10
775.25810000000001
 20
1041.8955000000001
 11
737.50459999999998
 21
1058.8843999999999
  0
LINE
  8
_0-0_LAYER001
  6
CONTINUOUS
 62
    2
 10
765.4683
 20
1131.5055
 11
771.91100000000006
 21
1145.8226
  0
LINE
  8
_0-0_LAYER001
  6
CONTINUOUS
 62
    2
 10
815.35050000000001
 20
1130.9902999999999
 11
777.59680000000003
 21
1147.9793
  0
LINE
  8
_0-0_LAYER001
  6
CONTINUOUS
 62
    2
 10
734.40380000000005
 20
1062.4729
 11
740.84650000000011
 21
1076.7900999999999
  0
LINE
  8
_0-0_LAYER001
  6
CONTINUOUS
 62
    2
 10
774.31410000000005
 20
1039.7981
 11
736.5607
 21
1056.7871
  0
LINE
  8
_0-0_LAYER001
  6
CONTINUOUS
 62
    2
 10
777.90259999999989
 20
1042.8987
 11
815.40969999999993
 21
1126.2484999999999
  0
LINE
  8
_0-0_LAYER001
  6
CONTINUOUS
 62
    2
 10
817.50700000000006
 20
1125.3045
 11
779.99990000000003
 21
1041.9548
  0
ARC
  8
_0-0_LAYER001
  6
CONTINUOUS
 62
    2
 10
775.83230000000003
 20
1144.0581
 40
2.000003
 50
65.772373000000002
 51
155.77235999999999
  0
ARC
  8
_0-0_LAYER001
  6
CONTINUOUS
 62
    2
 10
738.32529999999997
 20
1060.7083
 40
2.000003
 50
155.77235999999999
 51
245.77235999999999
  0
ARC
  8
_0-0_LAYER001
  6
CONTINUOUS
 62
    2
 10
738.32529999999997
 20
1060.7083
 40
4.2999999999999998
 50
155.77235999999999
 51
245.77235999999999
  0
ARC
  8
_0-0_LAYER001
  6
CONTINUOUS
 62
    2
 10
775.83230000000003
 20
1144.0581
 40
4.2999999999999998
 50
65.772373000000002
 51
155.77235999999999
  0
ARC
  8
_0-0_LAYER001
  6
CONTINUOUS
 62
    2
 10
813.58570000000009
 20
1127.0691999999999
 40
2.000003
 50
335.77235999999999
 51
65.77237300000003
  0
ARC
  8
_0-0_LAYER001
  6
CONTINUOUS
 62
    2
 10
776.07870000000003
 20
1043.7193
 40
2.000003
 50
245.77235999999999
 51
335.77235999999999
  0
ARC
  8
_0-0_LAYER001
  6
CONTINUOUS
 62
    2
 10
776.07870000000003
 20
1043.7193
 40
4.2999999999999998
 50
245.77235999999999
 51
335.77235999999999
  0
ARC
  8
_0-0_LAYER001
  6
CONTINUOUS
 62
    2
 10
813.58570000000009
 20
1127.0691999999999
 40
4.2999999999999998
 50
335.77235999999999
 51
65.77237300000003
  0
LINE
  8
_0-0_LAYER001
  6
CONTINUOUS
 62
    2
 10
1438.4234000000001
 20
885.47919999999999
 11
1320.6141
 21
938.49330000000009
  0
LINE
  8
_0-0_LAYER001
  6
CONTINUOUS
 62
    2
 10
1438.4234000000001
 20
885.47919999999999
 11
1556.2327
 21
938.49330000000009
  0
LINE
  8
_0-0_LAYER001
  6
CONTINUOUS
 62
    2
 10
1418.0432000000001
 20
1156.0944999999999
 11
1435.4901
 21
1106.5782999999999
  0
CIRCLE
  8
_0-0_LAYER001
  6
CONTINUOUS
 62
    2
 10
1418.8740000000003
 20
1153.7366
 40
1.6999999999999997
  0
LINE
  8
_0-0_LAYER001
  6
CONTINUOUS
 62
    2
 10
1418.8740000000003
 20
1153.7366
 11
1664.0974000000001
 21
1240.1397999999999
  0
CIRCLE
  8
_0-0_LAYER001
  6
CONTINUOUS
 62
    2
 10
1664.0974000000001
 20
1240.1397999999999
 40
1.6999999999999997
  0
LINE
  8
_0-0_LAYER001
  6
CONTINUOUS
 62
    2
 10
1663.2665999999999
 20
1242.4978000000001
 11
1680.7134000000001
 21
1192.9815000000001
  0
LINE
  8
_0-0_LAYER001
  6
CONTINUOUS
 62
    2
 10
1653.0657000000001
 20
1270.7112999999999
 11
1670.5124999999998
 21
1221.1949999999999
  0
CIRCLE
  8
_0-0_LAYER001
  6
CONTINUOUS
 62
    2
 10
1653.8964999999998
 20
1268.3534
 40
1.6999999999999997
  0
LINE
  8
_0-0_LAYER001
  6
CONTINUOUS
 62
    2
 10
1653.8964999999998
 20
1268.3534
 11
1899.1199000000001
 21
1354.7566000000002
  0
CIRCLE
  8
_0-0_LAYER001
  6
CONTINUOUS
 62
    2
 10
1899.1199000000001
 20
1354.7566000000002
 40
1.6999999999999997
  0
LINE
  8
_0-0_LAYER001
  6
CONTINUOUS
 62
    2
 10
1898.2891
 20
1357.1144999999999
 11
1915.7359000000001
 21
1307.5983000000001
  0
LINE
  8
_0-0_LAYER001
  6
CONTINUOUS
 62
    2
 10
1888.3195000000001
 20
1385.4095000000002
 11
1905.7662999999998
 21
1335.8933
  0
CIRCLE
  8
_0-0_LAYER001
  6
CONTINUOUS
 62
    2
 10
1889.1502999999998
 20
1383.0516
 40
1.6999999999999997
  0
LINE
  8
_0-0_LAYER001
  6
CONTINUOUS
 62
    2
 10
1889.1502999999998
 20
1383.0516
 11
2106.7483999999999
 21
1459.7212
  0
LINE
  8
_0-0_LAYER001
  6
CONTINUOUS
 62
    2
 10
1778.3634000000002
 20
1038.5806
 11
1750.9974999999999
 21
1026.2659000000001
  0
LINE
  8
_0-0_LAYER001
  6
CONTINUOUS
 62
    2
 10
2016.0999999999999
 20
1145.5623000000001
 11
1988.7341999999999
 21
1133.2475999999999
  0
LINE
  8
_0-0_LAYER001
  6
CONTINUOUS
 62
    4
 10
1489.5383999999999
 20
953.18209999999999
 11
1773.4315999999999
 21
1053.2104999999999
  0
LINE
  8
_0-0_LAYER001
  6
CONTINUOUS
 62
    4
 10
1480.8831
 20
981.32940000000008
 11
1719.3492000000001
 21
1083.3281999999999
  0
LINE
  8
_0-0_LAYER001
  6
CONTINUOUS
 62
    4
 10
1773.4315999999999
 20
1053.2104999999999
 11
1777.4194000000002
 21
1041.8924999999999
  0
LINE
  8
_0-0_LAYER001
  6
CONTINUOUS
 62
    4
 10
1777.4194000000002
 20
1041.8924999999999
 11
1785.9079000000002
 21
1044.8833999999999
  0
LINE
  8
_0-0_LAYER001
  6
CONTINUOUS
 62
    4
 10
1766.4529000000002
 20
1073.0170000000001
 11
1767.4497999999999
 21
1070.1875
  0
LINE
  8
_0-0_LAYER001
  6
CONTINUOUS
 62
    4
 10
1483.5567000000001
 20
970.15910000000008
 11
1767.4497999999999
 21
1070.1875
  0
LINE
  8
_0-0_LAYER001
  6
CONTINUOUS
 62
    4
 10
1766.4529000000002
 20
1073.0170000000001
 11
1774.9414000000002
 21
1076.0079000000001
  0
LINE
  8
_0-0_LAYER001
  6
CONTINUOUS
 62
    4
 10
1774.9414000000002
 20
1076.0079000000001
 11
1785.9079000000002
 21
1044.8833999999999
  0
LINE
  8
_0-0_LAYER001
  6
CONTINUOUS
 62
    4
 10
1700.4492
 20
1138.6846
 11
1727.7869999999998
 21
1061.0966000000001
  0
LINE
  8
_0-0_LAYER001
  6
CONTINUOUS
 62
    4
 10
1727.7869999999998
 20
1061.0966000000001
 11
2011.6801
 21
1161.125
  0
LINE
  8
_0-0_LAYER001
  6
CONTINUOUS
 62
    4
 10
1719.1316999999999
 20
1089.2438999999999
 11
1957.5976999999998
 21
1191.2427
  0
LINE
  8
_0-0_LAYER001
  6
CONTINUOUS
 62
    4
 10
2011.6801
 20
1161.125
 11
2015.6680000000001
 21
1149.807
  0
LINE
  8
_0-0_LAYER001
  6
CONTINUOUS
 62
    4
 10
2015.6680000000001
 20
1149.807
 11
2024.1565000000001
 21
1152.7979
  0
LINE
  8
_0-0_LAYER001
  6
CONTINUOUS
 62
    4
 10
2004.7013999999999
 20
1180.9314999999999
 11
2005.6984000000002
 21
1178.1020000000001
  0
LINE
  8
_0-0_LAYER001
  6
CONTINUOUS
 62
    4
 10
1721.8051999999998
 20
1078.0735999999999
 11
2005.6984000000002
 21
1178.1020000000001
  0
LINE
  8
_0-0_LAYER001
  6
CONTINUOUS
 62
    4
 10
1700.4589999999998
 20
1139.0869
 11
1945.5475000000001
 21
1225.4427000000001
  0
LINE
  8
_0-0_LAYER001
  6
CONTINUOUS
 62
    4
 10
2004.7013999999999
 20
1180.9314999999999
 11
2013.1898999999999
 21
1183.9223999999999
  0
LINE
  8
_0-0_LAYER001
  6
CONTINUOUS
 62
    4
 10
2013.1898999999999
 20
1183.9223999999999
 11
2024.1565000000001
 21
1152.7979
  0
LINE
  8
_0-0_LAYER001
  6
CONTINUOUS
 62
    4
 10
1937.9708999999998
 20
1245.0815
 11
1965.3087
 21
1167.4935
  0
LINE
  8
_0-0_LAYER001
  6
CONTINUOUS
 62
    4
 10
1965.3087
 20
1167.4935
 11
2193.7444999999998
 21
1247.9818
  0
LINE
  8
_0-0_LAYER001
  6
CONTINUOUS
 62
    4
 10
1956.6534000000001
 20
1195.6407999999999
 11
2176.5970000000002
 21
1289.7170000000001
  0
LINE
  8
_0-0_LAYER001
  6
CONTINUOUS
 62
    4
 10
1959.3269
 20
1184.4704999999999
 11
2186.8948999999998
 21
1264.653
  0
LINE
  8
_0-0_LAYER001
  6
CONTINUOUS
 62
    4
 10
1937.9807999999998
 20
1245.4838
 11
2162.2973999999999
 21
1324.5207
  0
LINE
  8
_0-0_LAYER001
  6
CONTINUOUS
 62
    4
 10
1462.0756999999999
 20
1031.1249
 11
1489.5383999999999
 21
953.18209999999999
  0
LINE
  8
_0-0_LAYER001
  6
CONTINUOUS
 62
    4
 10
1462.0756999999999
 20
1031.1249
 11
1707.299
 21
1117.5282
  0
LINE
  8
_0-0_LAYER001
  6
CONTINUOUS
 62
    2
 10
2009.6084000000001
 20
1159.0898999999999
 11
2016.0999999999999
 21
1145.5623000000001
  0
LINE
  8
_0-0_LAYER001
  6
CONTINUOUS
 62
    2
 10
1982.2424999999998
 20
1146.7752
 11
1988.7341999999999
 21
1133.2475999999999
  0
LINE
  8
_0-0_LAYER001
  6
CONTINUOUS
 62
    2
 10
2009.6084000000001
 20
1159.0898999999999
 11
1982.2424999999998
 21
1146.7752
  0
LINE
  8
_0-0_LAYER001
  6
CONTINUOUS
 62
    2
 10
1744.5059000000001
 20
1039.7934
 11
1750.9974999999999
 21
1026.2659000000001
  0
LINE
  8
_0-0_LAYER001
  6
CONTINUOUS
 62
    2
 10
1771.8717999999999
 20
1052.1080999999999
 11
1778.3634000000002
 21
1038.5806
  0
LINE
  8
_0-0_LAYER001
  6
CONTINUOUS
 62
    2
 10
1771.8717999999999
 20
1052.1080999999999
 11
1744.5059000000001
 21
1039.7934
  0
LINE
  8
_0-0_LAYER001
  6
DASHED1
 62
    1
 10
1983.2950999999998
 20
1175.8345999999999
 11
1998.6433000000002
 21
1180.3547000000001
  0
LINE
  8
_0-0_LAYER001
  6
DASHED1
 62
    1
 10
1998.6433000000002
 20
1180.3547000000001
 11
1999.4908
 21
1177.4768999999999
  0
LINE
  8
_0-0_LAYER001
  6
DASHED1
 62
    1
 10
1983.2950999999998
 20
1175.8345999999999
 11
1984.1426000000001
 21
1172.9567999999999
  0
LINE
  8
_0-0_LAYER001
  6
DASHED1
 62
    1
 10
1984.1426000000001
 20
1172.9567999999999
 11
1999.4908
 21
1177.4768999999999
  0
LINE
  8
_0-0_LAYER001
  6
DASHED1
 62
    1
 10
2009.5443
 20
1113.7518
 11
2001.3206
 21
1132.326
  0
LINE
  8
_0-0_LAYER001
  6
DASHED1
 62
    1
 10
1988.9389000000001
 20
1174.3694
 11
2001.3206
 21
1132.326
  0
LINE
  8
_0-0_LAYER001
  6
DASHED1
 62
    1
 10
2009.7370999999998
 20
1113.0972999999999
 11
2008.0688
 21
1130.6506999999999
  0
LINE
  8
_0-0_LAYER001
  6
DASHED1
 62
    1
 10
1994.6945000000001
 20
1176.0644
 11
2008.0688
 21
1130.6506999999999
  0
LINE
  8
_0-0_LAYER001
  6
DASHED1
 62
    1
 10
1746.6745000000001
 20
1069.5926999999999
 11
1762.0227
 21
1074.1128000000001
  0
LINE
  8
_0-0_LAYER001
  6
DASHED1
 62
    1
 10
1762.0227
 20
1074.1128000000001
 11
1762.8701999999998
 21
1071.2349999999999
  0
LINE
  8
_0-0_LAYER001
  6
DASHED1
 62
    1
 10
1746.6745000000001
 20
1069.5926999999999
 11
1747.5219999999999
 21
1066.7148999999999
  0
LINE
  8
_0-0_LAYER001
  6
DASHED1
 62
    1
 10
1747.5219999999999
 20
1066.7148999999999
 11
1762.8701999999998
 21
1071.2349999999999
  0
LINE
  8
_0-0_LAYER001
  6
DASHED1
 62
    1
 10
1772.9236999999998
 20
1007.51
 11
1764.6999999999998
 21
1026.0841
  0
LINE
  8
_0-0_LAYER001
  6
DASHED1
 62
    1
 10
1752.3182999999999
 20
1068.1275000000001
 11
1764.6999999999998
 21
1026.0841
  0
LINE
  8
_0-0_LAYER001
  6
DASHED1
 62
    1
 10
1773.1163999999999
 20
1006.8553999999999
 11
1771.4481999999998
 21
1024.4087999999999
  0
LINE
  8
_0-0_LAYER001
  6
DASHED1
 62
    1
 10
1758.0738999999999
 20
1069.8225
 11
1771.4481999999998
 21
1024.4087999999999
  0
LINE
  8
_0-0_LAYER001
  6
DASHED1
 62
    1
 10
1548.7761
 20
1064.9926
 11
1589.6149
 21
960.83609999999999
  0
LINE
  8
_0-0_LAYER001
  6
DASHED1
 62
    1
 10
1592.6684
 20
943.09429999999998
 11
1589.6149
 21
960.83609999999999
  0
LINE
  8
_0-0_LAYER001
  6
DASHED1
 62
    1
 10
1543.1900999999998
 20
1062.8024
 11
1584.3053
 21
957.94090000000006
  0
LINE
  8
_0-0_LAYER001
  6
DASHED1
 62
    1
 10
1592.7060999999999
 20
942.60560000000009
 11
1584.3053
 21
957.94090000000006
  0
LINE
  8
_0-0_LAYER001
  6
DASHED1
 62
    1
 10
1538.5351000000001
 20
1060.9772
 11
1553.4310999999998
 21
1066.8178
  0
LINE
  8
_0-0_LAYER001
  6
DASHED1
 62
    1
 10
1537.4400000000001
 20
1063.7701999999999
 11
1538.5351000000001
 21
1060.9772
  0
LINE
  8
_0-0_LAYER001
  6
DASHED1
 62
    1
 10
1552.3359999999998
 20
1069.6107999999999
 11
1553.4310999999998
 21
1066.8178
  0
LINE
  8
_0-0_LAYER001
  6
DASHED1
 62
    1
 10
1537.4400000000001
 20
1063.7701999999999
 11
1552.3359999999998
 21
1069.6107999999999
  0
LINE
  8
_0-0_LAYER001
  6
CONTINUOUS
 62
    2
 10
1771.8717999999999
 20
1052.1080999999999
 11
1750.9974999999999
 21
1026.2659000000001
  0
LINE
  8
_0-0_LAYER001
  6
CONTINUOUS
 62
    2
 10
2009.6084000000001
 20
1159.0898999999999
 11
1988.7341999999999
 21
1133.2475999999999
  0
LINE
  8
_0-0_LAYER001
  6
CONTINUOUS
 62
    2
 10
1360.4965999999999
 20
1057.0068000000001
 11
1382.0405000000001
 21
1009.1307999999999
  0
CIRCLE
  8
_0-0_LAYER001
  6
CONTINUOUS
 62
    2
 10
1361.5225
 20
1054.7268999999999
 40
1.6999999999999997
  0
LINE
  8
_0-0_LAYER001
  6
CONTINUOUS
 62
    2
 10
1361.5225
 20
1054.7268999999999
 11
1498.3108000000002
 21
1116.2810999999999
  0
CIRCLE
  8
_0-0_LAYER001
  6
CONTINUOUS
 62
    2
 10
1498.3108000000002
 20
1116.2810999999999
 40
1.6999999999999997
  0
LINE
  8
_0-0_LAYER001
  6
CONTINUOUS
 62
    2
 10
1497.2849000000001
 20
1118.5608999999999
 11
1518.8289
 21
1070.6849999999999
  0
LINE
  8
_0-0_LAYER001
  6
CONTINUOUS
 62
    2
 10
1098.4834000000001
 20
1038.0323000000001
 11
1125.8493000000001
 21
1025.7175999999999
  0
LINE
  8
_0-0_LAYER001
  6
CONTINUOUS
 62
    2
 10
860.74679999999989
 20
1145.0139999999999
 11
888.1126999999999
 21
1132.6993
  0
LINE
  8
_0-0_LAYER001
  6
CONTINUOUS
 62
    4
 10
1387.3083999999999
 20
952.63390000000004
 11
1103.4152999999999
 21
1052.6622
  0
LINE
  8
_0-0_LAYER001
  6
CONTINUOUS
 62
    4
 10
1395.9637
 20
980.78109999999992
 11
1157.4976999999999
 21
1082.7799
  0
LINE
  8
_0-0_LAYER001
  6
CONTINUOUS
 62
    4
 10
1103.4152999999999
 20
1052.6622
 11
1099.4274
 21
1041.3442
  0
LINE
  8
_0-0_LAYER001
  6
CONTINUOUS
 62
    4
 10
1099.4274
 20
1041.3442
 11
1090.9389000000001
 21
1044.3351
  0
LINE
  8
_0-0_LAYER001
  6
CONTINUOUS
 62
    4
 10
1110.394
 20
1072.4686999999999
 11
1109.3969999999999
 21
1069.6392000000001
  0
LINE
  8
_0-0_LAYER001
  6
CONTINUOUS
 62
    4
 10
1393.2901999999999
 20
969.6108999999999
 11
1109.3969999999999
 21
1069.6392000000001
  0
LINE
  8
_0-0_LAYER001
  6
CONTINUOUS
 62
    4
 10
1110.394
 20
1072.4686999999999
 11
1101.9055000000001
 21
1075.4595999999999
  0
LINE
  8
_0-0_LAYER001
  6
CONTINUOUS
 62
    4
 10
1101.9055000000001
 20
1075.4595999999999
 11
1090.9389000000001
 21
1044.3351
  0
LINE
  8
_0-0_LAYER001
  6
CONTINUOUS
 62
    4
 10
1176.3976
 20
1138.1362999999999
 11
1149.0599
 21
1060.5482999999999
  0
LINE
  8
_0-0_LAYER001
  6
CONTINUOUS
 62
    4
 10
1149.0599
 20
1060.5482999999999
 11
865.16669999999999
 21
1160.5767000000001
  0
LINE
  8
_0-0_LAYER001
  6
CONTINUOUS
 62
    4
 10
1157.7152000000001
 20
1088.6956
 11
919.2491
 21
1190.6944000000001
  0
LINE
  8
_0-0_LAYER001
  6
CONTINUOUS
 62
    4
 10
865.16669999999999
 20
1160.5767000000001
 11
861.17890000000011
 21
1149.2587000000001
  0
LINE
  8
_0-0_LAYER001
  6
CONTINUOUS
 62
    4
 10
861.17890000000011
 20
1149.2587000000001
 11
852.69039999999995
 21
1152.2496000000001
  0
LINE
  8
_0-0_LAYER001
  6
CONTINUOUS
 62
    4
 10
872.14540000000011
 20
1180.3832
 11
871.14850000000001
 21
1177.5536999999999
  0
LINE
  8
_0-0_LAYER001
  6
CONTINUOUS
 62
    4
 10
1155.0416
 20
1077.5253
 11
871.14850000000001
 21
1177.5536999999999
  0
LINE
  8
_0-0_LAYER001
  6
CONTINUOUS
 62
    4
 10
1176.3878
 20
1138.5386000000001
 11
931.2992999999999
 21
1224.8943999999999
  0
LINE
  8
_0-0_LAYER001
  6
CONTINUOUS
 62
    4
 10
872.14540000000011
 20
1180.3832
 11
863.65689999999995
 21
1183.3741
  0
LINE
  8
_0-0_LAYER001
  6
CONTINUOUS
 62
    4
 10
863.65689999999995
 20
1183.3741
 11
852.69039999999995
 21
1152.2496000000001
  0
LINE
  8
_0-0_LAYER001
  6
CONTINUOUS
 62
    4
 10
938.8759
 20
1244.5332000000001
 11
911.53809999999999
 21
1166.9452000000001
  0
LINE
  8
_0-0_LAYER001
  6
CONTINUOUS
 62
    4
 10
911.53809999999999
 20
1166.9452000000001
 11
683.10230000000001
 21
1247.4335000000001
  0
LINE
  8
_0-0_LAYER001
  6
CONTINUOUS
 62
    4
 10
920.19350000000009
 20
1195.0925
 11
700.24980000000005
 21
1289.1686999999999
  0
LINE
  8
_0-0_LAYER001
  6
CONTINUOUS
 62
    4
 10
917.51990000000001
 20
1183.9222
 11
689.95190000000002
 21
1264.1047000000001
  0
LINE
  8
_0-0_LAYER001
  6
CONTINUOUS
 62
    4
 10
938.86609999999996
 20
1244.9355
 11
714.54940000000011
 21
1323.9724000000001
  0
LINE
  8
_0-0_LAYER001
  6
CONTINUOUS
 62
    4
 10
1414.7711999999999
 20
1030.5766000000001
 11
1387.3083999999999
 21
952.63390000000004
  0
LINE
  8
_0-0_LAYER001
  6
CONTINUOUS
 62
    4
 10
1414.7711999999999
 20
1030.5766000000001
 11
1169.5478000000001
 21
1116.9799
  0
LINE
  8
_0-0_LAYER001
  6
CONTINUOUS
 62
    2
 10
867.23839999999996
 20
1158.5416
 11
860.74679999999989
 21
1145.0139999999999
  0
LINE
  8
_0-0_LAYER001
  6
CONTINUOUS
 62
    2
 10
894.60429999999997
 20
1146.2268999999999
 11
888.1126999999999
 21
1132.6993
  0
LINE
  8
_0-0_LAYER001
  6
CONTINUOUS
 62
    2
 10
867.23839999999996
 20
1158.5416
 11
894.60429999999997
 21
1146.2268999999999
  0
LINE
  8
_0-0_LAYER001
  6
CONTINUOUS
 62
    2
 10
1132.3408999999999
 20
1039.2451000000001
 11
1125.8493000000001
 21
1025.7175999999999
  0
LINE
  8
_0-0_LAYER001
  6
CONTINUOUS
 62
    2
 10
1104.9751000000001
 20
1051.5598
 11
1098.4834000000001
 21
1038.0323000000001
  0
LINE
  8
_0-0_LAYER001
  6
CONTINUOUS
 62
    2
 10
1104.9751000000001
 20
1051.5598
 11
1132.3408999999999
 21
1039.2451000000001
  0
LINE
  8
_0-0_LAYER001
  6
DASHED1
 62
    1
 10
893.55179999999996
 20
1175.2863
 11
878.20350000000008
 21
1179.8063999999999
  0
LINE
  8
_0-0_LAYER001
  6
DASHED1
 62
    1
 10
878.20350000000008
 20
1179.8063999999999
 11
877.35599999999999
 21
1176.9286
  0
LINE
  8
_0-0_LAYER001
  6
DASHED1
 62
    1
 10
893.55179999999996
 20
1175.2863
 11
892.7043000000001
 21
1172.4085
  0
LINE
  8
_0-0_LAYER001
  6
DASHED1
 62
    1
 10
892.7043000000001
 20
1172.4085
 11
877.35599999999999
 21
1176.9286
  0
LINE
  8
_0-0_LAYER001
  6
DASHED1
 62
    1
 10
867.30250000000001
 20
1113.2036000000001
 11
875.52620000000002
 21
1131.7777000000001
  0
LINE
  8
_0-0_LAYER001
  6
DASHED1
 62
    1
 10
887.90789999999993
 20
1173.8210999999999
 11
875.52620000000002
 21
1131.7777000000001
  0
LINE
  8
_0-0_LAYER001
  6
DASHED1
 62
    1
 10
867.10979999999995
 20
1112.549
 11
868.77800000000002
 21
1130.1024
  0
LINE
  8
_0-0_LAYER001
  6
DASHED1
 62
    1
 10
882.15229999999997
 20
1175.5161000000001
 11
868.77800000000002
 21
1130.1024
  0
LINE
  8
_0-0_LAYER001
  6
DASHED1
 62
    1
 10
1130.1723999999999
 20
1069.0444
 11
1114.8241
 21
1073.5645
  0
LINE
  8
_0-0_LAYER001
  6
DASHED1
 62
    1
 10
1114.8241
 20
1073.5645
 11
1113.9766
 21
1070.6867
  0
LINE
  8
_0-0_LAYER001
  6
DASHED1
 62
    1
 10
1130.1723999999999
 20
1069.0444
 11
1129.3249000000001
 21
1066.1667
  0
LINE
  8
_0-0_LAYER001
  6
DASHED1
 62
    1
 10
1129.3249000000001
 20
1066.1667
 11
1113.9766
 21
1070.6867
  0
LINE
  8
_0-0_LAYER001
  6
DASHED1
 62
    1
 10
1103.9231
 20
1006.9617000000001
 11
1112.1468
 21
1025.5359000000001
  0
LINE
  8
_0-0_LAYER001
  6
DASHED1
 62
    1
 10
1124.5284999999999
 20
1067.5791999999999
 11
1112.1468
 21
1025.5359000000001
  0
LINE
  8
_0-0_LAYER001
  6
DASHED1
 62
    1
 10
1103.7303999999999
 20
1006.3071
 11
1105.3986
 21
1023.8605
  0
LINE
  8
_0-0_LAYER001
  6
DASHED1
 62
    1
 10
1118.7728999999999
 20
1069.2742000000001
 11
1105.3986
 21
1023.8605
  0
LINE
  8
_0-0_LAYER001
  6
DASHED1
 62
    1
 10
1328.0707000000002
 20
1064.4443000000001
 11
1287.232
 21
960.28780000000006
  0
LINE
  8
_0-0_LAYER001
  6
DASHED1
 62
    1
 10
1284.1785
 20
942.54600000000005
 11
1287.232
 21
960.28780000000006
  0
LINE
  8
_0-0_LAYER001
  6
DASHED1
 62
    1
 10
1333.6567
 20
1062.2541000000001
 11
1292.5415
 21
957.3925999999999
  0
LINE
  8
_0-0_LAYER001
  6
DASHED1
 62
    1
 10
1284.1407999999999
 20
942.05729999999994
 11
1292.5415
 21
957.3925999999999
  0
LINE
  8
_0-0_LAYER001
  6
DASHED1
 62
    1
 10
1338.3116999999997
 20
1060.4289000000001
 11
1323.4158
 21
1066.2695000000001
  0
LINE
  8
_0-0_LAYER001
  6
DASHED1
 62
    1
 10
1339.4067999999997
 20
1063.2219
 11
1338.3116999999997
 21
1060.4289000000001
  0
LINE
  8
_0-0_LAYER001
  6
DASHED1
 62
    1
 10
1324.5109
 20
1069.0625
 11
1323.4158
 21
1066.2695000000001
  0
LINE
  8
_0-0_LAYER001
  6
DASHED1
 62
    1
 10
1339.4067999999997
 20
1063.2219
 11
1324.5109
 21
1069.0625
  0
LINE
  8
_0-0_LAYER001
  6
CONTINUOUS
 62
    2
 10
1104.9751000000001
 20
1051.5598
 11
1125.8493000000001
 21
1025.7175999999999
  0
LINE
  8
_0-0_LAYER001
  6
CONTINUOUS
 62
    2
 10
867.23839999999996
 20
1158.5416
 11
888.1126999999999
 21
1132.6993
  0
LINE
  8
_0-0_LAYER001
  6
CONTINUOUS
 62
    2
 10
1572.2040999999999
 20
983.66339999999991
 11
1568.4540999999999
 21
977.16820000000007
  0
LINE
  8
_0-0_LAYER001
  6
CONTINUOUS
 62
    2
 10
1568.4540999999999
 20
977.16820000000007
 11
1568.4540999999999
 21
984.66820000000007
  0
LINE
  8
_0-0_LAYER001
  6
CONTINUOUS
 62
    2
 10
1568.4540999999999
 20
977.16820000000007
 11
1619.6377000000002
 21
1168.1878999999999
  0
LINE
  8
_0-0_LAYER001
  6
CONTINUOUS
 62
    2
 10
1619.6377000000002
 20
1168.1878999999999
 11
1754.8209000000002
 21
1168.1878999999999
  0
LINE
  8
_0-0_LAYER001
  6
CONTINUOUS
 62
    2
 10
1284.5744999999999
 20
988.52590000000009
 11
1295.0121999999999
 21
986.52870000000007
  0
LINE
  8
_0-0_LAYER001
  6
CONTINUOUS
 62
    2
 10
1277.8136999999999
 20
989.92360000000008
 11
1265.1594
 21
961.80320000000006
  0
LINE
  8
_0-0_LAYER001
  6
CONTINUOUS
 62
    2
 10
1314.2893999999999
 20
973.50960000000009
 11
1301.6351
 21
945.3891000000001
  0
LINE
  8
_0-0_LAYER001
  6
CONTINUOUS
 62
    2
 10
1277.8136999999999
 20
989.92360000000008
 11
1314.2893999999999
 21
973.50960000000009
  0
LINE
  8
_0-0_LAYER001
  6
CONTINUOUS
 62
    2
 10
1320.6141
 20
972.30829999999992
 11
1320.6141
 21
938.49330000000009
  0
LINE
  8
_0-0_LAYER001
  6
CONTINUOUS
 62
    2
 10
1284.5744999999999
 20
988.52590000000009
 11
1320.6141
 21
972.30829999999992
  0
LINE
  8
_0-0_LAYER001
  6
CONTINUOUS
 62
    2
 10
1592.2413999999999
 20
988.59490000000005
 11
1581.8036000000002
 21
986.59760000000006
  0
LINE
  8
_0-0_LAYER001
  6
CONTINUOUS
 62
    2
 10
1562.5264999999999
 20
973.57850000000008
 11
1575.2116999999998
 21
945.3891000000001
  0
LINE
  8
_0-0_LAYER001
  6
CONTINUOUS
 62
    2
 10
1599.0021000000002
 20
989.99250000000006
 11
1611.6873999999998
 21
961.80320000000006
  0
LINE
  8
_0-0_LAYER001
  6
CONTINUOUS
 62
    2
 10
1599.0021000000002
 20
989.99250000000006
 11
1562.5264999999999
 21
973.57850000000008
  0
LINE
  8
_0-0_LAYER001
  6
CONTINUOUS
 62
    2
 10
1556.2327
 20
972.39110000000005
 11
1556.2327
 21
938.49330000000009
  0
LINE
  8
_0-0_LAYER001
  6
CONTINUOUS
 62
    2
 10
1592.2413999999999
 20
988.59490000000005
 11
1556.2327
 21
972.39110000000005
  0
LINE
  8
_0-0_LAYER001
  6
CONTINUOUS
 62
    2
 10
1599.0021000000002
 20
989.99250000000006
 11
1575.2116999999998
 21
945.3891000000001
  0
LINE
  8
_0-0_LAYER001
  6
CONTINUOUS
 62
    2
 10
1611.6873999999998
 20
961.80320000000006
 11
1562.5264999999999
 21
973.57850000000008
  0
LINE
  8
_0-0_LAYER001
  6
CONTINUOUS
 62
    2
 10
1277.8136999999999
 20
989.92360000000008
 11
1301.6351
 21
945.3891000000001
  0
LINE
  8
_0-0_LAYER001
  6
CONTINUOUS
 62
    2
 10
1265.1594
 20
961.80320000000006
 11
1314.2893999999999
 21
973.50960000000009
  0
LINE
  8
_0-0_LAYER001
  6
CONTINUOUS
 62
    2
 10
1377.3409999999999
 20
919.89360000000011
 11
1377.3409999999999
 21
912.39360000000011
  0
LINE
  8
_0-0_LAYER001
  6
CONTINUOUS
 62
    2
 10
1377.3409999999999
 20
912.39360000000011
 11
1373.5909999999999
 21
918.88879999999995
  0
LINE
  8
_0-0_LAYER001
  6
CONTINUOUS
 62
    2
 10
1377.3409999999999
 20
912.39360000000011
 11
1294.2505000000001
 21
1222.4917
  0
LINE
  8
_0-0_LAYER001
  6
CONTINUOUS
 62
    2
 10
1294.2505000000001
 20
1222.4917
 11
1093.2505000000001
 21
1222.4917
  0
LINE
  8
_0-0_LAYER001
  6
CONTINUOUS
 62
    2
 10
1767.9203000000002
 20
1030.2426
 11
1765.9792000000002
 21
1037.4870000000001
  0
LINE
  8
_0-0_LAYER001
  6
CONTINUOUS
 62
    2
 10
1765.9792000000002
 20
1037.4870000000001
 11
1771.2824999999998
 21
1032.1837
  0
LINE
  8
_0-0_LAYER001
  6
CONTINUOUS
 62
    2
 10
1765.9792000000002
 20
1037.4870000000001
 11
1950.9171999999999
 21
717.16499999999996
  0
LINE
  8
_0-0_LAYER001
  6
CONTINUOUS
 62
    2
 10
1916.4841000000001
 20
777.12689999999998
 11
2152.6093000000001
 21
777.12689999999998
  0
LINE
  8
_0-0_LAYER001
  6
CONTINUOUS
 62
    2
 10
1898.8074999999999
 20
807.10789999999997
 11
2091.2002000000002
 21
807.10789999999997
  0
LINE
  8
_0-1_LAYER002
  6
CONTINUOUS
 62
    7
 10
1093.2505000000001
 20
1222.4917
 11
1294.2505000000001
 21
1222.4917
  0
LINE
  8
_0-1_LAYER002
  6
CONTINUOUS
 62
    7
 10
1898.9886404873846
 20
807.10789999999997
 11
2096.4841000000001
 21
807.10789999999997
  0
LINE
  8
_0-1_LAYER002
  6
CONTINUOUS
 62
    7
 10
1916.4841000000001
 20
777.12689999999998
 11
2152.6093000000001
 21
777.12689999999998
  0
LINE
  8
_0-1_LAYER002
  6
CONTINUOUS
 62
    7
 10
1619.6377000000002
 20
1168.1878999999999
 11
1754.8209000000002
 21
1168.1878999999999
  0
LINE
  8
_0-1_LAYER002
  6
CONTINUOUS
 62
    7
 10
1294.2505000000001
 20
1222.4917
 11
1377.3409999999999
 21
912.39360000000011
  0
LINE
  8
_0-1_LAYER002
  6
CONTINUOUS
 62
    7
 10
1377.3409999999999
 20
912.39360000000011
 11
1377.3409999999999
 21
919.89360000000011
  0
LINE
  8
_0-1_LAYER002
  6
CONTINUOUS
 62
    7
 10
1377.3409999999999
 20
912.39360000000011
 11
1373.5909999999999
 21
918.88879999999995
  0
LINE
  8
_0-1_LAYER002
  6
CONTINUOUS
 62
    7
 10
1438.4234000000001
 20
885.47919999999999
 11
1320.6141
 21
938.49330000000009
  0
LINE
  8
_0-1_LAYER002
  6
CONTINUOUS
 62
    7
 10
1320.6141
 20
938.49330000000009
 11
1320.6141
 21
972.30829999999992
  0
LINE
  8
_0-1_LAYER002
  6
CONTINUOUS
 62
    7
 10
1320.6141
 20
972.30829999999992
 11
1284.5744999999999
 21
988.52590000000009
  0
LINE
  8
_0-1_LAYER002
  6
CONTINUOUS
 62
    7
 10
1284.5744999999999
 20
988.52590000000009
 11
1295.0121999999999
 21
986.52870000000007
  0
LINE
  8
_0-1_LAYER002
  6
CONTINUOUS
 62
    7
 10
1277.8136999999999
 20
989.92360000000008
 11
1314.2893999999999
 21
973.50960000000009
  0
LINE
  8
_0-1_LAYER002
  6
CONTINUOUS
 62
    7
 10
1314.2893999999999
 20
973.50960000000009
 11
1301.6351
 21
945.3891000000001
  0
LINE
  8
_0-1_LAYER002
  6
CONTINUOUS
 62
    7
 10
1301.6351
 20
945.3891000000001
 11
1265.1594
 21
961.80320000000006
  0
LINE
  8
_0-1_LAYER002
  6
CONTINUOUS
 62
    7
 10
1265.1594
 20
961.80320000000006
 11
1277.8136999999999
 21
989.92360000000008
  0
LINE
  8
_0-1_LAYER002
  6
CONTINUOUS
 62
    7
 10
1277.8136999999999
 20
989.92360000000008
 11
1301.6351
 21
945.3891000000001
  0
LINE
  8
_0-1_LAYER002
  6
CONTINUOUS
 62
    7
 10
1314.2893999999999
 20
973.50960000000009
 11
1265.1594
 21
961.80320000000006
  0
LINE
  8
_0-1_LAYER002
  6
CONTINUOUS
 62
    7
 10
1438.4234000000001
 20
883.83429999999998
 11
692.21450000000004
 21
1219.6277
  0
LINE
  8
_0-1_LAYER002
  6
CONTINUOUS
 62
    7
 10
690.98340000000007
 20
1216.8919000000001
 11
1438.4234000000001
 21
880.54459999999995
  0
LINE
  8
_0-1_LAYER002
  6
CONTINUOUS
 62
    7
 10
1438.4234000000001
 20
882.18949999999995
 11
1165.4623999999999
 21
1005.0217
  0
LINE
  8
_0-1_LAYER002
  6
CONTINUOUS
 62
    7
 10
1165.4623999999999
 20
1005.0217
 11
1154.5877438159953
 21
980.85573917972499
  0
LINE
  8
_0-1_LAYER002
  6
CONTINUOUS
 62
    7
 10
1438.4234000000001
 20
853.13000000000011
 11
680.72430000000008
 21
1194.0939000000001
  0
LINE
  8
_0-1_LAYER002
  6
CONTINUOUS
 62
    7
 10
1305.7399805218699
 20
912.83735671182694
 11
1304.7962000000002
 21
910.73990000000003
  0
LINE
  8
_0-1_LAYER002
  6
CONTINUOUS
 62
    7
 10
1304.7962000000002
 20
910.73990000000003
 11
1438.4234000000001
 21
850.6078
  0
LINE
  8
_0-1_LAYER002
  6
CONTINUOUS
 62
    7
 10
1438.4234000000001
 20
850.6078
 11
1572.0506999999998
 21
910.73990000000003
  0
LINE
  8
_0-1_LAYER002
  6
CONTINUOUS
 62
    7
 10
1572.0506999999998
 20
910.73990000000003
 11
1571.1068350628009
 21
912.83732208472838
  0
LINE
  8
_0-1_LAYER002
  6
CONTINUOUS
 62
    7
 10
1438.4234000000001
 20
853.13000000000011
 11
2211.4007999999999
 21
1200.9691
  0
LINE
  8
_0-1_LAYER002
  6
CONTINUOUS
 62
    7
 10
2201.1417000000001
 20
1223.7672
 11
1438.4234000000001
 21
880.54459999999995
  0
LINE
  8
_0-1_LAYER002
  6
CONTINUOUS
 62
    7
 10
1438.4234000000001
 20
883.83429999999998
 11
2199.9106000000002
 21
1226.5029
  0
LINE
  8
_0-1_LAYER002
  6
CONTINUOUS
 62
    7
 10
1982.2424999999998
 20
1146.7752
 11
1988.7341999999999
 21
1133.2475999999999
  0
LINE
  8
_0-1_LAYER002
  6
CONTINUOUS
 62
    7
 10
1988.7341999999999
 20
1133.2475999999999
 11
2016.0999999999999
 21
1145.5623000000001
  0
LINE
  8
_0-1_LAYER002
  6
CONTINUOUS
 62
    7
 10
2016.0999999999999
 20
1145.5623000000001
 11
2009.6084000000001
 21
1159.0898999999999
  0
LINE
  8
_0-1_LAYER002
  6
CONTINUOUS
 62
    7
 10
2009.6084000000001
 20
1159.0898999999999
 11
1982.2424999999998
 21
1146.7752
  0
LINE
  8
_0-1_LAYER002
  6
CONTINUOUS
 62
    7
 10
1988.7341999999999
 20
1133.2475999999999
 11
2009.6084000000001
 21
1159.0898999999999
  0
LINE
  8
_0-1_LAYER002
  6
CONTINUOUS
 62
    7
 10
1750.9974999999999
 20
1026.2659000000001
 11
1744.5059000000001
 21
1039.7934
  0
LINE
  8
_0-1_LAYER002
  6
CONTINUOUS
 62
    7
 10
1744.5059000000001
 20
1039.7934
 11
1771.8717999999999
 21
1052.1080999999999
  0
LINE
  8
_0-1_LAYER002
  6
CONTINUOUS
 62
    7
 10
1771.8717999999999
 20
1052.1080999999999
 11
1778.3634000000002
 21
1038.5806
  0
LINE
  8
_0-1_LAYER002
  6
CONTINUOUS
 62
    7
 10
1778.3634000000002
 20
1038.5806
 11
1750.9974999999999
 21
1026.2659000000001
  0
LINE
  8
_0-1_LAYER002
  6
CONTINUOUS
 62
    7
 10
1750.9974999999999
 20
1026.2659000000001
 11
1771.8717999999999
 21
1052.1080999999999
  0
LINE
  8
_0-1_LAYER002
  6
CONTINUOUS
 62
    7
 10
1765.9792000000002
 20
1037.4870000000001
 11
1767.9203000000002
 21
1030.2426
  0
LINE
  8
_0-1_LAYER002
  6
CONTINUOUS
 62
    7
 10
1765.9792000000002
 20
1037.4870000000001
 11
1771.2824999999998
 21
1032.1837
  0
LINE
  8
_0-1_LAYER002
  6
CONTINUOUS
 62
    7
 10
1765.9792000000002
 20
1037.4870000000001
 11
1950.9171999999999
 21
717.16499999999996
  0
LINE
  8
_0-1_LAYER002
  6
CONTINUOUS
 62
    7
 10
1611.6873999999998
 20
961.80320000000006
 11
1599.0021000000002
 21
989.99250000000006
  0
LINE
  8
_0-1_LAYER002
  6
CONTINUOUS
 62
    7
 10
1599.0021000000002
 20
989.99250000000006
 11
1562.5264999999999
 21
973.57850000000008
  0
LINE
  8
_0-1_LAYER002
  6
CONTINUOUS
 62
    7
 10
1562.5264999999999
 20
973.57850000000008
 11
1575.2116999999998
 21
945.3891000000001
  0
LINE
  8
_0-1_LAYER002
  6
CONTINUOUS
 62
    7
 10
1575.2116999999998
 20
945.3891000000001
 11
1599.0021000000002
 21
989.99250000000006
  0
LINE
  8
_0-1_LAYER002
  6
CONTINUOUS
 62
    7
 10
1562.5264999999999
 20
973.57850000000008
 11
1611.6873999999998
 21
961.80320000000006
  0
LINE
  8
_0-1_LAYER002
  6
CONTINUOUS
 62
    7
 10
1711.3843999999999
 20
1005.0217
 11
1438.4234000000001
 21
882.18949999999995
  0
LINE
  8
_0-1_LAYER002
  6
CONTINUOUS
 62
    7
 10
1439.4493000000002
 20
878.26479999999992
 11
1438.4234000000001
 21
880.54459999999995
  0
LINE
  8
_0-1_LAYER002
  6
CONTINUOUS
 62
    7
 10
1438.4234000000001
 20
880.54459999999995
 11
1448.5637000000002
 21
858.01070000000004
  0
LINE
  8
_0-1_LAYER002
  6
CONTINUOUS
 62
    7
 10
1438.4234000000001
 20
880.54459999999995
 11
1428.0889999999999
 21
857.5791999999999
  0
LINE
  8
_0-1_LAYER002
  6
CONTINUOUS
 62
    7
 10
1438.4234000000001
 20
885.47919999999999
 11
1556.2327
 21
938.49330000000009
  0
LINE
  8
_0-1_LAYER002
  6
CONTINUOUS
 62
    7
 10
1556.2327
 20
938.49330000000009
 11
1556.2327
 21
972.39110000000005
  0
LINE
  8
_0-1_LAYER002
  6
CONTINUOUS
 62
    7
 10
1556.2327
 20
972.39110000000005
 11
1592.2413999999999
 21
988.59490000000005
  0
LINE
  8
_0-1_LAYER002
  6
CONTINUOUS
 62
    7
 10
1592.2413999999999
 20
988.59490000000005
 11
1581.8036000000002
 21
986.59760000000006
  0
LINE
  8
_0-1_LAYER002
  6
CONTINUOUS
 62
    7
 10
1568.4540999999999
 20
984.66820000000007
 11
1568.4540999999999
 21
977.16820000000007
  0
LINE
  8
_0-1_LAYER002
  6
CONTINUOUS
 62
    7
 10
1568.4540999999999
 20
977.16820000000007
 11
1572.2040999999999
 21
983.66339999999991
  0
LINE
  8
_0-1_LAYER002
  6
CONTINUOUS
 62
    7
 10
1568.4540999999999
 20
977.8906909688493
 11
1619.6377000000002
 21
1168.1878999999999
  0
LINE
  8
_0-1_LAYER002
  6
CONTINUOUS
 62
    7
 10
1680.7134000000001
 20
1192.9815000000001
 11
1653.3315505213593
 21
1269.9567814538605
  0
LINE
  8
_0-1_LAYER002
  6
CONTINUOUS
 62
    7
 10
1663.8661155910254
 20
1240.0583081315831
 11
1418.8740000000003
 21
1153.7366
  0
LINE
  8
_0-1_LAYER002
  6
CONTINUOUS
 62
    7
 10
1418.0432000000001
 20
1156.0944999999999
 11
1435.4901
 21
1106.5782999999999
  0
LINE
  8
_0-1_LAYER002
  6
CONTINUOUS
 62
    7
 10
1497.6131864004119
 20
1117.8313694171238
 11
1518.8289
 21
1070.6849999999999
  0
LINE
  8
_0-1_LAYER002
  6
CONTINUOUS
 62
    7
 10
1498.3108000000002
 20
1116.2810999999999
 11
1361.5225
 21
1054.7268999999999
  0
LINE
  8
_0-1_LAYER002
  6
CONTINUOUS
 62
    7
 10
1360.8249219848447
 20
1056.2771854294522
 11
1382.0405000000001
 21
1009.1307999999999
  0
LINE
  8
_0-1_LAYER002
  6
CONTINUOUS
 62
    7
 10
1438.4234000000001
 20
729.98340000000007
 11
2257.4847
 21
1098.5601999999999
  0
LINE
  8
_0-1_LAYER002
  6
CONTINUOUS
 62
    7
 10
1711.3843999999999
 20
1005.0217
 11
1820.1194
 21
763.38789999999995
  0
LINE
  8
_0-1_LAYER002
  6
CONTINUOUS
 62
    7
 10
1524.9987999999998
 20
688.15460000000007
 11
1546.5428999999999
 21
640.27870000000007
  0
LINE
  8
_0-1_LAYER002
  6
CONTINUOUS
 62
    7
 10
1819.0934938619848
 20
765.66769723789821
 11
1545.5169999999998
 21
642.55850000000009
  0
LINE
  8
_0-1_LAYER002
  6
CONTINUOUS
 62
    7
 10
1770.3123999999998
 20
833.40429999999992
 11
1787.6680000000001
 21
835.5021999999999
  0
LINE
  8
_0-1_LAYER002
  6
CONTINUOUS
 62
    7
 10
1787.2721000000001
 20
835.4380000000001
 11
1774.5947999999999
 21
823.88799999999992
  0
LINE
  8
_0-1_LAYER002
  6
CONTINUOUS
 62
    7
 10
1787.6752000000001
 20
835.48630000000003
 11
1534.3128999999999
 21
721.6065000000001
  0
LINE
  8
_0-1_LAYER002
  6
CONTINUOUS
 62
    7
 10
1330.6322876676043
 20
641.00823001264644
 11
1351.8480999999999
 21
688.15460000000007
  0
LINE
  8
_0-1_LAYER002
  6
CONTINUOUS
 62
    7
 10
1331.3299000000002
 20
642.55850000000009
 11
1057.7533000000001
 21
765.66769999999997
  0
LINE
  8
_0-1_LAYER002
  6
CONTINUOUS
 62
    7
 10
1056.7274
 20
763.38789999999995
 11
1154.5877438159953
 21
980.85573917972499
  0
LINE
  8
_0-1_LAYER002
  6
CONTINUOUS
 62
    7
 10
1106.5344
 20
833.40429999999992
 11
1089.1787999999999
 21
835.5021999999999
  0
LINE
  8
_0-1_LAYER002
  6
CONTINUOUS
 62
    7
 10
1089.1787999999999
 20
835.5021999999999
 11
1102.252
 21
823.88799999999992
  0
LINE
  8
_0-1_LAYER002
  6
CONTINUOUS
 62
    7
 10
1089.5747746073655
 20
835.43796642673465
 11
1340.1723999999999
 21
722.66920000000005
  0
LINE
  8
_0-1_LAYER002
  6
CONTINUOUS
 62
    7
 10
1438.4234000000001
 20
729.98340000000007
 11
634.6404
 21
1091.6849999999999
  0
LINE
  8
_0-1_LAYER002
  6
CONTINUOUS
 62
    7
 10
860.74679999999989
 20
1145.0139999999999
 11
867.23839999999996
 21
1158.5416
  0
LINE
  8
_0-1_LAYER002
  6
CONTINUOUS
 62
    7
 10
867.23839999999996
 20
1158.5416
 11
894.60429999999997
 21
1146.2268999999999
  0
LINE
  8
_0-1_LAYER002
  6
CONTINUOUS
 62
    7
 10
894.60429999999997
 20
1146.2268999999999
 11
888.1126999999999
 21
1132.6993
  0
LINE
  8
_0-1_LAYER002
  6
CONTINUOUS
 62
    7
 10
888.1126999999999
 20
1132.6993
 11
860.74679999999989
 21
1145.0139999999999
  0
LINE
  8
_0-1_LAYER002
  6
CONTINUOUS
 62
    7
 10
867.23839999999996
 20
1158.5416
 11
888.1126999999999
 21
1132.6993
  0
LINE
  8
_0-1_LAYER002
  6
CONTINUOUS
 62
    7
 10
1098.4834000000001
 20
1038.0323000000001
 11
1104.9751000000001
 21
1051.5598
  0
LINE
  8
_0-1_LAYER002
  6
CONTINUOUS
 62
    7
 10
1104.9751000000001
 20
1051.5598
 11
1132.3408999999999
 21
1039.2451000000001
  0
LINE
  8
_0-1_LAYER002
  6
CONTINUOUS
 62
    7
 10
1132.3408999999999
 20
1039.2451000000001
 11
1125.8493000000001
 21
1025.7175999999999
  0
LINE
  8
_0-1_LAYER002
  6
CONTINUOUS
 62
    7
 10
1125.8493000000001
 20
1025.7175999999999
 11
1098.4834000000001
 21
1038.0323000000001
  0
LINE
  8
_0-1_LAYER002
  6
CONTINUOUS
 62
    7
 10
1104.9751000000001
 20
1051.5598
 11
1125.8493000000001
 21
1025.7175999999999
  0
LINE
  8
_0-1_LAYER002
  6
CONTINUOUS
 62
    7
 10
1653.9013070818669
 20
1268.3550937504983
 11
1899.1199000000001
 21
1354.7566000000002
  0
LINE
  8
_0-1_LAYER002
  6
CONTINUOUS
 62
    7
 10
1915.7359000000001
 20
1307.5983000000001
 11
1888.3195000000001
 21
1385.4095000000002
  0
LINE
  8
_0-1_LAYER002
  6
CONTINUOUS
 62
    7
 10
1888.3195000000001
 20
1385.4095000000002
 11
1889.1502999999998
 21
1383.0516
  0
LINE
  8
_0-1_LAYER002
  6
CONTINUOUS
 62
    7
 10
1889.1502999999998
 20
1383.0516
 11
2106.7483999999999
 21
1459.7212
  0
TEXT
  8
_0-0_LAYER001
 62
    7
 10
1338.7882000000002
 20
701.45639999999958
 40
20
 41
1
 50
0
  1
この範囲ルーフィング２枚葺き
  0
TEXT
  8
_0-0_LAYER001
 62
    7
 10
1898.8075000000001
 20
809.60789999999986
 40
20
 41
1
 50
0
  1
　瓦桟：１５ｘ３０以上　
  0
TEXT
  8
_0-0_LAYER001
 62
    7
 10
1061.8442894680989
 20
1227.8509618607277
 40
20
 41
1
 50
0
  1
谷樋カラー鋼板0.35ｍｍ以上
  0
TEXT
  8
_0-0_LAYER001
 62
    7
 10
1435.0856586789857
 20
1042.9582465571864
 40
20
 41
1
 50
24.227546
  1
150
  0
TEXT
  8
_0-0_LAYER001
 62
    7
 10
1523.2120930760004
 20
1212.2992381436072
 40
20
 41
1
 50
19.409661000000014
  1
260
  0
TEXT
  8
_0-0_LAYER001
 62
    7
 10
1758.215918134707
 20
1322.8892734653516
 40
20
 41
1
 50
19.40966100000001
  1
260
  0
TEXT
  8
_0-0_LAYER001
 62
    7
 10
2001.8595897029245
 20
1433.4793087870958
 40
20
 41
1
 50
19.40966099999995
  1
260
  0
TEXT
  8
_0-0_LAYER001
 62
    7
 10
1191.441987110768
 20
723.28392570526967
 40
20
 41
1
 50
-24.227705000000011
  1
300
  0
TEXT
  8
_0-0_LAYER001
 62
    7
 10
1673.5454223414965
 20
714.64407919575842
 40
20
 41
1
 50
24.227705000000011
  1
300
  0
TEXT
  8
_0-0_LAYER001
 62
    7
 10
1934.1358000000002
 20
748.73119999999972
 40
20
 41
1
 50
0
  1
　野地板：硬質木片セメントパネルt＝25
  0
TEXT
  8
_0-0_LAYER001
 62
    7
 10
1948.2925413439548
 20
719.82798710146517
 40
20
 41
1
 50
0
  1
　鋼製：C100x50x⑳x2.3@606　
  0
LINE
  8
_0-0_LAYER001
  6
CONTINUOUS
 62
    2
 10
1950.9171999999999
 20
717.16499999999996
 11
2229.9515375540223
 21
717.16499999999996
  0
LINE
  8
_0-1_LAYER002
  6
CONTINUOUS
 62
    7
 10
1950.9171999999999
 20
717.16499999999996
 11
2226.4955989502178
 21
717.16499999999996
  0
LINE
  8
_0-0_LAYER001
  6
CONTINUOUS
 62
    2
 10
1934.1358
 20
746.23119999999994
 11
2331.9017263662549
 21
746.23119999999994
  0
TEXT
  8
_0-0_LAYER001
 62
    7
 10
1920.6450325135188
 20
782.03488196994624
 40
20
 41
1
 50
0
  1
下葺材：ルーフィング
  0
LINE
  8
_0-1_LAYER002
  6
CONTINUOUS
 62
    7
 10
1934.1358209639047
 20
746.23119999999994
 11
2321.5339105548414
 21
746.23119999999994
  0
TEXT
  8
_0-0_LAYER001
 62
    7
 10
1630.3461897939403
 20
1172.5559441998555
 40
20
 41
1
 50
0
  1
桟木：30x40
  0
ENDSEC
  0
EOF
