  0
SECTION
  2
HEADER
  9
$ACADVER
  1
AC1009
  9
$INSBASE
 10
0
 20
0
 30
0
  9
$EXTMIN
 10
0
 20
0
  9
$EXTMAX
 10
2970
 20
2100
  9
$LIMMIN
 10
0
 20
0
  9
$LIMMAX
 10
2970
 20
2100
  9
$LTSCALE
 40
10
  0
ENDSEC
  0
SECTION
  2
TABLES
  0
TABLE
  2
LTYPE
 70
     9
  0
LTYPE
  2
CONTINUOUS
 70
    64
  3
実線
 72
    65
 73
     0
 40
0.0
  0
LTYPE
  2
DASHED1
 70
    64
  3
--  --  --  --  --  --  --  --  
 72
    65
 73
     2
 40
2.5
 49
1.25
 49
-1.25
  0
LTYPE
  2
DASHED2
 70
    64
  3
----    ----    ----    ----    
 72
    65
 73
     2
 40
5.0
 49
2.5
 49
-2.5
  0
LTYPE
  2
DASHED3
 70
    64
  3
------  ------  ------  ------  
 72
    65
 73
     2
 40
5.0
 49
3.75
 49
-1.25
  0
LTYPE
  2
CENTER1
 70
    64
  3
----- - ----- - ----- - ----- - 
 72
    65
 73
     4
 40
10.0
 49
6.25
 49
-1.25
 49
1.25
 49
-1.25
  0
LTYPE
  2
CENTER2
 70
    64
  3
----------  --  ----------  --  
 72
    65
 73
     4
 40
20.0
 49
12.5
 49
-2.5
 49
2.5
 49
-2.5
  0
LTYPE
  2
PHANTOM1
 70
    64
  3
--- - - --- - - --- - - --- - - 
 72
    65
 73
     6
 40
10.0
 49
3.25
 49
-1.25
 49
1.25
 49
-1.25
 49
1.25
 49
-1.25
  0
LTYPE
  2
PHANTOM2
 70
    64
  3
--------  -  -  --------  -  -  
 72
    65
 73
     6
 40
20.0
 49
10.0
 49
-2.5
 49
1.25
 49
-2.5
 49
1.25
 49
-2.5
  0
LTYPE
  2
DOT
 70
    64
  3
-   -   -   -   -   -   -   -   
 72
    65
 73
     2
 40
2.5
 49
0.625
 49
-1.875
  0
LTYPE
  2
DUMMY
 70
    64
  3
ダミー
 72
    65
 73
     0
 40
0.0
  0
LTYPE
  2
RAND1
 70
    64
  3
ランダム線1
 72
    65
 73
     4
 40
10.0
 49
1.0
 49
-2.0
 49
3.0
 49
-4.0
  0
LTYPE
  2
RAND2
 70
    64
  3
ランダム線2
 72
    65
 73
     4
 40
14.0
 49
2.0
 49
-3.0
 49
4.0
 49
-5.0
  0
LTYPE
  2
RAND3
 70
    64
  3
ランダム線3
 72
    65
 73
     4
 40
18.0
 49
3.0
 49
-4.0
 49
5.0
 49
-6.0
  0
LTYPE
  2
RAND4
 70
    64
  3
ランダム線4
 72
    65
 73
     4
 40
22.0
 49
4.0
 49
-5.0
 49
6.0
 49
-7.0
  0
LTYPE
  2
RAND5
 70
    64
  3
ランダム線5
 72
    65
 73
     4
 40
26.0
 49
5.0
 49
-6.0
 49
7.0
 49
-8.0
  0
LTYPE
  2
LONG1
 70
    64
  3
----------  --  ----------  --  
 72
    65
 73
     4
 40
40.0
 49
32.5
 49
-2.5
 49
2.5
 49
-2.5
  0
LTYPE
  2
LONG2
 70
    64
  3
--------  -  -  --------  -  -  
 72
    65
 73
     6
 40
40.0
 49
30.0
 49
-2.5
 49
1.25
 49
-2.5
 49
1.25
 49
-2.5
  0
LTYPE
  2
LONG3
 70
    64
  3
+++++++++++++++..+++++++++++++++
 72
    65
 73
     2
 40
40.0
 49
37.5
 49
-2.5
  0
LTYPE
  2
LONG4
 70
    64
  3
+++++++++++++++..+++++++++++++++
 72
    65
 73
     2
 40
80.0
 49
75.0
 49
-5.0
  0
LTYPE
  2
LONG5
 70
    64
  3
----------  --  ----------  --  
 72
    65
 73
     4
 40
60.0
 49
37.5
 49
-7.5
 49
7.5
 49
-7.5
  0
LTYPE
  2
dashed
 70
   64
  3
-------   -------------   ------
 72
   65
 73
    2
 40
7.5
 49
6
 49
-1.5
  0
LTYPE
  2
dashed_spaced
 70
   64
  3
----        --------        ----
 72
   65
 73
    2
 40
12
 49
6
 49
-6
  0
LTYPE
  2
long_dashed_dotted
 70
   64
  3
------------- --- --------------
 72
   65
 73
    4
 40
15.25
 49
12
 49
-1.5
 49
0.25
 49
-1.5
  0
LTYPE
  2
long_dashed_double-dotted
 70
   64
  3
----------- --- --- ------------
 72
   65
 73
    6
 40
17
 49
12
 49
-1.5
 49
0.25
 49
-1.5
 49
0.25
 49
-1.5
  0
LTYPE
  2
long_dashed_triplicate-dotted
 70
   64
  3
--------- --- --- --- ----------
 72
   65
 73
    8
 40
18.75
 49
12
 49
-1.5
 49
0.25
 49
-1.5
 49
0.25
 49
-1.5
 49
0.25
 49
-1.5
  0
LTYPE
  2
dotted
 70
   64
  3
   -       -       -       -    
 72
   65
 73
    2
 40
1.75
 49
0.25
 49
-1.5
  0
LTYPE
  2
chain
 70
   64
  3
-------------- -- --------------
 72
   65
 73
    4
 40
18.5
 49
12
 49
-1.5
 49
3.5
 49
-1.5
  0
LTYPE
  2
chain_double_dash
 70
   64
  3
------------ -- -- -------------
 72
   65
 73
    6
 40
23.5
 49
12
 49
-1.5
 49
3.5
 49
-1.5
 49
3.5
 49
-1.5
  0
LTYPE
  2
dashed_dotted
 70
   64
  3
-----------     -     ----------
 72
   65
 73
    4
 40
9.25
 49
6
 49
-1.5
 49
0.25
 49
-1.5
  0
LTYPE
  2
double-dashed_dotted
 70
   64
  3
------   -----------   -   -----
 72
   65
 73
    6
 40
16.75
 49
6
 49
-1.5
 49
6
 49
-1.5
 49
0.25
 49
-1.5
  0
LTYPE
  2
dashed_double-dotted
 70
   64
  3
---------    -    -    ---------
 72
   65
 73
    6
 40
11
 49
6
 49
-1.5
 49
0.25
 49
-1.5
 49
0.25
 49
-1.5
  0
LTYPE
  2
double-dashed_double-dotted
 70
   64
  3
-----   ---------   -   -   ----
 72
   65
 73
    8
 40
18.5
 49
6
 49
-1.5
 49
6
 49
-1.5
 49
0.25
 49
-1.5
 49
0.25
 49
-1.5
  0
LTYPE
  2
dashed_triplicate-dotted
 70
   64
  3
-------    -    -    -    ------
 72
   65
 73
    8
 40
12.75
 49
6
 49
-1.5
 49
0.25
 49
-1.5
 49
0.25
 49
-1.5
 49
0.25
 49
-1.5
  0
LTYPE
  2
double-dashed_triplicate-dotted
 70
   64
  3
-----  ---------  -  -  -  -----
 72
   65
 73
   10
 40
20.25
 49
6
 49
-1.5
 49
6
 49
-1.5
 49
0.25
 49
-1.5
 49
0.25
 49
-1.5
 49
0.25
 49
-1.5
  0
LTYPE
  2
undefined
 70
   64
  3
--------------------------------
 72
   65
 73
    0
 40
0
  0
ENDTAB
  0
TABLE
  2
STYLE
  5
3
100
AcDbSymbolTable
 70
     1
  0
STYLE
  5
10
100
AcDbSymbolTableRecord
100
AcDbTextStyleTableRecord
  2
STANDARD
 70
     0
 40
0.0
 41
1.0
 50
0.0
 71
     0
 42
0.2
  3
txt
  4
bigfont.shx
  0
STYLE
  5
26
100
AcDbSymbolTableRecord
100
AcDbTextStyleTableRecord
  2
TATEGAKI
 70
    68
 40
0.0
 41
1.0
 50
0.0
 71
     0
 42
1.0
  3
txt
  4
bigfont.shx
  0
ENDTAB
  0
TABLE
  2
LAYER
 70
    5
  0
LAYER
  2
_0-0_LAYER001
 70
   64
 62
    7
  6
CONTINUOUS
  0
LAYER
  2
_0-1_LAYER002
 70
   64
 62
    7
  6
CONTINUOUS
  0
LAYER
  2
_0-2_LAYER003
 70
   64
 62
    7
  6
CONTINUOUS
  0
LAYER
  2
_0-3_LAYER009
 70
   64
 62
    7
  6
CONTINUOUS
  0
LAYER
  2
ADD_LINE
 70
   64
 62
    7
  6
CONTINUOUS
  0
ENDTAB
  0
ENDSEC
  0
SECTION
  2
BLOCKS
  0
ENDSEC
  0
SECTION
  2
ENTITIES
  0
LINE
  8
_0-2_LAYER003
  6
CONTINUOUS
 62
    2
 10
1484.886
 20
1104.6559
 11
1616.2029000000002
 21
1045.5634
  0
LINE
  8
_0-0_LAYER001
  6
CONTINUOUS
 62
    2
 10
1485
 20
1162.1751999999999
 11
2345.8213999999998
 21
774.80529999999999
  0
LINE
  8
_0-0_LAYER001
  6
CONTINUOUS
 62
    2
 10
1485
 20
1162.1751999999999
 11
627.6715999999999
 21
776.3771999999999
  0
LINE
  8
_0-0_LAYER001
  6
CONTINUOUS
 62
    2
 10
1890.5695000000001
 20
1032.0710999999999
 11
1885.2662
 21
1026.7678000000001
  0
LINE
  8
_0-0_LAYER001
  6
CONTINUOUS
 62
    2
 10
1885.2662
 20
1026.7678000000001
 11
1887.2073999999998
 21
1034.0123000000001
  0
LINE
  8
_0-0_LAYER001
  6
CONTINUOUS
 62
    2
 10
1885.2662
 20
1026.7678000000001
 11
1946.8402000000001
 21
1133.4170999999999
  0
LINE
  8
_0-0_LAYER001
  6
CONTINUOUS
 62
    2
 10
1464.4818
 20
1152.9421
 11
1485
 21
1107.346
  0
LINE
  8
_0-0_LAYER001
  6
CONTINUOUS
 62
    2
 10
1505.5182
 20
1152.9421
 11
1485
 21
1107.346
  0
LINE
  8
_0-3_LAYER009
  6
CONTINUOUS
 62
    2
 10
1288.6651000000002
 20
1018.9955
 11
1313.7431999999999
 21
1085.1098
  0
LINE
  8
_0-3_LAYER009
  6
CONTINUOUS
 62
    2
 10
1284.7963
 20
1017.2544
 11
1309.8741
 21
1083.3688
  0
LINE
  8
_0-3_LAYER009
  6
CONTINUOUS
 62
    2
 10
1485
 20
1107.346
 11
648.18949999999995
 21
730.78199999999993
  0
LINE
  8
_0-1_LAYER002
  6
CONTINUOUS
 62
    2
 10
1430.1267000000003
 20
992.18450000000007
 11
1432.2238000000002
 21
993.12820000000011
  0
LINE
  8
_0-1_LAYER002
  6
CONTINUOUS
 62
    2
 10
1405.5029
 20
1046.8992000000001
 11
1407.6007999999999
 21
1047.8427999999999
  0
LINE
  8
_0-1_LAYER002
  6
CONTINUOUS
 62
    2
 10
1399.3475000000001
 20
1060.5787
 11
1405.5029
 21
1046.8992000000001
  0
LINE
  8
_0-1_LAYER002
  6
CONTINUOUS
 62
    2
 10
1359.3009999999999
 20
1045.5186000000001
 11
1395.7768000000001
 21
1061.9326000000001
  0
LINE
  8
_0-1_LAYER002
  6
CONTINUOUS
 62
    2
 10
1394.8342
 20
1064.0296000000001
 11
1358.3566000000001
 21
1047.6144999999999
  0
LINE
  8
_0-1_LAYER002
  6
CONTINUOUS
 62
    2
 10
1401.4452000000001
 20
1061.5223000000001
 11
1407.6007999999999
 21
1047.8427999999999
  0
LINE
  8
_0-1_LAYER002
  6
CONTINUOUS
 62
    2
 10
1392.7824000000001
 20
958.92949999999996
 11
1355.8490999999999
 21
1041.0033000000001
  0
LINE
  8
_0-1_LAYER002
  6
CONTINUOUS
 62
    2
 10
1435.8721
 20
972.83750000000009
 11
1399.3932999999997
 21
956.4221
  0
LINE
  8
_0-1_LAYER002
  6
CONTINUOUS
 62
    2
 10
1438.3793999999998
 20
979.44849999999997
 11
1432.2238000000002
 21
993.12820000000011
  0
LINE
  8
_0-1_LAYER002
  6
CONTINUOUS
 62
    2
 10
1436.2826
 20
978.50500000000011
 11
1430.1267000000003
 21
992.18450000000007
  0
LINE
  8
_0-1_LAYER002
  6
CONTINUOUS
 62
    2
 10
1398.4509
 20
958.51919999999996
 11
1434.9285
 21
974.9344000000001
  0
LINE
  8
_0-1_LAYER002
  6
CONTINUOUS
 62
    2
 10
1394.8803
 20
959.8732
 11
1357.9472000000001
 21
1041.9480000000001
  0
LINE
  8
_0-0_LAYER001
  6
CONTINUOUS
 62
    2
 10
1398.9386
 20
945.25260000000003
 11
1362.0046
 21
1027.3253
  0
LINE
  8
_0-0_LAYER001
  6
CONTINUOUS
 62
    2
 10
1357.6732999999999
 20
1019.8932
 11
1385.5789
 21
957.88310000000001
  0
LINE
  8
_0-0_LAYER001
  6
CONTINUOUS
 62
    2
 10
1360.1806999999999
 20
1026.5053
 11
1362.0046
 21
1027.3253
  0
LINE
  8
_0-0_LAYER001
  6
CONTINUOUS
 62
    2
 10
1318.5520999999999
 20
916.75440000000003
 11
1380.5632000000001
 21
944.66000000000008
  0
LINE
  8
_0-0_LAYER001
  6
CONTINUOUS
 62
    2
 10
1376.4129
 20
1000.9117000000001
 11
1379.1493
 21
1002.1425999999999
  0
LINE
  8
_0-0_LAYER001
  6
CONTINUOUS
 62
    2
 10
1369.847
 20
1015.5019
 11
1372.5833
 21
1016.7328
  0
LINE
  8
_0-0_LAYER001
  6
CONTINUOUS
 62
    2
 10
1385.7147
 20
987.55359999999996
 11
1372.5833
 21
1016.7328
  0
LINE
  8
_0-0_LAYER001
  6
CONTINUOUS
 62
    2
 10
1382.9784
 20
986.32159999999999
 11
1385.7147
 21
987.55359999999996
  0
LINE
  8
_0-0_LAYER001
  6
CONTINUOUS
 62
    2
 10
1384.9858999999997
 20
1013.5411999999999
 11
1395.6549999999997
 21
1018.3431
  0
LINE
  8
_0-0_LAYER001
  6
CONTINUOUS
 62
    2
 10
1391.5513000000001
 20
998.952
 11
1402.2206000000001
 21
1003.7528
  0
LINE
  8
_0-0_LAYER001
  6
CONTINUOUS
 62
    2
 10
1390.1333
 20
999.49050000000011
 11
1381.992
 21
995.8273999999999
  0
LINE
  8
_0-0_LAYER001
  6
CONTINUOUS
 62
    2
 10
1384.4472999999998
 20
1012.125
 11
1376.3069999999998
 21
1008.4611
  0
LINE
  8
_0-0_LAYER001
  6
CONTINUOUS
 62
    2
 10
1381.6052999999999
 20
1018.4434000000001
 11
1373.4629
 21
1014.7791999999999
  0
LINE
  8
_0-0_LAYER001
  6
CONTINUOUS
 62
    2
 10
1383.3425999999999
 20
1017.1917000000001
 11
1381.6052999999999
 21
1018.4434000000001
  0
LINE
  8
_0-0_LAYER001
  6
CONTINUOUS
 62
    2
 10
1393.1922
 20
995.30520000000001
 11
1383.3425999999999
 21
1017.1917000000001
  0
LINE
  8
_0-0_LAYER001
  6
CONTINUOUS
 62
    2
 10
1392.9764
 20
993.17200000000003
 11
1384.8352
 21
989.50810000000001
  0
LINE
  8
_0-0_LAYER001
  6
CONTINUOUS
 62
    2
 10
1393.1922
 20
995.30520000000001
 11
1392.9764
 21
993.17200000000003
  0
LINE
  8
_0-0_LAYER001
  6
CONTINUOUS
 62
    2
 10
1403.2245
 20
1006.3978999999999
 11
1402.2206000000001
 21
1003.7528
  0
LINE
  8
_0-0_LAYER001
  6
CONTINUOUS
 62
    2
 10
1398.2997
 20
1017.3399999999999
 11
1403.2245
 21
1006.3978999999999
  0
LINE
  8
_0-0_LAYER001
  6
CONTINUOUS
 62
    2
 10
1395.6549999999997
 20
1018.3431
 11
1398.2997
 21
1017.3399999999999
  0
LINE
  8
_0-0_LAYER001
  6
CONTINUOUS
 62
    2
 10
1395.6549999999997
 20
1018.3431
 11
1402.2206000000001
 21
1003.7528
  0
LINE
  8
_0-0_LAYER001
  6
CONTINUOUS
 62
    2
 10
1395.6549999999997
 20
1018.3431
 11
1399.6473000000001
 21
1002.595
  0
LINE
  8
_0-0_LAYER001
  6
CONTINUOUS
 62
    2
 10
1390.0989
 20
1015.8425999999999
 11
1394.0923
 21
1000.0944999999999
  0
LINE
  8
_0-0_LAYER001
  6
CONTINUOUS
 62
    2
 10
1356.9477000000002
 20
999.74849999999992
 11
1365.0889000000002
 21
1003.4114999999999
  0
LINE
  8
_0-0_LAYER001
  6
CONTINUOUS
 62
    2
 10
1362.6334999999999
 20
987.11380000000008
 11
1370.7748999999999
 21
990.77790000000005
  0
LINE
  8
_0-0_LAYER001
  6
CONTINUOUS
 62
    2
 10
1365.4757999999997
 20
980.7956999999999
 11
1373.6178999999997
 21
984.45949999999993
  0
LINE
  8
_0-0_LAYER001
  6
CONTINUOUS
 62
    2
 10
1363.7382
 20
982.0471
 11
1365.4757999999997
 21
980.7956999999999
  0
LINE
  8
_0-0_LAYER001
  6
CONTINUOUS
 62
    2
 10
1353.8887999999999
 20
1003.9338
 11
1363.7382
 21
982.0471
  0
LINE
  8
_0-0_LAYER001
  6
CONTINUOUS
 62
    2
 10
1354.1043999999999
 20
1006.0667000000001
 11
1362.2456999999999
 21
1009.7308
  0
LINE
  8
_0-0_LAYER001
  6
CONTINUOUS
 62
    2
 10
1353.8887999999999
 20
1003.9338
 11
1354.1043999999999
 21
1006.0667000000001
  0
LINE
  8
_0-0_LAYER001
  6
CONTINUOUS
 62
    2
 10
1316.0447999999999
 20
910.14329999999995
 11
1316.8657000000003
 21
908.31940000000009
  0
LINE
  8
_0-0_LAYER001
  6
CONTINUOUS
 62
    2
 10
1316.8657000000003
 20
908.31940000000009
 11
1398.9386999999999
 21
945.2521999999999
  0
LINE
  8
_0-0_LAYER001
  6
CONTINUOUS
 62
    2
 10
1360.5233000000001
 20
1106.1613
 11
1351.4029
 21
1102.0572999999999
  0
LINE
  8
_0-0_LAYER001
  6
CONTINUOUS
 62
    2
 10
1361.7532000000001
 20
1103.4248
 11
1352.6347000000001
 21
1099.3222000000001
  0
LINE
  8
_0-0_LAYER001
  6
CONTINUOUS
 62
    2
 10
1351.4029
 20
1102.0572999999999
 11
1352.6347000000001
 21
1099.3222000000001
  0
LINE
  8
_0-0_LAYER001
  6
CONTINUOUS
 62
    2
 10
1360.5233000000001
 20
1106.1613
 11
1361.7532000000001
 21
1103.4248
  0
LINE
  8
_0-0_LAYER001
  6
CONTINUOUS
 62
    2
 10
1355.9631999999999
 20
1104.1094000000001
 11
1357.194
 21
1101.3729000000001
  0
LINE
  8
_0-0_LAYER001
  6
CONTINUOUS
 62
    2
 10
1382.6367
 20
1044.8345999999999
 11
1378.5145
 21
1049.1207999999999
  0
LINE
  8
_0-0_LAYER001
  6
CONTINUOUS
 62
    2
 10
1382.6367
 20
1044.8345999999999
 11
1382.1622
 21
1050.7616
  0
LINE
  8
_0-0_LAYER001
  6
CONTINUOUS
 62
    2
 10
1360.8492000000001
 20
1085.3615
 11
1366.4770000000001
 21
1089.0528999999999
  0
LINE
  8
_0-0_LAYER001
  6
CONTINUOUS
 62
    2
 10
1362.9012
 20
1080.8022000000001
 11
1368.5300999999999
 21
1084.4928
  0
LINE
  8
_0-0_LAYER001
  6
CONTINUOUS
 62
    2
 10
1364.9540999999999
 20
1076.2419
 11
1370.5817
 21
1079.9336000000001
  0
LINE
  8
_0-0_LAYER001
  6
CONTINUOUS
 62
    2
 10
1367.0050000000001
 20
1071.6817000000001
 11
1372.6327000000001
 21
1075.3742999999999
  0
LINE
  8
_0-0_LAYER001
  6
CONTINUOUS
 62
    2
 10
1369.0569
 20
1067.1234999999999
 11
1374.6845000000003
 21
1070.8150000000001
  0
LINE
  8
_0-0_LAYER001
  6
CONTINUOUS
 62
    2
 10
1371.1087
 20
1062.5632000000001
 11
1376.7375999999999
 21
1066.2550000000001
  0
LINE
  8
_0-0_LAYER001
  6
CONTINUOUS
 62
    2
 10
1373.1615999999999
 20
1058.0041000000001
 11
1378.7883999999999
 21
1061.6946
  0
LINE
  8
_0-0_LAYER001
  6
CONTINUOUS
 62
    2
 10
1375.2126000000001
 20
1053.4438
 11
1380.8403000000001
 21
1057.1355000000001
  0
LINE
  8
_0-0_LAYER001
  6
CONTINUOUS
 62
    2
 10
1376.7484999999999
 20
1050.0318
 11
1382.3759
 21
1053.7235000000001
  0
LINE
  8
_0-0_LAYER001
  6
CONTINUOUS
 62
    2
 10
1360.2489
 20
1099.4606000000001
 11
1382.1622
 21
1050.7616
  0
LINE
  8
_0-0_LAYER001
  6
CONTINUOUS
 62
    2
 10
1361.7532000000001
 20
1103.4248
 11
1360.2489
 21
1099.4606000000001
  0
LINE
  8
_0-0_LAYER001
  6
CONTINUOUS
 62
    2
 10
1356.6022
 20
1097.8167000000001
 11
1378.5145
 21
1049.1207999999999
  0
LINE
  8
_0-0_LAYER001
  6
CONTINUOUS
 62
    2
 10
1352.6347000000001
 20
1099.3222000000001
 11
1356.6022
 21
1097.8167000000001
  0
LINE
  8
_0-3_LAYER009
  6
CONTINUOUS
 62
    2
 10
1485
 20
1162.1751999999999
 11
1099.8697999999999
 21
988.86709999999994
  0
LINE
  8
_0-2_LAYER003
  6
CONTINUOUS
 62
    2
 10
1485.114
 20
1104.6559
 11
1353.7972
 21
1045.5634
  0
LINE
  8
_0-2_LAYER003
  6
CONTINUOUS
 62
    2
 10
1353.7972
 20
1045.5634
 11
1352.7712999999999
 21
1047.8432
  0
ARC
  8
_0-1_LAYER002
  6
CONTINUOUS
 62
    2
 10
1396.8851
 20
1059.4703
 40
2.7000000000000002
 50
24.240375
 51
114.23247000000002
  0
ARC
  8
_0-1_LAYER002
  6
CONTINUOUS
 62
    2
 10
1360.4094
 20
1043.0563
 40
2.7000000000000002
 50
114.23247000000002
 51
204.21279000000001
  0
ARC
  8
_0-1_LAYER002
  6
CONTINUOUS
 62
    2
 10
1360.4072999999999
 20
1043.0553
 40
4.9989999999999997
 50
114.22008
 51
204.23072999999999
  0
ARC
  8
_0-1_LAYER002
  6
CONTINUOUS
 62
    2
 10
1396.8860999999997
 20
1059.4716000000001
 40
4.9989999999999997
 50
24.224354000000002
 51
114.24134999999998
  0
ARC
  8
_0-1_LAYER002
  6
CONTINUOUS
 62
    2
 10
1397.3415
 20
960.98039999999992
 40
4.9989999999999997
 50
204.20945000000003
 51
294.23499000000004
  0
ARC
  8
_0-1_LAYER002
  6
CONTINUOUS
 62
    2
 10
1433.8211000000001
 20
977.39670000000001
 40
4.9989999999999997
 50
294.21370000000002
 51
24.245640000000016
  0
ARC
  8
_0-1_LAYER002
  6
CONTINUOUS
 62
    2
 10
1433.8200000000002
 20
977.39670000000001
 40
2.7000000000000002
 50
294.22066000000007
 51
24.240375000000064
  0
ARC
  8
_0-1_LAYER002
  6
CONTINUOUS
 62
    2
 10
1397.3423
 20
960.98129999999992
 40
2.7000000000000002
 50
204.21279000000004
 51
294.22066000000007
  0
ARC
  8
_0-0_LAYER001
  6
CONTINUOUS
 62
    2
 10
1376.4575
 20
953.7802999999999
 40
10.001999
 50
294.23665
 51
24.223896000000043
  0
ARC
  8
_0-0_LAYER001
  6
CONTINUOUS
 62
    2
 10
1362.2315000000001
 20
1021.9450999999999
 40
4.9989999999999997
 50
114.22008
 51
204.23072999999999
  0
ARC
  8
_0-0_LAYER001
  6
CONTINUOUS
 62
    2
 10
1320.6027999999997
 20
912.19499999999994
 40
4.9989999999999997
 50
114.22008
 51
204.23072999999999
  0
ARC
  8
_0-0_LAYER001
  6
CONTINUOUS
 62
    2
 10
1378.3939
 20
1013.2084
 40
6.1470010000000013
 50
349.86245000000008
 51
23.869739000000045
  0
ARC
  8
_0-0_LAYER001
  6
CONTINUOUS
 62
    2
 10
1386.9200000000001
 20
994.23559999999998
 40
6.1580000000000004
 50
24.600925000000004
 51
58.555576000000009
  0
ARC
  8
_0-0_LAYER001
  6
CONTINUOUS
 62
    2
 10
1367.3857
 20
996.85179999999991
 40
22.898997999999999
 50
6.6164899999999998
 51
41.832004000000005
  0
ARC
  8
_0-0_LAYER001
  6
CONTINUOUS
 62
    2
 10
1368.6878999999999
 20
986.03330000000005
 40
6.1479999999999997
 50
169.87799999999999
 51
203.89273999999997
  0
ARC
  8
_0-0_LAYER001
  6
CONTINUOUS
 62
    2
 10
1360.1542999999997
 20
1004.9948999999999
 40
6.1479999999999997
 50
204.55375000000001
 51
238.55601000000001
  0
ARC
  8
_0-0_LAYER001
  6
CONTINUOUS
 62
    2
 10
1379.7306000000001
 20
1002.4046000000001
 40
22.936000999999997
 50
186.64731000000003
 51
221.80408000000003
  0
LINE
  8
_0-3_LAYER009
  6
CONTINUOUS
 62
    2
 10
1681.3348999999998
 20
1018.9955
 11
1656.2568999999999
 21
1085.1098
  0
LINE
  8
_0-3_LAYER009
  6
CONTINUOUS
 62
    2
 10
1685.2037
 20
1017.2544
 11
1660.1259
 21
1083.3688
  0
LINE
  8
_0-3_LAYER009
  6
CONTINUOUS
 62
    2
 10
1485
 20
1107.346
 11
2327.8773000000001
 21
728.05199999999991
  0
LINE
  8
_0-2_LAYER003
  6
CONTINUOUS
 62
    2
 10
1485.7635
 20
983.63660000000004
 11
2287.5021999999999
 21
622.85500000000002
  0
LINE
  8
_0-1_LAYER002
  6
CONTINUOUS
 62
    2
 10
1539.8733999999999
 20
992.18450000000007
 11
1537.7761999999998
 21
993.12820000000011
  0
LINE
  8
_0-1_LAYER002
  6
CONTINUOUS
 62
    2
 10
1564.4971
 20
1046.8992000000001
 11
1562.3991999999998
 21
1047.8427999999999
  0
LINE
  8
_0-1_LAYER002
  6
CONTINUOUS
 62
    2
 10
1570.6525000000001
 20
1060.5787
 11
1564.4971
 21
1046.8992000000001
  0
LINE
  8
_0-1_LAYER002
  6
CONTINUOUS
 62
    2
 10
1610.6990000000001
 20
1045.5186000000001
 11
1574.2231999999999
 21
1061.9326000000001
  0
LINE
  8
_0-1_LAYER002
  6
CONTINUOUS
 62
    2
 10
1575.1658000000002
 20
1064.0296000000001
 11
1611.6435000000001
 21
1047.6144999999999
  0
LINE
  8
_0-1_LAYER002
  6
CONTINUOUS
 62
    2
 10
1568.5547999999999
 20
1061.5223000000001
 11
1562.3991999999998
 21
1047.8427999999999
  0
LINE
  8
_0-1_LAYER002
  6
CONTINUOUS
 62
    2
 10
1577.2177000000001
 20
958.92949999999996
 11
1614.1509000000001
 21
1041.0033000000001
  0
LINE
  8
_0-1_LAYER002
  6
CONTINUOUS
 62
    2
 10
1534.1279
 20
972.83750000000009
 11
1570.6066999999998
 21
956.4221
  0
LINE
  8
_0-1_LAYER002
  6
CONTINUOUS
 62
    2
 10
1531.6206000000002
 20
979.44849999999997
 11
1537.7761999999998
 21
993.12820000000011
  0
LINE
  8
_0-1_LAYER002
  6
CONTINUOUS
 62
    2
 10
1533.7174
 20
978.50500000000011
 11
1539.8733999999999
 21
992.18450000000007
  0
LINE
  8
_0-1_LAYER002
  6
CONTINUOUS
 62
    2
 10
1571.5491000000002
 20
958.51919999999996
 11
1535.0716000000002
 21
974.9344000000001
  0
LINE
  8
_0-1_LAYER002
  6
CONTINUOUS
 62
    2
 10
1575.1197000000002
 20
959.8732
 11
1612.0527999999999
 21
1041.9480000000001
  0
LINE
  8
_0-0_LAYER001
  6
CONTINUOUS
 62
    2
 10
1571.0614999999998
 20
945.25260000000003
 11
1607.9953999999998
 21
1027.3253
  0
LINE
  8
_0-0_LAYER001
  6
CONTINUOUS
 62
    2
 10
1612.3267000000001
 20
1019.8932
 11
1584.4212000000002
 21
957.88310000000001
  0
LINE
  8
_0-0_LAYER001
  6
CONTINUOUS
 62
    2
 10
1609.8193000000001
 20
1026.5053
 11
1607.9953999999998
 21
1027.3253
  0
LINE
  8
_0-0_LAYER001
  6
CONTINUOUS
 62
    2
 10
1651.4479000000001
 20
916.75440000000003
 11
1589.4367999999999
 21
944.66000000000008
  0
LINE
  8
_0-0_LAYER001
  6
CONTINUOUS
 62
    2
 10
1593.5871999999999
 20
1000.9117000000001
 11
1590.8508000000002
 21
1002.1425999999999
  0
LINE
  8
_0-0_LAYER001
  6
CONTINUOUS
 62
    2
 10
1600.1529999999998
 20
1015.5019
 11
1597.4167000000002
 21
1016.7328
  0
LINE
  8
_0-0_LAYER001
  6
CONTINUOUS
 62
    2
 10
1584.2853
 20
987.55359999999996
 11
1597.4167000000002
 21
1016.7328
  0
LINE
  8
_0-0_LAYER001
  6
CONTINUOUS
 62
    2
 10
1587.0216999999998
 20
986.32159999999999
 11
1584.2853
 21
987.55359999999996
  0
LINE
  8
_0-0_LAYER001
  6
CONTINUOUS
 62
    2
 10
1585.0140999999999
 20
1013.5411999999999
 11
1574.3449999999998
 21
1018.3431
  0
LINE
  8
_0-0_LAYER001
  6
CONTINUOUS
 62
    2
 10
1578.4488000000001
 20
998.952
 11
1567.7793999999999
 21
1003.7528
  0
LINE
  8
_0-0_LAYER001
  6
CONTINUOUS
 62
    2
 10
1579.8667
 20
999.49050000000011
 11
1588.0081
 21
995.8273999999999
  0
LINE
  8
_0-0_LAYER001
  6
CONTINUOUS
 62
    2
 10
1585.5527000000002
 20
1012.125
 11
1593.6930000000002
 21
1008.4611
  0
LINE
  8
_0-0_LAYER001
  6
CONTINUOUS
 62
    2
 10
1588.3948
 20
1018.4434000000001
 11
1596.5371
 21
1014.7791999999999
  0
LINE
  8
_0-0_LAYER001
  6
CONTINUOUS
 62
    2
 10
1586.6574000000001
 20
1017.1917000000001
 11
1588.3948
 21
1018.4434000000001
  0
LINE
  8
_0-0_LAYER001
  6
CONTINUOUS
 62
    2
 10
1576.8078
 20
995.30520000000001
 11
1586.6574000000001
 21
1017.1917000000001
  0
LINE
  8
_0-0_LAYER001
  6
CONTINUOUS
 62
    2
 10
1577.0236
 20
993.17200000000003
 11
1585.1649000000002
 21
989.50810000000001
  0
LINE
  8
_0-0_LAYER001
  6
CONTINUOUS
 62
    2
 10
1576.8078
 20
995.30520000000001
 11
1577.0236
 21
993.17200000000003
  0
LINE
  8
_0-0_LAYER001
  6
CONTINUOUS
 62
    2
 10
1566.7755000000002
 20
1006.3978999999999
 11
1567.7793999999999
 21
1003.7528
  0
LINE
  8
_0-0_LAYER001
  6
CONTINUOUS
 62
    2
 10
1571.7003
 20
1017.3399999999999
 11
1566.7755000000002
 21
1006.3978999999999
  0
LINE
  8
_0-0_LAYER001
  6
CONTINUOUS
 62
    2
 10
1574.3449999999998
 20
1018.3431
 11
1571.7003
 21
1017.3399999999999
  0
LINE
  8
_0-0_LAYER001
  6
CONTINUOUS
 62
    2
 10
1574.3449999999998
 20
1018.3431
 11
1567.7793999999999
 21
1003.7528
  0
LINE
  8
_0-0_LAYER001
  6
CONTINUOUS
 62
    2
 10
1574.3449999999998
 20
1018.3431
 11
1570.3526999999999
 21
1002.595
  0
LINE
  8
_0-0_LAYER001
  6
CONTINUOUS
 62
    2
 10
1579.9011999999998
 20
1015.8425999999999
 11
1575.9078
 21
1000.0944999999999
  0
LINE
  8
_0-0_LAYER001
  6
CONTINUOUS
 62
    2
 10
1613.0522999999998
 20
999.74849999999992
 11
1604.9112
 21
1003.4114999999999
  0
LINE
  8
_0-0_LAYER001
  6
CONTINUOUS
 62
    2
 10
1607.3665999999998
 20
987.11380000000008
 11
1599.2251000000001
 21
990.77790000000005
  0
LINE
  8
_0-0_LAYER001
  6
CONTINUOUS
 62
    2
 10
1604.5241999999998
 20
980.7956999999999
 11
1596.3822
 21
984.45949999999993
  0
LINE
  8
_0-0_LAYER001
  6
CONTINUOUS
 62
    2
 10
1606.2619
 20
982.0471
 11
1604.5241999999998
 21
980.7956999999999
  0
LINE
  8
_0-0_LAYER001
  6
CONTINUOUS
 62
    2
 10
1616.1113
 20
1003.9338
 11
1606.2619
 21
982.0471
  0
LINE
  8
_0-0_LAYER001
  6
CONTINUOUS
 62
    2
 10
1615.8955999999998
 20
1006.0667000000001
 11
1607.7543999999998
 21
1009.7308
  0
LINE
  8
_0-0_LAYER001
  6
CONTINUOUS
 62
    2
 10
1616.1113
 20
1003.9338
 11
1615.8955999999998
 21
1006.0667000000001
  0
LINE
  8
_0-0_LAYER001
  6
CONTINUOUS
 62
    2
 10
1653.9551999999999
 20
910.14329999999995
 11
1653.1343999999999
 21
908.31940000000009
  0
LINE
  8
_0-0_LAYER001
  6
CONTINUOUS
 62
    2
 10
1653.1343999999999
 20
908.31940000000009
 11
1571.0612999999998
 21
945.2521999999999
  0
LINE
  8
_0-0_LAYER001
  6
CONTINUOUS
 62
    2
 10
1609.4767999999999
 20
1106.1613
 11
1618.5971
 21
1102.0572999999999
  0
LINE
  8
_0-0_LAYER001
  6
CONTINUOUS
 62
    2
 10
1608.2467999999999
 20
1103.4248
 11
1617.3652999999999
 21
1099.3222000000001
  0
LINE
  8
_0-0_LAYER001
  6
CONTINUOUS
 62
    2
 10
1618.5971
 20
1102.0572999999999
 11
1617.3652999999999
 21
1099.3222000000001
  0
LINE
  8
_0-0_LAYER001
  6
CONTINUOUS
 62
    2
 10
1609.4767999999999
 20
1106.1613
 11
1608.2467999999999
 21
1103.4248
  0
LINE
  8
_0-0_LAYER001
  6
CONTINUOUS
 62
    2
 10
1614.0369000000001
 20
1104.1094000000001
 11
1612.806
 21
1101.3729000000001
  0
LINE
  8
_0-0_LAYER001
  6
CONTINUOUS
 62
    2
 10
1587.3633
 20
1044.8345999999999
 11
1591.4856
 21
1049.1207999999999
  0
LINE
  8
_0-0_LAYER001
  6
CONTINUOUS
 62
    2
 10
1587.3633
 20
1044.8345999999999
 11
1587.8377999999998
 21
1050.7616
  0
LINE
  8
_0-0_LAYER001
  6
CONTINUOUS
 62
    2
 10
1609.1507999999999
 20
1085.3615
 11
1603.5230000000001
 21
1089.0528999999999
  0
LINE
  8
_0-0_LAYER001
  6
CONTINUOUS
 62
    2
 10
1607.0988000000002
 20
1080.8022000000001
 11
1601.4699999999998
 21
1084.4928
  0
LINE
  8
_0-0_LAYER001
  6
CONTINUOUS
 62
    2
 10
1605.0459000000001
 20
1076.2419
 11
1599.4184
 21
1079.9336000000001
  0
LINE
  8
_0-0_LAYER001
  6
CONTINUOUS
 62
    2
 10
1602.9949999999999
 20
1071.6817000000001
 11
1597.3674000000001
 21
1075.3742999999999
  0
LINE
  8
_0-0_LAYER001
  6
CONTINUOUS
 62
    2
 10
1600.9431
 20
1067.1234999999999
 11
1595.3155000000002
 21
1070.8150000000001
  0
LINE
  8
_0-0_LAYER001
  6
CONTINUOUS
 62
    2
 10
1598.8912999999998
 20
1062.5632000000001
 11
1593.2624999999998
 21
1066.2550000000001
  0
LINE
  8
_0-0_LAYER001
  6
CONTINUOUS
 62
    2
 10
1596.8384999999998
 20
1058.0041000000001
 11
1591.2116000000001
 21
1061.6946
  0
LINE
  8
_0-0_LAYER001
  6
CONTINUOUS
 62
    2
 10
1594.7874000000002
 20
1053.4438
 11
1589.1597000000002
 21
1057.1355000000001
  0
LINE
  8
_0-0_LAYER001
  6
CONTINUOUS
 62
    2
 10
1593.2514999999999
 20
1050.0318
 11
1587.6241
 21
1053.7235000000001
  0
LINE
  8
_0-0_LAYER001
  6
CONTINUOUS
 62
    2
 10
1609.7511
 20
1099.4606000000001
 11
1587.8377999999998
 21
1050.7616
  0
LINE
  8
_0-0_LAYER001
  6
CONTINUOUS
 62
    2
 10
1608.2467999999999
 20
1103.4248
 11
1609.7511
 21
1099.4606000000001
  0
LINE
  8
_0-0_LAYER001
  6
CONTINUOUS
 62
    2
 10
1613.3978999999999
 20
1097.8167000000001
 11
1591.4856
 21
1049.1207999999999
  0
LINE
  8
_0-0_LAYER001
  6
CONTINUOUS
 62
    2
 10
1617.3652999999999
 20
1099.3222000000001
 11
1613.3978999999999
 21
1097.8167000000001
  0
LINE
  8
_0-3_LAYER009
  6
CONTINUOUS
 62
    2
 10
1485
 20
1162.1751999999999
 11
1870.1302000000001
 21
988.86709999999994
  0
LINE
  8
_0-2_LAYER003
  6
CONTINUOUS
 62
    2
 10
1616.2029000000002
 20
1045.5634
 11
1617.2287999999999
 21
1047.8432
  0
ARC
  8
_0-1_LAYER002
  6
CONTINUOUS
 62
    2
 10
1573.1149
 20
1059.4703
 40
2.7000000000000002
 50
65.767521000000016
 51
155.75962000000004
  0
ARC
  8
_0-1_LAYER002
  6
CONTINUOUS
 62
    2
 10
1609.5906
 20
1043.0563
 40
2.7000000000000002
 50
335.78719999999998
 51
65.767521000000002
  0
ARC
  8
_0-1_LAYER002
  6
CONTINUOUS
 62
    2
 10
1609.5927000000001
 20
1043.0553
 40
4.9989999999999997
 50
335.76925999999997
 51
65.779911000000013
  0
ARC
  8
_0-1_LAYER002
  6
CONTINUOUS
 62
    2
 10
1573.1138999999998
 20
1059.4716000000001
 40
4.9989999999999997
 50
65.758640999999997
 51
155.77563999999998
  0
ARC
  8
_0-1_LAYER002
  6
CONTINUOUS
 62
    2
 10
1572.6586000000002
 20
960.98039999999992
 40
4.9989999999999997
 50
245.76499999999999
 51
335.79054000000002
  0
ARC
  8
_0-1_LAYER002
  6
CONTINUOUS
 62
    2
 10
1536.1788999999999
 20
977.39670000000001
 40
4.9989999999999997
 50
155.75435999999999
 51
245.78629000000001
  0
ARC
  8
_0-1_LAYER002
  6
CONTINUOUS
 62
    2
 10
1536.1801
 20
977.39670000000001
 40
2.7000000000000002
 50
155.75962000000001
 51
245.77932999999999
  0
ARC
  8
_0-1_LAYER002
  6
CONTINUOUS
 62
    2
 10
1572.6577000000002
 20
960.98129999999992
 40
2.7000000000000002
 50
245.77933000000002
 51
335.78720000000004
  0
ARC
  8
_0-0_LAYER001
  6
CONTINUOUS
 62
    2
 10
1593.5425
 20
953.7802999999999
 40
10.001999
 50
155.77610000000004
 51
245.76334
  0
ARC
  8
_0-0_LAYER001
  6
CONTINUOUS
 62
    2
 10
1607.7685999999999
 20
1021.9450999999999
 40
4.9989999999999997
 50
335.76925999999997
 51
65.779911000000013
  0
ARC
  8
_0-0_LAYER001
  6
CONTINUOUS
 62
    2
 10
1649.3971999999999
 20
912.19499999999994
 40
4.9989999999999997
 50
335.76925999999997
 51
65.779911000000013
  0
ARC
  8
_0-0_LAYER001
  6
CONTINUOUS
 62
    2
 10
1591.6061
 20
1013.2084
 40
6.1470010000000013
 50
156.13026000000002
 51
190.13754000000003
  0
ARC
  8
_0-0_LAYER001
  6
CONTINUOUS
 62
    2
 10
1583.0801000000001
 20
994.23559999999998
 40
6.1580000000000004
 50
121.44441999999999
 51
155.39906999999999
  0
ARC
  8
_0-0_LAYER001
  6
CONTINUOUS
 62
    2
 10
1602.6143000000002
 20
996.85179999999991
 40
22.898997999999999
 50
138.16799
 51
173.38351
  0
ARC
  8
_0-0_LAYER001
  6
CONTINUOUS
 62
    2
 10
1601.3121000000001
 20
986.03330000000005
 40
6.1479999999999997
 50
336.10724999999996
 51
10.121990999999934
  0
ARC
  8
_0-0_LAYER001
  6
CONTINUOUS
 62
    2
 10
1609.8456999999999
 20
1004.9948999999999
 40
6.1479999999999997
 50
301.44398000000001
 51
335.44623999999999
  0
ARC
  8
_0-0_LAYER001
  6
CONTINUOUS
 62
    2
 10
1590.2694000000001
 20
1002.4046000000001
 40
22.936000999999997
 50
318.19591000000008
 51
353.35268000000008
  0
LINE
  8
_0-3_LAYER009
  6
CONTINUOUS
 62
    2
 10
1082.3018999999999
 20
926.13229999999999
 11
1107.3798999999999
 21
992.24659999999994
  0
LINE
  8
_0-3_LAYER009
  6
CONTINUOUS
 62
    2
 10
1078.4331
 20
924.39120000000003
 11
1103.5109
 21
990.50549999999998
  0
LINE
  8
_0-3_LAYER009
  6
CONTINUOUS
 62
    2
 10
875.93869999999993
 20
833.26900000000001
 11
901.0166999999999
 21
899.38329999999996
  0
LINE
  8
_0-3_LAYER009
  6
CONTINUOUS
 62
    2
 10
872.06989999999996
 20
831.52790000000005
 11
897.14769999999999
 21
897.6422
  0
LINE
  8
_0-3_LAYER009
  6
CONTINUOUS
 62
    2
 10
669.57549999999992
 20
740.40570000000002
 11
694.65349999999989
 21
806.52009999999996
  0
LINE
  8
_0-3_LAYER009
  6
CONTINUOUS
 62
    2
 10
665.70669999999996
 20
738.66470000000004
 11
690.78449999999998
 21
804.779
  0
LINE
  8
_0-3_LAYER009
  6
CONTINUOUS
 62
    2
 10
1857.6035000000002
 20
939.6748
 11
1832.5254
 21
1005.7891
  0
LINE
  8
_0-3_LAYER009
  6
CONTINUOUS
 62
    2
 10
1861.4722999999999
 20
937.93370000000004
 11
1836.3944999999999
 21
1004.0481
  0
LINE
  8
_0-3_LAYER009
  6
CONTINUOUS
 62
    2
 10
2033.8721
 20
860.35410000000002
 11
2008.7939999999999
 21
926.46839999999997
  0
LINE
  8
_0-3_LAYER009
  6
CONTINUOUS
 62
    2
 10
2037.7408
 20
858.61300000000006
 11
2012.663
 21
924.72739999999999
  0
LINE
  8
_0-3_LAYER009
  6
CONTINUOUS
 62
    2
 10
2210.1406000000002
 20
781.03340000000003
 11
2185.0626000000002
 21
847.14769999999999
  0
LINE
  8
_0-3_LAYER009
  6
CONTINUOUS
 62
    2
 10
2214.0093999999999
 20
779.29230000000007
 11
2188.9315999999999
 21
845.4067
  0
LINE
  8
_0-0_LAYER001
  6
DASHED3
 62
    2
 10
627.05610000000001
 20
777.74510000000009
 11
1485
 21
1163.8200999999999
  0
LINE
  8
_0-0_LAYER001
  6
DASHED3
 62
    2
 10
2346.3595999999998
 20
776.20759999999996
 11
1485
 21
1163.8200999999999
  0
LINE
  8
_0-0_LAYER001
  6
CONTINUOUS
 62
    4
 10
742.8261
 20
830.52620000000002
 11
715.46019999999999
 21
818.21160000000009
  0
LINE
  8
_0-0_LAYER001
  6
CONTINUOUS
 62
    4
 10
980.56269999999995
 20
937.50800000000004
 11
953.19679999999994
 21
925.19329999999991
  0
LINE
  8
_0-0_LAYER001
  6
CONTINUOUS
 62
    4
 10
1378.9226000000003
 20
1250.126
 11
1406.2603999999999
 21
1172.538
  0
LINE
  8
_0-0_LAYER001
  6
CONTINUOUS
 62
    4
 10
968.94920000000002
 20
972.29230000000007
 11
969.94609999999989
 21
969.46280000000002
  0
LINE
  8
_0-0_LAYER001
  6
CONTINUOUS
 62
    4
 10
968.94920000000002
 20
972.29230000000007
 11
977.43769999999995
 21
975.28320000000008
  0
LINE
  8
_0-0_LAYER001
  6
CONTINUOUS
 62
    4
 10
902.7007000000001
 20
1037.5323000000001
 11
930.03850000000011
 21
959.94440000000009
  0
LINE
  8
_0-0_LAYER001
  6
CONTINUOUS
 62
    4
 10
930.03850000000011
 20
959.94440000000009
 11
1213.9317000000001
 21
1059.9728
  0
LINE
  8
_0-0_LAYER001
  6
CONTINUOUS
 62
    4
 10
921.38319999999999
 20
988.09169999999995
 11
1159.8493000000001
 21
1090.0905
  0
LINE
  8
_0-0_LAYER001
  6
CONTINUOUS
 62
    4
 10
1213.9317000000001
 20
1059.9728
 11
1217.9195
 21
1048.6548
  0
LINE
  8
_0-0_LAYER001
  6
CONTINUOUS
 62
    4
 10
1217.9195
 20
1048.6548
 11
1226.4079999999999
 21
1051.6456000000001
  0
LINE
  8
_0-0_LAYER001
  6
CONTINUOUS
 62
    4
 10
1206.9529
 20
1079.7791999999999
 11
1207.9498000000001
 21
1076.9498000000001
  0
LINE
  8
_0-0_LAYER001
  6
CONTINUOUS
 62
    4
 10
924.05670000000009
 20
976.92139999999995
 11
1207.9498000000001
 21
1076.9498000000001
  0
LINE
  8
_0-0_LAYER001
  6
CONTINUOUS
 62
    4
 10
902.71060000000011
 20
1037.9347
 11
1147.799
 21
1124.2904000000001
  0
LINE
  8
_0-0_LAYER001
  6
CONTINUOUS
 62
    4
 10
1206.9529
 20
1079.7791999999999
 11
1215.4413
 21
1082.7701999999999
  0
LINE
  8
_0-0_LAYER001
  6
CONTINUOUS
 62
    4
 10
1215.4413
 20
1082.7701999999999
 11
1226.4079999999999
 21
1051.6456000000001
  0
LINE
  8
_0-0_LAYER001
  6
CONTINUOUS
 62
    4
 10
1141.0099
 20
1143.9911999999999
 11
1168.3476000000001
 21
1066.4032
  0
LINE
  8
_0-0_LAYER001
  6
CONTINUOUS
 62
    4
 10
1168.3476000000001
 20
1066.4032
 11
1452.2408
 21
1166.4314999999999
  0
LINE
  8
_0-0_LAYER001
  6
CONTINUOUS
 62
    4
 10
1159.6922999999999
 20
1094.5504000000001
 11
1398.1584
 21
1196.5491999999999
  0
LINE
  8
_0-0_LAYER001
  6
CONTINUOUS
 62
    4
 10
1452.2408
 20
1166.4314999999999
 11
1456.2285999999999
 21
1155.1134999999999
  0
LINE
  8
_0-0_LAYER001
  6
CONTINUOUS
 62
    4
 10
1456.2285999999999
 20
1155.1134999999999
 11
1464.7170999999998
 21
1158.1043999999999
  0
LINE
  8
_0-0_LAYER001
  6
CONTINUOUS
 62
    4
 10
1445.2620000000002
 20
1186.2381
 11
1446.2588999999998
 21
1183.4085
  0
LINE
  8
_0-0_LAYER001
  6
CONTINUOUS
 62
    4
 10
1162.3658
 20
1083.3801000000001
 11
1446.2588999999998
 21
1183.4085
  0
LINE
  8
_0-0_LAYER001
  6
CONTINUOUS
 62
    4
 10
1141.0196000000001
 20
1144.3933999999999
 11
1386.1081999999999
 21
1230.7491
  0
LINE
  8
_0-0_LAYER001
  6
CONTINUOUS
 62
    4
 10
1445.2620000000002
 20
1186.2381
 11
1453.7505999999998
 21
1189.2289000000001
  0
LINE
  8
_0-0_LAYER001
  6
CONTINUOUS
 62
    4
 10
1453.7505999999998
 20
1189.2289000000001
 11
1464.7170999999998
 21
1158.1043999999999
  0
LINE
  8
_0-0_LAYER001
  6
CONTINUOUS
 62
    4
 10
583.00649999999996
 20
791.33459999999991
 11
738.40609999999992
 21
846.08889999999997
  0
LINE
  8
_0-0_LAYER001
  6
CONTINUOUS
 62
    4
 10
571.33940000000007
 20
827.88000000000011
 11
684.32369999999992
 21
876.20659999999998
  0
LINE
  8
_0-0_LAYER001
  6
CONTINUOUS
 62
    4
 10
738.40609999999992
 20
846.08889999999997
 11
742.39400000000001
 21
834.77089999999998
  0
LINE
  8
_0-0_LAYER001
  6
CONTINUOUS
 62
    4
 10
742.39400000000001
 20
834.77089999999998
 11
750.88249999999994
 21
837.76179999999999
  0
LINE
  8
_0-0_LAYER001
  6
CONTINUOUS
 62
    4
 10
731.42740000000003
 20
865.89540000000011
 11
732.42440000000011
 21
863.06590000000006
  0
LINE
  8
_0-0_LAYER001
  6
CONTINUOUS
 62
    4
 10
577.52980000000002
 20
808.48960000000011
 11
732.42440000000011
 21
863.06590000000006
  0
LINE
  8
_0-0_LAYER001
  6
CONTINUOUS
 62
    4
 10
557.86249999999995
 20
870.09439999999995
 11
672.27350000000001
 21
910.40660000000003
  0
LINE
  8
_0-0_LAYER001
  6
CONTINUOUS
 62
    4
 10
731.42740000000003
 20
865.89540000000011
 11
739.91589999999997
 21
868.88629999999989
  0
LINE
  8
_0-0_LAYER001
  6
CONTINUOUS
 62
    4
 10
739.91589999999997
 20
868.88629999999989
 11
750.88249999999994
 21
837.76179999999999
  0
LINE
  8
_0-0_LAYER001
  6
CONTINUOUS
 62
    4
 10
664.69699999999989
 20
930.04539999999997
 11
692.03469999999993
 21
852.45740000000001
  0
LINE
  8
_0-0_LAYER001
  6
CONTINUOUS
 62
    4
 10
692.03469999999993
 20
852.45740000000001
 11
975.92789999999991
 21
952.48579999999993
  0
LINE
  8
_0-0_LAYER001
  6
CONTINUOUS
 62
    4
 10
683.37940000000003
 20
880.60470000000009
 11
921.8454999999999
 21
982.60349999999994
  0
LINE
  8
_0-0_LAYER001
  6
CONTINUOUS
 62
    4
 10
975.92789999999991
 20
952.48579999999993
 11
979.91570000000002
 21
941.16779999999994
  0
LINE
  8
_0-0_LAYER001
  6
CONTINUOUS
 62
    4
 10
979.91570000000002
 20
941.16779999999994
 11
988.40419999999995
 21
944.15869999999995
  0
LINE
  8
_0-0_LAYER001
  6
CONTINUOUS
 62
    4
 10
686.05300000000011
 20
869.4344000000001
 11
969.94609999999989
 21
969.46280000000002
  0
LINE
  8
_0-0_LAYER001
  6
CONTINUOUS
 62
    4
 10
664.70679999999993
 20
930.44769999999994
 11
909.7953
 21
1016.8034
  0
LINE
  8
_0-0_LAYER001
  6
CONTINUOUS
 62
    4
 10
977.43769999999995
 20
975.28320000000008
 11
988.40419999999995
 21
944.15869999999995
  0
LINE
  8
_0-0_LAYER001
  6
CONTINUOUS
 62
    4
 10
1449.5443
 20
1164.999
 11
1422.1784
 21
1152.6844000000001
  0
LINE
  8
_0-0_LAYER001
  6
CONTINUOUS
 62
    4
 10
1211.8077000000001
 20
1058.0173
 11
1184.4418000000001
 21
1045.7026000000001
  0
LINE
  8
_0-0_LAYER001
  6
CONTINUOUS
 62
    4
 10
946.7052000000001
 20
938.72090000000003
 11
953.19679999999994
 21
925.19329999999991
  0
LINE
  8
_0-0_LAYER001
  6
CONTINUOUS
 62
    4
 10
736.33439999999996
 20
844.05379999999991
 11
742.8261
 21
830.52620000000002
  0
LINE
  8
_0-0_LAYER001
  6
CONTINUOUS
 62
    4
 10
708.96849999999995
 20
831.73910000000001
 11
715.46019999999999
 21
818.21160000000009
  0
LINE
  8
_0-0_LAYER001
  6
CONTINUOUS
 62
    4
 10
736.33439999999996
 20
844.05379999999991
 11
708.96849999999995
 21
831.73910000000001
  0
LINE
  8
_0-0_LAYER001
  6
CONTINUOUS
 62
    4
 10
1449.5443
 20
1164.999
 11
1455.5446999999999
 21
1152.4951000000001
  0
LINE
  8
_0-0_LAYER001
  6
CONTINUOUS
 62
    4
 10
1422.1784
 20
1152.6844000000001
 11
1428.0925999999999
 21
1140.3598
  0
LINE
  8
_0-0_LAYER001
  6
CONTINUOUS
 62
    4
 10
1184.4418000000001
 20
1045.7026000000001
 11
1190.9333999999999
 21
1032.175
  0
LINE
  8
_0-0_LAYER001
  6
CONTINUOUS
 62
    4
 10
974.07109999999989
 20
951.03559999999993
 11
946.7052000000001
 21
938.72090000000003
  0
LINE
  8
_0-0_LAYER001
  6
CONTINUOUS
 62
    4
 10
974.07109999999989
 20
951.03559999999993
 11
980.56269999999995
 21
937.50800000000004
  0
LINE
  8
_0-0_LAYER001
  6
CONTINUOUS
 62
    4
 10
1406.2603999999999
 20
1172.538
 11
1485
 21
1200.2815000000001
  0
LINE
  8
_0-0_LAYER001
  6
CONTINUOUS
 62
    4
 10
1400.2786000000001
 20
1189.5150000000001
 11
1485
 21
1219.3661
  0
LINE
  8
_0-0_LAYER001
  6
CONTINUOUS
 62
    4
 10
1397.6051000000002
 20
1200.6853000000001
 11
1485
 21
1238.0664999999999
  0
LINE
  8
_0-0_LAYER001
  6
CONTINUOUS
 62
    4
 10
1378.9323999999999
 20
1250.5282999999999
 11
1485
 21
1287.9006999999999
  0
LINE
  8
_0-0_LAYER001
  6
CONTINUOUS
 62
    4
 10
1455.5446999999999
 20
1152.4951000000001
 11
1428.0925999999999
 21
1140.3598
  0
LINE
  8
_0-0_LAYER001
  6
DASHED1
 62
    1
 10
1427.3434
 20
1183.4521
 11
1442.6916999999999
 21
1187.9721
  0
LINE
  8
_0-0_LAYER001
  6
DASHED1
 62
    1
 10
1442.6916999999999
 20
1187.9721
 11
1443.5392000000002
 21
1185.0942
  0
LINE
  8
_0-0_LAYER001
  6
DASHED1
 62
    1
 10
1427.3434
 20
1183.4521
 11
1428.1909000000001
 21
1180.5742
  0
LINE
  8
_0-0_LAYER001
  6
DASHED1
 62
    1
 10
1428.1909000000001
 20
1180.5742
 11
1443.5392000000002
 21
1185.0942
  0
LINE
  8
_0-0_LAYER001
  6
DASHED1
 62
    1
 10
1453.5927000000001
 20
1121.3692000000001
 11
1445.3690000000001
 21
1139.9435000000001
  0
LINE
  8
_0-0_LAYER001
  6
DASHED1
 62
    1
 10
1432.9872999999998
 20
1181.9866999999999
 11
1445.3690000000001
 21
1139.9435000000001
  0
LINE
  8
_0-0_LAYER001
  6
DASHED1
 62
    1
 10
1453.7854000000002
 20
1120.7147
 11
1452.1170999999999
 21
1138.268
  0
LINE
  8
_0-0_LAYER001
  6
DASHED1
 62
    1
 10
1438.7429000000002
 20
1183.6818000000001
 11
1452.1170999999999
 21
1138.268
  0
LINE
  8
_0-0_LAYER001
  6
DASHED1
 62
    1
 10
1185.3289
 20
1077.2910999999999
 11
1200.6772000000001
 21
1081.8110999999999
  0
LINE
  8
_0-0_LAYER001
  6
DASHED1
 62
    1
 10
1200.6772000000001
 20
1081.8110999999999
 11
1201.5246999999999
 21
1078.9332999999999
  0
LINE
  8
_0-0_LAYER001
  6
DASHED1
 62
    1
 10
1185.3289
 20
1077.2910999999999
 11
1186.1764000000001
 21
1074.4132999999999
  0
LINE
  8
_0-0_LAYER001
  6
DASHED1
 62
    1
 10
1186.1764000000001
 20
1074.4132999999999
 11
1201.5246999999999
 21
1078.9332999999999
  0
LINE
  8
_0-0_LAYER001
  6
DASHED1
 62
    1
 10
1211.5780999999999
 20
1015.2083
 11
1203.3544999999999
 21
1033.7825
  0
LINE
  8
_0-0_LAYER001
  6
DASHED1
 62
    1
 10
1190.9728
 20
1075.8257000000001
 11
1203.3544999999999
 21
1033.7825
  0
LINE
  8
_0-0_LAYER001
  6
DASHED1
 62
    1
 10
1211.7709
 20
1014.5537999999999
 11
1210.1025999999999
 21
1032.1070999999999
  0
LINE
  8
_0-0_LAYER001
  6
DASHED1
 62
    1
 10
1196.7284
 20
1077.5208
 11
1210.1025999999999
 21
1032.1070999999999
  0
LINE
  8
_0-0_LAYER001
  6
DASHED1
 62
    1
 10
945.74530000000004
 20
972.0619999999999
 11
961.09349999999995
 21
976.58210000000008
  0
LINE
  8
_0-0_LAYER001
  6
DASHED1
 62
    1
 10
961.09349999999995
 20
976.58210000000008
 11
961.94100000000003
 21
973.7043000000001
  0
LINE
  8
_0-0_LAYER001
  6
DASHED1
 62
    1
 10
945.74530000000004
 20
972.0619999999999
 11
946.5927999999999
 21
969.18419999999992
  0
LINE
  8
_0-0_LAYER001
  6
DASHED1
 62
    1
 10
946.5927999999999
 20
969.18419999999992
 11
961.94100000000003
 21
973.7043000000001
  0
LINE
  8
_0-0_LAYER001
  6
DASHED1
 62
    1
 10
971.99450000000002
 20
909.97919999999999
 11
963.77080000000001
 21
928.55340000000001
  0
LINE
  8
_0-0_LAYER001
  6
DASHED1
 62
    1
 10
951.3891000000001
 20
970.59670000000006
 11
963.77080000000001
 21
928.55340000000001
  0
LINE
  8
_0-0_LAYER001
  6
DASHED1
 62
    1
 10
972.18730000000005
 20
909.32469999999989
 11
970.51900000000001
 21
926.87799999999993
  0
LINE
  8
_0-0_LAYER001
  6
DASHED1
 62
    1
 10
957.14470000000006
 20
972.29169999999999
 11
970.51900000000001
 21
926.87799999999993
  0
LINE
  8
_0-0_LAYER001
  6
DASHED1
 62
    1
 10
710.02109999999993
 20
860.79860000000008
 11
725.36930000000007
 21
865.31860000000006
  0
LINE
  8
_0-0_LAYER001
  6
DASHED1
 62
    1
 10
725.36930000000007
 20
865.31860000000006
 11
726.21679999999992
 21
862.44080000000008
  0
LINE
  8
_0-0_LAYER001
  6
DASHED1
 62
    1
 10
710.02109999999993
 20
860.79860000000008
 11
710.86860000000001
 21
857.9208000000001
  0
LINE
  8
_0-0_LAYER001
  6
DASHED1
 62
    1
 10
710.86860000000001
 20
857.9208000000001
 11
726.21679999999992
 21
862.44080000000008
  0
LINE
  8
_0-0_LAYER001
  6
DASHED1
 62
    1
 10
736.27029999999991
 20
798.71579999999994
 11
728.0465999999999
 21
817.28999999999996
  0
LINE
  8
_0-0_LAYER001
  6
DASHED1
 62
    1
 10
715.66489999999999
 20
859.33330000000001
 11
728.0465999999999
 21
817.28999999999996
  0
LINE
  8
_0-0_LAYER001
  6
DASHED1
 62
    1
 10
736.46309999999994
 20
798.0612000000001
 11
734.7947999999999
 21
815.61460000000011
  0
LINE
  8
_0-0_LAYER001
  6
DASHED1
 62
    1
 10
721.42049999999995
 20
861.02829999999994
 11
734.7947999999999
 21
815.61460000000011
  0
LINE
  8
_0-0_LAYER001
  6
CONTINUOUS
 62
    4
 10
2227.1738
 20
830.52620000000002
 11
2254.5396999999998
 21
818.21160000000009
  0
LINE
  8
_0-0_LAYER001
  6
CONTINUOUS
 62
    4
 10
1989.4371999999998
 20
937.50800000000004
 11
2016.8031000000001
 21
925.19329999999991
  0
LINE
  8
_0-0_LAYER001
  6
CONTINUOUS
 62
    4
 10
1591.0772999999999
 20
1250.126
 11
1563.7395000000001
 21
1172.538
  0
LINE
  8
_0-0_LAYER001
  6
CONTINUOUS
 62
    4
 10
2001.0508
 20
972.29230000000007
 11
2000.0538000000001
 21
969.46280000000002
  0
LINE
  8
_0-0_LAYER001
  6
CONTINUOUS
 62
    4
 10
2001.0508
 20
972.29230000000007
 11
1992.5623000000001
 21
975.28320000000008
  0
LINE
  8
_0-0_LAYER001
  6
CONTINUOUS
 62
    4
 10
2067.2991999999999
 20
1037.5323000000001
 11
2039.9614000000001
 21
959.94440000000009
  0
LINE
  8
_0-0_LAYER001
  6
CONTINUOUS
 62
    4
 10
2039.9614000000001
 20
959.94440000000009
 11
1756.0682000000002
 21
1059.9728
  0
LINE
  8
_0-0_LAYER001
  6
CONTINUOUS
 62
    4
 10
2048.6167
 20
988.09169999999995
 11
1810.1505999999999
 21
1090.0905
  0
LINE
  8
_0-0_LAYER001
  6
CONTINUOUS
 62
    4
 10
1756.0682000000002
 20
1059.9728
 11
1752.0803999999998
 21
1048.6548
  0
LINE
  8
_0-0_LAYER001
  6
CONTINUOUS
 62
    4
 10
1752.0803999999998
 20
1048.6548
 11
1743.5918999999999
 21
1051.6456000000001
  0
LINE
  8
_0-0_LAYER001
  6
CONTINUOUS
 62
    4
 10
1763.047
 20
1079.7791999999999
 11
1762.0500999999999
 21
1076.9498000000001
  0
LINE
  8
_0-0_LAYER001
  6
CONTINUOUS
 62
    4
 10
2045.9432000000002
 20
976.92139999999995
 11
1762.0500999999999
 21
1076.9498000000001
  0
LINE
  8
_0-0_LAYER001
  6
CONTINUOUS
 62
    4
 10
2067.2892999999999
 20
1037.9347
 11
1822.2008999999998
 21
1124.2904000000001
  0
LINE
  8
_0-0_LAYER001
  6
CONTINUOUS
 62
    4
 10
1763.047
 20
1079.7791999999999
 11
1754.5585999999998
 21
1082.7701999999999
  0
LINE
  8
_0-0_LAYER001
  6
CONTINUOUS
 62
    4
 10
1754.5585999999998
 20
1082.7701999999999
 11
1743.5918999999999
 21
1051.6456000000001
  0
LINE
  8
_0-0_LAYER001
  6
CONTINUOUS
 62
    4
 10
1828.9899999999998
 20
1143.9911999999999
 11
1801.6523000000002
 21
1066.4032
  0
LINE
  8
_0-0_LAYER001
  6
CONTINUOUS
 62
    4
 10
1801.6523000000002
 20
1066.4032
 11
1517.7591000000002
 21
1166.4314999999999
  0
LINE
  8
_0-0_LAYER001
  6
CONTINUOUS
 62
    4
 10
1810.3076000000001
 20
1094.5504000000001
 11
1571.8415
 21
1196.5491999999999
  0
LINE
  8
_0-0_LAYER001
  6
CONTINUOUS
 62
    4
 10
1517.7591000000002
 20
1166.4314999999999
 11
1513.7712999999999
 21
1155.1134999999999
  0
LINE
  8
_0-0_LAYER001
  6
CONTINUOUS
 62
    4
 10
1513.7712999999999
 20
1155.1134999999999
 11
1505.2828
 21
1158.1043999999999
  0
LINE
  8
_0-0_LAYER001
  6
CONTINUOUS
 62
    4
 10
1524.7379000000001
 20
1186.2381
 11
1523.741
 21
1183.4085
  0
LINE
  8
_0-0_LAYER001
  6
CONTINUOUS
 62
    4
 10
1807.6341000000002
 20
1083.3801000000001
 11
1523.741
 21
1183.4085
  0
LINE
  8
_0-0_LAYER001
  6
CONTINUOUS
 62
    4
 10
1828.9803000000002
 20
1144.3933999999999
 11
1583.8917000000001
 21
1230.7491
  0
LINE
  8
_0-0_LAYER001
  6
CONTINUOUS
 62
    4
 10
1524.7379000000001
 20
1186.2381
 11
1516.2492999999999
 21
1189.2289000000001
  0
LINE
  8
_0-0_LAYER001
  6
CONTINUOUS
 62
    4
 10
1516.2492999999999
 20
1189.2289000000001
 11
1505.2828
 21
1158.1043999999999
  0
LINE
  8
_0-0_LAYER001
  6
CONTINUOUS
 62
    4
 10
2386.9933999999998
 20
791.33459999999991
 11
2231.5938000000001
 21
846.08889999999997
  0
LINE
  8
_0-0_LAYER001
  6
CONTINUOUS
 62
    4
 10
2398.6605
 20
827.88000000000011
 11
2285.6761999999999
 21
876.20659999999998
  0
LINE
  8
_0-0_LAYER001
  6
CONTINUOUS
 62
    4
 10
2231.5938000000001
 20
846.08889999999997
 11
2227.6059
 21
834.77089999999998
  0
LINE
  8
_0-0_LAYER001
  6
CONTINUOUS
 62
    4
 10
2227.6059
 20
834.77089999999998
 11
2219.1174000000001
 21
837.76179999999999
  0
LINE
  8
_0-0_LAYER001
  6
CONTINUOUS
 62
    4
 10
2238.5725000000002
 20
865.89540000000011
 11
2237.5754999999999
 21
863.06590000000006
  0
LINE
  8
_0-0_LAYER001
  6
CONTINUOUS
 62
    4
 10
2392.4701
 20
808.48960000000011
 11
2237.5754999999999
 21
863.06590000000006
  0
LINE
  8
_0-0_LAYER001
  6
CONTINUOUS
 62
    4
 10
2412.1374000000001
 20
870.09439999999995
 11
2297.7264
 21
910.40660000000003
  0
LINE
  8
_0-0_LAYER001
  6
CONTINUOUS
 62
    4
 10
2238.5725000000002
 20
865.89540000000011
 11
2230.0839999999998
 21
868.88629999999989
  0
LINE
  8
_0-0_LAYER001
  6
CONTINUOUS
 62
    4
 10
2230.0839999999998
 20
868.88629999999989
 11
2219.1174000000001
 21
837.76179999999999
  0
LINE
  8
_0-0_LAYER001
  6
CONTINUOUS
 62
    4
 10
2305.3029000000001
 20
930.04539999999997
 11
2277.9652000000001
 21
852.45740000000001
  0
LINE
  8
_0-0_LAYER001
  6
CONTINUOUS
 62
    4
 10
2277.9652000000001
 20
852.45740000000001
 11
1994.0720000000001
 21
952.48579999999993
  0
LINE
  8
_0-0_LAYER001
  6
CONTINUOUS
 62
    4
 10
2286.6205
 20
880.60470000000009
 11
2048.1543999999999
 21
982.60349999999994
  0
LINE
  8
_0-0_LAYER001
  6
CONTINUOUS
 62
    4
 10
1994.0720000000001
 20
952.48579999999993
 11
1990.0841999999998
 21
941.16779999999994
  0
LINE
  8
_0-0_LAYER001
  6
CONTINUOUS
 62
    4
 10
1990.0841999999998
 20
941.16779999999994
 11
1981.5956999999999
 21
944.15869999999995
  0
LINE
  8
_0-0_LAYER001
  6
CONTINUOUS
 62
    4
 10
2283.9468999999999
 20
869.4344000000001
 11
2000.0538000000001
 21
969.46280000000002
  0
LINE
  8
_0-0_LAYER001
  6
CONTINUOUS
 62
    4
 10
2305.2930999999999
 20
930.44769999999994
 11
2060.2046
 21
1016.8034
  0
LINE
  8
_0-0_LAYER001
  6
CONTINUOUS
 62
    4
 10
1992.5623000000001
 20
975.28320000000008
 11
1981.5956999999999
 21
944.15869999999995
  0
LINE
  8
_0-0_LAYER001
  6
CONTINUOUS
 62
    4
 10
1520.4555999999998
 20
1164.999
 11
1547.8215
 21
1152.6844000000001
  0
LINE
  8
_0-0_LAYER001
  6
CONTINUOUS
 62
    4
 10
1758.1922
 20
1058.0173
 11
1785.5581000000002
 21
1045.7026000000001
  0
LINE
  8
_0-0_LAYER001
  6
CONTINUOUS
 62
    4
 10
2023.2946999999999
 20
938.72090000000003
 11
2016.8031000000001
 21
925.19329999999991
  0
LINE
  8
_0-0_LAYER001
  6
CONTINUOUS
 62
    4
 10
2233.6655000000001
 20
844.05379999999991
 11
2227.1738
 21
830.52620000000002
  0
LINE
  8
_0-0_LAYER001
  6
CONTINUOUS
 62
    4
 10
2261.0313999999998
 20
831.73910000000001
 11
2254.5396999999998
 21
818.21160000000009
  0
LINE
  8
_0-0_LAYER001
  6
CONTINUOUS
 62
    4
 10
2233.6655000000001
 20
844.05379999999991
 11
2261.0313999999998
 21
831.73910000000001
  0
LINE
  8
_0-0_LAYER001
  6
CONTINUOUS
 62
    4
 10
1520.4555999999998
 20
1164.999
 11
1514.4551999999999
 21
1152.4951000000001
  0
LINE
  8
_0-0_LAYER001
  6
CONTINUOUS
 62
    4
 10
1547.8215
 20
1152.6844000000001
 11
1541.9072999999999
 21
1140.3598
  0
LINE
  8
_0-0_LAYER001
  6
CONTINUOUS
 62
    4
 10
1785.5581000000002
 20
1045.7026000000001
 11
1779.0664999999999
 21
1032.175
  0
LINE
  8
_0-0_LAYER001
  6
CONTINUOUS
 62
    4
 10
1751.4360000000001
 20
1044.6088
 11
1779.0664999999999
 21
1032.175
  0
LINE
  8
_0-0_LAYER001
  6
CONTINUOUS
 62
    4
 10
1995.9288000000001
 20
951.03559999999993
 11
2023.2946999999999
 21
938.72090000000003
  0
LINE
  8
_0-0_LAYER001
  6
CONTINUOUS
 62
    4
 10
1995.9288000000001
 20
951.03559999999993
 11
1989.4371999999998
 21
937.50800000000004
  0
LINE
  8
_0-0_LAYER001
  6
CONTINUOUS
 62
    4
 10
1563.7395000000001
 20
1172.538
 11
1485
 21
1200.2815000000001
  0
LINE
  8
_0-0_LAYER001
  6
CONTINUOUS
 62
    4
 10
1569.7213000000002
 20
1189.5150000000001
 11
1485
 21
1219.3661
  0
LINE
  8
_0-0_LAYER001
  6
CONTINUOUS
 62
    4
 10
1572.3948
 20
1200.6853000000001
 11
1485
 21
1238.0664999999999
  0
LINE
  8
_0-0_LAYER001
  6
CONTINUOUS
 62
    4
 10
1591.0675000000001
 20
1250.5282999999999
 11
1485
 21
1287.9006999999999
  0
LINE
  8
_0-0_LAYER001
  6
CONTINUOUS
 62
    4
 10
1514.4551999999999
 20
1152.4951000000001
 11
1541.9072999999999
 21
1140.3598
  0
LINE
  8
_0-0_LAYER001
  6
DASHED1
 62
    1
 10
1542.6565000000001
 20
1183.4521
 11
1527.3081999999999
 21
1187.9721
  0
LINE
  8
_0-0_LAYER001
  6
DASHED1
 62
    1
 10
1527.3081999999999
 20
1187.9721
 11
1526.4607000000001
 21
1185.0942
  0
LINE
  8
_0-0_LAYER001
  6
DASHED1
 62
    1
 10
1542.6565000000001
 20
1183.4521
 11
1541.8090000000002
 21
1180.5742
  0
LINE
  8
_0-0_LAYER001
  6
DASHED1
 62
    1
 10
1541.8090000000002
 20
1180.5742
 11
1526.4607000000001
 21
1185.0942
  0
LINE
  8
_0-0_LAYER001
  6
DASHED1
 62
    1
 10
1516.4072000000001
 20
1121.3692000000001
 11
1524.6309000000001
 21
1139.9435000000001
  0
LINE
  8
_0-0_LAYER001
  6
DASHED1
 62
    1
 10
1537.0126
 20
1181.9866999999999
 11
1524.6309000000001
 21
1139.9435000000001
  0
LINE
  8
_0-0_LAYER001
  6
DASHED1
 62
    1
 10
1516.2145
 20
1120.7147
 11
1517.8827999999999
 21
1138.268
  0
LINE
  8
_0-0_LAYER001
  6
DASHED1
 62
    1
 10
1531.2570000000001
 20
1183.6818000000001
 11
1517.8827999999999
 21
1138.268
  0
LINE
  8
_0-0_LAYER001
  6
DASHED1
 62
    1
 10
1784.6709999999998
 20
1077.2910999999999
 11
1769.3227000000002
 21
1081.8110999999999
  0
LINE
  8
_0-0_LAYER001
  6
DASHED1
 62
    1
 10
1769.3227000000002
 20
1081.8110999999999
 11
1768.4751999999999
 21
1078.9332999999999
  0
LINE
  8
_0-0_LAYER001
  6
DASHED1
 62
    1
 10
1784.6709999999998
 20
1077.2910999999999
 11
1783.8235
 21
1074.4132999999999
  0
LINE
  8
_0-0_LAYER001
  6
DASHED1
 62
    1
 10
1783.8235
 20
1074.4132999999999
 11
1768.4751999999999
 21
1078.9332999999999
  0
LINE
  8
_0-0_LAYER001
  6
DASHED1
 62
    1
 10
1758.4218000000001
 20
1015.2083
 11
1766.6453999999999
 21
1033.7825
  0
LINE
  8
_0-0_LAYER001
  6
DASHED1
 62
    1
 10
1779.0270999999998
 20
1075.8257000000001
 11
1766.6453999999999
 21
1033.7825
  0
LINE
  8
_0-0_LAYER001
  6
DASHED1
 62
    1
 10
1758.2289999999998
 20
1014.5537999999999
 11
1759.8973000000001
 21
1032.1070999999999
  0
LINE
  8
_0-0_LAYER001
  6
DASHED1
 62
    1
 10
1773.2714999999998
 20
1077.5208
 11
1759.8973000000001
 21
1032.1070999999999
  0
LINE
  8
_0-0_LAYER001
  6
DASHED1
 62
    1
 10
2024.2546000000002
 20
972.0619999999999
 11
2008.9063999999998
 21
976.58210000000008
  0
LINE
  8
_0-0_LAYER001
  6
DASHED1
 62
    1
 10
2008.9063999999998
 20
976.58210000000008
 11
2008.0589
 21
973.7043000000001
  0
LINE
  8
_0-0_LAYER001
  6
DASHED1
 62
    1
 10
2024.2546000000002
 20
972.0619999999999
 11
2023.4070999999999
 21
969.18419999999992
  0
LINE
  8
_0-0_LAYER001
  6
DASHED1
 62
    1
 10
2023.4070999999999
 20
969.18419999999992
 11
2008.0589
 21
973.7043000000001
  0
LINE
  8
_0-0_LAYER001
  6
DASHED1
 62
    1
 10
1998.0054
 20
909.97919999999999
 11
2006.2291
 21
928.55340000000001
  0
LINE
  8
_0-0_LAYER001
  6
DASHED1
 62
    1
 10
2018.6107999999999
 20
970.59670000000006
 11
2006.2291
 21
928.55340000000001
  0
LINE
  8
_0-0_LAYER001
  6
DASHED1
 62
    1
 10
1997.8126000000002
 20
909.32469999999989
 11
1999.4809
 21
926.87799999999993
  0
LINE
  8
_0-0_LAYER001
  6
DASHED1
 62
    1
 10
2012.8552
 20
972.29169999999999
 11
1999.4809
 21
926.87799999999993
  0
LINE
  8
_0-0_LAYER001
  6
DASHED1
 62
    1
 10
2259.9787999999999
 20
860.79860000000008
 11
2244.6306
 21
865.31860000000006
  0
LINE
  8
_0-0_LAYER001
  6
DASHED1
 62
    1
 10
2244.6306
 20
865.31860000000006
 11
2243.7831000000001
 21
862.44080000000008
  0
LINE
  8
_0-0_LAYER001
  6
DASHED1
 62
    1
 10
2259.9787999999999
 20
860.79860000000008
 11
2259.1313
 21
857.9208000000001
  0
LINE
  8
_0-0_LAYER001
  6
DASHED1
 62
    1
 10
2259.1313
 20
857.9208000000001
 11
2243.7831000000001
 21
862.44080000000008
  0
LINE
  8
_0-0_LAYER001
  6
DASHED1
 62
    1
 10
2233.7296000000001
 20
798.71579999999994
 11
2241.9533000000001
 21
817.28999999999996
  0
LINE
  8
_0-0_LAYER001
  6
DASHED1
 62
    1
 10
2254.335
 20
859.33330000000001
 11
2241.9533000000001
 21
817.28999999999996
  0
LINE
  8
_0-0_LAYER001
  6
DASHED1
 62
    1
 10
2233.5367999999999
 20
798.0612000000001
 11
2235.2051000000001
 21
815.61460000000011
  0
LINE
  8
_0-0_LAYER001
  6
DASHED1
 62
    1
 10
2248.5794000000001
 20
861.02829999999994
 11
2235.2051000000001
 21
815.61460000000011
  0
LINE
  8
_0-0_LAYER001
  6
CONTINUOUS
 62
    2
 10
1449.5443
 20
1164.999
 11
1428.0925999999999
 21
1140.3598
  0
LINE
  8
_0-0_LAYER001
  6
CONTINUOUS
 62
    2
 10
1514.4551999999999
 20
1152.4951000000001
 11
1547.8215
 21
1152.6844000000001
  0
LINE
  8
_0-0_LAYER001
  6
CONTINUOUS
 62
    2
 10
1211.8077000000001
 20
1058.0173
 11
1190.9333999999999
 21
1032.175
  0
LINE
  8
_0-0_LAYER001
  6
CONTINUOUS
 62
    2
 10
974.07109999999989
 20
951.03559999999993
 11
953.19679999999994
 21
925.19329999999991
  0
LINE
  8
_0-0_LAYER001
  6
CONTINUOUS
 62
    2
 10
736.33439999999996
 20
844.05379999999991
 11
715.46019999999999
 21
818.21160000000009
  0
LINE
  8
_0-0_LAYER001
  6
CONTINUOUS
 62
    2
 10
1785.5581000000002
 20
1045.7026000000001
 11
1751.4360000000001
 21
1044.6088
  0
LINE
  8
_0-0_LAYER001
  6
CONTINUOUS
 62
    2
 10
2023.2946999999999
 20
938.72090000000003
 11
1989.4371999999998
 21
937.50800000000004
  0
LINE
  8
_0-0_LAYER001
  6
CONTINUOUS
 62
    2
 10
2261.0313999999998
 20
831.73910000000001
 11
2227.1738
 21
830.52620000000002
  0
LINE
  8
_0-0_LAYER001
  6
CONTINUOUS
 62
    2
 10
613.70849999999996
 20
1074.1681000000001
 11
631.1552999999999
 21
1024.6518000000001
  0
CIRCLE
  8
_0-0_LAYER001
  6
CONTINUOUS
 62
    2
 10
614.53929999999991
 20
1071.8100999999999
 40
1.6999999999999997
  0
LINE
  8
_0-0_LAYER001
  6
CONTINUOUS
 62
    2
 10
614.53929999999991
 20
1071.8100999999999
 11
859.76260000000002
 21
1158.2134000000001
  0
CIRCLE
  8
_0-0_LAYER001
  6
CONTINUOUS
 62
    2
 10
859.76260000000002
 20
1158.2134000000001
 40
1.6999999999999997
  0
LINE
  8
_0-0_LAYER001
  6
CONTINUOUS
 62
    2
 10
858.93180000000007
 20
1160.5713000000001
 11
876.37860000000001
 21
1111.0550000000001
  0
LINE
  8
_0-0_LAYER001
  6
CONTINUOUS
 62
    2
 10
848.96219999999994
 20
1188.8662999999999
 11
866.40900000000011
 21
1139.3499999999999
  0
CIRCLE
  8
_0-0_LAYER001
  6
CONTINUOUS
 62
    2
 10
849.79299999999989
 20
1186.5083999999999
 40
1.6999999999999997
  0
LINE
  8
_0-0_LAYER001
  6
CONTINUOUS
 62
    2
 10
849.79299999999989
 20
1186.5083999999999
 11
1095.0162
 21
1272.9115999999999
  0
CIRCLE
  8
_0-0_LAYER001
  6
CONTINUOUS
 62
    2
 10
1095.0162
 20
1272.9115999999999
 40
1.6999999999999997
  0
LINE
  8
_0-0_LAYER001
  6
CONTINUOUS
 62
    2
 10
1094.1854000000001
 20
1275.2695000000001
 11
1111.6322
 21
1225.7532000000001
  0
LINE
  8
_0-0_LAYER001
  6
CONTINUOUS
 62
    2
 10
1084.2157999999999
 20
1303.5645
 11
1101.6626000000001
 21
1254.0482
  0
CIRCLE
  8
_0-0_LAYER001
  6
CONTINUOUS
 62
    2
 10
1085.0465999999999
 20
1301.2066
 40
1.6999999999999997
  0
LINE
  8
_0-0_LAYER001
  6
CONTINUOUS
 62
    2
 10
1085.0465999999999
 20
1301.2066
 11
1330.4576
 21
1387.6758999999997
  0
CIRCLE
  8
_0-0_LAYER001
  6
CONTINUOUS
 62
    2
 10
1330.4576
 20
1387.6758999999997
 40
1.6999999999999997
  0
LINE
  8
_0-0_LAYER001
  6
CONTINUOUS
 62
    2
 10
1329.6268
 20
1390.0337999999999
 11
1347.0735999999999
 21
1340.5176000000001
  0
LINE
  8
_0-0_LAYER001
  6
CONTINUOUS
 62
    1
 10
1450.4378000000002
 20
1149.3637000000001
 11
1481.3101000000001
 21
1163.2563
  0
LINE
  8
_0-0_LAYER001
  6
CONTINUOUS
 62
    1
 10
1521.0898000000002
 20
1148.6763000000001
 11
1487.7692999999999
 21
1163.6704999999999
  0
ARC
  8
_0-0_LAYER001
  6
CONTINUOUS
 62
    4
 10
1485.1916999999999
 20
1227.8924999999999
 40
135.21229
 50
4.5960760000000001
 51
175.43228999999997
  0
LINE
  8
_0-0_LAYER001
  6
CONTINUOUS
 62
    4
 10
1392.3670999999999
 20
1256.7687000000001
 11
1350.4087999999999
 21
1238.6604
  0
ARC
  8
_0-0_LAYER001
  6
CONTINUOUS
 62
    4
 10
1485.1916999999999
 20
1227.8924999999999
 40
115.21229
 50
10.237284000000001
 51
170.02013000000002
  0
LINE
  8
_0-0_LAYER001
  6
CONTINUOUS
 62
    4
 10
1577.6979999999999
 20
1257.7724000000001
 11
1619.9692
 21
1238.7271000000001
  0
ARC
  8
_0-0_LAYER001
  6
CONTINUOUS
 62
    4
 10
1485.1916999999999
 20
1227.8924999999999
 40
97.212295999999995
 50
17.900656000000001
 51
162.71990000000002
  0
LINE
  8
_0-0_LAYER001
  6
CONTINUOUS
 62
    1
 10
1469.5590999999999
 20
1323.9009000000001
 11
1469.5590999999999
 21
1293.9009000000001
  0
LINE
  8
_0-0_LAYER001
  6
CONTINUOUS
 62
    1
 10
1469.5590999999999
 20
1323.9009000000001
 11
1499.5590999999999
 21
1323.9009000000001
  0
LINE
  8
_0-0_LAYER001
  6
CONTINUOUS
 62
    1
 10
1469.5590999999999
 20
1293.9009000000001
 11
1499.5590999999999
 21
1293.9009000000001
  0
LINE
  8
_0-0_LAYER001
  6
CONTINUOUS
 62
    1
 10
1499.5590999999999
 20
1323.9009000000001
 11
1499.5590999999999
 21
1293.9009000000001
  0
LINE
  8
_0-0_LAYER001
  6
CONTINUOUS
 62
    1
 10
1469.8092000000001
 20
1323.7810999999999
 11
1499.2532999999999
 21
1294.3371
  0
LINE
  8
_0-0_LAYER001
  6
CONTINUOUS
 62
    1
 10
1469.6909999999998
 20
1294.5735999999999
 11
1499.3715000000002
 21
1323.7810999999999
  0
LINE
  8
_0-0_LAYER001
  6
CONTINUOUS
 62
    1
 10
1467.5590999999999
 20
1323.9009000000001
 11
1467.5590999999999
 21
1291.9009000000001
  0
LINE
  8
_0-0_LAYER001
  6
CONTINUOUS
 62
    1
 10
1467.5590999999999
 20
1323.9009000000001
 11
1467.5590999999999
 21
1291.9009000000001
  0
LINE
  8
_0-0_LAYER001
  6
CONTINUOUS
 62
    1
 10
1467.5590999999999
 20
1291.9009000000001
 11
1501.5590999999999
 21
1291.9009000000001
  0
LINE
  8
_0-0_LAYER001
  6
CONTINUOUS
 62
    1
 10
1501.5590999999999
 20
1323.9009000000001
 11
1501.5590999999999
 21
1291.9009000000001
  0
LINE
  8
_0-0_LAYER001
  6
DASHED1
 62
    1
 10
1476.3694
 20
1346.5289000000002
 11
1492.3694
 21
1346.5289000000002
  0
LINE
  8
_0-0_LAYER001
  6
DASHED1
 62
    1
 10
1492.3694
 20
1346.5289000000002
 11
1492.3694
 21
1343.5289
  0
LINE
  8
_0-0_LAYER001
  6
DASHED1
 62
    1
 10
1476.3694
 20
1346.5289000000002
 11
1476.3694
 21
1343.5289
  0
LINE
  8
_0-0_LAYER001
  6
DASHED1
 62
    1
 10
1476.3694
 20
1343.5289
 11
1492.3694
 21
1343.5289
  0
LINE
  8
_0-0_LAYER001
  6
DASHED1
 62
    1
 10
1484.23
 20
1299.2166
 11
1481.3694
 21
1312.0891000000001
  0
LINE
  8
_0-0_LAYER001
  6
DASHED1
 62
    1
 10
1481.3694
 20
1343.5289
 11
1481.3694
 21
1312.0891000000001
  0
LINE
  8
_0-0_LAYER001
  6
DASHED1
 62
    1
 10
1484.23
 20
1298.5484999999999
 11
1487.3694
 21
1312.1527000000001
  0
LINE
  8
_0-0_LAYER001
  6
DASHED1
 62
    1
 10
1487.3694
 20
1343.5289
 11
1487.3694
 21
1312.1527000000001
  0
LINE
  8
_0-0_LAYER001
  6
CONTINUOUS
 62
    1
 10
1486.5590999999999
 20
1291.9009000000001
 11
1486.5590999999999
 21
1163.1185
  0
LINE
  8
_0-0_LAYER001
  6
CONTINUOUS
 62
    1
 10
1482.5590999999999
 20
1291.9009000000001
 11
1482.5590999999999
 21
1162.7218
  0
LINE
  8
_0-0_LAYER001
  6
CONTINUOUS
 62
    1
 10
1481.3101000000001
 20
1163.2563
 11
1481.7314999999999
 21
1205.8186000000001
  0
LINE
  8
_0-0_LAYER001
  6
CONTINUOUS
 62
    1
 10
1487.3519000000001
 20
1205.8186000000001
 11
1487.7692999999999
 21
1163.6704999999999
  0
LINE
  8
_0-0_LAYER001
  6
CONTINUOUS
 62
    2
 10
1487.9384
 20
1347.2231999999999
 11
1482.6350000000002
 21
1341.9199000000001
  0
LINE
  8
_0-0_LAYER001
  6
CONTINUOUS
 62
    2
 10
1482.6350000000002
 20
1341.9199000000001
 11
1484.5762
 21
1349.1642999999999
  0
LINE
  8
_0-0_LAYER001
  6
CONTINUOUS
 62
    2
 10
1482.6350000000002
 20
1341.9199000000001
 11
1546.9301
 21
1453.2822000000001
  0
LINE
  8
_0-0_LAYER001
  6
CONTINUOUS
 62
    2
 10
1546.9301
 20
1453.2822000000001
 11
1734.0601999999999
 21
1453.2822000000001
  0
LINE
  8
_0-0_LAYER001
  6
CONTINUOUS
 62
    2
 10
1505.1743999999999
 20
1280.9404999999997
 11
1499.8710999999998
 21
1275.6371999999999
  0
LINE
  8
_0-0_LAYER001
  6
CONTINUOUS
 62
    2
 10
1499.8710999999998
 20
1275.6371999999999
 11
1501.8123000000001
 21
1282.8816999999999
  0
LINE
  8
_0-0_LAYER001
  6
CONTINUOUS
 62
    2
 10
1499.8710999999998
 20
1275.6371999999999
 11
1575.0969
 21
1405.9322
  0
LINE
  8
_0-0_LAYER001
  6
CONTINUOUS
 62
    2
 10
1575.0969
 20
1405.9322
 11
1615.5969
 21
1405.9322
  0
LINE
  8
_0-0_LAYER001
  6
CONTINUOUS
 62
    2
 10
1488.4114
 20
1177.6789000000001
 11
1483.1080999999999
 21
1172.3756000000001
  0
LINE
  8
_0-0_LAYER001
  6
CONTINUOUS
 62
    2
 10
1483.1080999999999
 20
1172.3756000000001
 11
1485.0493000000001
 21
1179.6199999999999
  0
LINE
  8
_0-0_LAYER001
  6
CONTINUOUS
 62
    2
 10
1483.1080999999999
 20
1172.3756000000001
 11
1591.1747
 21
1359.5524
  0
LINE
  8
_0-0_LAYER001
  6
CONTINUOUS
 62
    2
 10
1472.6957000000002
 20
1314.0027
 11
1474.6368000000002
 21
1306.7583
  0
LINE
  8
_0-0_LAYER001
  6
CONTINUOUS
 62
    2
 10
1474.6368000000002
 20
1306.7583
 11
1469.3335000000002
 21
1312.0616
  0
LINE
  8
_0-0_LAYER001
  6
CONTINUOUS
 62
    2
 10
1474.6368000000002
 20
1306.7583
 11
1379.9585
 21
1470.7458999999999
  0
LINE
  8
_0-0_LAYER001
  6
CONTINUOUS
 62
    2
 10
1379.9585
 20
1470.7458999999999
 11
1212.5225
 21
1470.7458999999999
  0
LINE
  8
_0-0_LAYER001
  6
CONTINUOUS
 62
    2
 10
1131.2125000000001
 20
640.82020000000011
 11
1398.5216
 21
640.82020000000011
  0
LINE
  8
_0-0_LAYER001
  6
CONTINUOUS
 62
    2
 10
964.99700000000007
 20
924.83159999999998
 11
963.05580000000009
 21
932.07600000000002
  0
LINE
  8
_0-0_LAYER001
  6
CONTINUOUS
 62
    2
 10
963.05580000000009
 20
932.07600000000002
 11
968.3590999999999
 21
926.77269999999999
  0
LINE
  8
_0-0_LAYER001
  6
CONTINUOUS
 62
    2
 10
963.05580000000009
 20
932.07600000000002
 11
1147.9938
 21
611.75399999999991
  0
LINE
  8
_0-0_LAYER001
  6
CONTINUOUS
 62
    2
 10
1113.5608
 20
671.71589999999992
 11
1349.6858999999999
 21
671.71589999999992
  0
LINE
  8
_0-0_LAYER001
  6
CONTINUOUS
 62
    2
 10
1095.8841
 20
701.69689999999991
 11
1288.2768000000001
 21
701.69689999999991
  0
LINE
  8
_0-1_LAYER002
  6
CONTINUOUS
 62
    7
 10
1212.5225
 20
1470.7458999999999
 11
1379.9585
 21
1470.7458999999999
  0
LINE
  8
_0-1_LAYER002
  6
CONTINUOUS
 62
    7
 10
1546.9301
 20
1453.2822000000001
 11
1710.4301
 21
1453.2822000000001
  0
LINE
  8
_0-1_LAYER002
  6
CONTINUOUS
 62
    7
 10
1575.0969
 20
1405.9322
 11
1615.5969
 21
1405.9322
  0
LINE
  8
_0-1_LAYER002
  6
CONTINUOUS
 62
    7
 10
1096.0652404873847
 20
701.69689999999991
 11
1288.2768000000001
 21
701.69689999999991
  0
LINE
  8
_0-1_LAYER002
  6
CONTINUOUS
 62
    7
 10
1113.5608
 20
671.71589999999992
 11
1349.6858999999999
 21
671.71589999999992
  0
LINE
  8
_0-1_LAYER002
  6
CONTINUOUS
 62
    7
 10
1131.2125000000001
 20
640.82020000000011
 11
1398.5216
 21
640.82020000000011
  0
LINE
  8
_0-1_LAYER002
  6
CONTINUOUS
 62
    7
 10
613.97438186471788
 20
1073.4134924973098
 11
631.1552999999999
 21
1024.6518000000001
  0
LINE
  8
_0-1_LAYER002
  6
CONTINUOUS
 62
    7
 10
614.53929999999991
 20
1071.8100999999999
 11
859.76260000000002
 21
1158.2134000000001
  0
LINE
  8
_0-1_LAYER002
  6
CONTINUOUS
 62
    7
 10
849.79299999999989
 20
1186.5083999999999
 11
876.37860000000001
 21
1111.0550000000001
  0
LINE
  8
_0-1_LAYER002
  6
CONTINUOUS
 62
    7
 10
849.79299999999989
 20
1186.5083999999999
 11
1095.0162
 21
1272.9115999999999
  0
LINE
  8
_0-1_LAYER002
  6
CONTINUOUS
 62
    7
 10
1111.6322
 20
1225.7532000000001
 11
1085.0465999999999
 21
1301.2066
  0
LINE
  8
_0-1_LAYER002
  6
CONTINUOUS
 62
    7
 10
1085.0465999999999
 20
1301.2066
 11
1330.4576
 21
1387.6758999999997
  0
LINE
  8
_0-1_LAYER002
  6
CONTINUOUS
 62
    7
 10
1330.4576
 20
1387.6758999999997
 11
1347.0735999999999
 21
1340.5176000000001
  0
LINE
  8
_0-1_LAYER002
  6
CONTINUOUS
 62
    7
 10
1330.4575955223791
 20
1387.6758984223334
 11
1329.8926509989619
 21
1389.2792816221431
  0
LINE
  8
_0-1_LAYER002
  6
CONTINUOUS
 62
    7
 10
1085.0465999999999
 20
1301.2066
 11
1084.4816505213591
 21
1302.8099814538605
  0
LINE
  8
_0-1_LAYER002
  6
CONTINUOUS
 62
    7
 10
849.79299999999989
 20
1186.5083999999999
 11
849.22805052135925
 21
1188.1117814538604
  0
LINE
  8
_0-1_LAYER002
  6
CONTINUOUS
 62
    7
 10
627.05610000000001
 20
777.74510000000009
 11
1485
 21
1163.8200999999999
  0
LINE
  8
_0-1_LAYER002
  6
CONTINUOUS
 62
    7
 10
1485
 20
1163.8200999999999
 11
2346.3595999999998
 21
776.20759999999996
  0
LINE
  8
_0-1_LAYER002
  6
CONTINUOUS
 62
    7
 10
2345.8213999999998
 20
774.80529999999999
 11
1485
 21
1162.1751999999999
  0
LINE
  8
_0-1_LAYER002
  6
CONTINUOUS
 62
    7
 10
1485
 20
1162.1751999999999
 11
627.6715999999999
 21
776.3771999999999
  0
LINE
  8
_0-1_LAYER002
  6
CONTINUOUS
 62
    7
 10
1147.9938
 20
611.75399999999991
 11
963.05580000000009
 21
932.07600000000002
  0
LINE
  8
_0-1_LAYER002
  6
CONTINUOUS
 62
    7
 10
963.05580000000009
 20
932.07600000000002
 11
968.3590999999999
 21
926.77269999999999
  0
LINE
  8
_0-1_LAYER002
  6
CONTINUOUS
 62
    7
 10
963.05580000000009
 20
932.07600000000002
 11
964.99700000000007
 21
924.83159999999998
  0
LINE
  8
_0-1_LAYER002
  6
CONTINUOUS
 62
    7
 10
953.19679999999994
 20
925.19329999999991
 11
980.56269999999995
 21
937.50800000000004
  0
LINE
  8
_0-1_LAYER002
  6
CONTINUOUS
 62
    7
 10
980.56269999999995
 20
937.50800000000004
 11
974.07109999999989
 21
951.03559999999993
  0
LINE
  8
_0-1_LAYER002
  6
CONTINUOUS
 62
    7
 10
974.07109999999989
 20
951.03559999999993
 11
946.7052000000001
 21
938.72090000000003
  0
LINE
  8
_0-1_LAYER002
  6
CONTINUOUS
 62
    7
 10
946.7052000000001
 20
938.72090000000003
 11
953.19679999999994
 21
925.19329999999991
  0
LINE
  8
_0-1_LAYER002
  6
CONTINUOUS
 62
    7
 10
953.19679999999994
 20
925.19329999999991
 11
974.07109999999989
 21
951.03559999999993
  0
LINE
  8
_0-1_LAYER002
  6
CONTINUOUS
 62
    7
 10
1485
 20
1107.346
 11
648.18949999999995
 21
730.78199999999993
  0
LINE
  8
_0-1_LAYER002
  6
CONTINUOUS
 62
    7
 10
1485
 20
1107.346
 11
2327.8773000000001
 21
728.05199999999991
  0
LINE
  8
_0-1_LAYER002
  6
CONTINUOUS
 62
    7
 10
1484.886
 20
1104.6559
 11
1616.2029000000002
 21
1045.5634
  0
LINE
  8
_0-1_LAYER002
  6
CONTINUOUS
 62
    7
 10
1484.886
 20
1104.6559
 11
1353.7972
 21
1045.5634
  0
LINE
  8
_0-1_LAYER002
  6
CONTINUOUS
 62
    7
 10
1353.7972
 20
1045.5634
 11
1352.7713001642996
 21
1047.8431996348866
  0
LINE
  8
_0-1_LAYER002
  6
CONTINUOUS
 62
    7
 10
1616.2029000000002
 20
1045.5634
 11
1617.2287999999999
 21
1047.8432
  0
LINE
  8
_0-2_LAYER003
  6
CONTINUOUS
 62
    2
 10
1484.9999999431357
 20
983.98017424946022
 11
694.35549999999989
 21
628.19090000000006
  0
LINE
  8
_0-1_LAYER002
  6
CONTINUOUS
 62
    7
 10
2287.5021999999999
 20
622.85500000000002
 11
1484.9999999431357
 21
983.98017424946022
  0
LINE
  8
_0-1_LAYER002
  6
CONTINUOUS
 62
    7
 10
1484.9999999431357
 20
983.98017424946022
 11
694.35549999999989
 21
628.19090000000006
  0
LINE
  8
_0-1_LAYER002
  6
CONTINUOUS
 62
    7
 10
694.65302989615338
 20
806.51886064144855
 11
669.57549999999992
 21
740.40570000000002
  0
LINE
  8
_0-1_LAYER002
  6
CONTINUOUS
 62
    7
 10
665.70671135369537
 20
738.664729932515
 11
690.78449999999998
 21
804.779
  0
LINE
  8
_0-1_LAYER002
  6
CONTINUOUS
 62
    7
 10
715.46019999999999
 20
818.21160000000009
 11
708.96849999999995
 21
831.73910000000001
  0
LINE
  8
_0-1_LAYER002
  6
CONTINUOUS
 62
    7
 10
708.96849999999995
 20
831.73910000000001
 11
736.33439999999996
 21
844.05379999999991
  0
LINE
  8
_0-1_LAYER002
  6
CONTINUOUS
 62
    7
 10
736.33439999999996
 20
844.05379999999991
 11
742.8261
 21
830.52620000000002
  0
LINE
  8
_0-1_LAYER002
  6
CONTINUOUS
 62
    7
 10
742.8261
 20
830.52620000000002
 11
715.46019999999999
 21
818.21160000000009
  0
LINE
  8
_0-1_LAYER002
  6
CONTINUOUS
 62
    7
 10
715.46019999999999
 20
818.21160000000009
 11
736.33439999999996
 21
844.05379999999991
  0
LINE
  8
_0-1_LAYER002
  6
CONTINUOUS
 62
    7
 10
1313.743106717716
 20
1085.1095540765491
 11
1288.6651000000002
 21
1018.9955
  0
LINE
  8
_0-1_LAYER002
  6
CONTINUOUS
 62
    7
 10
1309.8739628141313
 20
1083.3684383270706
 11
1284.7963
 21
1017.2544
  0
LINE
  8
_0-1_LAYER002
  6
CONTINUOUS
 62
    7
 10
1107.3798999999999
 20
992.24659999999994
 11
1082.3018999999999
 21
926.13229999999999
  0
LINE
  8
_0-1_LAYER002
  6
CONTINUOUS
 62
    7
 10
1078.4331
 20
924.39120000000003
 11
1103.5109
 21
990.50549999999998
  0
LINE
  8
_0-1_LAYER002
  6
CONTINUOUS
 62
    7
 10
1190.9333999999999
 20
1032.175
 11
1184.4418000000001
 21
1045.7026000000001
  0
LINE
  8
_0-1_LAYER002
  6
CONTINUOUS
 62
    7
 10
1184.4418000000001
 20
1045.7026000000001
 11
1211.8077000000001
 21
1058.0173
  0
LINE
  8
_0-1_LAYER002
  6
CONTINUOUS
 62
    7
 10
1211.8077000000001
 20
1058.0173
 11
1218.1455000000001
 21
1044.8100999999999
  0
LINE
  8
_0-0_LAYER001
  6
CONTINUOUS
 62
    4
 10
1211.8077000000001
 20
1058.0173
 11
1218.2992488255566
 21
1044.4897062531336
  0
LINE
  8
_0-0_LAYER001
  6
CONTINUOUS
 62
    4
 10
1218.2992488255566
 20
1044.4897062531336
 11
1190.9333999999999
 21
1032.175
  0
LINE
  8
_0-1_LAYER002
  6
CONTINUOUS
 62
    7
 10
1211.8077000000001
 20
1058.0173
 11
1218.1455000000001
 21
1044.8100999999999
  0
LINE
  8
_0-1_LAYER002
  6
CONTINUOUS
 62
    7
 10
1218.1455000000001
 20
1044.8100999999999
 11
1218.2992488255566
 21
1044.4897062531336
  0
LINE
  8
_0-1_LAYER002
  6
CONTINUOUS
 62
    7
 10
1218.2992488255566
 20
1044.4897062531336
 11
1190.9333999999999
 21
1032.175
  0
LINE
  8
_0-1_LAYER002
  6
CONTINUOUS
 62
    7
 10
1190.9333999999999
 20
1032.175
 11
1211.8077000000001
 21
1058.0173
  0
LINE
  8
_0-1_LAYER002
  6
CONTINUOUS
 62
    7
 10
1428.0925999999999
 20
1140.3598
 11
1422.1784
 21
1152.6844000000001
  0
LINE
  8
_0-1_LAYER002
  6
CONTINUOUS
 62
    7
 10
1422.1784
 20
1152.6844000000001
 11
1449.5443
 21
1164.999
  0
LINE
  8
_0-1_LAYER002
  6
CONTINUOUS
 62
    7
 10
1449.5443
 20
1164.999
 11
1455.5446999999999
 21
1152.4951000000001
  0
LINE
  8
_0-1_LAYER002
  6
CONTINUOUS
 62
    7
 10
1455.5446999999999
 20
1152.4951000000001
 11
1428.0925999999999
 21
1140.3598
  0
LINE
  8
_0-1_LAYER002
  6
CONTINUOUS
 62
    7
 10
1428.0925999999999
 20
1140.3598
 11
1449.5443
 21
1164.999
  0
LINE
  8
_0-1_LAYER002
  6
CONTINUOUS
 62
    7
 10
1464.4818
 20
1152.9421
 11
1485
 21
1107.346
  0
LINE
  8
_0-1_LAYER002
  6
CONTINUOUS
 62
    7
 10
1485
 20
1107.346
 11
1505.5181639118985
 21
1152.9420198040432
  0
LINE
  8
_0-1_LAYER002
  6
CONTINUOUS
 62
    7
 10
1485.0493000000001
 20
1179.6199999999999
 11
1483.1080999999999
 21
1172.3756000000001
  0
LINE
  8
_0-1_LAYER002
  6
CONTINUOUS
 62
    7
 10
1483.1080999999999
 20
1172.3756000000001
 11
1488.4114
 21
1177.6789000000001
  0
LINE
  8
_0-1_LAYER002
  6
CONTINUOUS
 62
    7
 10
1483.1080999999999
 20
1172.3756000000001
 11
1591.1747
 21
1359.5524
  0
LINE
  8
_0-1_LAYER002
  6
CONTINUOUS
 62
    7
 10
1501.5907849677719
 20
1282.0550125638902
 11
1499.8710999999998
 21
1275.6371999999999
  0
LINE
  8
_0-1_LAYER002
  6
CONTINUOUS
 62
    7
 10
1499.8710999999998
 20
1275.6371999999999
 11
1505.0648437812629
 21
1280.8309437812632
  0
LINE
  8
_0-1_LAYER002
  6
CONTINUOUS
 62
    7
 10
1499.8710999999998
 20
1275.6371999999999
 11
1575.0969
 21
1405.9322
  0
LINE
  8
_0-1_LAYER002
  6
CONTINUOUS
 62
    7
 10
1484.5762
 20
1349.1642999999999
 11
1482.6350000000002
 21
1341.9199000000001
  0
LINE
  8
_0-1_LAYER002
  6
CONTINUOUS
 62
    7
 10
1482.6350000000002
 20
1341.9199000000001
 11
1487.9384
 21
1347.2231999999999
  0
LINE
  8
_0-1_LAYER002
  6
CONTINUOUS
 62
    7
 10
1482.6350000000002
 20
1341.9199000000001
 11
1546.9301
 21
1453.2822000000001
  0
LINE
  8
_0-1_LAYER002
  6
CONTINUOUS
 62
    7
 10
1474.6368000000002
 20
1306.7583
 11
1472.6957000000002
 21
1314.0027
  0
LINE
  8
_0-1_LAYER002
  6
CONTINUOUS
 62
    7
 10
1474.6368000000002
 20
1306.7583
 11
1469.5590999999999
 21
1311.8360000000002
  0
LINE
  8
_0-1_LAYER002
  6
CONTINUOUS
 62
    7
 10
1474.6368000000002
 20
1306.7583
 11
1379.9585
 21
1470.7458999999999
  0
LINE
  8
_0-1_LAYER002
  6
CONTINUOUS
 62
    7
 10
1514.4551999999999
 20
1152.4951000000001
 11
1520.4555999999998
 21
1164.999
  0
LINE
  8
_0-1_LAYER002
  6
CONTINUOUS
 62
    7
 10
1520.4555999999998
 20
1164.999
 11
1547.8215
 21
1152.6844000000001
  0
LINE
  8
_0-1_LAYER002
  6
CONTINUOUS
 62
    7
 10
1547.8215
 20
1152.6844000000001
 11
1541.9072999999999
 21
1140.3598
  0
LINE
  8
_0-1_LAYER002
  6
CONTINUOUS
 62
    7
 10
1541.9072999999999
 20
1140.3598
 11
1514.4551999999999
 21
1152.4951000000001
  0
LINE
  8
_0-1_LAYER002
  6
CONTINUOUS
 62
    7
 10
1514.4551999999999
 20
1152.4951000000001
 11
1547.8215
 21
1152.6844000000001
  0
LINE
  8
_0-1_LAYER002
  6
CONTINUOUS
 62
    7
 10
1751.8544000000002
 20
1044.8100999999999
 11
1758.1922
 21
1058.0173
  0
LINE
  8
_0-1_LAYER002
  6
CONTINUOUS
 62
    7
 10
1758.1922
 20
1058.0173
 11
1785.5581000000002
 21
1045.7026000000001
  0
LINE
  8
_0-1_LAYER002
  6
CONTINUOUS
 62
    7
 10
1785.5581000000002
 20
1045.7026000000001
 11
1779.0664999999999
 21
1032.175
  0
LINE
  8
_0-1_LAYER002
  6
CONTINUOUS
 62
    7
 10
1779.0664999999999
 20
1032.175
 11
1751.4360000000001
 21
1044.6088
  0
LINE
  8
_0-1_LAYER002
  6
CONTINUOUS
 62
    7
 10
1751.4360000000001
 20
1044.6088
 11
1758.1922
 21
1058.0173
  0
LINE
  8
_0-1_LAYER002
  6
CONTINUOUS
 62
    7
 10
1751.4360000000001
 20
1044.6088
 11
1785.5581000000002
 21
1045.7026000000001
  0
LINE
  8
_0-1_LAYER002
  6
CONTINUOUS
 62
    7
 10
1660.1260417549361
 20
1083.3684262813106
 11
1685.2036444484222
 21
1017.2545464546027
  0
LINE
  8
_0-1_LAYER002
  6
CONTINUOUS
 62
    7
 10
1685.2036444484222
 20
1017.2545464546027
 11
1681.3348999999998
 21
1018.9955
  0
LINE
  8
_0-1_LAYER002
  6
CONTINUOUS
 62
    7
 10
1681.3348999999998
 20
1018.9955
 11
1656.4692003468965
 21
1084.7266199407418
  0
LINE
  8
_0-1_LAYER002
  6
CONTINUOUS
 62
    7
 10
1836.3947447965998
 20
1004.0474546251935
 11
1861.4722471172809
 21
937.93383941849902
  0
LINE
  8
_0-1_LAYER002
  6
CONTINUOUS
 62
    7
 10
1857.6035000000002
 20
939.6748
 11
1832.5256007938153
 21
1005.7885706400186
  0
LINE
  8
_0-1_LAYER002
  6
CONTINUOUS
 62
    7
 10
1887.2073999999998
 20
1034.0123000000001
 11
1885.2662
 21
1026.7678000000001
  0
LINE
  8
_0-1_LAYER002
  6
CONTINUOUS
 62
    7
 10
1885.2662
 20
1026.7678000000001
 11
1890.5695000000001
 21
1032.0710999999999
  0
LINE
  8
_0-1_LAYER002
  6
CONTINUOUS
 62
    7
 10
1885.2662
 20
1026.7678000000001
 11
1946.8402000000001
 21
1133.4170999999999
  0
LINE
  8
_0-1_LAYER002
  6
CONTINUOUS
 62
    7
 10
1989.4371999999998
 20
937.50800000000004
 11
1995.9288000000001
 21
951.03559999999993
  0
LINE
  8
_0-1_LAYER002
  6
CONTINUOUS
 62
    7
 10
1995.9288000000001
 20
951.03559999999993
 11
2023.2946999999999
 21
938.72090000000003
  0
LINE
  8
_0-1_LAYER002
  6
CONTINUOUS
 62
    7
 10
2023.2946999999999
 20
938.72090000000003
 11
2016.8031000000001
 21
925.19329999999991
  0
LINE
  8
_0-1_LAYER002
  6
CONTINUOUS
 62
    7
 10
2016.8031000000001
 20
925.19329999999991
 11
1989.4371999999998
 21
937.50800000000004
  0
LINE
  8
_0-1_LAYER002
  6
CONTINUOUS
 62
    7
 10
1989.4371999999998
 20
937.50800000000004
 11
2023.2946999999999
 21
938.72090000000003
  0
LINE
  8
_0-1_LAYER002
  6
CONTINUOUS
 62
    7
 10
2012.6633272562008
 20
924.72653723104247
 11
2037.7408
 21
858.61300000000006
  0
LINE
  8
_0-1_LAYER002
  6
CONTINUOUS
 62
    7
 10
2033.8721
 20
860.35410000000002
 11
2008.7943038371532
 21
926.46759898314826
  0
LINE
  8
_0-1_LAYER002
  6
CONTINUOUS
 62
    7
 10
2188.9320302978645
 20
845.4055655749255
 11
2214.0093999999999
 21
779.29230000000007
  0
LINE
  8
_0-1_LAYER002
  6
CONTINUOUS
 62
    7
 10
2210.140597553981
 20
781.03340644855462
 11
2185.0630068785354
 21
847.14662732715794
  0
LINE
  8
_0-1_LAYER002
  6
CONTINUOUS
 62
    7
 10
2227.1738
 20
830.52620000000002
 11
2233.6655000000001
 21
844.05379999999991
  0
LINE
  8
_0-1_LAYER002
  6
CONTINUOUS
 62
    7
 10
2233.6655000000001
 20
844.05379999999991
 11
2261.0313999999998
 21
831.73910000000001
  0
LINE
  8
_0-1_LAYER002
  6
CONTINUOUS
 62
    7
 10
2261.0313999999998
 20
831.73910000000001
 11
2254.5396999999998
 21
818.21160000000009
  0
LINE
  8
_0-1_LAYER002
  6
CONTINUOUS
 62
    7
 10
2254.5396999999998
 20
818.21160000000009
 11
2227.1738
 21
830.52620000000002
  0
LINE
  8
_0-1_LAYER002
  6
CONTINUOUS
 62
    7
 10
2227.1738
 20
830.52620000000002
 11
2261.0313999999998
 21
831.73910000000001
  0
LINE
  8
_0-1_LAYER002
  6
CONTINUOUS
 62
    7
 10
901.01636388828979
 20
899.38241389303596
 11
875.93869999999993
 21
833.26900000000001
  0
LINE
  8
_0-1_LAYER002
  6
CONTINUOUS
 62
    7
 10
872.06989999999996
 20
831.52790000000005
 11
897.14769999999999
 21
897.6422
  0
TEXT
  8
_0-0_LAYER001
 62
    7
 10
1963.3402000000001
 20
1135.9170999999999
 40
20
 41
1
 50
0
  1
　
  0
TEXT
  8
_0-0_LAYER001
 62
    7
 10
1095.8841
 20
704.19689999999969
 40
20
 41
1
 50
0
  1
　瓦桟：１５ｘ３０以上　
  0
TEXT
  8
_0-0_LAYER001
 62
    7
 10
1949.392199001059
 20
1140.1579923676156
 40
20
 41
1
 50
0
  1
桟　瓦
  0
TEXT
  8
_0-0_LAYER001
 62
    7
 10
721.574439227727
 20
1123.0622118707838
 40
20
 41
1
 50
19.409657000000017
  1
260
  0
TEXT
  8
_0-0_LAYER001
 62
    7
 10
962.72855502394486
 20
1234.6164967288983
 40
20
 41
1
 50
19.409657000000017
  1
260
  0
TEXT
  8
_0-0_LAYER001
 62
    7
 10
1194.0396456856231
 20
1354.3733025324623
 40
20
 41
1
 50
19.409700000000008
  1
260
  0
TEXT
  8
_0-0_LAYER001
 62
    7
 10
1113.5608
 20
674.21589999999981
 40
20
 41
1
 50
0
  1
　下葺材：ルーフィング
  0
TEXT
  8
_0-0_LAYER001
 62
    7
 10
1153.0270409583752
 20
614.50591325290964
 40
20
 41
1
 50
0
  1
　鋼製：C100x50x⑳x2.3
  0
TEXT
  8
_0-0_LAYER001
 62
    7
 10
1131.2125000000001
 20
643.32019999999989
 40
20
 41
1
 50
0
  1
　下地：ALCパネル　t＝50
  0
LINE
  8
_0-0_LAYER001
  6
CONTINUOUS
 62
    2
 10
1147.9938
 20
611.75399999999991
 11
1399.1026693218628
 21
611.75399999999991
  0
LINE
  8
_0-1_LAYER002
  6
CONTINUOUS
 62
    7
 10
1147.9938
 20
611.75399999999991
 11
1394.1811567545928
 21
611.75399999999991
  0
LINE
  8
_0-0_LAYER001
  6
CONTINUOUS
 62
    2
 10
1946.8402000000001
 20
1133.4170999999999
 11
2011.0107318524019
 21
1133.4170999999999
  0
LINE
  8
_0-1_LAYER002
  6
CONTINUOUS
 62
    7
 10
1946.8402000000001
 20
1133.4170999999999
 11
2027.4157737433009
 21
1133.4170999999999
  0
LINE
  8
_0-0_LAYER001
  6
CONTINUOUS
 62
    2
 10
1591.1747
 20
1359.5524
 11
1684.5503982235084
 21
1359.5524
  0
LINE
  8
_0-1_LAYER002
  6
CONTINUOUS
 62
    7
 10
1591.1747
 20
1359.5524
 11
1692.7529191689578
 21
1359.5524
  0
TEXT
  8
_0-0_LAYER001
 62
    7
 10
1591.0416594453829
 20
1365.8568318560915
 40
20
 41
1
 50
0
  1
棟補強金物
  0
TEXT
  8
_0-0_LAYER001
 62
    7
 10
1564.7935924199444
 20
1410.1504449615195
 40
20
 41
1
 50
0
  1
棟　瓦
  0
TEXT
  8
_0-0_LAYER001
 62
    7
 10
1545.1075421508654
 20
1461.006074823307
 40
20
 41
1
 50
0
  1
パッキンステンレスネジ
  0
TEXT
  8
_0-0_LAYER001
 62
    7
 10
1223.5687210892415
 20
1477.4111167142059
 40
20
 41
1
 50
0
  1
芯木：40x30以上
  0
ENDSEC
  0
EOF
