  0
SECTION
  2
HEADER
  9
$ACADVER
  1
AC1009
  9
$INSBASE
 10
0
 20
0
 30
0
  9
$EXTMIN
 10
0
 20
0
  9
$EXTMAX
 10
2970
 20
2100
  9
$LIMMIN
 10
0
 20
0
  9
$LIMMAX
 10
2970
 20
2100
  9
$LTSCALE
 40
10
  0
ENDSEC
  0
SECTION
  2
TABLES
  0
TABLE
  2
LTYPE
 70
     9
  0
LTYPE
  2
CONTINUOUS
 70
    64
  3
実線
 72
    65
 73
     0
 40
0.0
  0
LTYPE
  2
DASHED1
 70
    64
  3
--  --  --  --  --  --  --  --  
 72
    65
 73
     2
 40
2.5
 49
1.25
 49
-1.25
  0
LTYPE
  2
DASHED2
 70
    64
  3
----    ----    ----    ----    
 72
    65
 73
     2
 40
5.0
 49
2.5
 49
-2.5
  0
LTYPE
  2
DASHED3
 70
    64
  3
------  ------  ------  ------  
 72
    65
 73
     2
 40
5.0
 49
3.75
 49
-1.25
  0
LTYPE
  2
CENTER1
 70
    64
  3
----- - ----- - ----- - ----- - 
 72
    65
 73
     4
 40
10.0
 49
6.25
 49
-1.25
 49
1.25
 49
-1.25
  0
LTYPE
  2
CENTER2
 70
    64
  3
----------  --  ----------  --  
 72
    65
 73
     4
 40
20.0
 49
12.5
 49
-2.5
 49
2.5
 49
-2.5
  0
LTYPE
  2
PHANTOM1
 70
    64
  3
--- - - --- - - --- - - --- - - 
 72
    65
 73
     6
 40
10.0
 49
3.25
 49
-1.25
 49
1.25
 49
-1.25
 49
1.25
 49
-1.25
  0
LTYPE
  2
PHANTOM2
 70
    64
  3
--------  -  -  --------  -  -  
 72
    65
 73
     6
 40
20.0
 49
10.0
 49
-2.5
 49
1.25
 49
-2.5
 49
1.25
 49
-2.5
  0
LTYPE
  2
DOT
 70
    64
  3
-   -   -   -   -   -   -   -   
 72
    65
 73
     2
 40
2.5
 49
0.625
 49
-1.875
  0
LTYPE
  2
DUMMY
 70
    64
  3
ダミー
 72
    65
 73
     0
 40
0.0
  0
LTYPE
  2
RAND1
 70
    64
  3
ランダム線1
 72
    65
 73
     4
 40
10.0
 49
1.0
 49
-2.0
 49
3.0
 49
-4.0
  0
LTYPE
  2
RAND2
 70
    64
  3
ランダム線2
 72
    65
 73
     4
 40
14.0
 49
2.0
 49
-3.0
 49
4.0
 49
-5.0
  0
LTYPE
  2
RAND3
 70
    64
  3
ランダム線3
 72
    65
 73
     4
 40
18.0
 49
3.0
 49
-4.0
 49
5.0
 49
-6.0
  0
LTYPE
  2
RAND4
 70
    64
  3
ランダム線4
 72
    65
 73
     4
 40
22.0
 49
4.0
 49
-5.0
 49
6.0
 49
-7.0
  0
LTYPE
  2
RAND5
 70
    64
  3
ランダム線5
 72
    65
 73
     4
 40
26.0
 49
5.0
 49
-6.0
 49
7.0
 49
-8.0
  0
LTYPE
  2
LONG1
 70
    64
  3
----------  --  ----------  --  
 72
    65
 73
     4
 40
40.0
 49
32.5
 49
-2.5
 49
2.5
 49
-2.5
  0
LTYPE
  2
LONG2
 70
    64
  3
--------  -  -  --------  -  -  
 72
    65
 73
     6
 40
40.0
 49
30.0
 49
-2.5
 49
1.25
 49
-2.5
 49
1.25
 49
-2.5
  0
LTYPE
  2
LONG3
 70
    64
  3
+++++++++++++++..+++++++++++++++
 72
    65
 73
     2
 40
40.0
 49
37.5
 49
-2.5
  0
LTYPE
  2
LONG4
 70
    64
  3
+++++++++++++++..+++++++++++++++
 72
    65
 73
     2
 40
80.0
 49
75.0
 49
-5.0
  0
LTYPE
  2
LONG5
 70
    64
  3
----------  --  ----------  --  
 72
    65
 73
     4
 40
60.0
 49
37.5
 49
-7.5
 49
7.5
 49
-7.5
  0
LTYPE
  2
dashed
 70
   64
  3
-------   -------------   ------
 72
   65
 73
    2
 40
7.5
 49
6
 49
-1.5
  0
LTYPE
  2
dashed_spaced
 70
   64
  3
----        --------        ----
 72
   65
 73
    2
 40
12
 49
6
 49
-6
  0
LTYPE
  2
long_dashed_dotted
 70
   64
  3
------------- --- --------------
 72
   65
 73
    4
 40
15.25
 49
12
 49
-1.5
 49
0.25
 49
-1.5
  0
LTYPE
  2
long_dashed_double-dotted
 70
   64
  3
----------- --- --- ------------
 72
   65
 73
    6
 40
17
 49
12
 49
-1.5
 49
0.25
 49
-1.5
 49
0.25
 49
-1.5
  0
LTYPE
  2
long_dashed_triplicate-dotted
 70
   64
  3
--------- --- --- --- ----------
 72
   65
 73
    8
 40
18.75
 49
12
 49
-1.5
 49
0.25
 49
-1.5
 49
0.25
 49
-1.5
 49
0.25
 49
-1.5
  0
LTYPE
  2
dotted
 70
   64
  3
   -       -       -       -    
 72
   65
 73
    2
 40
1.75
 49
0.25
 49
-1.5
  0
LTYPE
  2
chain
 70
   64
  3
-------------- -- --------------
 72
   65
 73
    4
 40
18.5
 49
12
 49
-1.5
 49
3.5
 49
-1.5
  0
LTYPE
  2
chain_double_dash
 70
   64
  3
------------ -- -- -------------
 72
   65
 73
    6
 40
23.5
 49
12
 49
-1.5
 49
3.5
 49
-1.5
 49
3.5
 49
-1.5
  0
LTYPE
  2
dashed_dotted
 70
   64
  3
-----------     -     ----------
 72
   65
 73
    4
 40
9.25
 49
6
 49
-1.5
 49
0.25
 49
-1.5
  0
LTYPE
  2
double-dashed_dotted
 70
   64
  3
------   -----------   -   -----
 72
   65
 73
    6
 40
16.75
 49
6
 49
-1.5
 49
6
 49
-1.5
 49
0.25
 49
-1.5
  0
LTYPE
  2
dashed_double-dotted
 70
   64
  3
---------    -    -    ---------
 72
   65
 73
    6
 40
11
 49
6
 49
-1.5
 49
0.25
 49
-1.5
 49
0.25
 49
-1.5
  0
LTYPE
  2
double-dashed_double-dotted
 70
   64
  3
-----   ---------   -   -   ----
 72
   65
 73
    8
 40
18.5
 49
6
 49
-1.5
 49
6
 49
-1.5
 49
0.25
 49
-1.5
 49
0.25
 49
-1.5
  0
LTYPE
  2
dashed_triplicate-dotted
 70
   64
  3
-------    -    -    -    ------
 72
   65
 73
    8
 40
12.75
 49
6
 49
-1.5
 49
0.25
 49
-1.5
 49
0.25
 49
-1.5
 49
0.25
 49
-1.5
  0
LTYPE
  2
double-dashed_triplicate-dotted
 70
   64
  3
-----  ---------  -  -  -  -----
 72
   65
 73
   10
 40
20.25
 49
6
 49
-1.5
 49
6
 49
-1.5
 49
0.25
 49
-1.5
 49
0.25
 49
-1.5
 49
0.25
 49
-1.5
  0
LTYPE
  2
undefined
 70
   64
  3
--------------------------------
 72
   65
 73
    0
 40
0
  0
ENDTAB
  0
TABLE
  2
STYLE
  5
3
100
AcDbSymbolTable
 70
     1
  0
STYLE
  5
10
100
AcDbSymbolTableRecord
100
AcDbTextStyleTableRecord
  2
STANDARD
 70
     0
 40
0.0
 41
1.0
 50
0.0
 71
     0
 42
0.2
  3
txt
  4
bigfont.shx
  0
STYLE
  5
26
100
AcDbSymbolTableRecord
100
AcDbTextStyleTableRecord
  2
TATEGAKI
 70
    68
 40
0.0
 41
1.0
 50
0.0
 71
     0
 42
1.0
  3
txt
  4
bigfont.shx
  0
ENDTAB
  0
TABLE
  2
LAYER
 70
    5
  0
LAYER
  2
_0-0_LAYER001
 70
   64
 62
    7
  6
CONTINUOUS
  0
LAYER
  2
_0-1_LAYER002
 70
   64
 62
    7
  6
CONTINUOUS
  0
LAYER
  2
_0-2_LAYER003
 70
   64
 62
    7
  6
CONTINUOUS
  0
LAYER
  2
_0-3_LAYER009
 70
   64
 62
    7
  6
CONTINUOUS
  0
LAYER
  2
ADD_LINE
 70
   64
 62
    7
  6
CONTINUOUS
  0
ENDTAB
  0
ENDSEC
  0
SECTION
  2
BLOCKS
  0
ENDSEC
  0
SECTION
  2
ENTITIES
  0
LINE
  8
_0-0_LAYER001
  6
CONTINUOUS
 62
    2
 10
1444.6617000000001
 20
948.93039999999996
 11
1446.6028000000001
 21
941.68599999999992
  0
LINE
  8
_0-0_LAYER001
  6
CONTINUOUS
 62
    2
 10
1446.6028000000001
 20
941.68599999999992
 11
1441.2995000000001
 21
946.98929999999996
  0
LINE
  8
_0-0_LAYER001
  6
CONTINUOUS
 62
    2
 10
1446.6028000000001
 20
941.68599999999992
 11
1401.8647000000001
 21
1019.1746000000001
  0
LINE
  8
_0-0_LAYER001
  6
CONTINUOUS
 62
    2
 10
1401.8647000000001
 20
1019.1746000000001
 11
1361.3647000000001
 21
1019.1746000000001
  0
LINE
  8
_0-0_LAYER001
  6
CONTINUOUS
 62
    1
 10
1858.8310999999999
 20
1060.1199999999999
 11
945.83210000000008
 21
649.27140000000009
  0
LINE
  8
_0-0_LAYER001
  6
CONTINUOUS
 62
    1
 10
1857.8051999999998
 20
1062.3998999999999
 11
944.80619999999999
 21
651.55120000000011
  0
LINE
  8
_0-0_LAYER001
  6
CONTINUOUS
 62
    1
 10
1856.7793000000001
 20
1064.6796999999999
 11
943.7802999999999
 21
653.8309999999999
  0
LINE
  8
_0-0_LAYER001
  6
CONTINUOUS
 62
    1
 10
1855.7534000000001
 20
1066.9594999999999
 11
942.75440000000003
 21
656.11079999999993
  0
LINE
  8
_0-0_LAYER001
  6
CONTINUOUS
 62
    1
 10
1854.7275
 20
1069.2393
 11
941.72849999999994
 21
658.39059999999995
  0
LINE
  8
_0-0_LAYER001
  6
CONTINUOUS
 62
    1
 10
1853.7015000000001
 20
1071.5191
 11
940.70260000000007
 21
660.67039999999997
  0
LINE
  8
_0-0_LAYER001
  6
CONTINUOUS
 62
    1
 10
1852.6756
 20
1073.7989
 11
939.67660000000001
 21
662.9502
  0
LINE
  8
_0-0_LAYER001
  6
CONTINUOUS
 62
    1
 10
1851.6496999999999
 20
1076.0787
 11
938.65069999999992
 21
665.23000000000002
  0
LINE
  8
_0-0_LAYER001
  6
CONTINUOUS
 62
    1
 10
1850.6237999999998
 20
1078.3585
 11
937.62480000000005
 21
667.50990000000002
  0
LINE
  8
_0-0_LAYER001
  6
CONTINUOUS
 62
    2
 10
2006.6401000000001
 20
1337.9842000000003
 11
1954.1401000000001
 21
1337.9842000000003
  0
CIRCLE
  8
_0-0_LAYER001
  6
CONTINUOUS
 62
    2
 10
2004.1401000000001
 20
1337.9842000000003
 40
1.6999999999999997
  0
LINE
  8
_0-0_LAYER001
  6
CONTINUOUS
 62
    2
 10
2004.1401000000001
 20
1337.9842000000003
 11
2004.1401000000001
 21
1087.9842000000001
  0
CIRCLE
  8
_0-0_LAYER001
  6
CONTINUOUS
 62
    2
 10
2004.1401000000001
 20
1087.9842000000001
 40
1.6999999999999997
  0
LINE
  8
_0-0_LAYER001
  6
CONTINUOUS
 62
    2
 10
2006.6401000000001
 20
1087.9842000000001
 11
1954.1401000000001
 21
1087.9842000000001
  0
LINE
  8
_0-0_LAYER001
  6
CONTINUOUS
 62
    2
 10
1153.3224
 20
626.95229999999992
 11
1215.3335
 21
654.85760000000005
  0
LINE
  8
_0-0_LAYER001
  6
CONTINUOUS
 62
    2
 10
1150.8151
 20
620.3411000000001
 11
1151.6359
 21
618.5172
  0
LINE
  8
_0-0_LAYER001
  6
CONTINUOUS
 62
    2
 10
1151.6359
 20
618.5172
 11
1233.7091
 21
655.44959999999992
  0
ARC
  8
_0-0_LAYER001
  6
CONTINUOUS
 62
    2
 10
1211.2279000000001
 20
663.97779999999989
 40
10.001999
 50
294.23627000000005
 51
24.223504000000034
  0
ARC
  8
_0-0_LAYER001
  6
CONTINUOUS
 62
    2
 10
1155.3732
 20
622.39290000000005
 40
4.9989999999999997
 50
114.21981000000001
 51
204.23045000000002
  0
LINE
  8
_0-0_LAYER001
  6
CONTINUOUS
 62
    2
 10
1228.7582
 20
705.86030000000005
 11
1228.5423000000001
 21
703.72700000000009
  0
LINE
  8
_0-0_LAYER001
  6
CONTINUOUS
 62
    2
 10
1229.2136
 20
727.99489999999992
 11
1233.2058
 21
712.24659999999994
  0
LINE
  8
_0-0_LAYER001
  6
CONTINUOUS
 62
    2
 10
1223.6573000000001
 20
725.49430000000007
 11
1227.6506999999999
 21
709.74620000000004
  0
LINE
  8
_0-0_LAYER001
  6
CONTINUOUS
 62
    2
 10
1229.2136
 20
727.99489999999992
 11
1231.8583000000001
 21
726.99170000000004
  0
LINE
  8
_0-0_LAYER001
  6
CONTINUOUS
 62
    2
 10
1227.1170999999999
 20
709.50690000000009
 11
1235.7791
 21
713.4045000000001
  0
LINE
  8
_0-0_LAYER001
  6
CONTINUOUS
 62
    2
 10
1229.2136
 20
727.99489999999992
 11
1235.7791
 21
713.4045000000001
  0
LINE
  8
_0-0_LAYER001
  6
CONTINUOUS
 62
    2
 10
1236.7829999999999
 20
716.04950000000008
 11
1235.7791
 21
713.4045000000001
  0
LINE
  8
_0-0_LAYER001
  6
CONTINUOUS
 62
    2
 10
1231.8583000000001
 20
726.99170000000004
 11
1236.7829999999999
 21
716.04950000000008
  0
ARC
  8
_0-0_LAYER001
  6
CONTINUOUS
 62
    2
 10
1222.4858999999999
 20
704.79070000000002
 40
6.1580000000000004
 50
24.600714
 51
58.555369000000006
  0
LINE
  8
_0-0_LAYER001
  6
CONTINUOUS
 62
    2
 10
1194.9513999999999
 20
736.70299999999997
 11
1196.7753
 21
737.52299999999991
  0
LINE
  8
_0-0_LAYER001
  6
CONTINUOUS
 62
    2
 10
1233.7089000000001
 20
655.45000000000005
 11
1196.7753
 21
737.52299999999991
  0
LINE
  8
_0-0_LAYER001
  6
CONTINUOUS
 62
    2
 10
1192.444
 20
730.09079999999994
 11
1220.3493000000001
 21
668.0806
  0
LINE
  8
_0-0_LAYER001
  6
CONTINUOUS
 62
    2
 10
1211.9788000000001
 20
711.46679999999992
 11
1214.7150999999999
 21
712.69769999999994
  0
LINE
  8
_0-0_LAYER001
  6
CONTINUOUS
 62
    2
 10
1205.4131
 20
726.05709999999999
 11
1208.1492000000001
 21
727.28790000000004
  0
LINE
  8
_0-0_LAYER001
  6
CONTINUOUS
 62
    2
 10
1221.2806
 20
698.1087
 11
1208.1492000000001
 21
727.28790000000004
  0
LINE
  8
_0-0_LAYER001
  6
CONTINUOUS
 62
    2
 10
1218.5442
 20
696.87670000000003
 11
1221.2806
 21
698.1087
  0
LINE
  8
_0-0_LAYER001
  6
CONTINUOUS
 62
    2
 10
1225.6992
 20
710.04559999999992
 11
1217.5579
 21
706.38249999999994
  0
LINE
  8
_0-0_LAYER001
  6
CONTINUOUS
 62
    2
 10
1220.0132000000001
 20
722.68010000000004
 11
1211.873
 21
719.01620000000003
  0
LINE
  8
_0-0_LAYER001
  6
CONTINUOUS
 62
    2
 10
1217.1712
 20
728.99849999999992
 11
1209.0289
 21
725.33439999999996
  0
LINE
  8
_0-0_LAYER001
  6
CONTINUOUS
 62
    2
 10
1218.9086
 20
727.74679999999989
 11
1217.1712
 21
728.99849999999992
  0
LINE
  8
_0-0_LAYER001
  6
CONTINUOUS
 62
    2
 10
1228.7582
 20
705.86030000000005
 11
1218.9086
 21
727.74679999999989
  0
LINE
  8
_0-0_LAYER001
  6
CONTINUOUS
 62
    2
 10
1228.5423000000001
 20
703.72700000000009
 11
1220.4010000000001
 21
700.06330000000003
  0
LINE
  8
_0-0_LAYER001
  6
CONTINUOUS
 62
    2
 10
1191.7183
 20
709.94620000000009
 11
1199.8594000000001
 21
713.6092000000001
  0
LINE
  8
_0-0_LAYER001
  6
CONTINUOUS
 62
    2
 10
1197.404
 20
697.31150000000002
 11
1205.5454
 21
700.97550000000001
  0
LINE
  8
_0-0_LAYER001
  6
CONTINUOUS
 62
    2
 10
1200.2463
 20
690.99330000000009
 11
1208.3884
 21
694.6570999999999
  0
LINE
  8
_0-0_LAYER001
  6
CONTINUOUS
 62
    2
 10
1198.5088000000001
 20
692.24479999999994
 11
1200.2463
 21
690.99330000000009
  0
LINE
  8
_0-0_LAYER001
  6
CONTINUOUS
 62
    2
 10
1188.6593
 20
714.13139999999999
 11
1198.5088000000001
 21
692.24479999999994
  0
LINE
  8
_0-0_LAYER001
  6
CONTINUOUS
 62
    2
 10
1188.875
 20
716.26430000000005
 11
1197.0162
 21
719.92840000000001
  0
LINE
  8
_0-0_LAYER001
  6
CONTINUOUS
 62
    2
 10
1188.6593
 20
714.13139999999999
 11
1188.875
 21
716.26430000000005
  0
LINE
  8
_0-0_LAYER001
  6
CONTINUOUS
 62
    2
 10
1220.5515
 20
724.09619999999995
 11
1229.2136
 21
727.99489999999992
  0
ARC
  8
_0-0_LAYER001
  6
CONTINUOUS
 62
    2
 10
1197.0020999999999
 20
732.14280000000008
 40
4.9989999999999997
 50
114.21981000000001
 51
204.23045000000002
  0
ARC
  8
_0-0_LAYER001
  6
CONTINUOUS
 62
    2
 10
1213.9599000000001
 20
723.7636
 40
6.1470010000000013
 50
349.86202000000003
 51
23.869294000000068
  0
ARC
  8
_0-0_LAYER001
  6
CONTINUOUS
 62
    2
 10
1202.9516000000001
 20
707.40699999999993
 40
22.898997999999999
 50
6.6163340000000002
 51
41.831853999999993
  0
ARC
  8
_0-0_LAYER001
  6
CONTINUOUS
 62
    2
 10
1203.4585
 20
696.23090000000002
 40
6.1479999999999997
 50
169.87773000000001
 51
203.89247
  0
ARC
  8
_0-0_LAYER001
  6
CONTINUOUS
 62
    2
 10
1194.9249
 20
715.19260000000008
 40
6.1479999999999997
 50
204.55348000000001
 51
238.55574000000001
  0
ARC
  8
_0-0_LAYER001
  6
CONTINUOUS
 62
    2
 10
1214.5012999999999
 20
712.60210000000006
 40
22.936000999999997
 50
186.64698999999999
 51
221.80376000000004
  0
LINE
  8
_0-0_LAYER001
  6
CONTINUOUS
 62
    2
 10
1205.7272
 20
790.89709999999991
 11
1196.6069
 21
786.79299999999989
  0
LINE
  8
_0-0_LAYER001
  6
CONTINUOUS
 62
    2
 10
1206.9571000000001
 20
788.16059999999993
 11
1197.8387
 21
784.05790000000002
  0
LINE
  8
_0-0_LAYER001
  6
CONTINUOUS
 62
    2
 10
1196.6069
 20
786.79299999999989
 11
1197.8387
 21
784.05790000000002
  0
LINE
  8
_0-0_LAYER001
  6
CONTINUOUS
 62
    2
 10
1205.7272
 20
790.89709999999991
 11
1206.9571000000001
 21
788.16059999999993
  0
LINE
  8
_0-0_LAYER001
  6
CONTINUOUS
 62
    2
 10
1201.1670999999999
 20
788.8451
 11
1202.3978999999999
 21
786.10860000000002
  0
LINE
  8
_0-0_LAYER001
  6
CONTINUOUS
 62
    2
 10
1219.569
 20
747.9529
 11
1215.4467999999999
 21
752.23910000000001
  0
LINE
  8
_0-0_LAYER001
  6
CONTINUOUS
 62
    2
 10
1219.569
 20
747.9529
 11
1219.0944999999999
 21
753.87989999999991
  0
LINE
  8
_0-0_LAYER001
  6
CONTINUOUS
 62
    2
 10
1205.9892
 20
770.24180000000001
 11
1211.6168
 21
773.93329999999992
  0
LINE
  8
_0-0_LAYER001
  6
CONTINUOUS
 62
    2
 10
1208.0409999999999
 20
765.68149999999991
 11
1213.6699000000001
 21
769.37329999999997
  0
LINE
  8
_0-0_LAYER001
  6
CONTINUOUS
 62
    2
 10
1210.0938000000001
 20
761.12239999999997
 11
1215.7207000000001
 21
764.8128999999999
  0
LINE
  8
_0-0_LAYER001
  6
CONTINUOUS
 62
    2
 10
1212.1449
 20
756.5621000000001
 11
1217.7726
 21
760.25389999999993
  0
LINE
  8
_0-0_LAYER001
  6
CONTINUOUS
 62
    2
 10
1213.6808000000001
 20
753.15010000000007
 11
1219.3081999999999
 21
756.84169999999995
  0
LINE
  8
_0-0_LAYER001
  6
CONTINUOUS
 62
    2
 10
1205.4529
 20
784.19630000000006
 11
1219.0944999999999
 21
753.87989999999991
  0
LINE
  8
_0-0_LAYER001
  6
CONTINUOUS
 62
    2
 10
1206.9571000000001
 20
788.16059999999993
 11
1205.4529
 21
784.19630000000006
  0
LINE
  8
_0-0_LAYER001
  6
CONTINUOUS
 62
    2
 10
1201.8063
 20
782.55230000000006
 11
1215.4467999999999
 21
752.23910000000001
  0
LINE
  8
_0-0_LAYER001
  6
CONTINUOUS
 62
    2
 10
1197.8387
 20
784.05790000000002
 11
1201.8063
 21
782.55230000000006
  0
LINE
  8
_0-0_LAYER001
  6
CONTINUOUS
 62
    2
 10
1240.6796999999999
 20
757.2795000000001
 11
1242.7772
 21
758.22319999999991
  0
LINE
  8
_0-0_LAYER001
  6
CONTINUOUS
 62
    2
 10
1265.3014000000001
 20
702.56400000000008
 11
1267.3989999999999
 21
703.50780000000009
  0
LINE
  8
_0-0_LAYER001
  6
CONTINUOUS
 62
    2
 10
1193.8388
 20
755.61079999999993
 11
1231.5925
 21
772.59969999999998
  0
LINE
  8
_0-0_LAYER001
  6
CONTINUOUS
 62
    2
 10
1240.6796999999999
 20
757.2795000000001
 11
1234.2371000000001
 21
771.59660000000008
  0
LINE
  8
_0-0_LAYER001
  6
CONTINUOUS
 62
    2
 10
1271.7440999999999
 20
688.2469000000001
 11
1265.3014000000001
 21
702.56400000000008
  0
LINE
  8
_0-0_LAYER001
  6
CONTINUOUS
 62
    2
 10
1232.9874
 20
668.61320000000001
 11
1270.7409
 21
685.60210000000006
  0
LINE
  8
_0-0_LAYER001
  6
CONTINUOUS
 62
    2
 10
1242.7772
 20
758.22319999999991
 11
1236.3344999999999
 21
772.54029999999989
  0
LINE
  8
_0-0_LAYER001
  6
CONTINUOUS
 62
    2
 10
1192.895
 20
757.70800000000008
 11
1230.6486
 21
774.69699999999989
  0
LINE
  8
_0-0_LAYER001
  6
CONTINUOUS
 62
    2
 10
1273.8416999999999
 20
689.19070000000011
 11
1267.3989999999999
 21
703.50780000000009
  0
LINE
  8
_0-0_LAYER001
  6
CONTINUOUS
 62
    2
 10
1233.9313
 20
666.5157999999999
 11
1271.6848
 21
683.50479999999993
  0
LINE
  8
_0-0_LAYER001
  6
CONTINUOUS
 62
    2
 10
1230.3427999999999
 20
669.61640000000011
 11
1192.8357000000001
 21
752.96630000000005
  0
LINE
  8
_0-0_LAYER001
  6
CONTINUOUS
 62
    2
 10
1190.7384999999999
 20
752.02220000000011
 11
1228.2456
 21
668.6724999999999
  0
ARC
  8
_0-0_LAYER001
  6
CONTINUOUS
 62
    2
 10
1232.4132
 20
770.77579999999989
 40
2.000003
 50
24.227644000000005
 51
114.22763
  0
ARC
  8
_0-0_LAYER001
  6
CONTINUOUS
 62
    2
 10
1269.9202
 20
687.42609999999991
 40
2.000003
 50
294.22764000000001
 51
24.227643999999991
  0
ARC
  8
_0-0_LAYER001
  6
CONTINUOUS
 62
    2
 10
1269.9202
 20
687.42609999999991
 40
4.2999999999999998
 50
294.22764000000001
 51
24.227643999999991
  0
ARC
  8
_0-0_LAYER001
  6
CONTINUOUS
 62
    2
 10
1232.4132
 20
770.77579999999989
 40
4.2999999999999998
 50
24.227644000000005
 51
114.22763
  0
ARC
  8
_0-0_LAYER001
  6
CONTINUOUS
 62
    2
 10
1194.6597999999999
 20
753.78690000000006
 40
2.000003
 50
114.22763
 51
204.22764000000001
  0
ARC
  8
_0-0_LAYER001
  6
CONTINUOUS
 62
    2
 10
1232.1668
 20
670.4371000000001
 40
2.000003
 50
204.22764000000004
 51
294.22764000000001
  0
ARC
  8
_0-0_LAYER001
  6
CONTINUOUS
 62
    2
 10
1232.1668
 20
670.4371000000001
 40
4.2999999999999998
 50
204.22764000000004
 51
294.22764000000001
  0
ARC
  8
_0-0_LAYER001
  6
CONTINUOUS
 62
    2
 10
1194.6597999999999
 20
753.78690000000006
 40
4.2999999999999998
 50
114.22763
 51
204.22764000000001
  0
LINE
  8
_0-0_LAYER001
  6
CONTINUOUS
 62
    2
 10
1823.6071999999999
 20
1450.7283000000002
 11
1825.5484000000001
 21
1443.4838999999999
  0
LINE
  8
_0-0_LAYER001
  6
CONTINUOUS
 62
    2
 10
1825.5484000000001
 20
1443.4838999999999
 11
1820.2451000000001
 21
1448.7871999999998
  0
LINE
  8
_0-0_LAYER001
  6
CONTINUOUS
 62
    2
 10
1825.5484000000001
 20
1443.4838999999999
 11
1771.5360999999998
 21
1537.0359000000003
  0
LINE
  8
_0-0_LAYER001
  6
CONTINUOUS
 62
    2
 10
1771.5360999999998
 20
1537.0359000000003
 11
1599.0360999999998
 21
1537.0359000000003
  0
LINE
  8
_0-0_LAYER001
  6
CONTINUOUS
 62
    2
 10
1848.2514000000001
 20
1083.8544999999999
 11
1820.8915999999999
 21
1071.5271
  0
LINE
  8
_0-0_LAYER001
  6
CONTINUOUS
 62
    4
 10
1135.5328999999999
 20
761.88560000000007
 11
1108.1669999999999
 21
749.57089999999994
  0
LINE
  8
_0-0_LAYER001
  6
CONTINUOUS
 62
    4
 10
1373.2695000000001
 20
868.86740000000009
 11
1345.9036000000001
 21
856.55269999999996
  0
LINE
  8
_0-0_LAYER001
  6
CONTINUOUS
 62
    4
 10
1361.6559000000002
 20
903.65169999999989
 11
1362.6529
 21
900.82220000000007
  0
LINE
  8
_0-0_LAYER001
  6
CONTINUOUS
 62
    4
 10
1361.6559000000002
 20
903.65169999999989
 11
1370.1443999999997
 21
906.6425999999999
  0
LINE
  8
_0-0_LAYER001
  6
CONTINUOUS
 62
    4
 10
1295.4075
 20
968.8916999999999
 11
1322.7453
 21
891.30379999999991
  0
LINE
  8
_0-0_LAYER001
  6
CONTINUOUS
 62
    4
 10
1322.7453
 20
891.30379999999991
 11
1606.6385
 21
991.33220000000006
  0
LINE
  8
_0-0_LAYER001
  6
CONTINUOUS
 62
    4
 10
1314.0899999999999
 20
919.4511
 11
1552.556
 21
1021.4499000000001
  0
LINE
  8
_0-0_LAYER001
  6
CONTINUOUS
 62
    4
 10
1606.6385
 20
991.33220000000006
 11
1610.6262999999999
 21
980.01420000000007
  0
LINE
  8
_0-0_LAYER001
  6
CONTINUOUS
 62
    4
 10
1610.6262999999999
 20
980.01420000000007
 11
1619.1147999999998
 21
983.00500000000011
  0
LINE
  8
_0-0_LAYER001
  6
CONTINUOUS
 62
    4
 10
1599.6597000000002
 20
1011.1386
 11
1600.6565999999998
 21
1008.3090999999999
  0
LINE
  8
_0-0_LAYER001
  6
CONTINUOUS
 62
    4
 10
1316.7635
 20
908.2808
 11
1600.6565999999998
 21
1008.3090999999999
  0
LINE
  8
_0-0_LAYER001
  6
CONTINUOUS
 62
    4
 10
1295.4174
 20
969.29410000000007
 11
1540.5057999999999
 21
1055.6497999999999
  0
LINE
  8
_0-0_LAYER001
  6
CONTINUOUS
 62
    4
 10
1599.6597000000002
 20
1011.1386
 11
1608.1480999999999
 21
1014.1295
  0
LINE
  8
_0-0_LAYER001
  6
CONTINUOUS
 62
    4
 10
1608.1480999999999
 20
1014.1295
 11
1619.1147999999998
 21
983.00500000000011
  0
LINE
  8
_0-0_LAYER001
  6
CONTINUOUS
 62
    4
 10
1533.7166999999999
 20
1075.3506
 11
1561.0544
 21
997.76250000000005
  0
LINE
  8
_0-0_LAYER001
  6
CONTINUOUS
 62
    4
 10
1561.0544
 20
997.76250000000005
 11
1844.9476
 21
1097.7909
  0
LINE
  8
_0-0_LAYER001
  6
CONTINUOUS
 62
    4
 10
1552.3991000000001
 20
1025.9097999999999
 11
1836.9349999999999
 21
1147.614
  0
LINE
  8
_0-0_LAYER001
  6
CONTINUOUS
 62
    4
 10
1844.9476
 20
1097.7909
 11
1848.9353999999998
 21
1086.4729
  0
LINE
  8
_0-0_LAYER001
  6
CONTINUOUS
 62
    4
 10
1848.9353999999998
 20
1086.4729
 11
1857.4238999999998
 21
1089.4638
  0
LINE
  8
_0-0_LAYER001
  6
CONTINUOUS
 62
    4
 10
1837.9688000000001
 20
1117.5974000000001
 11
1838.9657000000002
 21
1114.7679000000001
  0
LINE
  8
_0-0_LAYER001
  6
CONTINUOUS
 62
    4
 10
1555.0726
 20
1014.7394999999999
 11
1838.9657000000002
 21
1114.7679000000001
  0
LINE
  8
_0-0_LAYER001
  6
CONTINUOUS
 62
    4
 10
1533.7264
 20
1075.7528
 11
1825.9733000000001
 21
1178.7245
  0
LINE
  8
_0-0_LAYER001
  6
CONTINUOUS
 62
    4
 10
1837.9688000000001
 20
1117.5974000000001
 11
1846.4573999999998
 21
1120.5882999999999
  0
LINE
  8
_0-0_LAYER001
  6
CONTINUOUS
 62
    4
 10
1825.9733000000001
 20
1178.7245
 11
1857.4238999999998
 21
1089.4638
  0
LINE
  8
_0-0_LAYER001
  6
CONTINUOUS
 62
    4
 10
917.37699999999995
 20
702.1395
 11
1131.1129000000001
 21
777.44830000000002
  0
LINE
  8
_0-0_LAYER001
  6
CONTINUOUS
 62
    4
 10
903.49180000000001
 20
733.33850000000007
 11
1077.0305000000001
 21
807.56600000000003
  0
LINE
  8
_0-0_LAYER001
  6
CONTINUOUS
 62
    4
 10
1131.1129000000001
 20
777.44830000000002
 11
1135.1007999999999
 21
766.13030000000003
  0
LINE
  8
_0-0_LAYER001
  6
CONTINUOUS
 62
    4
 10
1135.1007999999999
 20
766.13030000000003
 11
1143.5893000000001
 21
769.12120000000004
  0
LINE
  8
_0-0_LAYER001
  6
CONTINUOUS
 62
    4
 10
1124.1342
 20
797.25479999999993
 11
1125.1312
 21
794.42530000000011
  0
LINE
  8
_0-0_LAYER001
  6
CONTINUOUS
 62
    4
 10
910.03469999999993
 20
718.63709999999992
 11
1125.1312
 21
794.42530000000011
  0
LINE
  8
_0-0_LAYER001
  6
CONTINUOUS
 62
    4
 10
883.66789999999992
 20
777.88139999999999
 11
1064.9802999999999
 21
841.76600000000008
  0
LINE
  8
_0-0_LAYER001
  6
CONTINUOUS
 62
    4
 10
1124.1342
 20
797.25479999999993
 11
1132.6226999999999
 21
800.24569999999994
  0
LINE
  8
_0-0_LAYER001
  6
CONTINUOUS
 62
    4
 10
1132.6226999999999
 20
800.24569999999994
 11
1143.5893000000001
 21
769.12120000000004
  0
LINE
  8
_0-0_LAYER001
  6
CONTINUOUS
 62
    4
 10
1057.4038
 20
861.40480000000002
 11
1084.7415000000001
 21
783.81680000000006
  0
LINE
  8
_0-0_LAYER001
  6
CONTINUOUS
 62
    4
 10
1084.7415000000001
 20
783.81680000000006
 11
1368.6347000000001
 21
883.84519999999998
  0
LINE
  8
_0-0_LAYER001
  6
CONTINUOUS
 62
    4
 10
1076.0862
 20
811.96409999999992
 11
1314.5523000000001
 21
913.96289999999999
  0
LINE
  8
_0-0_LAYER001
  6
CONTINUOUS
 62
    4
 10
1368.6347000000001
 20
883.84519999999998
 11
1372.6224999999999
 21
872.52719999999999
  0
LINE
  8
_0-0_LAYER001
  6
CONTINUOUS
 62
    4
 10
1372.6224999999999
 20
872.52719999999999
 11
1381.1110000000003
 21
875.5181
  0
LINE
  8
_0-0_LAYER001
  6
CONTINUOUS
 62
    4
 10
1078.7597000000001
 20
800.79379999999992
 11
1362.6529
 21
900.82220000000007
  0
LINE
  8
_0-0_LAYER001
  6
CONTINUOUS
 62
    4
 10
1057.4136000000001
 20
861.80709999999999
 11
1302.5020999999997
 21
948.16280000000006
  0
LINE
  8
_0-0_LAYER001
  6
CONTINUOUS
 62
    4
 10
1370.1443999999997
 20
906.6425999999999
 11
1381.1110000000003
 21
875.5181
  0
LINE
  8
_0-0_LAYER001
  6
CONTINUOUS
 62
    4
 10
1842.2511
 20
1096.3584000000001
 11
1814.8852000000002
 21
1084.0436999999999
  0
LINE
  8
_0-0_LAYER001
  6
CONTINUOUS
 62
    4
 10
1604.5145000000002
 20
989.37670000000003
 11
1577.1486
 21
977.0619999999999
  0
LINE
  8
_0-0_LAYER001
  6
CONTINUOUS
 62
    4
 10
1339.412
 20
870.0802000000001
 11
1345.9036000000001
 21
856.55269999999996
  0
LINE
  8
_0-0_LAYER001
  6
CONTINUOUS
 62
    4
 10
1129.0411999999999
 20
775.41319999999996
 11
1135.5328999999999
 21
761.88560000000007
  0
LINE
  8
_0-0_LAYER001
  6
CONTINUOUS
 62
    4
 10
1101.6753000000001
 20
763.09850000000006
 11
1108.1669999999999
 21
749.57089999999994
  0
LINE
  8
_0-0_LAYER001
  6
CONTINUOUS
 62
    4
 10
1129.0411999999999
 20
775.41319999999996
 11
1101.6753000000001
 21
763.09850000000006
  0
LINE
  8
_0-0_LAYER001
  6
CONTINUOUS
 62
    4
 10
1842.2511
 20
1096.3583000000001
 11
1848.2514000000001
 21
1083.8544999999999
  0
LINE
  8
_0-0_LAYER001
  6
CONTINUOUS
 62
    4
 10
1814.8852000000002
 20
1084.0436999999999
 11
1820.8915999999999
 21
1071.5271
  0
LINE
  8
_0-0_LAYER001
  6
CONTINUOUS
 62
    4
 10
1604.5145000000002
 20
989.37670000000003
 11
1610.8523
 21
976.16949999999997
  0
LINE
  8
_0-0_LAYER001
  6
CONTINUOUS
 62
    4
 10
1577.1486
 20
977.0619999999999
 11
1583.6401999999998
 21
963.53440000000001
  0
LINE
  8
_0-0_LAYER001
  6
CONTINUOUS
 62
    4
 10
1366.7779
 20
882.39490000000001
 11
1339.412
 21
870.0802000000001
  0
LINE
  8
_0-0_LAYER001
  6
CONTINUOUS
 62
    4
 10
1366.7779
 20
882.39490000000001
 11
1373.2695000000001
 21
868.86740000000009
  0
LINE
  8
_0-0_LAYER001
  6
DASHED1
 62
    1
 10
1820.0502000000001
 20
1114.8114
 11
1835.3984999999998
 21
1119.3315
  0
LINE
  8
_0-0_LAYER001
  6
DASHED1
 62
    1
 10
1835.3984999999998
 20
1119.3315
 11
1836.2460000000001
 21
1116.4536000000001
  0
LINE
  8
_0-0_LAYER001
  6
DASHED1
 62
    1
 10
1820.0502000000001
 20
1114.8114
 11
1820.8977
 21
1111.9336000000001
  0
LINE
  8
_0-0_LAYER001
  6
DASHED1
 62
    1
 10
1820.8977
 20
1111.9336000000001
 11
1836.2460000000001
 21
1116.4536000000001
  0
LINE
  8
_0-0_LAYER001
  6
DASHED1
 62
    1
 10
1846.2995000000001
 20
1052.7285999999999
 11
1838.0758000000001
 21
1071.3027999999999
  0
LINE
  8
_0-0_LAYER001
  6
DASHED1
 62
    1
 10
1825.6941000000002
 20
1113.3461
 11
1838.0758000000001
 21
1071.3027999999999
  0
LINE
  8
_0-0_LAYER001
  6
DASHED1
 62
    1
 10
1846.4922000000001
 20
1052.0741
 11
1844.8238999999999
 21
1069.6274000000001
  0
LINE
  8
_0-0_LAYER001
  6
DASHED1
 62
    1
 10
1831.4497000000001
 20
1115.0410999999999
 11
1844.8238999999999
 21
1069.6274000000001
  0
LINE
  8
_0-0_LAYER001
  6
DASHED1
 62
    1
 10
1578.0356999999999
 20
1008.6505
 11
1593.384
 21
1013.1704999999999
  0
LINE
  8
_0-0_LAYER001
  6
DASHED1
 62
    1
 10
1593.384
 20
1013.1704999999999
 11
1594.2314999999999
 21
1010.2927
  0
LINE
  8
_0-0_LAYER001
  6
DASHED1
 62
    1
 10
1578.0356999999999
 20
1008.6505
 11
1578.8832000000002
 21
1005.7726
  0
LINE
  8
_0-0_LAYER001
  6
DASHED1
 62
    1
 10
1578.8832000000002
 20
1005.7726
 11
1594.2314999999999
 21
1010.2927
  0
LINE
  8
_0-0_LAYER001
  6
DASHED1
 62
    1
 10
1604.2849000000001
 20
946.56760000000008
 11
1596.0612999999998
 21
965.14190000000008
  0
LINE
  8
_0-0_LAYER001
  6
DASHED1
 62
    1
 10
1583.6795999999999
 20
1007.1850999999999
 11
1596.0612999999998
 21
965.14190000000008
  0
LINE
  8
_0-0_LAYER001
  6
DASHED1
 62
    1
 10
1604.4776999999999
 20
945.91309999999999
 11
1602.8094000000001
 21
963.46640000000002
  0
LINE
  8
_0-0_LAYER001
  6
DASHED1
 62
    1
 10
1589.4351999999999
 20
1008.8802000000001
 11
1602.8094000000001
 21
963.46640000000002
  0
LINE
  8
_0-0_LAYER001
  6
DASHED1
 62
    1
 10
1338.4521
 20
903.42139999999995
 11
1353.8003000000001
 21
907.94139999999993
  0
LINE
  8
_0-0_LAYER001
  6
DASHED1
 62
    1
 10
1353.8003000000001
 20
907.94139999999993
 11
1354.6478
 21
905.06359999999995
  0
LINE
  8
_0-0_LAYER001
  6
DASHED1
 62
    1
 10
1338.4521
 20
903.42139999999995
 11
1339.2995999999998
 21
900.54359999999997
  0
LINE
  8
_0-0_LAYER001
  6
DASHED1
 62
    1
 10
1339.2995999999998
 20
900.54359999999997
 11
1354.6478
 21
905.06359999999995
  0
LINE
  8
_0-0_LAYER001
  6
DASHED1
 62
    1
 10
1364.7012999999997
 20
841.33860000000004
 11
1356.4776000000002
 21
859.91280000000006
  0
LINE
  8
_0-0_LAYER001
  6
DASHED1
 62
    1
 10
1344.0959
 20
901.95610000000011
 11
1356.4776000000002
 21
859.91280000000006
  0
LINE
  8
_0-0_LAYER001
  6
DASHED1
 62
    1
 10
1364.8941
 20
840.68409999999994
 11
1363.2257999999999
 21
858.23739999999998
  0
LINE
  8
_0-0_LAYER001
  6
DASHED1
 62
    1
 10
1349.8515
 20
903.65110000000004
 11
1363.2257999999999
 21
858.23739999999998
  0
LINE
  8
_0-0_LAYER001
  6
DASHED1
 62
    1
 10
1102.7279000000001
 20
792.15789999999993
 11
1118.0761
 21
796.67800000000011
  0
LINE
  8
_0-0_LAYER001
  6
DASHED1
 62
    1
 10
1118.0761
 20
796.67800000000011
 11
1118.9236000000001
 21
793.8001999999999
  0
LINE
  8
_0-0_LAYER001
  6
DASHED1
 62
    1
 10
1102.7279000000001
 20
792.15789999999993
 11
1103.5753999999999
 21
789.28009999999995
  0
LINE
  8
_0-0_LAYER001
  6
DASHED1
 62
    1
 10
1103.5753999999999
 20
789.28009999999995
 11
1118.9236000000001
 21
793.8001999999999
  0
LINE
  8
_0-0_LAYER001
  6
DASHED1
 62
    1
 10
1128.9771000000001
 20
730.07510000000002
 11
1120.7534000000001
 21
748.64930000000004
  0
LINE
  8
_0-0_LAYER001
  6
DASHED1
 62
    1
 10
1108.3716999999999
 20
790.69270000000006
 11
1120.7534000000001
 21
748.64930000000004
  0
LINE
  8
_0-0_LAYER001
  6
DASHED1
 62
    1
 10
1129.1699000000001
 20
729.42059999999992
 11
1127.5016000000001
 21
746.97399999999993
  0
LINE
  8
_0-0_LAYER001
  6
DASHED1
 62
    1
 10
1114.1273000000001
 20
792.3877
 11
1127.5016000000001
 21
746.97399999999993
  0
LINE
  8
_0-0_LAYER001
  6
CONTINUOUS
 62
    2
 10
1842.2511
 20
1096.3583000000001
 11
1821.6532000000002
 21
1072.0436
  0
LINE
  8
_0-0_LAYER001
  6
CONTINUOUS
 62
    2
 10
1604.5145000000002
 20
989.37670000000003
 11
1583.6401999999998
 21
963.53440000000001
  0
LINE
  8
_0-0_LAYER001
  6
CONTINUOUS
 62
    2
 10
1366.7779
 20
882.39490000000001
 11
1345.9036000000001
 21
856.55269999999996
  0
LINE
  8
_0-0_LAYER001
  6
CONTINUOUS
 62
    2
 10
1129.0411999999999
 20
775.41319999999996
 11
1108.1669999999999
 21
749.57089999999994
  0
LINE
  8
_0-0_LAYER001
  6
CONTINUOUS
 62
    2
 10
1924.3024999999998
 20
1366.8652999999999
 11
1896.8024999999998
 21
1366.8652999999999
  0
CIRCLE
  8
_0-0_LAYER001
  6
CONTINUOUS
 62
    2
 10
1921.8024999999998
 20
1366.8652999999999
 40
1.6999999999999997
  0
LINE
  8
_0-0_LAYER001
  6
CONTINUOUS
 62
    2
 10
1921.8024999999998
 20
1366.8652999999999
 11
1921.8024999999998
 21
1216.8652999999999
  0
CIRCLE
  8
_0-0_LAYER001
  6
CONTINUOUS
 62
    2
 10
1921.8024999999998
 20
1216.8652999999999
 40
1.6999999999999997
  0
LINE
  8
_0-0_LAYER001
  6
CONTINUOUS
 62
    2
 10
1924.3024999999998
 20
1216.8652999999999
 11
1896.8024999999998
 21
1216.8652999999999
  0
LINE
  8
_0-0_LAYER001
  6
CONTINUOUS
 62
    2
 10
1825.5484000000001
 20
1222.4549
 11
1837.5484000000001
 21
1222.4549
  0
LINE
  8
_0-0_LAYER001
  6
CONTINUOUS
 62
    2
 10
1859.5484000000001
 20
1366.8652999999999
 11
1859.5484000000001
 21
1216.9917
  0
LINE
  8
_0-0_LAYER001
  6
CONTINUOUS
 62
    2
 10
1746.9681
 20
1166.8559
 11
1758.3865000000001
 21
1166.0947000000001
  0
LINE
  8
_0-0_LAYER001
  6
CONTINUOUS
 62
    2
 10
1771.0127000000002
 20
1174.4490000000001
 11
1746.9681
 21
1166.8559
  0
LINE
  8
_0-0_LAYER001
  6
CONTINUOUS
 62
    2
 10
1773.9157
 20
1184.6302000000001
 11
1862.5484000000001
 21
1200.2584999999999
  0
LINE
  8
_0-0_LAYER001
  6
CONTINUOUS
 62
    2
 10
1771.3110000000001
 20
1199.4023
 11
1859.9436999999998
 21
1215.0306
  0
LINE
  8
_0-0_LAYER001
  6
CONTINUOUS
 62
    2
 10
1771.3110000000001
 20
1199.4023
 11
1773.9157
 21
1184.6302000000001
  0
LINE
  8
_0-0_LAYER001
  6
CONTINUOUS
 62
    2
 10
1859.9436999999998
 20
1215.0306
 11
1862.5484000000001
 21
1200.2584999999999
  0
LINE
  8
_0-0_LAYER001
  6
CONTINUOUS
 62
    2
 10
1862.5484000000001
 20
1200.2584999999999
 11
1771.3110000000001
 21
1199.4023
  0
LINE
  8
_0-0_LAYER001
  6
DASHED1
 62
    2
 10
1910.5484000000001
 20
1180.2584999999999
 11
1905.5482999999999
 21
1183.2584999999999
  0
LINE
  8
_0-0_LAYER001
  6
DASHED1
 62
    2
 10
1905.5482999999999
 20
1177.2585999999999
 11
1910.5484000000001
 21
1180.2584999999999
  0
LINE
  8
_0-0_LAYER001
  6
CONTINUOUS
 62
    2
 10
1838.5482999999999
 20
1177.2585999999999
 11
1838.5482999999999
 21
1183.2584999999999
  0
LINE
  8
_0-0_LAYER001
  6
CONTINUOUS
 62
    2
 10
1832.5484000000001
 20
1174.2584999999999
 11
1832.5484000000001
 21
1186.2585999999999
  0
LINE
  8
_0-0_LAYER001
  6
CONTINUOUS
 62
    2
 10
1841.4353000000001
 20
1177.2585999999999
 11
1844.8984
 21
1183.2584999999999
  0
LINE
  8
_0-0_LAYER001
  6
CONTINUOUS
 62
    2
 10
1832.5484000000001
 20
1174.2584999999999
 11
1838.5482999999999
 21
1177.2585999999999
  0
LINE
  8
_0-0_LAYER001
  6
CONTINUOUS
 62
    2
 10
1838.5482999999999
 20
1183.2584999999999
 11
1832.5484000000001
 21
1186.2585999999999
  0
LINE
  8
_0-0_LAYER001
  6
DASHED1
 62
    2
 10
1905.5482999999999
 20
1183.2584999999999
 11
1862.5484000000001
 21
1183.2584999999999
  0
LINE
  8
_0-0_LAYER001
  6
DASHED1
 62
    2
 10
1905.5482999999999
 20
1177.2585999999999
 11
1862.5484000000001
 21
1177.2585999999999
  0
LINE
  8
_0-0_LAYER001
  6
CONTINUOUS
 62
    2
 10
1862.5484000000001
 20
1176.0084999999999
 11
1862.5484000000001
 21
1184.5085999999999
  0
LINE
  8
_0-0_LAYER001
  6
CONTINUOUS
 62
    2
 10
1832.5484000000001
 20
1160.2584999999999
 11
1862.5484000000001
 21
1160.2584999999999
  0
LINE
  8
_0-0_LAYER001
  6
CONTINUOUS
 62
    2
 10
1862.5484000000001
 20
1183.2584999999999
 11
1838.5482999999999
 21
1183.2584999999999
  0
LINE
  8
_0-0_LAYER001
  6
CONTINUOUS
 62
    2
 10
1862.5484000000001
 20
1177.2585999999999
 11
1838.5482999999999
 21
1177.2585999999999
  0
LINE
  8
_0-0_LAYER001
  6
CONTINUOUS
 62
    2
 10
1847.1583999999998
 20
1177.2585999999999
 11
1850.6215000000002
 21
1183.2584999999999
  0
LINE
  8
_0-0_LAYER001
  6
CONTINUOUS
 62
    2
 10
1852.8816000000002
 20
1177.2585999999999
 11
1856.3445999999999
 21
1183.2584999999999
  0
LINE
  8
_0-0_LAYER001
  6
CONTINUOUS
 62
    2
 10
1858.6046999999999
 20
1177.2585999999999
 11
1862.0677999999998
 21
1183.2584999999999
  0
LINE
  8
_0-0_LAYER001
  6
CONTINUOUS
 62
    2
 10
1832.5484000000001
 20
1160.2584999999999
 11
1832.5484000000001
 21
1194.9686999999999
  0
LINE
  8
_0-0_LAYER001
  6
CONTINUOUS
 62
    2
 10
1862.5484000000001
 20
1160.2584999999999
 11
1836.0524
 21
1195.5866000000001
  0
LINE
  8
_0-0_LAYER001
  6
CONTINUOUS
 62
    2
 10
1766.4072000000001
 20
1200.5684000000001
 11
1859.5484000000001
 21
1216.9917
  0
LINE
  8
_0-0_LAYER001
  6
CONTINUOUS
 62
    2
 10
1841.7265000000002
 20
1211.8185000000001
 11
1850.4960000000001
 21
1213.3647000000001
  0
LINE
  8
_0-0_LAYER001
  6
CONTINUOUS
 62
    2
 10
1849.2521999999999
 20
1184.1065000000001
 11
1852.6939000000002
 21
1175.8675000000001
  0
LINE
  8
_0-0_LAYER001
  6
CONTINUOUS
 62
    2
 10
1848.2123999999999
 20
1211.3421000000001
 11
1852.9023000000002
 21
1184.7502999999999
  0
LINE
  8
_0-0_LAYER001
  6
CONTINUOUS
 62
    2
 10
1852.6939000000002
 20
1175.8675000000001
 11
1852.9023000000002
 21
1184.7502999999999
  0
LINE
  8
_0-0_LAYER001
  6
CONTINUOUS
 62
    2
 10
1844.5625
 20
1210.6998000000001
 11
1841.7265000000002
 21
1211.8185000000001
  0
LINE
  8
_0-0_LAYER001
  6
CONTINUOUS
 62
    2
 10
1848.2123999999999
 20
1211.3421000000001
 11
1850.4960000000001
 21
1213.3647000000001
  0
LINE
  8
_0-0_LAYER001
  6
CONTINUOUS
 62
    2
 10
1844.5625
 20
1210.6998000000001
 11
1849.2521999999999
 21
1184.1065000000001
  0
LINE
  8
_0-0_LAYER001
  6
CONTINUOUS
 62
    2
 10
1766.4072000000001
 20
1200.5684000000001
 11
1771.0127000000002
 21
1174.4490000000001
  0
LINE
  8
_0-0_LAYER001
  6
CONTINUOUS
 62
    2
 10
1837.5484000000001
 20
1237.752
 11
1855.5484000000001
 21
1237.752
  0
LINE
  8
_0-0_LAYER001
  6
CONTINUOUS
 62
    2
 10
1855.5484000000001
 20
1237.752
 11
1855.5484000000001
 21
1273.752
  0
LINE
  8
_0-0_LAYER001
  6
CONTINUOUS
 62
    2
 10
1855.5484000000001
 20
1273.752
 11
1837.5484000000001
 21
1273.752
  0
LINE
  8
_0-0_LAYER001
  6
CONTINUOUS
 62
    2
 10
1837.5484000000001
 20
1273.752
 11
1837.5484000000001
 21
1237.752
  0
LINE
  8
_0-0_LAYER001
  6
CONTINUOUS
 62
    2
 10
1855.5484000000001
 20
1273.752
 11
1837.5484000000001
 21
1237.752
  0
LINE
  8
_0-0_LAYER001
  6
CONTINUOUS
 62
    2
 10
1862.5484000000001
 20
734.39139999999998
 11
1862.5484000000001
 21
1477.3091999999999
  0
LINE
  8
_0-1_LAYER002
  6
CONTINUOUS
 62
    2
 10
1847.6538
 20
964.6223
 11
1849.7509
 21
965.56590000000006
  0
LINE
  8
_0-1_LAYER002
  6
CONTINUOUS
 62
    2
 10
1823.0300999999999
 20
1019.3369
 11
1825.1280000000002
 21
1020.2805000000001
  0
LINE
  8
_0-1_LAYER002
  6
CONTINUOUS
 62
    2
 10
1816.8746999999998
 20
1033.0165
 11
1823.0300999999999
 21
1019.3369
  0
LINE
  8
_0-1_LAYER002
  6
CONTINUOUS
 62
    2
 10
1776.8281999999999
 20
1017.9563000000001
 11
1813.3038999999999
 21
1034.3703
  0
LINE
  8
_0-1_LAYER002
  6
CONTINUOUS
 62
    2
 10
1812.3613
 20
1036.4673
 11
1775.8838000000001
 21
1020.0523000000001
  0
LINE
  8
_0-1_LAYER002
  6
CONTINUOUS
 62
    2
 10
1818.9722999999999
 20
1033.96
 11
1825.1280000000002
 21
1020.2805000000001
  0
LINE
  8
_0-1_LAYER002
  6
CONTINUOUS
 62
    2
 10
1810.3094999999998
 20
931.36729999999989
 11
1773.3762000000002
 21
1013.441
  0
LINE
  8
_0-1_LAYER002
  6
CONTINUOUS
 62
    2
 10
1853.3991999999998
 20
945.27520000000004
 11
1816.9205000000002
 21
928.85979999999995
  0
LINE
  8
_0-1_LAYER002
  6
CONTINUOUS
 62
    2
 10
1855.9065999999998
 20
951.88629999999989
 11
1849.7509
 21
965.56590000000006
  0
LINE
  8
_0-1_LAYER002
  6
CONTINUOUS
 62
    2
 10
1853.8098
 20
950.94270000000006
 11
1847.6538
 21
964.6223
  0
LINE
  8
_0-1_LAYER002
  6
CONTINUOUS
 62
    2
 10
1815.9780999999998
 20
930.95689999999991
 11
1852.4557
 21
947.37220000000002
  0
LINE
  8
_0-1_LAYER002
  6
CONTINUOUS
 62
    2
 10
1812.4074999999998
 20
932.31099999999992
 11
1775.4744000000001
 21
1014.3857
  0
LINE
  8
_0-0_LAYER001
  6
CONTINUOUS
 62
    2
 10
1816.4657999999999
 20
917.69029999999998
 11
1779.5317
 21
999.76309999999989
  0
LINE
  8
_0-0_LAYER001
  6
CONTINUOUS
 62
    2
 10
1775.2004999999999
 20
992.33089999999993
 11
1803.1060000000002
 21
930.32089999999994
  0
LINE
  8
_0-0_LAYER001
  6
CONTINUOUS
 62
    2
 10
1777.7078999999999
 20
998.94299999999998
 11
1779.5317
 21
999.76309999999989
  0
LINE
  8
_0-0_LAYER001
  6
CONTINUOUS
 62
    2
 10
1736.0792000000001
 20
889.19219999999996
 11
1798.0904
 21
917.09780000000001
  0
LINE
  8
_0-0_LAYER001
  6
CONTINUOUS
 62
    2
 10
1793.9400999999998
 20
973.34940000000006
 11
1796.6763999999998
 21
974.58030000000008
  0
LINE
  8
_0-0_LAYER001
  6
CONTINUOUS
 62
    2
 10
1787.3742000000002
 20
987.93959999999993
 11
1790.1104999999998
 21
989.17049999999995
  0
LINE
  8
_0-0_LAYER001
  6
CONTINUOUS
 62
    2
 10
1803.2419
 20
959.99140000000011
 11
1790.1104999999998
 21
989.17049999999995
  0
LINE
  8
_0-0_LAYER001
  6
CONTINUOUS
 62
    2
 10
1800.5056
 20
958.75939999999991
 11
1803.2419
 21
959.99140000000011
  0
LINE
  8
_0-0_LAYER001
  6
CONTINUOUS
 62
    2
 10
1802.5131000000001
 20
985.97890000000007
 11
1813.1822000000002
 21
990.7808
  0
LINE
  8
_0-0_LAYER001
  6
CONTINUOUS
 62
    2
 10
1809.0783999999999
 20
971.38969999999995
 11
1819.7476999999999
 21
976.1905999999999
  0
LINE
  8
_0-0_LAYER001
  6
CONTINUOUS
 62
    2
 10
1807.6604000000002
 20
971.92820000000006
 11
1799.5192000000002
 21
968.26520000000005
  0
LINE
  8
_0-0_LAYER001
  6
CONTINUOUS
 62
    2
 10
1801.9744999999998
 20
984.56269999999995
 11
1793.8341999999998
 21
980.89889999999991
  0
LINE
  8
_0-0_LAYER001
  6
CONTINUOUS
 62
    2
 10
1799.1325000000002
 20
990.88110000000006
 11
1790.9899999999998
 21
987.2170000000001
  0
LINE
  8
_0-0_LAYER001
  6
CONTINUOUS
 62
    2
 10
1800.8697999999999
 20
989.62940000000003
 11
1799.1325000000002
 21
990.88110000000006
  0
LINE
  8
_0-0_LAYER001
  6
CONTINUOUS
 62
    2
 10
1810.7194
 20
967.74299999999994
 11
1800.8697999999999
 21
989.62940000000003
  0
LINE
  8
_0-0_LAYER001
  6
CONTINUOUS
 62
    2
 10
1810.5036
 20
965.60969999999998
 11
1802.3624
 21
961.94589999999994
  0
LINE
  8
_0-0_LAYER001
  6
CONTINUOUS
 62
    2
 10
1810.7194
 20
967.74299999999994
 11
1810.5036
 21
965.60969999999998
  0
LINE
  8
_0-0_LAYER001
  6
CONTINUOUS
 62
    2
 10
1820.7516999999998
 20
978.83560000000011
 11
1819.7476999999999
 21
976.1905999999999
  0
LINE
  8
_0-0_LAYER001
  6
CONTINUOUS
 62
    2
 10
1815.8269
 20
989.77780000000007
 11
1820.7516999999998
 21
978.83560000000011
  0
LINE
  8
_0-0_LAYER001
  6
CONTINUOUS
 62
    2
 10
1813.1822000000002
 20
990.7808
 11
1815.8269
 21
989.77780000000007
  0
LINE
  8
_0-0_LAYER001
  6
CONTINUOUS
 62
    2
 10
1813.1822000000002
 20
990.7808
 11
1819.7476999999999
 21
976.1905999999999
  0
LINE
  8
_0-0_LAYER001
  6
CONTINUOUS
 62
    2
 10
1813.1822000000002
 20
990.7808
 11
1817.1743999999999
 21
975.03269999999998
  0
LINE
  8
_0-0_LAYER001
  6
CONTINUOUS
 62
    2
 10
1807.6260000000002
 20
988.28019999999992
 11
1811.6194
 21
972.5322000000001
  0
LINE
  8
_0-0_LAYER001
  6
CONTINUOUS
 62
    2
 10
1774.4749000000002
 20
972.18630000000007
 11
1782.616
 21
975.84930000000008
  0
LINE
  8
_0-0_LAYER001
  6
CONTINUOUS
 62
    2
 10
1780.1606999999999
 20
959.55160000000001
 11
1788.3020999999999
 21
963.21569999999997
  0
LINE
  8
_0-0_LAYER001
  6
CONTINUOUS
 62
    2
 10
1783.0030000000002
 20
953.23340000000007
 11
1791.1451000000002
 21
956.89730000000009
  0
LINE
  8
_0-0_LAYER001
  6
CONTINUOUS
 62
    2
 10
1781.2654000000002
 20
954.48489999999993
 11
1783.0030000000002
 21
953.23340000000007
  0
LINE
  8
_0-0_LAYER001
  6
CONTINUOUS
 62
    2
 10
1771.4160000000002
 20
976.37149999999997
 11
1781.2654000000002
 21
954.48489999999993
  0
LINE
  8
_0-0_LAYER001
  6
CONTINUOUS
 62
    2
 10
1771.6316000000002
 20
978.50440000000003
 11
1779.7728000000002
 21
982.16849999999999
  0
LINE
  8
_0-0_LAYER001
  6
CONTINUOUS
 62
    2
 10
1771.4160000000002
 20
976.37149999999997
 11
1771.6316000000002
 21
978.50440000000003
  0
LINE
  8
_0-0_LAYER001
  6
CONTINUOUS
 62
    2
 10
1733.5720000000001
 20
882.5809999999999
 11
1734.3926999999999
 21
880.75720000000001
  0
LINE
  8
_0-0_LAYER001
  6
CONTINUOUS
 62
    2
 10
1734.3926999999999
 20
880.75720000000001
 11
1816.4659000000001
 21
917.68990000000008
  0
LINE
  8
_0-0_LAYER001
  6
CONTINUOUS
 62
    2
 10
1788.4229
 20
1053.1107999999999
 11
1779.3026
 21
1049.0068000000001
  0
LINE
  8
_0-0_LAYER001
  6
CONTINUOUS
 62
    2
 10
1789.6527999999998
 20
1050.3742999999999
 11
1780.5344
 21
1046.2717
  0
LINE
  8
_0-0_LAYER001
  6
CONTINUOUS
 62
    2
 10
1779.3026
 20
1049.0068000000001
 11
1780.5344
 21
1046.2717
  0
LINE
  8
_0-0_LAYER001
  6
CONTINUOUS
 62
    2
 10
1788.4229
 20
1053.1107999999999
 11
1789.6527999999998
 21
1050.3742999999999
  0
LINE
  8
_0-0_LAYER001
  6
CONTINUOUS
 62
    2
 10
1783.8627999999999
 20
1051.0588
 11
1785.0936000000002
 21
1048.3224
  0
LINE
  8
_0-0_LAYER001
  6
CONTINUOUS
 62
    2
 10
1800.2777999999998
 20
1014.5821000000001
 11
1796.1556999999998
 21
1018.8683000000001
  0
LINE
  8
_0-0_LAYER001
  6
CONTINUOUS
 62
    2
 10
1800.2777999999998
 20
1014.5821000000001
 11
1799.8033
 21
1020.5091
  0
LINE
  8
_0-0_LAYER001
  6
CONTINUOUS
 62
    2
 10
1788.7489
 20
1032.3108999999999
 11
1794.3768
 21
1036.0024000000001
  0
LINE
  8
_0-0_LAYER001
  6
CONTINUOUS
 62
    2
 10
1790.8009000000002
 20
1027.7517
 11
1796.4297999999999
 21
1031.4422999999999
  0
LINE
  8
_0-0_LAYER001
  6
CONTINUOUS
 62
    2
 10
1792.8537999999999
 20
1023.1913999999999
 11
1798.4814000000001
 21
1026.883
  0
LINE
  8
_0-0_LAYER001
  6
CONTINUOUS
 62
    2
 10
1786.6979999999999
 20
1036.8711000000001
 11
1792.3256999999999
 21
1040.5626
  0
LINE
  8
_0-0_LAYER001
  6
CONTINUOUS
 62
    2
 10
1788.7498999999998
 20
1032.3108
 11
1794.3788
 21
1036.0026
  0
LINE
  8
_0-0_LAYER001
  6
CONTINUOUS
 62
    2
 10
1790.8027999999999
 20
1027.7516000000001
 11
1796.4295999999999
 21
1031.4422
  0
LINE
  8
_0-0_LAYER001
  6
CONTINUOUS
 62
    2
 10
1792.8537000000001
 20
1023.1913
 11
1798.4814000000001
 21
1026.8831
  0
LINE
  8
_0-0_LAYER001
  6
CONTINUOUS
 62
    2
 10
1794.3897000000002
 20
1019.7792999999999
 11
1800.0171
 21
1023.471
  0
LINE
  8
_0-0_LAYER001
  6
CONTINUOUS
 62
    2
 10
1788.1486
 20
1046.4100000000001
 11
1799.8033
 21
1020.5091
  0
LINE
  8
_0-0_LAYER001
  6
CONTINUOUS
 62
    2
 10
1789.6527999999998
 20
1050.3742999999999
 11
1788.1486
 21
1046.4100000000001
  0
LINE
  8
_0-0_LAYER001
  6
CONTINUOUS
 62
    2
 10
1784.5018
 20
1044.7661000000001
 11
1796.1554999999998
 21
1018.8681999999999
  0
LINE
  8
_0-0_LAYER001
  6
CONTINUOUS
 62
    2
 10
1780.5344
 20
1046.2717
 11
1784.5018
 21
1044.7661000000001
  0
LINE
  8
_0-2_LAYER003
  6
CONTINUOUS
 62
    2
 10
1862.5484000000001
 20
938.42679999999996
 11
999.22910000000002
 21
549.93390999999997
  0
LINE
  8
_0-3_LAYER009
  6
CONTINUOUS
 62
    2
 10
1849.5979000000002
 20
1080.6383000000001
 11
934.86650000000009
 21
669.01009999999997
  0
LINE
  8
_0-2_LAYER003
  6
DASHED3
 62
    2
 10
1861.0484000000001
 20
1087.9842000000001
 11
936.07950000000005
 21
671.74900000000002
  0
ARC
  8
_0-1_LAYER002
  6
CONTINUOUS
 62
    2
 10
1814.4122000000002
 20
1031.9081000000001
 40
2.7000000000000002
 50
24.240376999999999
 51
114.23248
  0
ARC
  8
_0-1_LAYER002
  6
CONTINUOUS
 62
    2
 10
1777.9364999999998
 20
1015.4940999999999
 40
2.7000000000000002
 50
114.23248000000001
 51
204.21279999999999
  0
ARC
  8
_0-1_LAYER002
  6
CONTINUOUS
 62
    2
 10
1777.9344999999998
 20
1015.4929999999999
 40
4.9989999999999997
 50
114.22009000000001
 51
204.23074000000003
  0
ARC
  8
_0-1_LAYER002
  6
CONTINUOUS
 62
    2
 10
1814.4133000000002
 20
1031.9093
 40
4.9989999999999997
 50
24.224357000000001
 51
114.24136000000001
  0
ARC
  8
_0-1_LAYER002
  6
CONTINUOUS
 62
    2
 10
1814.8685
 20
933.41810000000009
 40
4.9989999999999997
 50
204.20946000000004
 51
294.23500000000001
  0
ARC
  8
_0-1_LAYER002
  6
CONTINUOUS
 62
    2
 10
1851.3483000000001
 20
949.83439999999996
 40
4.9989999999999997
 50
294.21370999999999
 51
24.245647000000019
  0
ARC
  8
_0-1_LAYER002
  6
CONTINUOUS
 62
    2
 10
1851.3472000000002
 20
949.83439999999996
 40
2.7000000000000002
 50
294.22066999999998
 51
24.240377000000009
  0
ARC
  8
_0-1_LAYER002
  6
CONTINUOUS
 62
    2
 10
1814.8694
 20
933.41910000000007
 40
2.7000000000000002
 50
204.21279999999999
 51
294.22066999999998
  0
ARC
  8
_0-0_LAYER001
  6
CONTINUOUS
 62
    2
 10
1793.9845
 20
926.21800000000007
 40
10.001999
 50
294.23665999999992
 51
24.223896999999997
  0
ARC
  8
_0-0_LAYER001
  6
CONTINUOUS
 62
    2
 10
1779.7586999999999
 20
994.38280000000009
 40
4.9989999999999997
 50
114.22009000000001
 51
204.23074000000003
  0
ARC
  8
_0-0_LAYER001
  6
CONTINUOUS
 62
    2
 10
1738.1298999999999
 20
884.63280000000009
 40
4.9989999999999997
 50
114.22009000000001
 51
204.23074000000003
  0
ARC
  8
_0-0_LAYER001
  6
CONTINUOUS
 62
    2
 10
1795.9211
 20
985.64619999999991
 40
6.1470010000000013
 50
349.86246
 51
23.869747000000004
  0
ARC
  8
_0-0_LAYER001
  6
CONTINUOUS
 62
    2
 10
1804.4472000000001
 20
966.6733999999999
 40
6.1580000000000004
 50
24.600926999999999
 51
58.555577
  0
ARC
  8
_0-0_LAYER001
  6
CONTINUOUS
 62
    2
 10
1784.9128999999998
 20
969.28950000000009
 40
22.898997999999999
 50
6.6164970000000007
 51
41.832006999999997
  0
ARC
  8
_0-0_LAYER001
  6
CONTINUOUS
 62
    2
 10
1786.2150999999999
 20
958.471
 40
6.1479999999999997
 50
169.87799999999999
 51
203.89275000000001
  0
ARC
  8
_0-0_LAYER001
  6
CONTINUOUS
 62
    2
 10
1777.6813999999999
 20
977.43260000000009
 40
6.1479999999999997
 50
204.55376000000004
 51
238.55601999999999
  0
ARC
  8
_0-0_LAYER001
  6
CONTINUOUS
 62
    2
 10
1797.2577999999999
 20
974.84230000000002
 40
22.936000999999997
 50
186.64732000000004
 51
221.80409000000003
  0
LINE
  8
_0-0_LAYER001
  6
CONTINUOUS
 62
    2
 10
1859.857
 20
1057.8402000000001
 11
946.85799999999995
 21
646.99160000000006
  0
LINE
  8
_0-0_LAYER001
  6
CONTINUOUS
 62
    2
 10
1859.857
 20
1057.8402000000001
 11
1849.5979000000002
 21
1080.6383000000001
  0
LINE
  8
_0-0_LAYER001
  6
DASHED3
 62
    2
 10
1861.0484000000001
 20
1087.9842000000001
 11
1861.0484000000001
 21
1364.652
  0
LINE
  8
_0-0_LAYER001
  6
CONTINUOUS
 62
    2
 10
1837.5484000000001
 20
1503.9770000000001
 11
1837.5484000000001
 21
1222.4549
  0
LINE
  8
_0-0_LAYER001
  6
CONTINUOUS
 62
    2
 10
1825.5484000000001
 20
1503.9770000000001
 11
1825.5484000000001
 21
1222.4549
  0
LINE
  8
_0-0_LAYER001
  6
CONTINUOUS
 62
    2
 10
1786.0302999999999
 20
1197.3697999999999
 11
1787.9715000000001
 21
1190.1252999999999
  0
LINE
  8
_0-0_LAYER001
  6
CONTINUOUS
 62
    2
 10
1787.9715000000001
 20
1190.1252999999999
 11
1782.6682000000001
 21
1195.4286
  0
LINE
  8
_0-0_LAYER001
  6
CONTINUOUS
 62
    2
 10
1787.9715000000001
 20
1190.1252999999999
 11
1698.0459999999998
 21
1345.8806999999999
  0
LINE
  8
_0-0_LAYER001
  6
CONTINUOUS
 62
    2
 10
1698.0459999999998
 20
1345.8806999999999
 11
1578.0459999999998
 21
1345.8806999999999
  0
LINE
  8
_0-0_LAYER001
  6
CONTINUOUS
 62
    2
 10
1812.8847999999998
 20
1217.3291999999999
 11
1814.8258999999998
 21
1210.0848000000001
  0
LINE
  8
_0-0_LAYER001
  6
CONTINUOUS
 62
    2
 10
1814.8258999999998
 20
1210.0848000000001
 11
1809.5225999999998
 21
1215.3880999999999
  0
LINE
  8
_0-0_LAYER001
  6
CONTINUOUS
 62
    2
 10
1814.8258999999998
 20
1210.0848000000001
 11
1692.2503999999999
 21
1422.3919000000001
  0
LINE
  8
_0-0_LAYER001
  6
CONTINUOUS
 62
    2
 10
1692.2503999999999
 20
1422.3919000000001
 11
1458.2503999999999
 21
1422.3919000000001
  0
LINE
  8
_0-0_LAYER001
  6
CONTINUOUS
 62
    2
 10
1758.4863
 20
1324.2841000000001
 11
1758.4863
 21
1296.7841000000001
  0
CIRCLE
  8
_0-0_LAYER001
  6
CONTINUOUS
 62
    2
 10
1758.4863
 20
1321.7841000000001
 40
1.6999999999999997
  0
LINE
  8
_0-0_LAYER001
  6
CONTINUOUS
 62
    2
 10
1758.4863
 20
1321.7841000000001
 11
1825.5484000000001
 21
1321.7841000000001
  0
CIRCLE
  8
_0-0_LAYER001
  6
CONTINUOUS
 62
    2
 10
1825.5484000000001
 20
1321.7841000000001
 40
1.6999999999999997
  0
LINE
  8
_0-0_LAYER001
  6
CONTINUOUS
 62
    2
 10
1825.5484000000001
 20
1324.2841000000001
 11
1825.5484000000001
 21
1296.7841000000001
  0
LINE
  8
_0-0_LAYER001
  6
CONTINUOUS
 62
    2
 10
1846.5144
 20
1273.4872
 11
1848.4555999999998
 21
1266.2427
  0
LINE
  8
_0-0_LAYER001
  6
CONTINUOUS
 62
    2
 10
1848.4555999999998
 20
1266.2427
 11
1843.1523000000002
 21
1271.546
  0
LINE
  8
_0-0_LAYER001
  6
CONTINUOUS
 62
    2
 10
1848.4555999999998
 20
1266.2427
 11
1796.6248000000001
 21
1356.0164
  0
LINE
  8
_0-0_LAYER001
  6
CONTINUOUS
 62
    2
 10
1796.6248000000001
 20
1356.0164
 11
1756.1248000000001
 21
1356.0164
  0
LINE
  8
_0-0_LAYER001
  6
CONTINUOUS
 62
    2
 10
1017.6813
 20
973.55289999999991
 11
1026.8200999999999
 21
947.61580000000004
  0
CIRCLE
  8
_0-0_LAYER001
  6
CONTINUOUS
 62
    2
 10
1018.5120999999999
 20
971.19499999999994
 40
1.6999999999999997
  0
LINE
  8
_0-0_LAYER001
  6
CONTINUOUS
 62
    2
 10
1018.5120999999999
 20
971.19499999999994
 11
1263.7354
 21
1057.5981999999999
  0
CIRCLE
  8
_0-0_LAYER001
  6
CONTINUOUS
 62
    2
 10
1263.7354
 20
1057.5981999999999
 40
1.6999999999999997
  0
LINE
  8
_0-0_LAYER001
  6
CONTINUOUS
 62
    2
 10
1262.9046000000001
 20
1059.9561000000001
 11
1272.0434
 21
1034.0191
  0
LINE
  8
_0-0_LAYER001
  6
CONTINUOUS
 62
    2
 10
1252.9349999999999
 20
1088.2511
 11
1262.0737999999999
 21
1062.3141000000001
  0
CIRCLE
  8
_0-0_LAYER001
  6
CONTINUOUS
 62
    2
 10
1253.7657999999999
 20
1085.8932
 40
1.6999999999999997
  0
LINE
  8
_0-0_LAYER001
  6
CONTINUOUS
 62
    2
 10
1253.7657999999999
 20
1085.8932
 11
1498.9890999999998
 21
1172.2963999999999
  0
CIRCLE
  8
_0-0_LAYER001
  6
CONTINUOUS
 62
    2
 10
1498.9890999999998
 20
1172.2963999999999
 40
1.6999999999999997
  0
LINE
  8
_0-0_LAYER001
  6
CONTINUOUS
 62
    2
 10
1498.1583000000001
 20
1174.6542999999999
 11
1507.2970999999998
 21
1148.7173
  0
LINE
  8
_0-0_LAYER001
  6
CONTINUOUS
 62
    2
 10
1488.1887000000002
 20
1202.9493
 11
1497.3274999999999
 21
1177.0123000000001
  0
CIRCLE
  8
_0-0_LAYER001
  6
CONTINUOUS
 62
    2
 10
1489.0194999999999
 20
1200.5914
 40
1.6999999999999997
  0
LINE
  8
_0-0_LAYER001
  6
CONTINUOUS
 62
    2
 10
1489.0194999999999
 20
1200.5914
 11
1781.9074000000001
 21
1303.7891
  0
CIRCLE
  8
_0-0_LAYER001
  6
CONTINUOUS
 62
    2
 10
1781.9074000000001
 20
1303.7891
 40
1.6999999999999997
  0
LINE
  8
_0-0_LAYER001
  6
CONTINUOUS
 62
    2
 10
1781.9074000000001
 20
1303.7891
 11
1791.0462000000002
 21
1277.8520000000001
  0
LINE
  8
_0-0_LAYER001
  6
CONTINUOUS
 62
    2
 10
1850.2476999999999
 20
1160.2900999999999
 11
1848.3065000000001
 21
1167.5345
  0
LINE
  8
_0-0_LAYER001
  6
CONTINUOUS
 62
    2
 10
1848.3065000000001
 20
1167.5345
 11
1853.6098000000002
 21
1162.2311999999999
  0
LINE
  8
_0-0_LAYER001
  6
CONTINUOUS
 62
    2
 10
1848.3065000000001
 20
1167.5345
 11
1955.8319999999999
 21
981.2949000000001
  0
LINE
  8
_0-0_LAYER001
  6
CONTINUOUS
 62
    2
 10
1955.8319999999999
 20
981.2949000000001
 11
2086.3319999999999
 21
981.2949000000001
  0
LINE
  8
_0-0_LAYER001
  6
CONTINUOUS
 62
    2
 10
1357.8674000000001
 20
858.54150000000004
 11
1355.9263000000001
 21
865.78600000000006
  0
LINE
  8
_0-0_LAYER001
  6
CONTINUOUS
 62
    2
 10
1355.9263000000001
 20
865.78600000000006
 11
1361.2295999999997
 21
860.48270000000002
  0
LINE
  8
_0-0_LAYER001
  6
CONTINUOUS
 62
    2
 10
1355.9263000000001
 20
865.78600000000006
 11
1540.8642
 21
545.46402
  0
LINE
  8
_0-0_LAYER001
  6
CONTINUOUS
 62
    2
 10
1506.4312
 20
605.42589999999996
 11
1742.5563000000002
 21
605.42589999999996
  0
LINE
  8
_0-0_LAYER001
  6
CONTINUOUS
 62
    2
 10
1488.7546000000002
 20
635.40679999999998
 11
1681.1473000000001
 21
635.40679999999998
  0
ARC
  8
_0-0_LAYER001
  6
CONTINUOUS
 62
    2
 10
1641.2898
 20
1166.7195999999999
 40
151.60504
 50
344.53124000000003
 51
7.9076170000000028
  0
CIRCLE
  8
_0-0_LAYER001
  6
CONTINUOUS
 62
    2
 10
1805.5092
 20
1176.9485
 40
0.9363839999999999
  0
CIRCLE
  8
_0-0_LAYER001
  6
CONTINUOUS
 62
    2
 10
1807.3238000000001
 20
1181.1360999999999
 40
0.326396
  0
CIRCLE
  8
_0-0_LAYER001
  6
CONTINUOUS
 62
    2
 10
1797.2649999999999
 20
1182.5524
 40
0.577968
  0
CIRCLE
  8
_0-0_LAYER001
  6
CONTINUOUS
 62
    2
 10
1798.5151000000001
 20
1178.6976999999999
 40
0.813673
  0
CIRCLE
  8
_0-0_LAYER001
  6
CONTINUOUS
 62
    2
 10
1803.1685000000002
 20
1184.9833000000001
 40
0.3489989999999999
  0
CIRCLE
  8
_0-0_LAYER001
  6
CONTINUOUS
 62
    2
 10
1805.5092
 20
1157.1410000000001
 40
0.9363839999999999
  0
CIRCLE
  8
_0-0_LAYER001
  6
CONTINUOUS
 62
    2
 10
1807.3238000000001
 20
1161.3286000000001
 40
0.326396
  0
CIRCLE
  8
_0-0_LAYER001
  6
CONTINUOUS
 62
    2
 10
1797.2649999999999
 20
1162.7449999999999
 40
0.577968
  0
CIRCLE
  8
_0-0_LAYER001
  6
CONTINUOUS
 62
    2
 10
1798.5151000000001
 20
1158.8903
 40
0.813673
  0
CIRCLE
  8
_0-0_LAYER001
  6
CONTINUOUS
 62
    2
 10
1803.1685000000002
 20
1165.1758
 40
0.3489989999999999
  0
CIRCLE
  8
_0-0_LAYER001
  6
CONTINUOUS
 62
    2
 10
1823.1158
 20
1163.0099
 40
0.9363839999999999
  0
CIRCLE
  8
_0-0_LAYER001
  6
CONTINUOUS
 62
    2
 10
1824.9304000000002
 20
1167.1975
 40
0.326396
  0
CIRCLE
  8
_0-0_LAYER001
  6
CONTINUOUS
 62
    2
 10
1814.8715999999999
 20
1168.6138000000001
 40
0.577968
  0
CIRCLE
  8
_0-0_LAYER001
  6
CONTINUOUS
 62
    2
 10
1816.1217999999999
 20
1164.7592
 40
0.813673
  0
CIRCLE
  8
_0-0_LAYER001
  6
CONTINUOUS
 62
    2
 10
1820.7750999999998
 20
1171.0446999999999
 40
0.3489989999999999
  0
CIRCLE
  8
_0-0_LAYER001
  6
CONTINUOUS
 62
    2
 10
1821.8319999999999
 20
1180.6165000000001
 40
0.9363839999999999
  0
CIRCLE
  8
_0-0_LAYER001
  6
CONTINUOUS
 62
    2
 10
1823.6466
 20
1184.8041000000001
 40
0.326396
  0
CIRCLE
  8
_0-0_LAYER001
  6
CONTINUOUS
 62
    2
 10
1813.5877999999998
 20
1186.2204999999999
 40
0.577968
  0
CIRCLE
  8
_0-0_LAYER001
  6
CONTINUOUS
 62
    2
 10
1814.8379
 20
1182.3658
 40
0.813673
  0
CIRCLE
  8
_0-0_LAYER001
  6
CONTINUOUS
 62
    2
 10
1819.4913000000001
 20
1188.6513
 40
0.3489989999999999
  0
CIRCLE
  8
_0-0_LAYER001
  6
CONTINUOUS
 62
    2
 10
1805.5092
 20
1140.0845999999999
 40
0.9363839999999999
  0
CIRCLE
  8
_0-0_LAYER001
  6
CONTINUOUS
 62
    2
 10
1807.3238000000001
 20
1144.2722000000001
 40
0.326396
  0
CIRCLE
  8
_0-0_LAYER001
  6
CONTINUOUS
 62
    2
 10
1797.2649999999999
 20
1145.6885
 40
0.577968
  0
CIRCLE
  8
_0-0_LAYER001
  6
CONTINUOUS
 62
    2
 10
1798.5151000000001
 20
1141.8339000000001
 40
0.813673
  0
CIRCLE
  8
_0-0_LAYER001
  6
CONTINUOUS
 62
    2
 10
1803.1685000000002
 20
1148.1194
 40
0.3489989999999999
  0
CIRCLE
  8
_0-0_LAYER001
  6
CONTINUOUS
 62
    2
 10
1814.8715999999999
 20
1151.5573999999999
 40
0.577968
  0
CIRCLE
  8
_0-0_LAYER001
  6
CONTINUOUS
 62
    2
 10
1816.1217999999999
 20
1147.7027
 40
0.813673
  0
LINE
  8
_0-0_LAYER001
  6
CONTINUOUS
 62
    2
 10
1791.8575000000001
 20
1149.2840000000001
 11
1799.1019999999999
 21
1151.2252000000001
  0
LINE
  8
_0-0_LAYER001
  6
CONTINUOUS
 62
    2
 10
1799.1019999999999
 20
1151.2252000000001
 11
1793.7986999999998
 21
1145.9219000000001
  0
LINE
  8
_0-0_LAYER001
  6
CONTINUOUS
 62
    2
 10
1799.1019999999999
 20
1151.2252000000001
 11
1753.3631
 21
1124.8178
  0
LINE
  8
_0-0_LAYER001
  6
CONTINUOUS
 62
    2
 10
1753.3631
 20
1124.8178
 11
1708.1880000000001
 21
1203.0633
  0
LINE
  8
_0-1_LAYER002
  6
CONTINUOUS
 62
    7
 10
1599.0360999999998
 20
1537.0359000000003
 11
1771.5360999999998
 21
1537.0359000000003
  0
LINE
  8
_0-1_LAYER002
  6
CONTINUOUS
 62
    7
 10
1692.2503999999999
 20
1422.3919000000001
 11
1458.2503999999999
 21
1422.3919000000001
  0
LINE
  8
_0-1_LAYER002
  6
CONTINUOUS
 62
    7
 10
1578.0459999999998
 20
1345.8806999999999
 11
1698.0459999999998
 21
1345.8806999999999
  0
LINE
  8
_0-1_LAYER002
  6
CONTINUOUS
 62
    7
 10
1756.1248000000001
 20
1356.0164
 11
1796.6248000000001
 21
1356.0164
  0
LINE
  8
_0-1_LAYER002
  6
CONTINUOUS
 62
    7
 10
1896.8024999999998
 20
1366.8652999999999
 11
1924.3024999999998
 21
1366.8652999999999
  0
LINE
  8
_0-1_LAYER002
  6
CONTINUOUS
 62
    7
 10
1921.8024999999998
 20
1366.8652999999999
 11
1921.8024999999998
 21
1216.8652999999999
  0
LINE
  8
_0-1_LAYER002
  6
CONTINUOUS
 62
    7
 10
1896.8024999999998
 20
1216.8652999999999
 11
1923.5024999999998
 21
1216.8652999999999
  0
LINE
  8
_0-1_LAYER002
  6
CONTINUOUS
 62
    7
 10
1954.1401000000001
 20
1337.9842000000003
 11
2005.8401000000001
 21
1337.9842000000003
  0
LINE
  8
_0-1_LAYER002
  6
CONTINUOUS
 62
    7
 10
2004.1401000000001
 20
1337.9842000000003
 11
2004.1401000000001
 21
1087.9842000000001
  0
LINE
  8
_0-1_LAYER002
  6
CONTINUOUS
 62
    7
 10
1954.1401000000001
 20
1087.9842000000001
 11
2005.8401000000001
 21
1087.9842000000001
  0
LINE
  8
_0-1_LAYER002
  6
CONTINUOUS
 62
    7
 10
1825.5484000000001
 20
1321.7841000000001
 11
1758.4863
 21
1321.7841000000001
  0
LINE
  8
_0-1_LAYER002
  6
CONTINUOUS
 62
    7
 10
1758.4863
 20
1324.2841000000001
 11
1758.4863
 21
1296.7841000000001
  0
LINE
  8
_0-1_LAYER002
  6
CONTINUOUS
 62
    7
 10
1837.5484000000001
 20
1273.752
 11
1855.5484000000001
 21
1273.752
  0
LINE
  8
_0-1_LAYER002
  6
CONTINUOUS
 62
    7
 10
1855.5484000000001
 20
1273.752
 11
1855.5484000000001
 21
1237.752
  0
LINE
  8
_0-1_LAYER002
  6
CONTINUOUS
 62
    7
 10
1855.5484000000001
 20
1237.752
 11
1837.5484000000001
 21
1237.752
  0
LINE
  8
_0-1_LAYER002
  6
CONTINUOUS
 62
    7
 10
1837.5484000000001
 20
1237.752
 11
1837.5484000000001
 21
1273.752
  0
LINE
  8
_0-1_LAYER002
  6
CONTINUOUS
 62
    7
 10
1837.5484000000001
 20
1237.752
 11
1837.5484000000001
 21
1222.4549
  0
LINE
  8
_0-1_LAYER002
  6
CONTINUOUS
 62
    7
 10
1837.5484000000001
 20
1222.4549
 11
1825.5484000000001
 21
1222.4549
  0
LINE
  8
_0-1_LAYER002
  6
CONTINUOUS
 62
    7
 10
1825.5484000000001
 20
1222.4549
 11
1825.5484000000001
 21
1503.9770000000001
  0
LINE
  8
_0-1_LAYER002
  6
CONTINUOUS
 62
    7
 10
1837.5484000000001
 20
1503.9770000000001
 11
1837.5484000000001
 21
1237.752
  0
LINE
  8
_0-1_LAYER002
  6
CONTINUOUS
 62
    7
 10
1862.5484000000001
 20
1477.3091999999999
 11
1862.5484000000001
 21
734.39139999999998
  0
LINE
  8
_0-1_LAYER002
  6
CONTINUOUS
 62
    7
 10
1861.0484000000001
 20
1087.9842000000001
 11
1861.0484000000001
 21
1364.652
  0
LINE
  8
_0-1_LAYER002
  6
CONTINUOUS
 62
    7
 10
1859.5484000000001
 20
1366.8652999999999
 11
1859.5484000000001
 21
1216.9917
  0
LINE
  8
_0-1_LAYER002
  6
CONTINUOUS
 62
    7
 10
1832.5484000000001
 20
1194.9686999999999
 11
1832.5484000000001
 21
1160.2584999999999
  0
LINE
  8
_0-1_LAYER002
  6
CONTINUOUS
 62
    7
 10
1832.5484000000001
 20
1160.2584999999999
 11
1862.5484000000001
 21
1160.2584999999999
  0
LINE
  8
_0-1_LAYER002
  6
CONTINUOUS
 62
    7
 10
1838.5482999999999
 20
1177.2585999999999
 11
1838.5482999999999
 21
1183.2584999999999
  0
LINE
  8
_0-1_LAYER002
  6
CONTINUOUS
 62
    7
 10
1838.5482999999999
 20
1183.2584999999999
 11
1905.5482999999999
 21
1183.2584999999999
  0
LINE
  8
_0-1_LAYER002
  6
CONTINUOUS
 62
    7
 10
1841.4353000000001
 20
1177.2585999999999
 11
1905.5482999999999
 21
1177.2585999999999
  0
LINE
  8
_0-1_LAYER002
  6
CONTINUOUS
 62
    7
 10
1847.1583999999998
 20
1177.2585999999999
 11
1838.5482999999999
 21
1177.2585999999999
  0
LINE
  8
_0-1_LAYER002
  6
CONTINUOUS
 62
    7
 10
1955.8319999999999
 20
981.2949000000001
 11
2071.3319999999999
 21
981.2949000000001
  0
LINE
  8
_0-1_LAYER002
  6
CONTINUOUS
 62
    7
 10
2071.3319999999999
 20
981.2949000000001
 11
2086.3319999999999
 21
981.2949000000001
  0
LINE
  8
_0-1_LAYER002
  6
CONTINUOUS
 62
    7
 10
1488.9357346060174
 20
635.40679999999998
 11
1681.1473000000001
 21
635.40679999999998
  0
LINE
  8
_0-1_LAYER002
  6
CONTINUOUS
 62
    7
 10
1506.4312
 20
605.42589999999996
 11
1742.5563000000002
 21
605.42589999999996
  0
LINE
  8
_0-1_LAYER002
  6
CONTINUOUS
 62
    7
 10
1771.5360999999998
 20
1537.0359000000003
 11
1825.5484000000001
 21
1443.4838999999999
  0
LINE
  8
_0-1_LAYER002
  6
CONTINUOUS
 62
    7
 10
1825.5484000000001
 20
1443.4838999999999
 11
1823.6071999999999
 21
1450.7283000000002
  0
LINE
  8
_0-1_LAYER002
  6
CONTINUOUS
 62
    7
 10
1825.5484000000001
 20
1443.4838999999999
 11
1820.2451000000001
 21
1448.7871999999998
  0
LINE
  8
_0-1_LAYER002
  6
CONTINUOUS
 62
    7
 10
1692.2503999999999
 20
1422.3919000000001
 11
1814.8258999999998
 21
1210.0848000000001
  0
LINE
  8
_0-1_LAYER002
  6
CONTINUOUS
 62
    7
 10
1814.8258999999998
 20
1210.0848000000001
 11
1812.8847999999998
 21
1217.3291999999999
  0
LINE
  8
_0-1_LAYER002
  6
CONTINUOUS
 62
    7
 10
1814.8258999999998
 20
1210.0848000000001
 11
1809.5225999999998
 21
1215.3880999999999
  0
LINE
  8
_0-1_LAYER002
  6
CONTINUOUS
 62
    7
 10
1859.5484000000001
 20
1216.9917
 11
1766.4072000000001
 21
1200.5684000000001
  0
LINE
  8
_0-1_LAYER002
  6
CONTINUOUS
 62
    7
 10
1766.4072000000001
 20
1200.5684000000001
 11
1771.0127000000002
 21
1174.4490000000001
  0
LINE
  8
_0-1_LAYER002
  6
CONTINUOUS
 62
    7
 10
1771.0127000000002
 20
1174.4490000000001
 11
1746.9681
 21
1166.8559
  0
LINE
  8
_0-1_LAYER002
  6
CONTINUOUS
 62
    7
 10
1746.9681
 20
1166.8559
 11
1758.3865000000001
 21
1166.0947000000001
  0
LINE
  8
_0-1_LAYER002
  6
CONTINUOUS
 62
    7
 10
1771.3110000000001
 20
1199.4023
 11
1773.9157
 21
1184.6302000000001
  0
LINE
  8
_0-1_LAYER002
  6
CONTINUOUS
 62
    7
 10
1773.9157
 20
1184.6302000000001
 11
1862.5484000000001
 21
1200.2584999999999
  0
LINE
  8
_0-1_LAYER002
  6
CONTINUOUS
 62
    7
 10
1862.5484000000001
 20
1200.2584999999999
 11
1859.9436999999998
 21
1215.0306
  0
LINE
  8
_0-1_LAYER002
  6
CONTINUOUS
 62
    7
 10
1859.9436999999998
 20
1215.0306
 11
1771.3110000000001
 21
1199.4023
  0
LINE
  8
_0-1_LAYER002
  6
CONTINUOUS
 62
    7
 10
1771.3110000000001
 20
1199.4023
 11
1862.5484000000001
 21
1200.2584999999999
  0
LINE
  8
_0-1_LAYER002
  6
CONTINUOUS
 62
    7
 10
1841.7266338405743
 20
1211.8184472047071
 11
1844.5625
 21
1210.6998000000001
  0
LINE
  8
_0-1_LAYER002
  6
CONTINUOUS
 62
    7
 10
1844.5625
 20
1210.6998000000001
 11
1849.2521999999999
 21
1184.1065000000001
  0
LINE
  8
_0-1_LAYER002
  6
CONTINUOUS
 62
    7
 10
1849.2521999999999
 20
1184.1065000000001
 11
1852.6939000000002
 21
1175.8675000000001
  0
LINE
  8
_0-1_LAYER002
  6
CONTINUOUS
 62
    7
 10
1852.6939000000002
 20
1175.8675000000001
 11
1852.9023000000002
 21
1184.7502999999999
  0
LINE
  8
_0-1_LAYER002
  6
CONTINUOUS
 62
    7
 10
1852.9023000000002
 20
1184.7502999999999
 11
1848.2123999999999
 21
1211.3421000000001
  0
LINE
  8
_0-1_LAYER002
  6
CONTINUOUS
 62
    7
 10
1848.2123999999999
 20
1211.3421000000001
 11
1850.4960000000001
 21
1213.3647000000001
  0
LINE
  8
_0-1_LAYER002
  6
CONTINUOUS
 62
    7
 10
1836.052432328027
 20
1195.586556895842
 11
1862.5484000000001
 21
1160.2584999999999
  0
LINE
  8
_0-1_LAYER002
  6
CONTINUOUS
 62
    7
 10
1848.3065000000001
 20
1167.5345
 11
1850.2476999999999
 21
1160.2900999999999
  0
LINE
  8
_0-1_LAYER002
  6
CONTINUOUS
 62
    7
 10
1848.3065000000001
 20
1167.5345
 11
1853.6098000000002
 21
1162.2311999999999
  0
LINE
  8
_0-1_LAYER002
  6
CONTINUOUS
 62
    7
 10
1838.5482999999999
 20
1177.2585999999999
 11
1832.5484000000001
 21
1174.2584999999999
  0
LINE
  8
_0-1_LAYER002
  6
CONTINUOUS
 62
    7
 10
1838.5482999999999
 20
1183.2584999999999
 11
1832.5484000000001
 21
1186.2585999999999
  0
LINE
  8
_0-1_LAYER002
  6
CONTINUOUS
 62
    7
 10
1905.5482999999999
 20
1183.2584999999999
 11
1910.5484000000001
 21
1180.2584999999999
  0
LINE
  8
_0-1_LAYER002
  6
CONTINUOUS
 62
    7
 10
1910.5484000000001
 20
1180.2584999999999
 11
1905.5482999999999
 21
1177.2585999999999
  0
LINE
  8
_0-1_LAYER002
  6
CONTINUOUS
 62
    7
 10
1855.5484000000001
 20
1273.752
 11
1837.5484000000001
 21
1237.752
  0
LINE
  8
_0-1_LAYER002
  6
CONTINUOUS
 62
    7
 10
1846.5144
 20
1273.4872
 11
1848.4555999999998
 21
1266.2427
  0
LINE
  8
_0-1_LAYER002
  6
CONTINUOUS
 62
    7
 10
1848.4555999999998
 20
1266.2427
 11
1843.1523000000002
 21
1271.546
  0
LINE
  8
_0-1_LAYER002
  6
CONTINUOUS
 62
    7
 10
1848.4555999999998
 20
1266.2427
 11
1796.6248000000001
 21
1356.0164
  0
LINE
  8
_0-1_LAYER002
  6
CONTINUOUS
 62
    7
 10
1781.9074000000001
 20
1303.7891
 11
1791.0462000000002
 21
1277.8520000000001
  0
LINE
  8
_0-1_LAYER002
  6
CONTINUOUS
 62
    7
 10
1781.9074000000001
 20
1303.7891
 11
1489.0194999999999
 21
1200.5914
  0
LINE
  8
_0-1_LAYER002
  6
CONTINUOUS
 62
    7
 10
1488.1887000000002
 20
1202.9493
 11
1507.2970999999998
 21
1148.7173
  0
LINE
  8
_0-1_LAYER002
  6
CONTINUOUS
 62
    7
 10
1498.9890999999998
 20
1172.2963999999999
 11
1253.7657999999999
 21
1085.8932
  0
LINE
  8
_0-1_LAYER002
  6
CONTINUOUS
 62
    7
 10
1253.2008515199848
 20
1087.4965818057244
 11
1272.0434
 21
1034.0191
  0
LINE
  8
_0-1_LAYER002
  6
CONTINUOUS
 62
    7
 10
1263.7354
 20
1057.5981999999999
 11
1018.5120999999999
 21
971.19499999999994
  0
LINE
  8
_0-1_LAYER002
  6
CONTINUOUS
 62
    7
 10
1017.9471506081961
 20
972.7983814844572
 11
1026.8200999999999
 21
947.61580000000004
  0
LINE
  8
_0-1_LAYER002
  6
CONTINUOUS
 62
    7
 10
1361.3647000000001
 20
1019.1746000000001
 11
1401.8647000000001
 21
1019.1746000000001
  0
LINE
  8
_0-1_LAYER002
  6
CONTINUOUS
 62
    7
 10
1446.6028000000001
 20
941.68599999999992
 11
1444.6617000000001
 21
948.93039999999996
  0
LINE
  8
_0-1_LAYER002
  6
CONTINUOUS
 62
    7
 10
1444.6617000000001
 20
948.93039999999996
 11
1446.6028000000001
 21
941.68599999999992
  0
LINE
  8
_0-1_LAYER002
  6
CONTINUOUS
 62
    7
 10
1446.6028000000001
 20
941.68599999999992
 11
1441.2995000000001
 21
946.98929999999996
  0
LINE
  8
_0-1_LAYER002
  6
CONTINUOUS
 62
    7
 10
1401.8647000000001
 20
1019.1746000000001
 11
1446.6028000000001
 21
941.68599999999992
  0
LINE
  8
_0-1_LAYER002
  6
CONTINUOUS
 62
    7
 10
936.07950000000005
 20
671.74900000000002
 11
1861.0484000000001
 21
1087.9842000000001
  0
LINE
  8
_0-1_LAYER002
  6
CONTINUOUS
 62
    7
 10
1849.5979000000002
 20
1080.6383000000001
 11
934.86650000000009
 21
669.01009999999997
  0
LINE
  8
_0-1_LAYER002
  6
CONTINUOUS
 62
    7
 10
946.85799999999995
 20
646.99160000000006
 11
1859.857
 21
1057.8402000000001
  0
LINE
  8
_0-1_LAYER002
  6
CONTINUOUS
 62
    7
 10
1862.5484000000001
 20
938.42679999999996
 11
999.22910000000002
 21
549.93390999999997
  0
LINE
  8
_0-1_LAYER002
  6
CONTINUOUS
 62
    7
 10
1355.9263000000001
 20
865.78600000000006
 11
1357.1472728461235
 21
861.22913132567021
  0
LINE
  8
_0-1_LAYER002
  6
CONTINUOUS
 62
    7
 10
1355.9263000000001
 20
865.78600000000006
 11
1361.2295999999997
 21
860.48270000000002
  0
LINE
  8
_0-1_LAYER002
  6
CONTINUOUS
 62
    7
 10
1355.9263000000001
 20
865.78600000000006
 11
1540.8642
 21
545.46402
  0
LINE
  8
_0-1_LAYER002
  6
CONTINUOUS
 62
    7
 10
1108.1669999999999
 20
749.57089999999994
 11
1101.6753000000001
 21
763.09850000000006
  0
LINE
  8
_0-1_LAYER002
  6
CONTINUOUS
 62
    7
 10
1101.6753000000001
 20
763.09850000000006
 11
1129.0411999999999
 21
775.41319999999996
  0
LINE
  8
_0-1_LAYER002
  6
CONTINUOUS
 62
    7
 10
1129.0411999999999
 20
775.41319999999996
 11
1108.1669999999999
 21
749.57089999999994
  0
LINE
  8
_0-1_LAYER002
  6
CONTINUOUS
 62
    7
 10
1108.1669999999999
 20
749.57089999999994
 11
1135.5328999999999
 21
761.88560000000007
  0
LINE
  8
_0-1_LAYER002
  6
CONTINUOUS
 62
    7
 10
1135.5328999999999
 20
761.88560000000007
 11
1129.0411999999999
 21
775.41319999999996
  0
LINE
  8
_0-1_LAYER002
  6
CONTINUOUS
 62
    7
 10
1345.9036000000001
 20
856.55269999999996
 11
1339.412
 21
870.0802000000001
  0
LINE
  8
_0-1_LAYER002
  6
CONTINUOUS
 62
    7
 10
1339.412
 20
870.0802000000001
 11
1366.7779
 21
882.39490000000001
  0
LINE
  8
_0-1_LAYER002
  6
CONTINUOUS
 62
    7
 10
1366.7779
 20
882.39490000000001
 11
1373.2695000000001
 21
868.86740000000009
  0
LINE
  8
_0-1_LAYER002
  6
CONTINUOUS
 62
    7
 10
1373.2695000000001
 20
868.86740000000009
 11
1345.9036000000001
 21
856.55269999999996
  0
LINE
  8
_0-1_LAYER002
  6
CONTINUOUS
 62
    7
 10
1345.9036000000001
 20
856.55269999999996
 11
1366.7779
 21
882.39490000000001
  0
LINE
  8
_0-1_LAYER002
  6
CONTINUOUS
 62
    7
 10
1583.6401999999998
 20
963.53440000000001
 11
1577.1486
 21
977.0619999999999
  0
LINE
  8
_0-1_LAYER002
  6
CONTINUOUS
 62
    7
 10
1577.1486
 20
977.0619999999999
 11
1604.5145000000002
 21
989.37670000000003
  0
LINE
  8
_0-1_LAYER002
  6
CONTINUOUS
 62
    7
 10
1583.6401999999998
 20
963.53440000000001
 11
1604.5145000000002
 21
989.37670000000003
  0
LINE
  8
_0-0_LAYER001
  6
CONTINUOUS
 62
    4
 10
1611.0060488255565
 20
975.84910625313353
 11
1583.6401999999998
 21
963.53440000000001
  0
LINE
  8
_0-1_LAYER002
  6
CONTINUOUS
 62
    7
 10
1604.5145000000002
 20
989.37670000000003
 11
1611.0060488255565
 21
975.84910625313353
  0
LINE
  8
_0-1_LAYER002
  6
CONTINUOUS
 62
    7
 10
1583.6401999999998
 20
963.53440000000001
 11
1611.0060488255565
 21
975.84910625313353
  0
LINE
  8
_0-1_LAYER002
  6
CONTINUOUS
 62
    7
 10
1820.8915999999999
 20
1071.5271
 11
1814.8852000000002
 21
1084.0436999999999
  0
LINE
  8
_0-1_LAYER002
  6
CONTINUOUS
 62
    7
 10
1814.8852000000002
 20
1084.0436999999999
 11
1842.2511
 21
1096.3584000000001
  0
LINE
  8
_0-1_LAYER002
  6
CONTINUOUS
 62
    7
 10
1842.2511
 20
1096.3584000000001
 11
1842.2511
 21
1096.3583000000001
  0
LINE
  8
_0-1_LAYER002
  6
CONTINUOUS
 62
    7
 10
1842.2511
 20
1096.3584000000001
 11
1848.2514000000001
 21
1083.8544999999999
  0
LINE
  8
_0-1_LAYER002
  6
CONTINUOUS
 62
    7
 10
1848.2514000000001
 20
1083.8544999999999
 11
1820.8915999999999
 21
1071.5271
  0
LINE
  8
_0-1_LAYER002
  6
CONTINUOUS
 62
    7
 10
1820.8915999999999
 20
1071.5271
 11
1842.2511
 21
1096.3583000000001
  0
LINE
  8
_0-1_LAYER002
  6
CONTINUOUS
 62
    7
 10
1859.857
 20
1057.8402000000001
 11
1849.5979000000002
 21
1080.6383000000001
  0
LINE
  8
_0-1_LAYER002
  6
CONTINUOUS
 62
    7
 10
1848.3065000000001
 20
1167.5345
 11
1955.8319999999999
 21
981.2949000000001
  0
LINE
  8
_0-1_LAYER002
  6
CONTINUOUS
 62
    7
 10
1786.0302999999999
 20
1197.3697999999999
 11
1787.9715000000001
 21
1190.1252999999999
  0
LINE
  8
_0-1_LAYER002
  6
CONTINUOUS
 62
    7
 10
1787.9715000000001
 20
1190.1252999999999
 11
1782.6682000000001
 21
1195.4286
  0
LINE
  8
_0-1_LAYER002
  6
CONTINUOUS
 62
    7
 10
1787.9715000000001
 20
1190.1252999999999
 11
1698.0459999999998
 21
1345.8806999999999
  0
LINE
  8
_0-1_LAYER002
  6
CONTINUOUS
 62
    7
 10
1708.1880000000001
 20
1203.0633
 11
1753.3631
 21
1124.8178
  0
LINE
  8
_0-1_LAYER002
  6
CONTINUOUS
 62
    7
 10
1753.3631
 20
1124.8178
 11
1799.1019999999999
 21
1151.2252000000001
  0
LINE
  8
_0-1_LAYER002
  6
CONTINUOUS
 62
    7
 10
1791.8899018961804
 20
1149.2926822501024
 11
1799.1019999999999
 21
1151.2252000000001
  0
LINE
  8
_0-1_LAYER002
  6
CONTINUOUS
 62
    7
 10
1799.1019999999999
 20
1151.2252000000001
 11
1793.7986999999998
 21
1145.9219000000001
  0
ARC
  8
_0-1_LAYER002
  6
CONTINUOUS
 62
    7
 10
1672.6104745287089
 20
1164.6499502751144
 40
121.034082949335
 50
341.51961873154318
 51
10.919238268456786
  0
TEXT
  8
_0-0_LAYER001
 62
    7
 10
1377.8647000000001
 20
1021.6745999999999
 40
20
 41
1
 50
0
  1
　
  0
TEXT
  8
_0-0_LAYER001
 62
    7
 10
1599.0360999999998
 20
1539.5358999999999
 40
20
 41
1
 50
0
  1
外壁　防火サイディング
  0
TEXT
  8
_0-0_LAYER001
 62
    7
 10
1488.7546
 20
637.90679999999986
 40
20
 41
1
 50
0
  1
　瓦桟：１５ｘ３０以上　
  0
TEXT
  8
_0-0_LAYER001
 62
    7
 10
1359.5180338280331
 20
1028.4509480101128
 40
20
 41
1
 50
0
  1
桟　瓦
  0
TEXT
  8
_0-0_LAYER001
 62
    7
 10
1760.1231792581632
 20
1363.1337277365496
 40
20
 41
1
 50
0
  1
胴　縁
  0
TEXT
  8
_0-0_LAYER001
 62
    7
 10
1124.388701743912
 20
1029.2905201656627
 40
20
 41
1
 50
19.409661
  1
260
  0
TEXT
  8
_0-0_LAYER001
 62
    7
 10
1366.155829455239
 20
1139.6624697730072
 40
20
 41
1
 50
19.40966100000001
  1
260
  0
TEXT
  8
_0-0_LAYER001
 62
    7
 10
1587.6842713175088
 20
1255.3984303631589
 40
20
 41
1
 50
19.409699999999997
  1
310
  0
TEXT
  8
_0-0_LAYER001
 62
    7
 10
1458.2503999999999
 20
1424.891900000001
 40
20
 41
1
 50
0
  1
雨押水切カラー鋼板0.35ｍｍ以上
  0
TEXT
  8
_0-0_LAYER001
 62
    7
 10
1984.589134397979
 20
1195.724412430706
 40
20
 41
1
 50
90
  1
250
  0
TEXT
  8
_0-0_LAYER001
 62
    7
 10
1955.8320000000001
 20
982.79489999999987
 40
20
 41
1
 50
0
  1
下地：30x40
  0
TEXT
  8
_0-0_LAYER001
 62
    7
 10
1777.1890720268534
 20
1319.1257084778056
 40
20
 41
1
 50
0
  1
65
  0
TEXT
  8
_0-0_LAYER001
 62
    7
 10
1578.0459999999998
 20
1347.3806999999999
 40
20
 41
1
 50
0
  1
笠木：15x90
  0
TEXT
  8
_0-0_LAYER001
 62
    7
 10
1909.6747291599345
 20
1282.2309685166942
 40
20
 41
1
 50
90
  1
150
  0
TEXT
  8
_0-0_LAYER001
 62
    7
 10
1951.6005700248338
 20
1201.7333540560878
 40
20
 41
1
 50
90
  1
水切り鉄板立上がり寸法
  0
TEXT
  8
_0-0_LAYER001
 62
    7
 10
2045.514453562208
 20
1121.2357395954814
 40
20
 41
1
 50
90
  1
下葺き材立上がり寸法
  0
TEXT
  8
_0-0_LAYER001
 62
    7
 10
1510.5407241260943
 20
606.38641377451927
 40
20
 41
1
 50
0
  1
下葺材：ルーフィング
  0
TEXT
  8
_0-0_LAYER001
 62
    7
 10
1524.0829000000003
 20
577.03009999999983
 40
20
 41
1
 50
0
  1
　野地板：硬質木片セメントパネルt＝25
  0
TEXT
  8
_0-0_LAYER001
 62
    7
 10
1540.8642
 20
547.96401999999989
 40
20
 41
1
 50
0
  1
　鋼製：C100x50x⑳x2.3@606　
  0
LINE
  8
_0-0_LAYER001
  6
CONTINUOUS
 62
    2
 10
1540.8642
 20
545.46402
 11
1834.2082156031161
 21
545.46402
  0
LINE
  8
_0-1_LAYER002
  6
CONTINUOUS
 62
    7
 10
1540.8642
 20
545.46402
 11
1829.1771146993281
 21
545.46402
  0
LINE
  8
_0-0_LAYER001
  6
CONTINUOUS
 62
    2
 10
1524.0828999999999
 20
574.53009999999995
 11
1926.4450655058943
 21
574.53009999999995
  0
LINE
  8
_0-1_LAYER002
  6
CONTINUOUS
 62
    7
 10
1524.0828999999999
 20
574.53009999999995
 11
1921.4139646021065
 21
574.53009999999995
  0
LINE
  8
_0-0_LAYER001
  6
CONTINUOUS
 62
    2
 10
1708.1880000000001
 20
1203.0633
 11
1664.8278185089234
 21
1203.0633
  0
LINE
  8
_0-1_LAYER002
  6
CONTINUOUS
 62
    7
 10
1664.8278185089234
 20
1203.0633
 11
1708.1880000000001
 21
1203.0633
  0
TEXT
  8
_0-0_LAYER001
 62
    7
 10
1649.7345157975597
 20
1208.4414885944718
 40
20
 41
1
 50
0
  1
葺　土
  0
ENDSEC
  0
EOF
