  0
SECTION
  2
HEADER
  9
$ACADVER
  1
AC1009
  9
$INSBASE
 10
0
 20
0
 30
0
  9
$EXTMIN
 10
0
 20
0
  9
$EXTMAX
 10
2970
 20
2100
  9
$LIMMIN
 10
0
 20
0
  9
$LIMMAX
 10
2970
 20
2100
  9
$LTSCALE
 40
10
  0
ENDSEC
  0
SECTION
  2
TABLES
  0
TABLE
  2
LTYPE
 70
     9
  0
LTYPE
  2
CONTINUOUS
 70
    64
  3
実線
 72
    65
 73
     0
 40
0.0
  0
LTYPE
  2
DASHED1
 70
    64
  3
--  --  --  --  --  --  --  --  
 72
    65
 73
     2
 40
2.5
 49
1.25
 49
-1.25
  0
LTYPE
  2
DASHED2
 70
    64
  3
----    ----    ----    ----    
 72
    65
 73
     2
 40
5.0
 49
2.5
 49
-2.5
  0
LTYPE
  2
DASHED3
 70
    64
  3
------  ------  ------  ------  
 72
    65
 73
     2
 40
5.0
 49
3.75
 49
-1.25
  0
LTYPE
  2
CENTER1
 70
    64
  3
----- - ----- - ----- - ----- - 
 72
    65
 73
     4
 40
10.0
 49
6.25
 49
-1.25
 49
1.25
 49
-1.25
  0
LTYPE
  2
CENTER2
 70
    64
  3
----------  --  ----------  --  
 72
    65
 73
     4
 40
20.0
 49
12.5
 49
-2.5
 49
2.5
 49
-2.5
  0
LTYPE
  2
PHANTOM1
 70
    64
  3
--- - - --- - - --- - - --- - - 
 72
    65
 73
     6
 40
10.0
 49
3.25
 49
-1.25
 49
1.25
 49
-1.25
 49
1.25
 49
-1.25
  0
LTYPE
  2
PHANTOM2
 70
    64
  3
--------  -  -  --------  -  -  
 72
    65
 73
     6
 40
20.0
 49
10.0
 49
-2.5
 49
1.25
 49
-2.5
 49
1.25
 49
-2.5
  0
LTYPE
  2
DOT
 70
    64
  3
-   -   -   -   -   -   -   -   
 72
    65
 73
     2
 40
2.5
 49
0.625
 49
-1.875
  0
LTYPE
  2
DUMMY
 70
    64
  3
ダミー
 72
    65
 73
     0
 40
0.0
  0
LTYPE
  2
RAND1
 70
    64
  3
ランダム線1
 72
    65
 73
     4
 40
10.0
 49
1.0
 49
-2.0
 49
3.0
 49
-4.0
  0
LTYPE
  2
RAND2
 70
    64
  3
ランダム線2
 72
    65
 73
     4
 40
14.0
 49
2.0
 49
-3.0
 49
4.0
 49
-5.0
  0
LTYPE
  2
RAND3
 70
    64
  3
ランダム線3
 72
    65
 73
     4
 40
18.0
 49
3.0
 49
-4.0
 49
5.0
 49
-6.0
  0
LTYPE
  2
RAND4
 70
    64
  3
ランダム線4
 72
    65
 73
     4
 40
22.0
 49
4.0
 49
-5.0
 49
6.0
 49
-7.0
  0
LTYPE
  2
RAND5
 70
    64
  3
ランダム線5
 72
    65
 73
     4
 40
26.0
 49
5.0
 49
-6.0
 49
7.0
 49
-8.0
  0
LTYPE
  2
LONG1
 70
    64
  3
----------  --  ----------  --  
 72
    65
 73
     4
 40
40.0
 49
32.5
 49
-2.5
 49
2.5
 49
-2.5
  0
LTYPE
  2
LONG2
 70
    64
  3
--------  -  -  --------  -  -  
 72
    65
 73
     6
 40
40.0
 49
30.0
 49
-2.5
 49
1.25
 49
-2.5
 49
1.25
 49
-2.5
  0
LTYPE
  2
LONG3
 70
    64
  3
+++++++++++++++..+++++++++++++++
 72
    65
 73
     2
 40
40.0
 49
37.5
 49
-2.5
  0
LTYPE
  2
LONG4
 70
    64
  3
+++++++++++++++..+++++++++++++++
 72
    65
 73
     2
 40
80.0
 49
75.0
 49
-5.0
  0
LTYPE
  2
LONG5
 70
    64
  3
----------  --  ----------  --  
 72
    65
 73
     4
 40
60.0
 49
37.5
 49
-7.5
 49
7.5
 49
-7.5
  0
LTYPE
  2
dashed
 70
   64
  3
-------   -------------   ------
 72
   65
 73
    2
 40
7.5
 49
6
 49
-1.5
  0
LTYPE
  2
dashed_spaced
 70
   64
  3
----        --------        ----
 72
   65
 73
    2
 40
12
 49
6
 49
-6
  0
LTYPE
  2
long_dashed_dotted
 70
   64
  3
------------- --- --------------
 72
   65
 73
    4
 40
15.25
 49
12
 49
-1.5
 49
0.25
 49
-1.5
  0
LTYPE
  2
long_dashed_double-dotted
 70
   64
  3
----------- --- --- ------------
 72
   65
 73
    6
 40
17
 49
12
 49
-1.5
 49
0.25
 49
-1.5
 49
0.25
 49
-1.5
  0
LTYPE
  2
long_dashed_triplicate-dotted
 70
   64
  3
--------- --- --- --- ----------
 72
   65
 73
    8
 40
18.75
 49
12
 49
-1.5
 49
0.25
 49
-1.5
 49
0.25
 49
-1.5
 49
0.25
 49
-1.5
  0
LTYPE
  2
dotted
 70
   64
  3
   -       -       -       -    
 72
   65
 73
    2
 40
1.75
 49
0.25
 49
-1.5
  0
LTYPE
  2
chain
 70
   64
  3
-------------- -- --------------
 72
   65
 73
    4
 40
18.5
 49
12
 49
-1.5
 49
3.5
 49
-1.5
  0
LTYPE
  2
chain_double_dash
 70
   64
  3
------------ -- -- -------------
 72
   65
 73
    6
 40
23.5
 49
12
 49
-1.5
 49
3.5
 49
-1.5
 49
3.5
 49
-1.5
  0
LTYPE
  2
dashed_dotted
 70
   64
  3
-----------     -     ----------
 72
   65
 73
    4
 40
9.25
 49
6
 49
-1.5
 49
0.25
 49
-1.5
  0
LTYPE
  2
double-dashed_dotted
 70
   64
  3
------   -----------   -   -----
 72
   65
 73
    6
 40
16.75
 49
6
 49
-1.5
 49
6
 49
-1.5
 49
0.25
 49
-1.5
  0
LTYPE
  2
dashed_double-dotted
 70
   64
  3
---------    -    -    ---------
 72
   65
 73
    6
 40
11
 49
6
 49
-1.5
 49
0.25
 49
-1.5
 49
0.25
 49
-1.5
  0
LTYPE
  2
double-dashed_double-dotted
 70
   64
  3
-----   ---------   -   -   ----
 72
   65
 73
    8
 40
18.5
 49
6
 49
-1.5
 49
6
 49
-1.5
 49
0.25
 49
-1.5
 49
0.25
 49
-1.5
  0
LTYPE
  2
dashed_triplicate-dotted
 70
   64
  3
-------    -    -    -    ------
 72
   65
 73
    8
 40
12.75
 49
6
 49
-1.5
 49
0.25
 49
-1.5
 49
0.25
 49
-1.5
 49
0.25
 49
-1.5
  0
LTYPE
  2
double-dashed_triplicate-dotted
 70
   64
  3
-----  ---------  -  -  -  -----
 72
   65
 73
   10
 40
20.25
 49
6
 49
-1.5
 49
6
 49
-1.5
 49
0.25
 49
-1.5
 49
0.25
 49
-1.5
 49
0.25
 49
-1.5
  0
LTYPE
  2
undefined
 70
   64
  3
--------------------------------
 72
   65
 73
    0
 40
0
  0
ENDTAB
  0
TABLE
  2
STYLE
  5
3
100
AcDbSymbolTable
 70
     1
  0
STYLE
  5
10
100
AcDbSymbolTableRecord
100
AcDbTextStyleTableRecord
  2
STANDARD
 70
     0
 40
0.0
 41
1.0
 50
0.0
 71
     0
 42
0.2
  3
txt
  4
bigfont.shx
  0
STYLE
  5
26
100
AcDbSymbolTableRecord
100
AcDbTextStyleTableRecord
  2
TATEGAKI
 70
    68
 40
0.0
 41
1.0
 50
0.0
 71
     0
 42
1.0
  3
txt
  4
bigfont.shx
  0
ENDTAB
  0
TABLE
  2
LAYER
 70
    6
  0
LAYER
  2
_0-0_LAYER001
 70
   64
 62
    7
  6
CONTINUOUS
  0
LAYER
  2
_0-1_LAYER003
 70
   64
 62
    7
  6
CONTINUOUS
  0
LAYER
  2
_0-2_LAYER006
 70
   64
 62
    7
  6
CONTINUOUS
  0
LAYER
  2
_0-3_LAYER007
 70
   64
 62
    7
  6
CONTINUOUS
  0
LAYER
  2
_0-4_LAYER009
 70
   64
 62
    7
  6
CONTINUOUS
  0
LAYER
  2
ADD_LINE
 70
   64
 62
    7
  6
CONTINUOUS
  0
ENDTAB
  0
ENDSEC
  0
SECTION
  2
BLOCKS
  0
ENDSEC
  0
SECTION
  2
ENTITIES
  0
LINE
  8
_0-4_LAYER009
  6
CONTINUOUS
 62
    2
 10
1638.9702000000002
 20
926.90030000000002
 11
1688.9699999999998
 21
976.90030000000002
  0
LINE
  8
_0-4_LAYER009
  6
CONTINUOUS
 62
    2
 10
1634.7276000000002
 20
926.90030000000002
 11
1684.7274000000002
 21
976.90030000000002
  0
LINE
  8
_0-4_LAYER009
  6
CONTINUOUS
 62
    2
 10
1851.1023
 20
926.90030000000002
 11
1901.1021999999998
 21
976.90030000000002
  0
LINE
  8
_0-4_LAYER009
  6
CONTINUOUS
 62
    2
 10
1846.8597
 20
926.90030000000002
 11
1896.8595
 21
976.90030000000002
  0
LINE
  8
_0-4_LAYER009
  6
CONTINUOUS
 62
    2
 10
2063.2343999999998
 20
926.90030000000002
 11
2113.2343000000001
 21
976.90030000000002
  0
LINE
  8
_0-4_LAYER009
  6
CONTINUOUS
 62
    2
 10
2058.9917999999998
 20
926.90030000000002
 11
2108.9915999999998
 21
976.90030000000002
  0
LINE
  8
_0-0_LAYER001
  6
CONTINUOUS
 62
    2
 10
1713.9811
 20
1026.2899
 11
1708.6777000000002
 21
1020.9866
  0
LINE
  8
_0-0_LAYER001
  6
CONTINUOUS
 62
    2
 10
1708.6777000000002
 20
1020.9866
 11
1710.6188999999999
 21
1028.231
  0
LINE
  8
_0-0_LAYER001
  6
CONTINUOUS
 62
    2
 10
1708.6777000000002
 20
1020.9866
 11
1767.1261
 21
1122.2221
  0
LINE
  8
_0-0_LAYER001
  6
CONTINUOUS
 62
    2
 10
1767.1261
 20
1122.2221
 11
1807.6261
 21
1122.2221
  0
LINE
  8
_0-0_LAYER001
  6
CONTINUOUS
 62
    2
 10
1096.5658000000001
 20
975.62300000000005
 11
1094.6247000000001
 21
982.86740000000009
  0
LINE
  8
_0-0_LAYER001
  6
CONTINUOUS
 62
    2
 10
1094.6247000000001
 20
982.86740000000009
 11
1099.9280000000001
 21
977.56410000000005
  0
LINE
  8
_0-0_LAYER001
  6
CONTINUOUS
 62
    2
 10
1094.6247000000001
 20
982.86740000000009
 11
1236.3140000000001
 21
737.45440000000008
  0
LINE
  8
_0-0_LAYER001
  6
CONTINUOUS
 62
    2
 10
777.72420000000011
 20
976.90030000000002
 11
830.22420000000011
 21
976.90030000000002
  0
CIRCLE
  8
_0-0_LAYER001
  6
CONTINUOUS
 62
    2
 10
780.22420000000011
 20
976.90030000000002
 40
1.6999999999999997
  0
LINE
  8
_0-0_LAYER001
  6
CONTINUOUS
 62
    2
 10
780.22420000000011
 20
976.90030000000002
 11
780.22420000000011
 21
1126.9003
  0
CIRCLE
  8
_0-0_LAYER001
  6
CONTINUOUS
 62
    2
 10
780.22420000000011
 20
1126.9003
 40
1.6999999999999997
  0
LINE
  8
_0-0_LAYER001
  6
CONTINUOUS
 62
    2
 10
777.72420000000011
 20
1126.9003
 11
830.22420000000011
 21
1126.9003
  0
LINE
  8
_0-0_LAYER001
  6
DASHED1
 62
    1
 10
1208.3315
 20
1021.8204000000001
 11
1224.3315
 21
1021.8204000000001
  0
LINE
  8
_0-0_LAYER001
  6
DASHED1
 62
    1
 10
1224.3315
 20
1021.8204000000001
 11
1224.3315
 21
1018.8204000000001
  0
LINE
  8
_0-0_LAYER001
  6
DASHED1
 62
    1
 10
1208.3315
 20
1021.8204000000001
 11
1208.3315
 21
1018.8204000000001
  0
LINE
  8
_0-0_LAYER001
  6
DASHED1
 62
    1
 10
1208.3315
 20
1018.8204000000001
 11
1224.3315
 21
1018.8204000000001
  0
LINE
  8
_0-0_LAYER001
  6
DASHED1
 62
    1
 10
1219.3315
 20
963.9242999999999
 11
1216.2813000000001
 21
949.41540000000009
  0
LINE
  8
_0-0_LAYER001
  6
DASHED1
 62
    1
 10
1219.3315
 20
1018.8204000000001
 11
1219.3315
 21
963.9242999999999
  0
LINE
  8
_0-0_LAYER001
  6
DASHED1
 62
    1
 10
1216.2813000000001
 20
949.41540000000009
 11
1213.3315
 21
963.67290000000003
  0
LINE
  8
_0-0_LAYER001
  6
DASHED1
 62
    1
 10
1213.3315
 20
1018.8204000000001
 11
1213.3315
 21
963.67290000000003
  0
LINE
  8
_0-0_LAYER001
  6
CONTINUOUS
 62
    4
 10
1223.6294
 20
990.4670000000001
 11
1217.9662000000001
 21
999.90560000000005
  0
LINE
  8
_0-0_LAYER001
  6
DASHED1
 62
    1
 10
1469.5216
 20
1018.3608999999999
 11
1485.5216
 21
1018.3608999999999
  0
LINE
  8
_0-0_LAYER001
  6
DASHED1
 62
    1
 10
1485.5216
 20
1018.3608999999999
 11
1485.5216
 21
1015.3608999999999
  0
LINE
  8
_0-0_LAYER001
  6
DASHED1
 62
    1
 10
1469.5216
 20
1018.3608999999999
 11
1469.5216
 21
1015.3608999999999
  0
LINE
  8
_0-0_LAYER001
  6
DASHED1
 62
    1
 10
1469.5216
 20
1015.3608999999999
 11
1485.5216
 21
1015.3608999999999
  0
LINE
  8
_0-0_LAYER001
  6
DASHED1
 62
    1
 10
1480.5216
 20
960.46479999999997
 11
1477.4713999999999
 21
945.95589999999993
  0
LINE
  8
_0-0_LAYER001
  6
DASHED1
 62
    1
 10
1480.5216
 20
1015.3608999999999
 11
1480.5216
 21
960.46479999999997
  0
LINE
  8
_0-0_LAYER001
  6
DASHED1
 62
    1
 10
1477.4713999999999
 20
945.95589999999993
 11
1474.5216
 21
960.21340000000009
  0
LINE
  8
_0-0_LAYER001
  6
DASHED1
 62
    1
 10
1474.5216
 20
1015.3608999999999
 11
1474.5216
 21
960.21340000000009
  0
LINE
  8
_0-0_LAYER001
  6
DASHED1
 62
    1
 10
1728.982
 20
1020.0906
 11
1744.982
 21
1020.0906
  0
LINE
  8
_0-0_LAYER001
  6
DASHED1
 62
    1
 10
1744.982
 20
1020.0906
 11
1744.982
 21
1017.0906
  0
LINE
  8
_0-0_LAYER001
  6
DASHED1
 62
    1
 10
1728.982
 20
1020.0906
 11
1728.982
 21
1017.0906
  0
LINE
  8
_0-0_LAYER001
  6
DASHED1
 62
    1
 10
1728.982
 20
1017.0906
 11
1744.982
 21
1017.0906
  0
LINE
  8
_0-0_LAYER001
  6
DASHED1
 62
    1
 10
1739.982
 20
962.19460000000004
 11
1736.9317999999998
 21
947.68560000000002
  0
LINE
  8
_0-0_LAYER001
  6
DASHED1
 62
    1
 10
1739.982
 20
1017.0906
 11
1739.982
 21
962.19460000000004
  0
LINE
  8
_0-0_LAYER001
  6
DASHED1
 62
    1
 10
1736.9317999999998
 20
947.68560000000002
 11
1733.982
 21
961.94309999999996
  0
LINE
  8
_0-0_LAYER001
  6
DASHED1
 62
    1
 10
1733.982
 20
1017.0906
 11
1733.982
 21
961.94309999999996
  0
LINE
  8
_0-0_LAYER001
  6
DASHED1
 62
    1
 10
1984.9829
 20
1020.0906
 11
2000.9829
 21
1020.0906
  0
LINE
  8
_0-0_LAYER001
  6
DASHED1
 62
    1
 10
2000.9829
 20
1020.0906
 11
2000.9829
 21
1017.0906
  0
LINE
  8
_0-0_LAYER001
  6
DASHED1
 62
    1
 10
1984.9829
 20
1020.0906
 11
1984.9829
 21
1017.0906
  0
LINE
  8
_0-0_LAYER001
  6
DASHED1
 62
    1
 10
1984.9829
 20
1017.0906
 11
2000.9829
 21
1017.0906
  0
LINE
  8
_0-0_LAYER001
  6
DASHED1
 62
    1
 10
1995.9829
 20
962.19460000000004
 11
1992.9326999999998
 21
947.68560000000002
  0
LINE
  8
_0-0_LAYER001
  6
DASHED1
 62
    1
 10
1995.9829
 20
1017.0906
 11
1995.9829
 21
962.19460000000004
  0
LINE
  8
_0-0_LAYER001
  6
DASHED1
 62
    1
 10
1992.9326999999998
 20
947.68560000000002
 11
1989.9829
 21
961.94309999999996
  0
LINE
  8
_0-0_LAYER001
  6
DASHED1
 62
    1
 10
1989.9829
 20
1017.0906
 11
1989.9829
 21
961.94309999999996
  0
LINE
  8
_0-0_LAYER001
  6
CONTINUOUS
 62
    4
 10
2003.7997
 20
988.82199999999989
 11
1998.1365000000001
 21
998.26070000000004
  0
LINE
  8
_0-0_LAYER001
  6
CONTINUOUS
 62
    4
 10
1744.8847999999998
 20
990.49250000000006
 11
1739.2215999999999
 21
999.93110000000001
  0
LINE
  8
_0-0_LAYER001
  6
CONTINUOUS
 62
    4
 10
1484.4553000000001
 20
990.4670000000001
 11
1478.7921000000001
 21
999.90560000000005
  0
ARC
  8
_0-0_LAYER001
  6
CONTINUOUS
 62
    4
 10
2095.6082000000001
 20
1026.9342999999999
 40
69.214101999999997
 50
56.294509000000005
 51
163.33506
  0
ARC
  8
_0-0_LAYER001
  6
CONTINUOUS
 62
    4
 10
2095.2130999999999
 20
1028.4177
 40
50.327697999999998
 50
39.554400000000001
 51
173.62688
  0
ARC
  8
_0-0_LAYER001
  6
CONTINUOUS
 62
    4
 10
1957.1399999999999
 20
1227.4265
 40
212.52318
 50
244.57801000000001
 51
294.47764000000006
  0
ARC
  8
_0-0_LAYER001
  6
CONTINUOUS
 62
    4
 10
1957.1399999999999
 20
1227.4265
 40
214.52317999999997
 50
244.57801000000001
 51
294.78532999999999
  0
ARC
  8
_0-0_LAYER001
  6
CONTINUOUS
 62
    4
 10
2095.2130999999999
 20
1028.4177
 40
48.327697999999998
 50
88.109851000000006
 51
174.95909000000003
  0
LINE
  8
_0-0_LAYER001
  6
CONTINUOUS
 62
    4
 10
2096.8072000000002
 20
1076.7191
 11
2096.8072000000002
 21
1064.5900999999999
  0
LINE
  8
_0-0_LAYER001
  6
CONTINUOUS
 62
    4
 10
1924.7950999999998
 20
986.1117999999999
 11
1918.2280999999998
 21
998.26070000000004
  0
LINE
  8
_0-0_LAYER001
  6
CONTINUOUS
 62
    4
 10
1936.9213
 20
985.78250000000003
 11
1942.3514
 21
994.6422
  0
ARC
  8
_0-0_LAYER001
  6
CONTINUOUS
 62
    4
 10
1930.9531000000002
 20
989.44039999999995
 40
7
 50
208.39301
 51
328.49572999999998
  0
LINE
  8
_0-0_LAYER001
  6
CONTINUOUS
 62
    4
 10
2016.3119000000002
 20
989.84989999999993
 11
2022.2597999999998
 21
1004.8946000000001
  0
ARC
  8
_0-0_LAYER001
  6
CONTINUOUS
 62
    4
 10
2009.8020999999999
 20
992.4235000000001
 40
7
 50
210.96375
 51
338.42869000000002
  0
LINE
  8
_0-0_LAYER001
  6
CONTINUOUS
 62
    4
 10
2043.953
 20
996.79130000000009
 11
2037.0353
 21
1008.5130999999999
  0
ARC
  8
_0-0_LAYER001
  6
CONTINUOUS
 62
    4
 10
2047.3978999999999
 20
998.82429999999999
 40
4
 50
210.54757000000001
 51
342.13990000000001
  0
ARC
  8
_0-0_LAYER001
  6
CONTINUOUS
 62
    4
 10
1957.1399999999999
 20
1227.4265
 40
194.52317999999997
 50
244.57801000000001
 51
291.77512000000002
  0
ARC
  8
_0-0_LAYER001
  6
CONTINUOUS
 62
    4
 10
1906.1961999999999
 20
1097.1536000000001
 40
73.645919000000006
 50
225.20483999999999
 51
236.85617999999999
  0
ARC
  8
_0-0_LAYER001
  6
CONTINUOUS
 62
    4
 10
1895.1035999999999
 20
1089.2483
 40
81.008393999999996
 50
226.46691000000004
 51
242.05489
  0
ARC
  8
_0-0_LAYER001
  6
CONTINUOUS
 62
    4
 10
1948.6261
 20
1163.8531
 40
154.70135999999999
 50
229.79871999999997
 51
237.31520999999998
  0
LINE
  8
_0-0_LAYER001
  6
CONTINUOUS
 62
    4
 10
1839.3072000000002
 20
1048.3481999999999
 11
1839.3072000000002
 21
1030.5191
  0
ARC
  8
_0-0_LAYER001
  6
CONTINUOUS
 62
    4
 10
1843.3072000000002
 20
1048.3481999999999
 40
4
 50
90
 51
180
  0
LINE
  8
_0-0_LAYER001
  6
CONTINUOUS
 62
    4
 10
1844.7703000000001
 20
1052.3481999999999
 11
1843.3072000000002
 21
1052.3481999999999
  0
LINE
  8
_0-0_LAYER001
  6
CONTINUOUS
 62
    4
 10
1848.7703000000001
 20
1048.3481999999999
 11
1848.7703000000001
 21
1045.6949999999999
  0
ARC
  8
_0-0_LAYER001
  6
CONTINUOUS
 62
    4
 10
1844.7703000000001
 20
1048.3481999999999
 40
4
 50
0
 51
90
  0
LINE
  8
_0-0_LAYER001
  6
CONTINUOUS
 62
    4
 10
1854.3072000000002
 20
1047.7389000000001
 11
1854.3072000000002
 21
1044.8922
  0
LINE
  8
_0-0_LAYER001
  6
CONTINUOUS
 62
    4
 10
1858.3072000000002
 20
1051.7389000000001
 11
1873.6347999999998
 21
1051.7389000000001
  0
ARC
  8
_0-0_LAYER001
  6
CONTINUOUS
 62
    4
 10
1858.3072000000002
 20
1047.7389000000001
 40
4
 50
90
 51
180
  0
ARC
  8
_0-0_LAYER001
  6
CONTINUOUS
 62
    4
 10
1957.1399999999999
 20
1227.4265
 40
232.52318
 50
244.57801000000001
 51
295.00637
  0
ARC
  8
_0-0_LAYER001
  6
CONTINUOUS
 62
    4
 10
2097.8062
 20
1024.3535999999999
 40
40.248902000000001
 50
91.422393999999997
 51
185.22383000000002
  0
ARC
  8
_0-0_LAYER001
  6
CONTINUOUS
 62
    4
 10
2053.7411000000002
 20
1020.3249000000001
 40
4
 50
295.00637
 51
5.2238350000000304
  0
LINE
  8
_0-0_LAYER001
  6
CONTINUOUS
 62
    4
 10
2055.2927
 20
1016.1555000000001
 11
2051.3937999999998
 21
998.12310000000002
  0
ARC
  8
_0-0_LAYER001
  6
CONTINUOUS
 62
    4
 10
1836.6934000000001
 20
1028.6047000000001
 40
69.214101999999997
 50
13.791351000000001
 51
163.33506000000003
  0
ARC
  8
_0-0_LAYER001
  6
CONTINUOUS
 62
    4
 10
1836.2982999999999
 20
1030.0881999999999
 40
50.327697999999998
 50
23.01118
 51
173.62688000000003
  0
ARC
  8
_0-0_LAYER001
  6
CONTINUOUS
 62
    4
 10
1698.2251999999999
 20
1229.0969
 40
212.52318
 50
244.57801000000001
 51
294.47764000000006
  0
ARC
  8
_0-0_LAYER001
  6
CONTINUOUS
 62
    4
 10
1698.2251999999999
 20
1229.0969
 40
214.52317999999997
 50
244.57801000000001
 51
294.78532999999999
  0
ARC
  8
_0-0_LAYER001
  6
CONTINUOUS
 62
    4
 10
1836.2982999999999
 20
1030.0881999999999
 40
48.327697999999998
 50
88.109851000000006
 51
174.95909000000003
  0
LINE
  8
_0-0_LAYER001
  6
CONTINUOUS
 62
    4
 10
1837.8923
 20
1078.3896
 11
1837.8923
 21
1066.2605000000001
  0
LINE
  8
_0-0_LAYER001
  6
CONTINUOUS
 62
    4
 10
1903.9121
 20
1045.1044999999999
 11
1882.6212999999998
 21
1049.7618
  0
LINE
  8
_0-0_LAYER001
  6
CONTINUOUS
 62
    4
 10
1665.8802000000001
 20
987.7822000000001
 11
1659.3132999999998
 21
999.93110000000001
  0
LINE
  8
_0-0_LAYER001
  6
CONTINUOUS
 62
    4
 10
1678.0064000000002
 20
987.4529
 11
1683.4366
 21
996.31259999999997
  0
ARC
  8
_0-0_LAYER001
  6
CONTINUOUS
 62
    4
 10
1672.0382
 20
991.11079999999993
 40
7
 50
208.39301
 51
328.49572999999998
  0
LINE
  8
_0-0_LAYER001
  6
CONTINUOUS
 62
    4
 10
1757.3969999999999
 20
991.52029999999991
 11
1763.3449000000001
 21
1006.5650000000001
  0
ARC
  8
_0-0_LAYER001
  6
CONTINUOUS
 62
    4
 10
1750.8872999999999
 20
994.09390000000008
 40
7
 50
210.96375
 51
338.42869000000002
  0
LINE
  8
_0-0_LAYER001
  6
CONTINUOUS
 62
    4
 10
1785.0382
 20
998.46180000000004
 11
1778.1203999999998
 21
1010.1835000000001
  0
ARC
  8
_0-0_LAYER001
  6
CONTINUOUS
 62
    4
 10
1788.4830000000002
 20
1000.4947999999999
 40
4
 50
210.54757000000001
 51
342.13990000000001
  0
ARC
  8
_0-0_LAYER001
  6
CONTINUOUS
 62
    4
 10
1698.2251999999999
 20
1229.0969
 40
194.52317999999997
 50
244.57801000000001
 51
291.77512000000002
  0
ARC
  8
_0-0_LAYER001
  6
CONTINUOUS
 62
    4
 10
1647.2813000000001
 20
1098.8240000000001
 40
73.645919000000006
 50
225.20483999999999
 51
236.85617999999999
  0
ARC
  8
_0-0_LAYER001
  6
CONTINUOUS
 62
    4
 10
1636.1887000000002
 20
1090.9186999999999
 40
81.008393999999996
 50
226.46691000000004
 51
242.05489
  0
ARC
  8
_0-0_LAYER001
  6
CONTINUOUS
 62
    4
 10
1689.7112000000002
 20
1165.5235
 40
154.70135999999999
 50
229.79871999999997
 51
237.31520999999998
  0
LINE
  8
_0-0_LAYER001
  6
CONTINUOUS
 62
    4
 10
1580.3923
 20
1050.0187000000001
 11
1580.3923
 21
1032.1895
  0
ARC
  8
_0-0_LAYER001
  6
CONTINUOUS
 62
    4
 10
1584.3923
 20
1050.0187000000001
 40
4
 50
90
 51
180
  0
LINE
  8
_0-0_LAYER001
  6
CONTINUOUS
 62
    4
 10
1585.8553999999999
 20
1054.0187000000001
 11
1584.3923
 21
1054.0187000000001
  0
LINE
  8
_0-0_LAYER001
  6
CONTINUOUS
 62
    4
 10
1589.8553999999999
 20
1050.0187000000001
 11
1589.8553999999999
 21
1047.3655000000001
  0
ARC
  8
_0-0_LAYER001
  6
CONTINUOUS
 62
    4
 10
1585.8553999999999
 20
1050.0187000000001
 40
4
 50
0
 51
90
  0
LINE
  8
_0-0_LAYER001
  6
CONTINUOUS
 62
    4
 10
1595.3923
 20
1049.4093
 11
1595.3923
 21
1046.5626
  0
LINE
  8
_0-0_LAYER001
  6
CONTINUOUS
 62
    4
 10
1599.3923
 20
1053.4093
 11
1614.7199000000001
 21
1053.4093
  0
ARC
  8
_0-0_LAYER001
  6
CONTINUOUS
 62
    4
 10
1599.3923
 20
1049.4093
 40
4
 50
90
 51
180
  0
ARC
  8
_0-0_LAYER001
  6
CONTINUOUS
 62
    4
 10
1698.2251999999999
 20
1229.0969
 40
232.52318
 50
244.57801000000001
 51
295.00637
  0
ARC
  8
_0-0_LAYER001
  6
CONTINUOUS
 62
    4
 10
1838.8914
 20
1026.0239999999999
 40
40.248902000000001
 50
91.422393999999997
 51
185.22383000000002
  0
ARC
  8
_0-0_LAYER001
  6
CONTINUOUS
 62
    4
 10
1794.8263000000002
 20
1021.9953
 40
4
 50
295.00637
 51
5.2238350000000304
  0
LINE
  8
_0-0_LAYER001
  6
CONTINUOUS
 62
    4
 10
1796.3778000000002
 20
1017.8259
 11
1792.4789000000001
 21
999.79349999999999
  0
ARC
  8
_0-0_LAYER001
  6
CONTINUOUS
 62
    4
 10
1576.2638000000002
 20
1028.5791999999999
 40
69.214101999999997
 50
13.791351000000001
 51
163.33506000000003
  0
ARC
  8
_0-0_LAYER001
  6
CONTINUOUS
 62
    4
 10
1575.8687
 20
1030.0626999999999
 40
50.327697999999998
 50
23.01118
 51
173.62688000000003
  0
ARC
  8
_0-0_LAYER001
  6
CONTINUOUS
 62
    4
 10
1437.7955999999999
 20
1229.0714
 40
212.52318
 50
244.57801000000001
 51
294.47764000000006
  0
ARC
  8
_0-0_LAYER001
  6
CONTINUOUS
 62
    4
 10
1437.7955999999999
 20
1229.0714
 40
214.52317999999997
 50
244.57801000000001
 51
294.78532999999999
  0
ARC
  8
_0-0_LAYER001
  6
CONTINUOUS
 62
    4
 10
1575.8687
 20
1030.0626999999999
 40
48.327697999999998
 50
88.109851000000006
 51
174.95909000000003
  0
LINE
  8
_0-0_LAYER001
  6
CONTINUOUS
 62
    4
 10
1577.4627
 20
1078.3641
 11
1577.4627
 21
1066.2351000000001
  0
LINE
  8
_0-0_LAYER001
  6
CONTINUOUS
 62
    4
 10
1643.4825000000001
 20
1045.079
 11
1622.1918000000001
 21
1049.7363
  0
LINE
  8
_0-0_LAYER001
  6
CONTINUOUS
 62
    4
 10
1405.4507000000001
 20
987.75669999999991
 11
1398.8837000000001
 21
999.90560000000005
  0
LINE
  8
_0-0_LAYER001
  6
CONTINUOUS
 62
    4
 10
1417.5767999999998
 20
987.42740000000003
 11
1423.0070000000001
 21
996.28719999999998
  0
ARC
  8
_0-0_LAYER001
  6
CONTINUOUS
 62
    4
 10
1411.6086
 20
991.08539999999994
 40
7
 50
208.39301
 51
328.49572999999998
  0
LINE
  8
_0-0_LAYER001
  6
CONTINUOUS
 62
    4
 10
1496.9674
 20
991.49479999999994
 11
1502.9153000000001
 21
1006.5395000000001
  0
ARC
  8
_0-0_LAYER001
  6
CONTINUOUS
 62
    4
 10
1490.4576999999999
 20
994.06850000000009
 40
7
 50
210.96375
 51
338.42869000000002
  0
LINE
  8
_0-0_LAYER001
  6
CONTINUOUS
 62
    4
 10
1524.6086
 20
998.43630000000007
 11
1517.6909000000001
 21
1010.1579999999999
  0
ARC
  8
_0-0_LAYER001
  6
CONTINUOUS
 62
    4
 10
1528.0533999999998
 20
1000.4693
 40
4
 50
210.54757000000001
 51
342.13990000000001
  0
ARC
  8
_0-0_LAYER001
  6
CONTINUOUS
 62
    4
 10
1437.7955999999999
 20
1229.0714
 40
194.52317999999997
 50
244.57801000000001
 51
291.77512000000002
  0
ARC
  8
_0-0_LAYER001
  6
CONTINUOUS
 62
    4
 10
1386.8516999999999
 20
1098.7985000000001
 40
73.645919000000006
 50
225.20483999999999
 51
236.85617999999999
  0
ARC
  8
_0-0_LAYER001
  6
CONTINUOUS
 62
    4
 10
1375.7592
 20
1090.8933
 40
81.008393999999996
 50
226.46691000000004
 51
242.05489
  0
ARC
  8
_0-0_LAYER001
  6
CONTINUOUS
 62
    4
 10
1429.2817
 20
1165.498
 40
154.70135999999999
 50
229.79871999999997
 51
237.31520999999998
  0
LINE
  8
_0-0_LAYER001
  6
CONTINUOUS
 62
    4
 10
1319.9628000000002
 20
1049.9931999999999
 11
1319.9628000000002
 21
1032.164
  0
ARC
  8
_0-0_LAYER001
  6
CONTINUOUS
 62
    4
 10
1323.9627999999998
 20
1049.9931999999999
 40
4
 50
90
 51
180
  0
LINE
  8
_0-0_LAYER001
  6
CONTINUOUS
 62
    4
 10
1325.4259
 20
1053.9931999999999
 11
1323.9627999999998
 21
1053.9931999999999
  0
LINE
  8
_0-0_LAYER001
  6
CONTINUOUS
 62
    4
 10
1329.4259
 20
1049.9931999999999
 11
1329.4259
 21
1047.3399999999999
  0
ARC
  8
_0-0_LAYER001
  6
CONTINUOUS
 62
    4
 10
1325.4259
 20
1049.9931999999999
 40
4
 50
0
 51
90
  0
LINE
  8
_0-0_LAYER001
  6
CONTINUOUS
 62
    4
 10
1334.9628000000002
 20
1049.3838000000001
 11
1334.9628000000002
 21
1046.5371
  0
LINE
  8
_0-0_LAYER001
  6
CONTINUOUS
 62
    4
 10
1338.9627999999998
 20
1053.3838000000001
 11
1354.2902999999999
 21
1053.3838000000001
  0
ARC
  8
_0-0_LAYER001
  6
CONTINUOUS
 62
    4
 10
1338.9627999999998
 20
1049.3838000000001
 40
4
 50
90
 51
180
  0
ARC
  8
_0-0_LAYER001
  6
CONTINUOUS
 62
    4
 10
1437.7955999999999
 20
1229.0714
 40
232.52318
 50
244.57801000000001
 51
295.00637
  0
ARC
  8
_0-0_LAYER001
  6
CONTINUOUS
 62
    4
 10
1578.4618
 20
1025.9985999999999
 40
40.248902000000001
 50
91.422393999999997
 51
185.22383000000002
  0
ARC
  8
_0-0_LAYER001
  6
CONTINUOUS
 62
    4
 10
1534.3966999999998
 20
1021.9698000000001
 40
4
 50
295.00637
 51
5.2238350000000304
  0
LINE
  8
_0-0_LAYER001
  6
CONTINUOUS
 62
    4
 10
1535.9483
 20
1017.8004000000001
 11
1532.0493999999999
 21
999.7681
  0
ARC
  8
_0-0_LAYER001
  6
CONTINUOUS
 62
    4
 10
1315.4380000000001
 20
1028.5791999999999
 40
69.214101999999997
 50
13.791351000000001
 51
163.33506000000003
  0
ARC
  8
_0-0_LAYER001
  6
CONTINUOUS
 62
    4
 10
1315.0428999999999
 20
1030.0626999999999
 40
50.327697999999998
 50
23.01118
 51
173.62688000000003
  0
ARC
  8
_0-0_LAYER001
  6
CONTINUOUS
 62
    4
 10
1176.9697000000001
 20
1229.0714
 40
212.52318
 50
244.57801000000001
 51
294.47764000000006
  0
ARC
  8
_0-0_LAYER001
  6
CONTINUOUS
 62
    4
 10
1176.9697000000001
 20
1229.0714
 40
214.52317999999997
 50
244.57801000000001
 51
294.78532999999999
  0
ARC
  8
_0-0_LAYER001
  6
CONTINUOUS
 62
    4
 10
1315.0428999999999
 20
1030.0626999999999
 40
48.327697999999998
 50
88.109851000000006
 51
174.95909000000003
  0
LINE
  8
_0-0_LAYER001
  6
CONTINUOUS
 62
    4
 10
1316.6369
 20
1078.3641
 11
1316.6369
 21
1066.2351000000001
  0
LINE
  8
_0-0_LAYER001
  6
CONTINUOUS
 62
    4
 10
1382.6566
 20
1045.079
 11
1361.3659000000002
 21
1049.7363
  0
LINE
  8
_0-0_LAYER001
  6
CONTINUOUS
 62
    4
 10
1144.6248000000001
 20
987.75669999999991
 11
1138.0579
 21
999.90560000000005
  0
LINE
  8
_0-0_LAYER001
  6
CONTINUOUS
 62
    4
 10
1156.751
 20
987.42740000000003
 11
1162.1811
 21
996.28719999999998
  0
ARC
  8
_0-0_LAYER001
  6
CONTINUOUS
 62
    4
 10
1150.7828
 20
991.08539999999994
 40
7
 50
208.39301
 51
328.49572999999998
  0
LINE
  8
_0-0_LAYER001
  6
CONTINUOUS
 62
    4
 10
1236.1415999999999
 20
991.49479999999994
 11
1242.0895
 21
1006.5395000000001
  0
ARC
  8
_0-0_LAYER001
  6
CONTINUOUS
 62
    4
 10
1229.6319000000001
 20
994.06850000000009
 40
7
 50
210.96375
 51
338.42869000000002
  0
LINE
  8
_0-0_LAYER001
  6
CONTINUOUS
 62
    4
 10
1263.7828
 20
998.43630000000007
 11
1256.865
 21
1010.1579999999999
  0
ARC
  8
_0-0_LAYER001
  6
CONTINUOUS
 62
    4
 10
1267.2275999999999
 20
1000.4693
 40
4
 50
210.54757000000001
 51
342.13990000000001
  0
ARC
  8
_0-0_LAYER001
  6
CONTINUOUS
 62
    4
 10
1176.9697000000001
 20
1229.0714
 40
194.52317999999997
 50
244.57801000000001
 51
291.77512000000002
  0
ARC
  8
_0-0_LAYER001
  6
CONTINUOUS
 62
    4
 10
1126.0259000000001
 20
1098.7985000000001
 40
73.645919000000006
 50
225.20483999999999
 51
236.85617999999999
  0
ARC
  8
_0-0_LAYER001
  6
CONTINUOUS
 62
    4
 10
1114.9332999999999
 20
1090.8933
 40
81.008393999999996
 50
226.46691000000004
 51
242.05489
  0
ARC
  8
_0-0_LAYER001
  6
CONTINUOUS
 62
    4
 10
1168.4558
 20
1165.498
 40
154.70135999999999
 50
229.79871999999997
 51
237.31520999999998
  0
LINE
  8
_0-0_LAYER001
  6
CONTINUOUS
 62
    4
 10
1059.1369
 20
1049.9931999999999
 11
1059.1369
 21
1032.164
  0
ARC
  8
_0-0_LAYER001
  6
CONTINUOUS
 62
    4
 10
1063.1369
 20
1049.9931999999999
 40
4
 50
90
 51
180
  0
LINE
  8
_0-0_LAYER001
  6
CONTINUOUS
 62
    4
 10
1064.5999999999999
 20
1053.9931999999999
 11
1063.1369
 21
1053.9931999999999
  0
LINE
  8
_0-0_LAYER001
  6
CONTINUOUS
 62
    4
 10
1068.5999999999999
 20
1049.9931999999999
 11
1068.5999999999999
 21
1047.3399999999999
  0
ARC
  8
_0-0_LAYER001
  6
CONTINUOUS
 62
    4
 10
1064.5999999999999
 20
1049.9931999999999
 40
4
 50
0
 51
90
  0
LINE
  8
_0-0_LAYER001
  6
CONTINUOUS
 62
    4
 10
1074.1369
 20
1049.3838000000001
 11
1074.1369
 21
1046.5371
  0
LINE
  8
_0-0_LAYER001
  6
CONTINUOUS
 62
    4
 10
1078.1369
 20
1053.3838000000001
 11
1093.4645
 21
1053.3838000000001
  0
ARC
  8
_0-0_LAYER001
  6
CONTINUOUS
 62
    4
 10
1078.1369
 20
1049.3838000000001
 40
4
 50
90
 51
180
  0
ARC
  8
_0-0_LAYER001
  6
CONTINUOUS
 62
    4
 10
1176.9697000000001
 20
1229.0714
 40
232.52318
 50
244.57801000000001
 51
295.00637
  0
ARC
  8
_0-0_LAYER001
  6
CONTINUOUS
 62
    4
 10
1317.636
 20
1025.9985999999999
 40
40.248902000000001
 50
91.422393999999997
 51
185.22383000000002
  0
ARC
  8
_0-0_LAYER001
  6
CONTINUOUS
 62
    4
 10
1273.5708999999999
 20
1021.9698000000001
 40
4
 50
295.00637
 51
5.2238350000000304
  0
LINE
  8
_0-0_LAYER001
  6
CONTINUOUS
 62
    4
 10
1275.1224
 20
1017.8004000000001
 11
1271.2235000000001
 21
999.7681
  0
ARC
  8
_0-0_LAYER001
  6
CONTINUOUS
 62
    4
 10
2218.2491
 20
1227.7379000000001
 40
212.52318
 50
244.57801000000001
 51
246.65016000000003
  0
ARC
  8
_0-0_LAYER001
  6
CONTINUOUS
 62
    4
 10
2218.2491
 20
1227.7379000000001
 40
214.52317999999997
 50
244.57801000000001
 51
246.88056
  0
ARC
  8
_0-0_LAYER001
  6
CONTINUOUS
 62
    4
 10
2167.3051999999998
 20
1097.4649999999999
 40
73.645919000000006
 50
225.20483999999999
 51
236.85617999999999
  0
ARC
  8
_0-0_LAYER001
  6
CONTINUOUS
 62
    4
 10
2156.2125999999998
 20
1089.5598
 40
81.008393999999996
 50
226.46691000000004
 51
242.05489
  0
ARC
  8
_0-0_LAYER001
  6
CONTINUOUS
 62
    4
 10
2209.7350999999999
 20
1164.1645000000001
 40
154.70135999999999
 50
229.79871999999997
 51
237.31520999999998
  0
LINE
  8
_0-0_LAYER001
  6
CONTINUOUS
 62
    4
 10
2100.4162000000001
 20
1048.6596999999999
 11
2100.4162000000001
 21
1030.8305
  0
ARC
  8
_0-0_LAYER001
  6
CONTINUOUS
 62
    4
 10
2104.4162000000001
 20
1048.6596999999999
 40
4
 50
90
 51
180
  0
LINE
  8
_0-0_LAYER001
  6
CONTINUOUS
 62
    4
 10
2105.8793000000001
 20
1052.6596999999999
 11
2104.4162000000001
 21
1052.6596999999999
  0
LINE
  8
_0-0_LAYER001
  6
CONTINUOUS
 62
    4
 10
2109.8793000000001
 20
1048.6596999999999
 11
2109.8793000000001
 21
1046.0065
  0
ARC
  8
_0-0_LAYER001
  6
CONTINUOUS
 62
    4
 10
2105.8793000000001
 20
1048.6596999999999
 40
4
 50
0
 51
90
  0
LINE
  8
_0-0_LAYER001
  6
CONTINUOUS
 62
    4
 10
2115.4162000000001
 20
1048.0503000000001
 11
2115.4162000000001
 21
1045.2036000000001
  0
LINE
  8
_0-0_LAYER001
  6
CONTINUOUS
 62
    4
 10
2119.4162000000001
 20
1052.0503000000001
 11
2134.0167999999999
 21
1052.0503000000001
  0
ARC
  8
_0-0_LAYER001
  6
CONTINUOUS
 62
    4
 10
2119.4162000000001
 20
1048.0503000000001
 40
4
 50
90
 51
180
  0
ARC
  8
_0-0_LAYER001
  6
CONTINUOUS
 62
    4
 10
2218.2491
 20
1227.7379000000001
 40
232.52318
 50
244.57801000000001
 51
248.76134000000002
  0
LINE
  8
_0-0_LAYER001
  6
CONTINUOUS
 62
    2
 10
1057.1407999999999
 20
995.40030000000002
 11
1057.7877000000001
 21
995.40030000000002
  0
LINE
  8
_0-0_LAYER001
  6
CONTINUOUS
 62
    2
 10
1317.1407999999999
 20
995.40030000000002
 11
1317.7877000000001
 21
995.40030000000002
  0
LINE
  8
_0-0_LAYER001
  6
CONTINUOUS
 62
    2
 10
1577.1406999999999
 20
995.40030000000002
 11
1577.7876999999999
 21
995.40030000000002
  0
LINE
  8
_0-0_LAYER001
  6
CONTINUOUS
 62
    2
 10
1837.1406999999999
 20
995.40030000000002
 11
1837.7876999999999
 21
995.40030000000002
  0
LINE
  8
_0-0_LAYER001
  6
CONTINUOUS
 62
    2
 10
2097.1406999999999
 20
995.40030000000002
 11
2097.7876999999999
 21
995.40030000000002
  0
LINE
  8
_0-0_LAYER001
  6
CONTINUOUS
 62
    2
 10
1155.8648000000001
 20
1072.0897
 11
1149.9833000000001
 21
1078.2164
  0
LINE
  8
_0-0_LAYER001
  6
CONTINUOUS
 62
    2
 10
1151.1617000000001
 20
1096.4604999999999
 11
1155.8648000000001
 21
1072.0897
  0
LINE
  8
_0-0_LAYER001
  6
CONTINUOUS
 62
    2
 10
1139.402
 20
1081.2719
 11
1050.7692999999999
 21
1096.9003
  0
LINE
  8
_0-0_LAYER001
  6
CONTINUOUS
 62
    2
 10
1142.0066999999999
 20
1096.0440000000001
 11
1053.374
 21
1111.6723999999999
  0
LINE
  8
_0-0_LAYER001
  6
CONTINUOUS
 62
    2
 10
1142.0066999999999
 20
1096.0440000000001
 11
1139.402
 21
1081.2719
  0
LINE
  8
_0-0_LAYER001
  6
CONTINUOUS
 62
    2
 10
1053.374
 20
1111.6723999999999
 11
1050.7692999999999
 21
1096.9003
  0
LINE
  8
_0-0_LAYER001
  6
CONTINUOUS
 62
    2
 10
1050.7692999999999
 20
1096.9003
 11
1142.0066999999999
 21
1096.0440000000001
  0
LINE
  8
_0-0_LAYER001
  6
DASHED1
 62
    2
 10
1002.7692999999999
 20
1076.9003
 11
1007.7693999999999
 21
1079.9002
  0
LINE
  8
_0-0_LAYER001
  6
DASHED1
 62
    2
 10
1007.7693999999999
 20
1073.9003
 11
1002.7692999999999
 21
1076.9003
  0
LINE
  8
_0-0_LAYER001
  6
CONTINUOUS
 62
    2
 10
1074.7693999999999
 20
1073.9003
 11
1074.7693999999999
 21
1079.9002
  0
LINE
  8
_0-0_LAYER001
  6
CONTINUOUS
 62
    2
 10
1080.7692999999999
 20
1070.9002
 11
1080.7692999999999
 21
1082.9003
  0
LINE
  8
_0-0_LAYER001
  6
CONTINUOUS
 62
    2
 10
1071.8824
 20
1073.9003
 11
1068.4193
 21
1079.9002
  0
LINE
  8
_0-0_LAYER001
  6
CONTINUOUS
 62
    2
 10
1080.7692999999999
 20
1070.9002
 11
1074.7693999999999
 21
1073.9003
  0
LINE
  8
_0-0_LAYER001
  6
CONTINUOUS
 62
    2
 10
1074.7693999999999
 20
1079.9002
 11
1080.7692999999999
 21
1082.9003
  0
LINE
  8
_0-0_LAYER001
  6
DASHED1
 62
    2
 10
1007.7693999999999
 20
1079.9002
 11
1050.7692999999999
 21
1079.9002
  0
LINE
  8
_0-0_LAYER001
  6
DASHED1
 62
    2
 10
1007.7693999999999
 20
1073.9003
 11
1050.7692999999999
 21
1073.9003
  0
LINE
  8
_0-0_LAYER001
  6
CONTINUOUS
 62
    2
 10
1050.7692999999999
 20
1072.6503
 11
1050.7692999999999
 21
1081.1503
  0
LINE
  8
_0-0_LAYER001
  6
CONTINUOUS
 62
    2
 10
1080.7692999999999
 20
1056.9003
 11
1050.7692999999999
 21
1056.9003
  0
LINE
  8
_0-0_LAYER001
  6
CONTINUOUS
 62
    2
 10
1050.7692999999999
 20
1079.9002
 11
1074.7693999999999
 21
1079.9002
  0
LINE
  8
_0-0_LAYER001
  6
CONTINUOUS
 62
    2
 10
1050.7692999999999
 20
1073.9003
 11
1074.7693999999999
 21
1073.9003
  0
LINE
  8
_0-0_LAYER001
  6
CONTINUOUS
 62
    2
 10
1066.1593
 20
1073.9003
 11
1062.6962000000001
 21
1079.9002
  0
LINE
  8
_0-0_LAYER001
  6
CONTINUOUS
 62
    2
 10
1060.4360999999999
 20
1073.9003
 11
1056.9730999999999
 21
1079.9002
  0
LINE
  8
_0-0_LAYER001
  6
CONTINUOUS
 62
    2
 10
1054.713
 20
1073.9003
 11
1051.2499
 21
1079.9002
  0
LINE
  8
_0-0_LAYER001
  6
CONTINUOUS
 62
    2
 10
1080.7692999999999
 20
1056.9003
 11
1080.7692999999999
 21
1091.6104
  0
LINE
  8
_0-0_LAYER001
  6
CONTINUOUS
 62
    2
 10
1050.7692999999999
 20
1056.9003
 11
1077.2654
 21
1092.2283
  0
LINE
  8
_0-0_LAYER001
  6
CONTINUOUS
 62
    2
 10
1071.5912000000001
 20
1108.4602
 11
1062.8217999999999
 21
1110.0065
  0
LINE
  8
_0-0_LAYER001
  6
CONTINUOUS
 62
    2
 10
1064.0654999999999
 20
1080.7482
 11
1060.6238000000001
 21
1072.5092999999999
  0
LINE
  8
_0-0_LAYER001
  6
CONTINUOUS
 62
    2
 10
1065.1052999999999
 20
1107.9838999999999
 11
1060.4154000000001
 21
1081.3920000000001
  0
LINE
  8
_0-0_LAYER001
  6
CONTINUOUS
 62
    2
 10
1060.6238000000001
 20
1072.5092999999999
 11
1060.4154000000001
 21
1081.3920000000001
  0
LINE
  8
_0-0_LAYER001
  6
CONTINUOUS
 62
    2
 10
1068.7552000000001
 20
1107.3416
 11
1071.5912000000001
 21
1108.4602
  0
LINE
  8
_0-0_LAYER001
  6
CONTINUOUS
 62
    2
 10
1065.1052999999999
 20
1107.9838999999999
 11
1062.8217999999999
 21
1110.0065
  0
LINE
  8
_0-0_LAYER001
  6
CONTINUOUS
 62
    2
 10
1068.7552000000001
 20
1107.3416
 11
1064.0654999999999
 21
1080.7482
  0
LINE
  8
_0-0_LAYER001
  6
CONTINUOUS
 62
    2
 10
864.77359999999999
 20
1113.6333999999999
 11
892.27359999999999
 21
1113.6333999999999
  0
CIRCLE
  8
_0-0_LAYER001
  6
CONTINUOUS
 62
    2
 10
867.27359999999999
 20
1113.6333999999999
 40
1.6999999999999997
  0
LINE
  8
_0-0_LAYER001
  6
CONTINUOUS
 62
    2
 10
867.27359999999999
 20
1113.6333999999999
 11
867.27359999999999
 21
1198.4802999999999
  0
CIRCLE
  8
_0-0_LAYER001
  6
CONTINUOUS
 62
    2
 10
867.27359999999999
 20
1198.4802999999999
 40
1.6999999999999997
  0
LINE
  8
_0-0_LAYER001
  6
CONTINUOUS
 62
    2
 10
864.77359999999999
 20
1198.4802999999999
 11
892.27359999999999
 21
1198.4802999999999
  0
LINE
  8
_0-0_LAYER001
  6
CONTINUOUS
 62
    1
 10
1043.6485
 20
1212.6261
 11
1041.1087
 21
1212.6261
  0
LINE
  8
_0-0_LAYER001
  6
CONTINUOUS
 62
    1
 10
1041.1087
 20
1212.6261
 11
1041.1087
 21
1198.8791000000001
  0
LINE
  8
_0-0_LAYER001
  6
CONTINUOUS
 62
    1
 10
1041.1087
 20
1198.8791000000001
 11
1043.6485
 21
1198.8791000000001
  0
LINE
  8
_0-0_LAYER001
  6
CONTINUOUS
 62
    1
 10
1043.6485
 20
1198.8791000000001
 11
1043.6485
 21
1212.6261
  0
LINE
  8
_0-0_LAYER001
  6
CONTINUOUS
 62
    1
 10
1043.6485
 20
1212.6261
 11
1041.1087
 21
1198.8791000000001
  0
LINE
  8
_0-0_LAYER001
  6
CONTINUOUS
 62
    1
 10
1050.7195999999999
 20
1198.4839999999999
 11
1050.7692999999999
 21
1198.5337
  0
LINE
  8
_0-0_LAYER001
  6
CONTINUOUS
 62
    1
 10
1047.1840999999999
 20
1198.4839999999999
 11
1049.3135
 21
1200.6134
  0
LINE
  8
_0-0_LAYER001
  6
CONTINUOUS
 62
    1
 10
1043.6485
 20
1198.4839999999999
 11
1048.8139000000001
 21
1203.6494
  0
LINE
  8
_0-0_LAYER001
  6
CONTINUOUS
 62
    1
 10
1043.6485
 20
1202.0195000000001
 11
1048.9446
 21
1207.3155999999999
  0
LINE
  8
_0-0_LAYER001
  6
CONTINUOUS
 62
    1
 10
1043.6485
 20
1205.5550000000001
 11
1050.5517
 21
1212.4582
  0
LINE
  8
_0-0_LAYER001
  6
CONTINUOUS
 62
    1
 10
1043.6485
 20
1209.0906
 11
1047.4383
 21
1212.8803
  0
LINE
  8
_0-0_LAYER001
  6
CONTINUOUS
 62
    1
 10
1043.6485
 20
1212.6261
 11
1043.9028000000001
 21
1212.8803
  0
LINE
  8
_0-0_LAYER001
  6
CONTINUOUS
 62
    2
 10
1054.1148000000001
 20
1208.9866999999999
 11
1048.8115
 21
1203.6833999999999
  0
LINE
  8
_0-0_LAYER001
  6
CONTINUOUS
 62
    2
 10
1048.8115
 20
1203.6833999999999
 11
1050.7526
 21
1210.9277999999999
  0
LINE
  8
_0-0_LAYER001
  6
CONTINUOUS
 62
    2
 10
1048.8115
 20
1203.6833999999999
 11
1095.069
 21
1283.8038000000001
  0
LINE
  8
_0-0_LAYER001
  6
CONTINUOUS
 62
    2
 10
1095.069
 20
1283.8038000000001
 11
1176.069
 21
1283.8038000000001
  0
LINE
  8
_0-0_LAYER001
  6
CONTINUOUS
 62
    2
 10
1023.7683999999999
 20
1275.1383000000001
 11
1018.4650999999999
 21
1269.835
  0
LINE
  8
_0-0_LAYER001
  6
CONTINUOUS
 62
    2
 10
1018.4650999999999
 20
1269.835
 11
1020.4061999999999
 21
1277.0794000000001
  0
LINE
  8
_0-0_LAYER001
  6
CONTINUOUS
 62
    2
 10
1018.4650999999999
 20
1269.835
 11
1102.7014999999999
 21
1415.7366999999999
  0
LINE
  8
_0-0_LAYER001
  6
CONTINUOUS
 62
    2
 10
1102.7014999999999
 20
1415.7366999999999
 11
1332.4091000000001
 21
1415.7366999999999
  0
LINE
  8
_0-0_LAYER001
  6
CONTINUOUS
 62
    2
 10
866.22800000000007
 20
976.90030000000002
 11
893.72800000000007
 21
976.90030000000002
  0
CIRCLE
  8
_0-0_LAYER001
  6
CONTINUOUS
 62
    2
 10
868.72800000000007
 20
976.90030000000002
 40
1.6999999999999997
  0
LINE
  8
_0-0_LAYER001
  6
CONTINUOUS
 62
    2
 10
868.72800000000007
 20
976.90030000000002
 11
868.72800000000007
 21
1051.9003
  0
CIRCLE
  8
_0-0_LAYER001
  6
CONTINUOUS
 62
    2
 10
868.72800000000007
 20
1051.9003
 40
1.6999999999999997
  0
LINE
  8
_0-0_LAYER001
  6
CONTINUOUS
 62
    2
 10
866.22800000000007
 20
1051.9003
 11
893.72800000000007
 21
1051.9003
  0
LINE
  8
_0-0_LAYER001
  6
CONTINUOUS
 62
    2
 10
1103.8843999999999
 20
1110.5690999999999
 11
1098.5811000000001
 21
1105.2657999999999
  0
LINE
  8
_0-0_LAYER001
  6
CONTINUOUS
 62
    2
 10
1098.5811000000001
 20
1105.2657999999999
 11
1100.5222000000001
 21
1112.5102999999999
  0
LINE
  8
_0-0_LAYER001
  6
CONTINUOUS
 62
    2
 10
1098.5811000000001
 20
1105.2657999999999
 11
1179.0947000000001
 21
1244.7195999999999
  0
LINE
  8
_0-0_LAYER001
  6
CONTINUOUS
 62
    2
 10
1317.1407999999999
 20
1330.2289000000001
 11
1317.1407999999999
 21
1277.7289000000001
  0
CIRCLE
  8
_0-0_LAYER001
  6
CONTINUOUS
 62
    2
 10
1317.1407999999999
 20
1327.7289000000001
 40
1.6999999999999997
  0
LINE
  8
_0-0_LAYER001
  6
CONTINUOUS
 62
    2
 10
1317.1407999999999
 20
1327.7289000000001
 11
1577.1406999999999
 21
1327.7289000000001
  0
CIRCLE
  8
_0-0_LAYER001
  6
CONTINUOUS
 62
    2
 10
1577.1406999999999
 20
1327.7289000000001
 40
1.6999999999999997
  0
LINE
  8
_0-0_LAYER001
  6
CONTINUOUS
 62
    2
 10
1577.1406999999999
 20
1330.2289000000001
 11
1577.1406999999999
 21
1277.7289000000001
  0
CIRCLE
  8
_0-0_LAYER001
  6
CONTINUOUS
 62
    2
 10
1577.1406999999999
 20
1327.7289000000001
 40
1.6999999999999997
  0
LINE
  8
_0-0_LAYER001
  6
CONTINUOUS
 62
    2
 10
1577.1406999999999
 20
1327.7289000000001
 11
1837.1406999999999
 21
1327.7289000000001
  0
CIRCLE
  8
_0-0_LAYER001
  6
CONTINUOUS
 62
    2
 10
1837.1406999999999
 20
1327.7289000000001
 40
1.6999999999999997
  0
LINE
  8
_0-0_LAYER001
  6
CONTINUOUS
 62
    2
 10
1837.1406999999999
 20
1330.2289000000001
 11
1837.1406999999999
 21
1277.7289000000001
  0
CIRCLE
  8
_0-0_LAYER001
  6
CONTINUOUS
 62
    2
 10
1837.1406999999999
 20
1327.7289000000001
 40
1.6999999999999997
  0
LINE
  8
_0-0_LAYER001
  6
CONTINUOUS
 62
    2
 10
1837.1406999999999
 20
1327.7289000000001
 11
2097.1406999999999
 21
1327.7289000000001
  0
CIRCLE
  8
_0-0_LAYER001
  6
CONTINUOUS
 62
    2
 10
2097.1406999999999
 20
1327.7289000000001
 40
1.6999999999999997
  0
LINE
  8
_0-0_LAYER001
  6
CONTINUOUS
 62
    2
 10
2097.1406999999999
 20
1330.2289000000001
 11
2097.1406999999999
 21
1277.7289000000001
  0
LINE
  8
_0-0_LAYER001
  6
CONTINUOUS
 62
    2
 10
1135.7692999999999
 20
992.09690000000001
 11
1127.5545
 21
992.09690000000001
  0
LINE
  8
_0-0_LAYER001
  6
CONTINUOUS
 62
    2
 10
1135.7692999999999
 20
992.09690000000001
 11
1135.7692999999999
 21
980.90030000000002
  0
LINE
  8
_0-4_LAYER009
  6
CONTINUOUS
 62
    2
 10
1426.8380999999999
 20
926.90030000000002
 11
1476.8379
 21
976.90030000000002
  0
LINE
  8
_0-4_LAYER009
  6
CONTINUOUS
 62
    2
 10
1422.5954999999999
 20
926.90030000000002
 11
1472.5953
 21
976.90030000000002
  0
LINE
  8
_0-4_LAYER009
  6
CONTINUOUS
 62
    2
 10
1214.7059999999999
 20
926.90030000000002
 11
1264.7059999999999
 21
976.90030000000002
  0
LINE
  8
_0-4_LAYER009
  6
CONTINUOUS
 62
    2
 10
1210.4632999999999
 20
926.90030000000002
 11
1260.4634000000001
 21
976.90030000000002
  0
LINE
  8
_0-3_LAYER007
  6
CONTINUOUS
 62
    2
 10
1135.7692999999999
 20
980.90030000000002
 11
1054.7692999999999
 21
980.90030000000002
  0
LINE
  8
_0-4_LAYER009
  6
CONTINUOUS
 62
    2
 10
1050.7692999999999
 20
976.90030000000002
 11
1050.7692999999999
 21
926.90030000000002
  0
LINE
  8
_0-4_LAYER009
  6
CONTINUOUS
 62
    2
 10
1050.7692999999999
 20
926.90030000000002
 11
950.76929999999993
 21
926.90030000000002
  0
LINE
  8
_0-0_LAYER001
  6
CONTINUOUS
 62
    2
 10
1060.7692999999999
 20
926.90030000000002
 11
1060.7692999999999
 21
826.90030000000002
  0
LINE
  8
_0-4_LAYER009
  6
CONTINUOUS
 62
    2
 10
950.76929999999993
 20
981.26369999999997
 11
1050.7692999999999
 21
1081.2636
  0
LINE
  8
_0-4_LAYER009
  6
CONTINUOUS
 62
    2
 10
950.76929999999993
 20
977.02099999999996
 11
1050.7692999999999
 21
1077.0210999999999
  0
LINE
  8
_0-4_LAYER009
  6
CONTINUOUS
 62
    2
 10
950.76929999999993
 20
1260.5464999999999
 11
1050.7692999999999
 21
1360.5463
  0
LINE
  8
_0-4_LAYER009
  6
CONTINUOUS
 62
    2
 10
950.76929999999993
 20
1256.3037999999999
 11
1050.7692999999999
 21
1356.3038000000001
  0
LINE
  8
_0-4_LAYER009
  6
CONTINUOUS
 62
    2
 10
950.76929999999993
 20
1048.0556999999999
 11
950.76929999999993
 21
926.90030000000002
  0
LINE
  8
_0-4_LAYER009
  6
CONTINUOUS
 62
    2
 10
950.76929999999993
 20
1406.3734999999999
 11
950.76929999999993
 21
1039.2858000000001
  0
LINE
  8
_0-0_LAYER001
  6
CONTINUOUS
 62
    2
 10
1060.7692999999999
 20
826.90030000000002
 11
2223.0147000000002
 21
826.90030000000002
  0
LINE
  8
_0-0_LAYER001
  6
CONTINUOUS
 62
    2
 10
1060.7692999999999
 20
830.10030000000006
 11
2223.0147000000002
 21
830.10030000000006
  0
LINE
  8
_0-0_LAYER001
  6
DASHED1
 62
    2
 10
1060.7692999999999
 20
846.90030000000002
 11
2223.0147000000002
 21
846.90030000000002
  0
LINE
  8
_0-0_LAYER001
  6
DASHED1
 62
    2
 10
1060.7692999999999
 20
906.90030000000002
 11
2223.0147000000002
 21
906.90030000000002
  0
LINE
  8
_0-0_LAYER001
  6
CONTINUOUS
 62
    2
 10
1060.7692999999999
 20
923.70029999999997
 11
2223.0147000000002
 21
923.70029999999997
  0
LINE
  8
_0-4_LAYER009
  6
CONTINUOUS
 62
    2
 10
1050.7692999999999
 20
926.90030000000002
 11
2223.0147000000002
 21
926.90030000000002
  0
LINE
  8
_0-4_LAYER009
  6
CONTINUOUS
 62
    2
 10
1050.7692999999999
 20
976.90030000000002
 11
2223.0147000000002
 21
976.90030000000002
  0
LINE
  8
_0-1_LAYER003
  6
DASHED3
 62
    2
 10
2223.0147000000002
 20
978.90030000000002
 11
1052.7692999999999
 21
978.90030000000002
  0
LINE
  8
_0-3_LAYER007
  6
CONTINUOUS
 62
    2
 10
1054.7692999999999
 20
1051.8631
 11
1054.7692999999999
 21
980.90030000000002
  0
LINE
  8
_0-3_LAYER007
  6
CONTINUOUS
 62
    2
 10
1054.7692999999999
 20
1051.8631
 11
1056.8824
 21
1046.2474999999999
  0
LINE
  8
_0-0_LAYER001
  6
DASHED1
 62
    2
 10
1000.3694
 20
1204.8803
 11
1004.3694
 21
1207.2802999999999
  0
LINE
  8
_0-0_LAYER001
  6
DASHED1
 62
    2
 10
1004.3694
 20
1202.4803999999999
 11
1000.3694
 21
1204.8803
  0
LINE
  8
_0-0_LAYER001
  6
DASHED1
 62
    2
 10
1004.3694
 20
1207.2802999999999
 11
1012.3814
 21
1207.2802999999999
  0
LINE
  8
_0-0_LAYER001
  6
DASHED1
 62
    2
 10
1004.3694
 20
1202.4803999999999
 11
1012.3749
 21
1202.4803999999999
  0
LINE
  8
_0-0_LAYER001
  6
DASHED1
 62
    2
 10
1006.0902000000001
 20
1210.2588000000001
 11
1005.7701999999999
 21
1208.4458999999999
  0
LINE
  8
_0-0_LAYER001
  6
DASHED1
 62
    2
 10
1006.2284999999999
 20
1199.5283999999999
 11
1005.9102
 21
1201.3404
  0
LINE
  8
_0-0_LAYER001
  6
DASHED1
 62
    2
 10
1008.8286000000001
 20
1210.9924000000001
 11
1024.2094
 21
1208.2813000000001
  0
LINE
  8
_0-0_LAYER001
  6
DASHED1
 62
    2
 10
1007.4798000000001
 20
1211.2307000000001
 11
1008.6621
 21
1211.0219
  0
LINE
  8
_0-0_LAYER001
  6
DASHED1
 62
    2
 10
1007.6242999999999
 20
1198.5574999999999
 11
1024.2094
 21
1201.4802999999999
  0
LINE
  8
_0-0_LAYER001
  6
DASHED1
 62
    2
 10
1025.9884999999999
 20
1204.8812
 11
1005.7701999999999
 21
1208.4458999999999
  0
LINE
  8
_0-0_LAYER001
  6
DASHED1
 62
    2
 10
1025.9884999999999
 20
1204.8812
 11
1005.9102
 21
1201.3404
  0
LINE
  8
_0-0_LAYER001
  6
DASHED1
 62
    2
 10
1038.7692999999999
 20
1201.4802999999999
 11
1024.2094
 21
1201.4802999999999
  0
LINE
  8
_0-0_LAYER001
  6
CONTINUOUS
 62
    2
 10
1038.7692999999999
 20
1201.4802999999999
 11
1038.7692999999999
 21
1208.2802999999999
  0
LINE
  8
_0-0_LAYER001
  6
DASHED1
 62
    2
 10
1024.2094
 20
1208.2813000000001
 11
1038.7692999999999
 21
1208.2813000000001
  0
LINE
  8
_0-0_LAYER001
  6
CONTINUOUS
 62
    2
 10
1040.3693000000001
 20
1207.2802999999999
 11
1038.7692999999999
 21
1207.2802999999999
  0
LINE
  8
_0-0_LAYER001
  6
CONTINUOUS
 62
    2
 10
1040.3693000000001
 20
1202.4802999999999
 11
1038.7692999999999
 21
1202.4802999999999
  0
LINE
  8
_0-3_LAYER007
  6
CONTINUOUS
 62
    2
 10
1054.7692999999999
 20
1113.6333999999999
 11
1054.7692999999999
 21
1196.8803
  0
LINE
  8
_0-3_LAYER007
  6
CONTINUOUS
 62
    2
 10
1054.7692999999999
 20
1196.8803
 11
1056.9074000000001
 21
1185.0724
  0
LINE
  8
_0-1_LAYER003
  6
CONTINUOUS
 62
    2
 10
1057.1693
 20
1166.4803999999999
 11
1057.1693
 21
1198.4802999999999
  0
LINE
  8
_0-4_LAYER009
  6
CONTINUOUS
 62
    2
 10
1038.7692999999999
 20
1196.8803
 11
1038.7692999999999
 21
1212.8803
  0
LINE
  8
_0-1_LAYER003
  6
CONTINUOUS
 62
    2
 10
1040.3693000000001
 20
1198.4802999999999
 11
1040.3693000000001
 21
1210.4803999999999
  0
LINE
  8
_0-1_LAYER003
  6
CONTINUOUS
 62
    2
 10
1040.3693000000001
 20
1198.4802999999999
 11
1057.1693
 21
1198.4802999999999
  0
LINE
  8
_0-2_LAYER006
  6
CONTINUOUS
 62
    2
 10
1040.3693000000001
 20
1210.4802999999999
 11
1040.3693000000001
 21
1212.8803
  0
LINE
  8
_0-4_LAYER009
  6
CONTINUOUS
 62
    2
 10
1038.7692999999999
 20
1196.8803
 11
1050.7692999999999
 21
1196.8803
  0
LINE
  8
_0-4_LAYER009
  6
CONTINUOUS
 62
    2
 10
1050.7692999999999
 20
1196.8803
 11
1050.7692999999999
 21
976.90030000000002
  0
LINE
  8
_0-4_LAYER009
  6
CONTINUOUS
 62
    2
 10
1038.7692999999999
 20
1212.8803
 11
1050.7692999999999
 21
1212.8803
  0
LINE
  8
_0-4_LAYER009
  6
CONTINUOUS
 62
    2
 10
1050.7692999999999
 20
1212.8803
 11
1050.7692999999999
 21
1406.3734999999999
  0
LINE
  8
_0-1_LAYER003
  6
DASHED3
 62
    2
 10
1052.7692999999999
 20
1129.5975000000001
 11
1052.7692999999999
 21
978.90030000000002
  0
ARC
  8
_0-1_LAYER003
  6
CONTINUOUS
 62
    2
 10
1032.7194
 20
1204.8803
 40
9.2499219999999998
 50
325.79423000000003
 51
34.205763999999988
  0
ARC
  8
_0-0_LAYER001
  6
DASHED1
 62
    2
 10
1007.2782
 20
1210.0452
 40
1.204
 50
80.362472000000011
 51
169.54873000000001
  0
ARC
  8
_0-0_LAYER001
  6
DASHED1
 62
    2
 10
1007.4124999999999
 20
1199.7388000000001
 40
1.1976
 50
189.85266999999999
 51
280.16100999999998
  0
ARC
  8
_0-1_LAYER003
  6
CONTINUOUS
 62
    2
 10
1065.7692
 20
1204.8803
 40
16.999911999999998
 50
151.92736000000002
 51
202.11535000000003
  0
LINE
  8
_0-0_LAYER001
  6
CONTINUOUS
 62
    2
 10
2223.0147000000002
 20
995.40030000000002
 11
1139.1223
 21
995.40030000000002
  0
LINE
  8
_0-0_LAYER001
  6
CONTINUOUS
 62
    2
 10
2223.0147000000002
 20
980.40030000000002
 11
1139.1223
 21
980.40030000000002
  0
LINE
  8
_0-0_LAYER001
  6
CONTINUOUS
 62
    2
 10
1139.1223
 20
995.40030000000002
 11
1139.1223
 21
980.40030000000002
  0
LINE
  8
_0-0_LAYER001
  6
CONTINUOUS
 62
    2
 10
1050.7692999999999
 20
857.96090000000004
 11
1050.7692999999999
 21
885.46090000000004
  0
CIRCLE
  8
_0-0_LAYER001
  6
CONTINUOUS
 62
    2
 10
1050.7692999999999
 20
860.46090000000004
 40
1.6999999999999997
  0
LINE
  8
_0-0_LAYER001
  6
CONTINUOUS
 62
    2
 10
1050.7692999999999
 20
860.46090000000004
 11
1135.7692999999999
 21
860.46090000000004
  0
CIRCLE
  8
_0-0_LAYER001
  6
CONTINUOUS
 62
    2
 10
1135.7692999999999
 20
860.46090000000004
 40
1.6999999999999997
  0
LINE
  8
_0-0_LAYER001
  6
CONTINUOUS
 62
    2
 10
1135.7692999999999
 20
857.96090000000004
 11
1135.7692999999999
 21
885.46090000000004
  0
LINE
  8
_0-0_LAYER001
  6
CONTINUOUS
 62
    2
 10
1058.2161000000001
 20
1068.597
 11
1063.5193999999999
 21
1073.9003
  0
LINE
  8
_0-0_LAYER001
  6
CONTINUOUS
 62
    2
 10
1063.5193999999999
 20
1073.9003
 11
1061.5781999999999
 21
1066.6559
  0
LINE
  8
_0-0_LAYER001
  6
CONTINUOUS
 62
    2
 10
1063.5193999999999
 20
1073.9003
 11
950.85770000000002
 21
878.76459999999997
  0
LINE
  8
_0-0_LAYER001
  6
CONTINUOUS
 62
    2
 10
950.85770000000002
 20
878.76459999999997
 11
820.35770000000002
 21
878.76459999999997
  0
LINE
  8
_0-0_LAYER001
  6
CONTINUOUS
 62
    2
 10
1710.0164
 20
695.82940000000008
 11
1977.3254999999999
 21
695.82940000000008
  0
LINE
  8
_0-0_LAYER001
  6
CONTINUOUS
 62
    2
 10
1543.8009000000002
 20
979.84079999999994
 11
1541.8598000000002
 21
987.08519999999999
  0
LINE
  8
_0-0_LAYER001
  6
CONTINUOUS
 62
    2
 10
1541.8598000000002
 20
987.08519999999999
 11
1547.1631000000002
 21
981.78189999999995
  0
LINE
  8
_0-0_LAYER001
  6
CONTINUOUS
 62
    2
 10
1541.8598000000002
 20
987.08519999999999
 11
1726.7977999999998
 21
666.7632000000001
  0
LINE
  8
_0-0_LAYER001
  6
CONTINUOUS
 62
    2
 10
1692.3647999999998
 20
726.72510000000011
 11
1928.4899
 21
726.72510000000011
  0
LINE
  8
_0-0_LAYER001
  6
CONTINUOUS
 62
    2
 10
1674.6880999999998
 20
756.70610000000011
 11
1867.0808000000002
 21
756.70610000000011
  0
LINE
  8
_0-1_LAYER003
  6
CONTINUOUS
 62
    7
 10
950.76929999999993
 20
1406.3734999999999
 11
950.76929999999993
 21
926.90030000000002
  0
LINE
  8
_0-1_LAYER003
  6
CONTINUOUS
 62
    7
 10
950.76929999999993
 20
926.90030000000002
 11
2223.0147000000002
 21
926.90030000000002
  0
LINE
  8
_0-1_LAYER003
  6
CONTINUOUS
 62
    7
 10
2223.0147000000002
 20
923.70029999999997
 11
1050.7692999999999
 21
923.70029999999997
  0
LINE
  8
_0-1_LAYER003
  6
CONTINUOUS
 62
    7
 10
1050.7692999999999
 20
926.90030000000002
 11
1050.7692999999999
 21
1196.8803
  0
LINE
  8
_0-1_LAYER003
  6
CONTINUOUS
 62
    7
 10
1050.7692999999999
 20
1196.8803
 11
1038.7692999999999
 21
1196.8803
  0
LINE
  8
_0-1_LAYER003
  6
CONTINUOUS
 62
    7
 10
1038.7692999999999
 20
1196.8803
 11
1038.7692999999999
 21
1212.8803
  0
LINE
  8
_0-1_LAYER003
  6
CONTINUOUS
 62
    7
 10
1038.7692999999999
 20
1212.8803
 11
1050.7692999999999
 21
1212.8803
  0
LINE
  8
_0-1_LAYER003
  6
CONTINUOUS
 62
    7
 10
1050.7692999999999
 20
1212.8803
 11
1050.7692999999999
 21
1406.3734999999999
  0
LINE
  8
_0-1_LAYER003
  6
CONTINUOUS
 62
    7
 10
1102.7014999999999
 20
1415.7366999999999
 11
1332.4091000000001
 21
1415.7366999999999
  0
LINE
  8
_0-1_LAYER003
  6
CONTINUOUS
 62
    7
 10
1176.069
 20
1283.8038000000001
 11
1095.069
 21
1283.8038000000001
  0
LINE
  8
_0-1_LAYER003
  6
CONTINUOUS
 62
    7
 10
1317.1407999999999
 20
1329.4289000000001
 11
1317.1407999999999
 21
1277.7289000000001
  0
LINE
  8
_0-1_LAYER003
  6
CONTINUOUS
 62
    7
 10
1317.1407999999999
 20
1327.7289000000001
 11
2095.4406999999997
 21
1327.7289000000001
  0
LINE
  8
_0-1_LAYER003
  6
CONTINUOUS
 62
    7
 10
2097.1406999999999
 20
1277.7289000000001
 11
2097.1406999999999
 21
1330.2289000000001
  0
LINE
  8
_0-1_LAYER003
  6
CONTINUOUS
 62
    7
 10
1837.1406999999999
 20
1277.7289000000001
 11
1837.1406999999999
 21
1330.2289000000001
  0
LINE
  8
_0-1_LAYER003
  6
CONTINUOUS
 62
    7
 10
2095.4406999999997
 20
1327.7289000000001
 11
2097.1406999999999
 21
1327.7289000000001
  0
LINE
  8
_0-1_LAYER003
  6
CONTINUOUS
 62
    7
 10
1577.1406999999999
 20
1277.7289000000001
 11
1577.1406999999999
 21
1329.4289000000001
  0
LINE
  8
_0-1_LAYER003
  6
CONTINUOUS
 62
    7
 10
830.22420000000011
 20
1126.9003
 11
777.72420000000011
 21
1126.9003
  0
LINE
  8
_0-1_LAYER003
  6
CONTINUOUS
 62
    7
 10
780.22420000000011
 20
1126.9003
 11
780.22420000000011
 21
976.90030000000002
  0
LINE
  8
_0-1_LAYER003
  6
CONTINUOUS
 62
    7
 10
778.52420000000006
 20
976.90030000000002
 11
830.22420000000011
 21
976.90030000000002
  0
LINE
  8
_0-1_LAYER003
  6
CONTINUOUS
 62
    7
 10
866.22800000000007
 20
1051.9003
 11
893.72800000000007
 21
1051.9003
  0
LINE
  8
_0-1_LAYER003
  6
CONTINUOUS
 62
    7
 10
868.72800000000007
 20
1051.9003
 11
868.72800000000007
 21
976.90030000000002
  0
LINE
  8
_0-1_LAYER003
  6
CONTINUOUS
 62
    7
 10
866.22800000000007
 20
976.90030000000002
 11
893.72800000000007
 21
976.90030000000002
  0
LINE
  8
_0-1_LAYER003
  6
CONTINUOUS
 62
    7
 10
864.77359999999999
 20
1113.6333999999999
 11
892.27359999999999
 21
1113.6333999999999
  0
LINE
  8
_0-1_LAYER003
  6
CONTINUOUS
 62
    7
 10
867.27359999999999
 20
1115.3334
 11
867.27359999999999
 21
1198.4802999999999
  0
LINE
  8
_0-1_LAYER003
  6
CONTINUOUS
 62
    7
 10
865.57359999999994
 20
1198.4802999999999
 11
892.27359999999999
 21
1198.4802999999999
  0
LINE
  8
_0-1_LAYER003
  6
CONTINUOUS
 62
    7
 10
1060.7692999999999
 20
926.90030000000002
 11
1060.7692999999999
 21
826.90030000000002
  0
LINE
  8
_0-1_LAYER003
  6
CONTINUOUS
 62
    7
 10
1060.7692999999999
 20
826.90030000000002
 11
2223.0147000000002
 21
826.90030000000002
  0
LINE
  8
_0-1_LAYER003
  6
CONTINUOUS
 62
    7
 10
2223.0147000000006
 20
816.90030000000002
 11
940.76929999999993
 21
816.90030000000002
  0
LINE
  8
_0-1_LAYER003
  6
CONTINUOUS
 62
    7
 10
820.35770000000002
 20
878.76459999999997
 11
950.85770000000002
 21
878.76459999999997
  0
LINE
  8
_0-1_LAYER003
  6
CONTINUOUS
 62
    7
 10
1060.7692999999999
 20
830.10030000000006
 11
2223.0147000000002
 21
830.10030000000006
  0
LINE
  8
_0-1_LAYER003
  6
CONTINUOUS
 62
    7
 10
2223.0147000000002
 20
846.90030000000002
 11
1060.7692999999999
 21
846.90030000000002
  0
LINE
  8
_0-1_LAYER003
  6
CONTINUOUS
 62
    7
 10
1674.6880999999998
 20
756.70610000000011
 11
1867.0808000000002
 21
756.70610000000011
  0
LINE
  8
_0-1_LAYER003
  6
CONTINUOUS
 62
    7
 10
1692.3647999999998
 20
726.72510000000011
 11
1928.4899
 21
726.72510000000011
  0
LINE
  8
_0-1_LAYER003
  6
CONTINUOUS
 62
    7
 10
1710.0164
 20
695.82940000000008
 11
1977.3254999999999
 21
695.82940000000008
  0
LINE
  8
_0-1_LAYER003
  6
CONTINUOUS
 62
    7
 10
1050.7692999999999
 20
885.46090000000004
 11
1050.7692999999999
 21
858.76089999999999
  0
LINE
  8
_0-1_LAYER003
  6
CONTINUOUS
 62
    7
 10
1050.7692999999999
 20
860.46090000000004
 11
1135.7692999999999
 21
860.46090000000004
  0
LINE
  8
_0-1_LAYER003
  6
CONTINUOUS
 62
    7
 10
1135.7692999999999
 20
858.76089999999999
 11
1135.7692999999999
 21
885.46090000000004
  0
LINE
  8
_0-1_LAYER003
  6
CONTINUOUS
 62
    7
 10
1050.7692999999999
 20
976.90030000000002
 11
2223.0147000000002
 21
976.90030000000002
  0
LINE
  8
_0-1_LAYER003
  6
CONTINUOUS
 62
    7
 10
2223.0147000000002
 20
980.40030000000002
 11
1139.1223
 21
980.40030000000002
  0
LINE
  8
_0-1_LAYER003
  6
CONTINUOUS
 62
    7
 10
1139.1223
 20
980.40030000000002
 11
1139.1223
 21
995.40030000000002
  0
LINE
  8
_0-1_LAYER003
  6
CONTINUOUS
 62
    7
 10
1139.1223
 20
995.40030000000002
 11
2223.0147000000002
 21
995.40030000000002
  0
LINE
  8
_0-1_LAYER003
  6
CONTINUOUS
 62
    7
 10
1767.1261
 20
1122.2221
 11
1807.6261
 21
1122.2221
  0
LINE
  8
_0-1_LAYER003
  6
CONTINUOUS
 62
    7
 10
2223.0147000000002
 20
906.90030000000002
 11
1060.7692999999999
 21
906.90030000000002
  0
LINE
  8
_0-1_LAYER003
  6
CONTINUOUS
 62
    7
 10
1052.7692999999999
 20
978.90030000000002
 11
1052.7692999999999
 21
1129.5975000000001
  0
LINE
  8
_0-1_LAYER003
  6
CONTINUOUS
 62
    7
 10
1050.7692999999999
 20
1056.9003
 11
1080.7692999999999
 21
1056.9003
  0
LINE
  8
_0-1_LAYER003
  6
CONTINUOUS
 62
    7
 10
1080.7692999999999
 20
1056.9003
 11
1080.7692999999999
 21
1091.6104
  0
LINE
  8
_0-1_LAYER003
  6
CONTINUOUS
 62
    7
 10
1074.7693999999999
 20
1079.9002
 11
1074.7693999999999
 21
1073.9003
  0
LINE
  8
_0-1_LAYER003
  6
CONTINUOUS
 62
    7
 10
1074.7693999999999
 20
1079.9002
 11
1007.7693999999999
 21
1079.9002
  0
LINE
  8
_0-1_LAYER003
  6
CONTINUOUS
 62
    7
 10
1007.7693999999999
 20
1073.9003
 11
1074.7693999999999
 21
1073.9003
  0
LINE
  8
_0-1_LAYER003
  6
CONTINUOUS
 62
    7
 10
1054.7692999999999
 20
1113.6333999999999
 11
1054.7692999999999
 21
1196.8803
  0
LINE
  8
_0-1_LAYER003
  6
CONTINUOUS
 62
    7
 10
1057.1693
 20
1166.4803999999999
 11
1057.1693
 21
1198.4802999999999
  0
LINE
  8
_0-1_LAYER003
  6
CONTINUOUS
 62
    7
 10
1057.1693
 20
1198.4802999999999
 11
1040.3693000000001
 21
1198.4802999999999
  0
LINE
  8
_0-1_LAYER003
  6
CONTINUOUS
 62
    7
 10
1040.3693000000001
 20
1198.4802999999999
 11
1040.3693000000001
 21
1212.6261
  0
LINE
  8
_0-1_LAYER003
  6
CONTINUOUS
 62
    7
 10
1054.7692999999999
 20
1051.8631
 11
1054.7692999999999
 21
980.90030000000002
  0
LINE
  8
_0-1_LAYER003
  6
CONTINUOUS
 62
    7
 10
1054.7692999999999
 20
980.90030000000002
 11
1135.7692999999999
 21
980.90030000000002
  0
LINE
  8
_0-1_LAYER003
  6
CONTINUOUS
 62
    7
 10
1135.7692999999999
 20
980.90030000000002
 11
1135.7692999999999
 21
992.09690000000001
  0
LINE
  8
_0-1_LAYER003
  6
CONTINUOUS
 62
    7
 10
1135.7692999999999
 20
992.09690000000001
 11
1135.7692999999999
 21
995.44540273060102
  0
LINE
  8
_0-1_LAYER003
  6
CONTINUOUS
 62
    7
 10
1135.7692999999999
 20
995.44540273060102
 11
1127.5245344251559
 21
995.44540273060102
  0
LINE
  8
_0-1_LAYER003
  6
CONTINUOUS
 62
    7
 10
1052.7692999999999
 20
978.90030000000002
 11
2223.0147000000002
 21
978.90030000000002
  0
LINE
  8
_0-1_LAYER003
  6
CONTINUOUS
 62
    7
 10
950.76929999999993
 20
1260.5464999999999
 11
1050.7692999999999
 21
1360.5463
  0
LINE
  8
_0-1_LAYER003
  6
CONTINUOUS
 62
    7
 10
1050.7692999999999
 20
1356.3038000000001
 11
950.76929999999993
 21
1256.3038000000001
  0
LINE
  8
_0-1_LAYER003
  6
CONTINUOUS
 62
    7
 10
1020.4061999999999
 20
1277.0794000000001
 11
1018.4650999999999
 21
1269.835
  0
LINE
  8
_0-1_LAYER003
  6
CONTINUOUS
 62
    7
 10
1018.4650999999999
 20
1269.835
 11
1020.4061999999999
 21
1277.0794000000001
  0
LINE
  8
_0-1_LAYER003
  6
CONTINUOUS
 62
    7
 10
1018.4650999999999
 20
1269.835
 11
1023.7683999999999
 21
1275.1383000000001
  0
LINE
  8
_0-1_LAYER003
  6
CONTINUOUS
 62
    7
 10
1018.4650999999999
 20
1269.835
 11
1102.7014999999999
 21
1415.7366999999999
  0
LINE
  8
_0-1_LAYER003
  6
CONTINUOUS
 62
    7
 10
1095.069
 20
1283.8038000000001
 11
1048.8115
 21
1203.6833999999999
  0
LINE
  8
_0-1_LAYER003
  6
CONTINUOUS
 62
    7
 10
1048.8115
 20
1203.6833999999999
 11
1054.1148000000001
 21
1208.9866999999999
  0
LINE
  8
_0-1_LAYER003
  6
CONTINUOUS
 62
    7
 10
1048.8115
 20
1203.6833999999999
 11
1050.7526
 21
1210.9277999999999
  0
LINE
  8
_0-1_LAYER003
  6
CONTINUOUS
 62
    7
 10
1024.2094
 20
1208.2813000000001
 11
1038.7692999999999
 21
1208.2802999999999
  0
LINE
  8
_0-1_LAYER003
  6
CONTINUOUS
 62
    7
 10
1038.7692999999999
 20
1201.4802999999999
 11
1024.2094
 21
1201.4802999999999
  0
LINE
  8
_0-1_LAYER003
  6
CONTINUOUS
 62
    7
 10
1098.5811000000001
 20
1105.2657999999999
 11
1100.5222000000001
 21
1112.5102999999999
  0
LINE
  8
_0-1_LAYER003
  6
CONTINUOUS
 62
    7
 10
1098.5811000000001
 20
1105.2657999999999
 11
1103.8843999999999
 21
1110.5690999999999
  0
LINE
  8
_0-1_LAYER003
  6
CONTINUOUS
 62
    7
 10
1098.5811000000001
 20
1105.2657999999999
 11
1179.0947000000001
 21
1244.7195999999999
  0
LINE
  8
_0-1_LAYER003
  6
CONTINUOUS
 62
    7
 10
1054.7692999999999
 20
1113.6333999999999
 11
1151.1617000000001
 21
1096.4604999999999
  0
LINE
  8
_0-1_LAYER003
  6
CONTINUOUS
 62
    7
 10
1151.1617000000001
 20
1096.4604999999999
 11
1155.8648000000001
 21
1072.0897
  0
LINE
  8
_0-1_LAYER003
  6
CONTINUOUS
 62
    7
 10
1155.8648000000001
 20
1072.0897
 11
1149.9833000000001
 21
1078.2164
  0
LINE
  8
_0-1_LAYER003
  6
CONTINUOUS
 62
    7
 10
1142.0066999999999
 20
1096.0440000000001
 11
1139.402
 21
1081.2719
  0
LINE
  8
_0-1_LAYER003
  6
CONTINUOUS
 62
    7
 10
1139.402
 20
1081.2719
 11
1052.7692999999999
 21
1096.5476446030641
  0
LINE
  8
_0-1_LAYER003
  6
CONTINUOUS
 62
    7
 10
1052.7692999999999
 20
1096.5476446030641
 11
1050.7692999999999
 21
1096.9003
  0
LINE
  8
_0-1_LAYER003
  6
CONTINUOUS
 62
    7
 10
1050.7692999999999
 20
1096.9003
 11
1053.374
 21
1111.6723999999999
  0
LINE
  8
_0-1_LAYER003
  6
CONTINUOUS
 62
    7
 10
1053.374
 20
1111.6723999999999
 11
1142.0066999999999
 21
1096.0440000000001
  0
LINE
  8
_0-1_LAYER003
  6
CONTINUOUS
 62
    7
 10
1142.0066999999999
 20
1096.0440000000001
 11
1050.7692999999999
 21
1096.9003
  0
LINE
  8
_0-1_LAYER003
  6
CONTINUOUS
 62
    7
 10
1062.8217999999999
 20
1110.0065
 11
1065.1052999999999
 21
1107.9838999999999
  0
LINE
  8
_0-1_LAYER003
  6
CONTINUOUS
 62
    7
 10
1065.1052999999999
 20
1107.9838999999999
 11
1060.4154000000001
 21
1081.3920000000001
  0
LINE
  8
_0-1_LAYER003
  6
CONTINUOUS
 62
    7
 10
1060.4154000000001
 20
1081.3920000000001
 11
1060.6238000000001
 21
1072.5092999999999
  0
LINE
  8
_0-1_LAYER003
  6
CONTINUOUS
 62
    7
 10
1060.6238000000001
 20
1072.5092999999999
 11
1064.0654999999999
 21
1080.7482
  0
LINE
  8
_0-1_LAYER003
  6
CONTINUOUS
 62
    7
 10
1064.0654999999999
 20
1080.7482
 11
1068.7552000000001
 21
1107.3416
  0
LINE
  8
_0-1_LAYER003
  6
CONTINUOUS
 62
    7
 10
1068.7552000000001
 20
1107.3416
 11
1071.5912000000001
 21
1108.4602
  0
LINE
  8
_0-1_LAYER003
  6
CONTINUOUS
 62
    7
 10
1074.7693999999999
 20
1079.9002
 11
1080.7692999999999
 21
1082.9003
  0
LINE
  8
_0-1_LAYER003
  6
CONTINUOUS
 62
    7
 10
1074.7693999999999
 20
1073.9003
 11
1080.7692999999999
 21
1070.9002
  0
LINE
  8
_0-1_LAYER003
  6
CONTINUOUS
 62
    7
 10
1077.2654
 20
1092.2283
 11
1050.7692999999999
 21
1056.9003
  0
LINE
  8
_0-1_LAYER003
  6
CONTINUOUS
 62
    7
 10
1058.2161000000001
 20
1068.597
 11
1063.5193999999999
 21
1073.9003
  0
LINE
  8
_0-1_LAYER003
  6
CONTINUOUS
 62
    7
 10
1063.5193999999999
 20
1073.9003
 11
1061.5781999999999
 21
1066.6559
  0
LINE
  8
_0-1_LAYER003
  6
CONTINUOUS
 62
    7
 10
1063.5193999999999
 20
1073.9003
 11
950.85770000000002
 21
878.76459999999997
  0
LINE
  8
_0-1_LAYER003
  6
CONTINUOUS
 62
    7
 10
950.76929999999993
 20
981.26369999999997
 11
1050.7692999999999
 21
1081.2636
  0
LINE
  8
_0-1_LAYER003
  6
CONTINUOUS
 62
    7
 10
1050.7692999999999
 20
1077.0210999999999
 11
950.76929999999993
 21
977.02099999999996
  0
LINE
  8
_0-1_LAYER003
  6
CONTINUOUS
 62
    7
 10
1007.7693999999999
 20
1079.9002
 11
1002.7692999999999
 21
1076.9003
  0
LINE
  8
_0-1_LAYER003
  6
CONTINUOUS
 62
    7
 10
1002.7692999999999
 20
1076.9003
 11
1007.7693999999999
 21
1073.9003
  0
LINE
  8
_0-1_LAYER003
  6
CONTINUOUS
 62
    7
 10
1054.7692999999999
 20
1051.8631
 11
1056.8824
 21
1046.2474999999999
  0
LINE
  8
_0-1_LAYER003
  6
CONTINUOUS
 62
    7
 10
1054.7692999999999
 20
1196.8803
 11
1056.9074000000001
 21
1185.0724
  0
LINE
  8
_0-1_LAYER003
  6
CONTINUOUS
 62
    7
 10
1094.6247000000001
 20
982.86740000000009
 11
1098.069807724652
 21
976.90030000000002
  0
LINE
  8
_0-1_LAYER003
  6
CONTINUOUS
 62
    7
 10
1094.6247000000001
 20
982.86740000000009
 11
1099.9280000000001
 21
977.56410000000005
  0
LINE
  8
_0-1_LAYER003
  6
CONTINUOUS
 62
    7
 10
1094.6247000000001
 20
982.86740000000009
 11
1096.5658000000001
 21
975.62300000000005
  0
LINE
  8
_0-1_LAYER003
  6
CONTINUOUS
 62
    7
 10
1096.9151068734341
 20
978.90030000000002
 11
1236.3140000000001
 21
737.45440000000008
  0
LINE
  8
_0-1_LAYER003
  6
CONTINUOUS
 62
    7
 10
1260.4634000000001
 20
976.90030000000002
 11
1210.4632999999999
 21
926.90030000000002
  0
LINE
  8
_0-1_LAYER003
  6
CONTINUOUS
 62
    7
 10
1214.7059999999999
 20
926.90030000000002
 11
1264.7059999999999
 21
976.90030000000002
  0
LINE
  8
_0-1_LAYER003
  6
CONTINUOUS
 62
    7
 10
1472.5953
 20
976.90030000000002
 11
1422.5954999999999
 21
926.90030000000002
  0
LINE
  8
_0-1_LAYER003
  6
CONTINUOUS
 62
    7
 10
1426.8380999999999
 20
926.90030000000002
 11
1474.5216
 21
976.90030000000002
  0
LINE
  8
_0-1_LAYER003
  6
CONTINUOUS
 62
    7
 10
1541.8598000000002
 20
987.08519999999999
 11
1543.8009000000002
 21
979.84079999999994
  0
LINE
  8
_0-1_LAYER003
  6
CONTINUOUS
 62
    7
 10
1541.8598000000002
 20
987.08519999999999
 11
1547.1631000000002
 21
981.78189999999995
  0
LINE
  8
_0-1_LAYER003
  6
CONTINUOUS
 62
    7
 10
1541.8598000000002
 20
987.08519999999999
 11
1726.7977999999998
 21
666.7632000000001
  0
LINE
  8
_0-1_LAYER003
  6
CONTINUOUS
 62
    7
 10
1684.7274000000002
 20
976.90030000000002
 11
1634.7276000000002
 21
926.90030000000002
  0
LINE
  8
_0-1_LAYER003
  6
CONTINUOUS
 62
    7
 10
1638.9702000000002
 20
926.90030000000002
 11
1688.9699999999998
 21
976.90030000000002
  0
LINE
  8
_0-1_LAYER003
  6
CONTINUOUS
 62
    7
 10
1846.8597
 20
926.90030000000002
 11
1896.8595
 21
976.90030000000002
  0
LINE
  8
_0-1_LAYER003
  6
CONTINUOUS
 62
    7
 10
1901.1021999999998
 20
976.90030000000002
 11
1851.1023
 21
926.90030000000002
  0
LINE
  8
_0-1_LAYER003
  6
CONTINUOUS
 62
    7
 10
2108.9915999999998
 20
976.90030000000002
 11
2058.9917999999998
 21
926.90030000000002
  0
LINE
  8
_0-1_LAYER003
  6
CONTINUOUS
 62
    7
 10
2113.2343000000001
 20
976.90030000000002
 11
2063.2343999999998
 21
926.90030000000002
  0
LINE
  8
_0-1_LAYER003
  6
CONTINUOUS
 62
    7
 10
1767.1261
 20
1122.2221
 11
1708.6777000000002
 21
1020.9866
  0
LINE
  8
_0-1_LAYER003
  6
CONTINUOUS
 62
    7
 10
1708.6777000000002
 20
1020.9866
 11
1710.6188999999999
 21
1028.231
  0
LINE
  8
_0-1_LAYER003
  6
CONTINUOUS
 62
    7
 10
1708.6777000000002
 20
1020.9866
 11
1713.9811
 21
1026.2899
  0
ARC
  8
_0-1_LAYER003
  6
CONTINUOUS
 62
    7
 10
1065.7690956790439
 20
1204.8803051505488
 40
16.999817293262669
 50
151.927204315995
 51
202.11549845017436
  0
LINE
  8
_0-1_LAYER003
  6
CONTINUOUS
 62
    7
 10
1024.2094
 20
1208.2813000000001
 11
1007.4797670888743
 21
1211.2322074594049
  0
LINE
  8
_0-1_LAYER003
  6
CONTINUOUS
 62
    7
 10
1007.4797670888743
 20
1211.2322074594049
 11
1006.0941749101685
 21
1210.263604639716
  0
LINE
  8
_0-1_LAYER003
  6
CONTINUOUS
 62
    7
 10
1006.0902000000001
 20
1210.2588000000001
 11
1005.7701999999999
 21
1208.4458999999999
  0
LINE
  8
_0-1_LAYER003
  6
CONTINUOUS
 62
    7
 10
1005.7701999999999
 20
1208.4458999999999
 11
1025.9884999999999
 21
1204.8812
  0
LINE
  8
_0-1_LAYER003
  6
CONTINUOUS
 62
    7
 10
1025.9884999999999
 20
1204.8812
 11
1005.9102
 21
1201.3404
  0
LINE
  8
_0-1_LAYER003
  6
CONTINUOUS
 62
    7
 10
1005.9102
 20
1201.3404
 11
1006.2284999999999
 21
1199.5283999999999
  0
LINE
  8
_0-1_LAYER003
  6
CONTINUOUS
 62
    7
 10
1006.2284999999999
 20
1199.5283999999999
 11
1007.6242999999999
 21
1198.5574999999999
  0
LINE
  8
_0-1_LAYER003
  6
CONTINUOUS
 62
    7
 10
1007.6242999999999
 20
1198.5574999999999
 11
1024.2094
 21
1201.4802999999999
  0
TEXT
  8
_0-0_LAYER001
 62
    7
 10
1674.6880999999994
 20
759.20610000000011
 40
20
 41
1
 50
0
  1
　瓦桟：１５ｘ３０以上　
  0
TEXT
  8
_0-0_LAYER001
 62
    7
 10
1097.4591126263072
 20
1290.5397569399802
 40
20
 41
1
 50
0
  1
シーリング
  0
TEXT
  8
_0-0_LAYER001
 62
    7
 10
1765.8715856373422
 20
1128.8039765325987
 40
20
 41
1
 50
0
  1
桟　瓦
  0
TEXT
  8
_0-0_LAYER001
 62
    7
 10
765.3998112589411
 20
972.79335649362008
 40
20
 41
1
 50
90
  1
下葺き材立上がり寸法
  0
TEXT
  8
_0-0_LAYER001
 62
    7
 10
854.13979696918523
 20
998.55657815143331
 40
20
 41
1
 50
90
  1
水切り鉄板立上がり寸法
  0
TEXT
  8
_0-0_LAYER001
 62
    7
 10
1102.7015000000004
 20
1418.2367000000002
 40
20
 41
1
 50
0
  1
外壁：ALCパネル　t＝50
  0
TEXT
  8
_0-0_LAYER001
 62
    7
 10
1437.8237416930767
 20
1343.0871245953172
 40
20
 41
1
 50
0
  1
260
  0
TEXT
  8
_0-0_LAYER001
 62
    7
 10
1697.5792958659572
 20
1340.6132621746222
 40
20
 41
1
 50
0
  1
260
  0
TEXT
  8
_0-0_LAYER001
 62
    7
 10
1959.8087124595313
 20
1341.85019338497
 40
20
 41
1
 50
0
  1
260
  0
TEXT
  8
_0-0_LAYER001
 62
    7
 10
1179.0947000000003
 20
1247.2196000000001
 40
20
 41
1
 50
0
  1
登水切カラー鋼板0.35ｍｍ以上
  0
TEXT
  8
_0-0_LAYER001
 62
    7
 10
889.92204927170314
 20
1151.7046180062102
 40
20
 41
1
 50
90
  1
85
  0
TEXT
  8
_0-0_LAYER001
 62
    7
 10
806.90722392986231
 20
1040.0639908223543
 40
20
 41
1
 50
90
  1
150
  0
TEXT
  8
_0-0_LAYER001
 62
    7
 10
891.35333936380425
 20
1001.4191583356347
 40
20
 41
1
 50
90
  1
75
  0
TEXT
  8
_0-0_LAYER001
 62
    7
 10
820.35770000000014
 20
880.2646000000002
 40
20
 41
1
 50
0
  1
下地：30x40
  0
TEXT
  8
_0-0_LAYER001
 62
    7
 10
1090.3292290352624
 20
869.72718642763937
 40
20
 41
1
 50
0
  1
90
  0
TEXT
  8
_0-0_LAYER001
 62
    7
 10
1236.3140000000001
 20
739.95440000000008
 40
20
 41
1
 50
0
  1
捨谷カラー鋼板0.35ｍｍ以上
  0
TEXT
  8
_0-0_LAYER001
 62
    7
 10
1692.3647999999991
 20
729.22510000000011
 40
20
 41
1
 50
0
  1
下葺材：ルーフィング
  0
TEXT
  8
_0-0_LAYER001
 62
    7
 10
1710.0164
 20
698.32940000000008
 40
20
 41
1
 50
0
  1
　野地板：ALCパネル　t＝50
  0
TEXT
  8
_0-0_LAYER001
 62
    7
 10
1726.7977999999994
 20
669.2632000000001
 40
20
 41
1
 50
0
  1
　鋼製：C100x50x⑳x2.3
  0
LINE
  8
_0-0_LAYER001
  6
CONTINUOUS
 62
    2
 10
1179.0947000000001
 20
1244.7195999999999
 11
1461.2160101168786
 21
1244.7195999999999
  0
LINE
  8
_0-1_LAYER003
  6
CONTINUOUS
 62
    7
 10
1179.0947000000001
 20
1244.7195999999999
 11
1473.2773688512402
 21
1244.7195999999999
  0
LINE
  8
_0-0_LAYER001
  6
CONTINUOUS
 62
    2
 10
1726.7977999999998
 20
666.7632000000001
 11
1961.7623975928809
 21
666.7632000000001
  0
LINE
  8
_0-1_LAYER003
  6
CONTINUOUS
 62
    7
 10
1726.7977999999998
 20
666.7632000000001
 11
1955.7317182256998
 21
666.7632000000001
  0
LINE
  8
_0-0_LAYER001
  6
CONTINUOUS
 62
    2
 10
1236.3140000000001
 20
737.45440000000008
 11
1501.9230958453486
 21
737.45440000000008
  0
LINE
  8
_0-1_LAYER003
  6
CONTINUOUS
 62
    7
 10
1236.3140000000001
 20
737.45440000000008
 11
1504.938435528939
 21
737.45440000000008
  0
ENDSEC
  0
EOF
