  0
SECTION
  2
HEADER
  9
$ACADVER
  1
AC1009
  9
$INSBASE
 10
0
 20
0
 30
0
  9
$EXTMIN
 10
0
 20
0
  9
$EXTMAX
 10
2970
 20
2100
  9
$LIMMIN
 10
0
 20
0
  9
$LIMMAX
 10
2970
 20
2100
  9
$LTSCALE
 40
10
  0
ENDSEC
  0
SECTION
  2
TABLES
  0
TABLE
  2
LTYPE
 70
     9
  0
LTYPE
  2
CONTINUOUS
 70
    64
  3
実線
 72
    65
 73
     0
 40
0.0
  0
LTYPE
  2
DASHED1
 70
    64
  3
--  --  --  --  --  --  --  --  
 72
    65
 73
     2
 40
2.5
 49
1.25
 49
-1.25
  0
LTYPE
  2
DASHED2
 70
    64
  3
----    ----    ----    ----    
 72
    65
 73
     2
 40
5.0
 49
2.5
 49
-2.5
  0
LTYPE
  2
DASHED3
 70
    64
  3
------  ------  ------  ------  
 72
    65
 73
     2
 40
5.0
 49
3.75
 49
-1.25
  0
LTYPE
  2
CENTER1
 70
    64
  3
----- - ----- - ----- - ----- - 
 72
    65
 73
     4
 40
10.0
 49
6.25
 49
-1.25
 49
1.25
 49
-1.25
  0
LTYPE
  2
CENTER2
 70
    64
  3
----------  --  ----------  --  
 72
    65
 73
     4
 40
20.0
 49
12.5
 49
-2.5
 49
2.5
 49
-2.5
  0
LTYPE
  2
PHANTOM1
 70
    64
  3
--- - - --- - - --- - - --- - - 
 72
    65
 73
     6
 40
10.0
 49
3.25
 49
-1.25
 49
1.25
 49
-1.25
 49
1.25
 49
-1.25
  0
LTYPE
  2
PHANTOM2
 70
    64
  3
--------  -  -  --------  -  -  
 72
    65
 73
     6
 40
20.0
 49
10.0
 49
-2.5
 49
1.25
 49
-2.5
 49
1.25
 49
-2.5
  0
LTYPE
  2
DOT
 70
    64
  3
-   -   -   -   -   -   -   -   
 72
    65
 73
     2
 40
2.5
 49
0.625
 49
-1.875
  0
LTYPE
  2
DUMMY
 70
    64
  3
ダミー
 72
    65
 73
     0
 40
0.0
  0
LTYPE
  2
RAND1
 70
    64
  3
ランダム線1
 72
    65
 73
     4
 40
10.0
 49
1.0
 49
-2.0
 49
3.0
 49
-4.0
  0
LTYPE
  2
RAND2
 70
    64
  3
ランダム線2
 72
    65
 73
     4
 40
14.0
 49
2.0
 49
-3.0
 49
4.0
 49
-5.0
  0
LTYPE
  2
RAND3
 70
    64
  3
ランダム線3
 72
    65
 73
     4
 40
18.0
 49
3.0
 49
-4.0
 49
5.0
 49
-6.0
  0
LTYPE
  2
RAND4
 70
    64
  3
ランダム線4
 72
    65
 73
     4
 40
22.0
 49
4.0
 49
-5.0
 49
6.0
 49
-7.0
  0
LTYPE
  2
RAND5
 70
    64
  3
ランダム線5
 72
    65
 73
     4
 40
26.0
 49
5.0
 49
-6.0
 49
7.0
 49
-8.0
  0
LTYPE
  2
LONG1
 70
    64
  3
----------  --  ----------  --  
 72
    65
 73
     4
 40
40.0
 49
32.5
 49
-2.5
 49
2.5
 49
-2.5
  0
LTYPE
  2
LONG2
 70
    64
  3
--------  -  -  --------  -  -  
 72
    65
 73
     6
 40
40.0
 49
30.0
 49
-2.5
 49
1.25
 49
-2.5
 49
1.25
 49
-2.5
  0
LTYPE
  2
LONG3
 70
    64
  3
+++++++++++++++..+++++++++++++++
 72
    65
 73
     2
 40
40.0
 49
37.5
 49
-2.5
  0
LTYPE
  2
LONG4
 70
    64
  3
+++++++++++++++..+++++++++++++++
 72
    65
 73
     2
 40
80.0
 49
75.0
 49
-5.0
  0
LTYPE
  2
LONG5
 70
    64
  3
----------  --  ----------  --  
 72
    65
 73
     4
 40
60.0
 49
37.5
 49
-7.5
 49
7.5
 49
-7.5
  0
LTYPE
  2
dashed
 70
   64
  3
-------   -------------   ------
 72
   65
 73
    2
 40
7.5
 49
6
 49
-1.5
  0
LTYPE
  2
dashed_spaced
 70
   64
  3
----        --------        ----
 72
   65
 73
    2
 40
12
 49
6
 49
-6
  0
LTYPE
  2
long_dashed_dotted
 70
   64
  3
------------- --- --------------
 72
   65
 73
    4
 40
15.25
 49
12
 49
-1.5
 49
0.25
 49
-1.5
  0
LTYPE
  2
long_dashed_double-dotted
 70
   64
  3
----------- --- --- ------------
 72
   65
 73
    6
 40
17
 49
12
 49
-1.5
 49
0.25
 49
-1.5
 49
0.25
 49
-1.5
  0
LTYPE
  2
long_dashed_triplicate-dotted
 70
   64
  3
--------- --- --- --- ----------
 72
   65
 73
    8
 40
18.75
 49
12
 49
-1.5
 49
0.25
 49
-1.5
 49
0.25
 49
-1.5
 49
0.25
 49
-1.5
  0
LTYPE
  2
dotted
 70
   64
  3
   -       -       -       -    
 72
   65
 73
    2
 40
1.75
 49
0.25
 49
-1.5
  0
LTYPE
  2
chain
 70
   64
  3
-------------- -- --------------
 72
   65
 73
    4
 40
18.5
 49
12
 49
-1.5
 49
3.5
 49
-1.5
  0
LTYPE
  2
chain_double_dash
 70
   64
  3
------------ -- -- -------------
 72
   65
 73
    6
 40
23.5
 49
12
 49
-1.5
 49
3.5
 49
-1.5
 49
3.5
 49
-1.5
  0
LTYPE
  2
dashed_dotted
 70
   64
  3
-----------     -     ----------
 72
   65
 73
    4
 40
9.25
 49
6
 49
-1.5
 49
0.25
 49
-1.5
  0
LTYPE
  2
double-dashed_dotted
 70
   64
  3
------   -----------   -   -----
 72
   65
 73
    6
 40
16.75
 49
6
 49
-1.5
 49
6
 49
-1.5
 49
0.25
 49
-1.5
  0
LTYPE
  2
dashed_double-dotted
 70
   64
  3
---------    -    -    ---------
 72
   65
 73
    6
 40
11
 49
6
 49
-1.5
 49
0.25
 49
-1.5
 49
0.25
 49
-1.5
  0
LTYPE
  2
double-dashed_double-dotted
 70
   64
  3
-----   ---------   -   -   ----
 72
   65
 73
    8
 40
18.5
 49
6
 49
-1.5
 49
6
 49
-1.5
 49
0.25
 49
-1.5
 49
0.25
 49
-1.5
  0
LTYPE
  2
dashed_triplicate-dotted
 70
   64
  3
-------    -    -    -    ------
 72
   65
 73
    8
 40
12.75
 49
6
 49
-1.5
 49
0.25
 49
-1.5
 49
0.25
 49
-1.5
 49
0.25
 49
-1.5
  0
LTYPE
  2
double-dashed_triplicate-dotted
 70
   64
  3
-----  ---------  -  -  -  -----
 72
   65
 73
   10
 40
20.25
 49
6
 49
-1.5
 49
6
 49
-1.5
 49
0.25
 49
-1.5
 49
0.25
 49
-1.5
 49
0.25
 49
-1.5
  0
LTYPE
  2
undefined
 70
   64
  3
--------------------------------
 72
   65
 73
    0
 40
0
  0
ENDTAB
  0
TABLE
  2
STYLE
  5
3
100
AcDbSymbolTable
 70
     1
  0
STYLE
  5
10
100
AcDbSymbolTableRecord
100
AcDbTextStyleTableRecord
  2
STANDARD
 70
     0
 40
0.0
 41
1.0
 50
0.0
 71
     0
 42
0.2
  3
txt
  4
bigfont.shx
  0
STYLE
  5
26
100
AcDbSymbolTableRecord
100
AcDbTextStyleTableRecord
  2
TATEGAKI
 70
    68
 40
0.0
 41
1.0
 50
0.0
 71
     0
 42
1.0
  3
txt
  4
bigfont.shx
  0
ENDTAB
  0
TABLE
  2
LAYER
 70
    6
  0
LAYER
  2
_0-0_1
 70
   64
 62
    7
  6
CONTINUOUS
  0
LAYER
  2
_0-1_2
 70
   64
 62
    7
  6
CONTINUOUS
  0
LAYER
  2
_0-2_3
 70
   64
 62
    7
  6
CONTINUOUS
  0
LAYER
  2
_0-3_4
 70
   64
 62
    7
  6
CONTINUOUS
  0
LAYER
  2
_0-4_5
 70
   64
 62
    7
  6
CONTINUOUS
  0
LAYER
  2
ADD_LINE
 70
   64
 62
    7
  6
CONTINUOUS
  0
ENDTAB
  0
ENDSEC
  0
SECTION
  2
BLOCKS
  0
ENDSEC
  0
SECTION
  2
ENTITIES
  0
LINE
  8
_0-0_1
  6
CONTINUOUS
 62
    2
 10
1160.2611999999999
 20
1089.2121999999999
 11
1150.2601999999999
 21
1089.2114999999999
  0
LINE
  8
_0-0_1
  6
CONTINUOUS
 62
    2
 10
1160.2602999999999
 20
1086.2121
 11
1150.2614000000001
 21
1086.2116000000001
  0
LINE
  8
_0-0_1
  6
CONTINUOUS
 62
    2
 10
1150.2601999999999
 20
1089.2114999999999
 11
1150.2614000000001
 21
1086.2116000000001
  0
LINE
  8
_0-0_1
  6
CONTINUOUS
 62
    2
 10
1160.2611999999999
 20
1089.2121999999999
 11
1160.2602999999999
 21
1086.2121
  0
LINE
  8
_0-0_1
  6
CONTINUOUS
 62
    2
 10
1155.2606000000001
 20
1089.2118
 11
1155.2606000000001
 21
1086.2114999999999
  0
LINE
  8
_0-0_1
  6
CONTINUOUS
 62
    2
 10
1155.2669000000001
 20
1044.2117000000001
 11
1153.2661000000001
 21
1049.8117999999999
  0
LINE
  8
_0-0_1
  6
CONTINUOUS
 62
    2
 10
1155.2669000000001
 20
1044.2117000000001
 11
1157.2662
 21
1049.8116
  0
LINE
  8
_0-0_1
  6
CONTINUOUS
 62
    2
 10
1152.0247999999999
 20
1070.1098
 11
1158.6715999999999
 21
1071.1674
  0
LINE
  8
_0-0_1
  6
CONTINUOUS
 62
    2
 10
1152.0266999999999
 20
1070.1098999999999
 11
1158.6736000000001
 21
1071.1676
  0
LINE
  8
_0-0_1
  6
CONTINUOUS
 62
    2
 10
1152.0273
 20
1070.1098
 11
1158.674
 21
1071.1675
  0
LINE
  8
_0-0_1
  6
CONTINUOUS
 62
    2
 10
1152.0291
 20
1060.1092000000001
 11
1158.6747
 21
1061.1663000000001
  0
LINE
  8
_0-0_1
  6
CONTINUOUS
 62
    2
 10
1152.0292999999999
 20
1051.3672999999999
 11
1158.6762000000001
 21
1052.4249
  0
LINE
  8
_0-0_1
  6
CONTINUOUS
 62
    2
 10
1157.2634
 20
1083.2139999999999
 11
1157.2662
 21
1049.8116
  0
LINE
  8
_0-0_1
  6
CONTINUOUS
 62
    2
 10
1160.2602999999999
 20
1086.2121
 11
1157.2618
 21
1083.2139999999999
  0
LINE
  8
_0-0_1
  6
CONTINUOUS
 62
    2
 10
1153.2634
 20
1083.2112
 11
1153.2661000000001
 21
1049.8117999999999
  0
LINE
  8
_0-0_1
  6
CONTINUOUS
 62
    2
 10
1150.2614000000001
 20
1086.2116000000001
 11
1153.2617
 21
1083.2112
  0
LINE
  8
_0-1_2
  6
CONTINUOUS
 62
    2
 10
1732.6797999999999
 20
1089.2118
 11
1070.2660000000001
 21
1089.2118
  0
LINE
  8
_0-1_2
  6
CONTINUOUS
 62
    2
 10
1120.7603999999999
 20
1109.6908000000001
 11
1120.7603999999999
 21
1094.6908000000001
  0
LINE
  8
_0-0_1
  6
CONTINUOUS
 62
    2
 10
1104.0599
 20
932.85680000000002
 11
1108.7186999999999
 21
923.6848
  0
LINE
  8
_0-0_1
  6
CONTINUOUS
 62
    2
 10
1101.1337000000001
 20
928.9550999999999
 11
1104.0599
 21
932.85680000000002
  0
LINE
  8
_0-0_1
  6
CONTINUOUS
 62
    2
 10
1108.7186999999999
 20
923.6848
 11
1111.0245
 21
928.9550999999999
  0
LINE
  8
_0-0_1
  6
CONTINUOUS
 62
    2
 10
1070.7355
 20
928.9550999999999
 11
1101.1337000000001
 21
928.9550999999999
  0
LINE
  8
_0-0_1
  6
CONTINUOUS
 62
    2
 10
1111.0245
 20
928.9550999999999
 11
1141.6367
 21
928.9550999999999
  0
LINE
  8
_0-1_2
  6
CONTINUOUS
 62
    1
 10
2135.3249999999998
 20
1089.2118
 11
1070.2660000000001
 21
1089.2118
  0
LINE
  8
_0-1_2
  6
CONTINUOUS
 62
    2
 10
1594.2741000000001
 20
1155.6198999999999
 11
1590.5241000000001
 21
1149.1247000000001
  0
LINE
  8
_0-1_2
  6
CONTINUOUS
 62
    2
 10
1590.5241000000001
 20
1149.1247000000001
 11
1590.5241000000001
 21
1156.6247000000001
  0
LINE
  8
_0-1_2
  6
CONTINUOUS
 62
    2
 10
1590.5241000000001
 20
1149.1247000000001
 11
1617.3391999999999
 21
1249.2
  0
LINE
  8
_0-1_2
  6
CONTINUOUS
 62
    2
 10
1217.4896000000001
 20
1139.1893
 11
1219.4306999999999
 21
1131.9449
  0
LINE
  8
_0-1_2
  6
CONTINUOUS
 62
    2
 10
1219.4306999999999
 20
1131.9449
 11
1214.1274000000001
 21
1137.2482
  0
LINE
  8
_0-1_2
  6
CONTINUOUS
 62
    2
 10
1219.4306999999999
 20
1131.9449
 11
1156.5155999999999
 21
1240.9170999999999
  0
LINE
  8
_0-1_2
  6
CONTINUOUS
 62
    2
 10
1156.5155999999999
 20
1240.9170999999999
 11
1108.5155999999999
 21
1240.9170999999999
  0
LINE
  8
_0-0_1
  6
CONTINUOUS
 62
    1
 10
2135.3249999999998
 20
1069.2118
 11
1070.2660000000001
 21
1069.2118
  0
LINE
  8
_0-0_1
  6
CONTINUOUS
 62
    1
 10
2135.3249999999998
 20
1074.2118
 11
1070.2660000000001
 21
1074.2118
  0
LINE
  8
_0-0_1
  6
CONTINUOUS
 62
    1
 10
2135.3249999999998
 20
1079.2118
 11
1070.2660000000001
 21
1079.2118
  0
LINE
  8
_0-0_1
  6
CONTINUOUS
 62
    1
 10
2135.3249999999998
 20
1084.2118
 11
1070.2660000000001
 21
1084.2118
  0
LINE
  8
_0-3_4
  6
CONTINUOUS
 62
    2
 10
1120.7603999999999
 20
1109.6908000000001
 11
2135.3249999999998
 21
1109.6908000000001
  0
LINE
  8
_0-2_3
  6
CONTINUOUS
 62
    2
 10
1120.7603999999999
 20
1094.6908000000001
 11
2135.3249999999998
 21
1094.6908000000001
  0
LINE
  8
_0-2_3
  6
DASHED3
 62
    2
 10
1070.2660000000001
 20
1089.9908
 11
2135.3249999999998
 21
1089.9908
  0
LINE
  8
_0-0_1
  6
CONTINUOUS
 62
    2
 10
1040.2661000000001
 20
845.59999999999991
 11
1040.2661000000001
 21
898.09999999999991
  0
CIRCLE
  8
_0-0_1
  6
CONTINUOUS
 62
    2
 10
1040.2661000000001
 20
848.09999999999991
 40
1.6999999999999997
  0
LINE
  8
_0-0_1
  6
CONTINUOUS
 62
    2
 10
1040.2661000000001
 20
848.09999999999991
 11
1068.2661000000001
 21
848.09999999999991
  0
CIRCLE
  8
_0-0_1
  6
CONTINUOUS
 62
    2
 10
1068.2661000000001
 20
848.09999999999991
 40
1.6999999999999997
  0
LINE
  8
_0-0_1
  6
CONTINUOUS
 62
    2
 10
1068.2661000000001
 20
845.59999999999991
 11
1068.2661000000001
 21
898.09999999999991
  0
CIRCLE
  8
_0-0_1
  6
CONTINUOUS
 62
    2
 10
1068.2661000000001
 20
848.09999999999991
 40
1.6999999999999997
  0
LINE
  8
_0-0_1
  6
CONTINUOUS
 62
    2
 10
1068.2661000000001
 20
848.09999999999991
 11
1080.2661000000001
 21
848.09999999999991
  0
CIRCLE
  8
_0-0_1
  6
CONTINUOUS
 62
    2
 10
1080.2661000000001
 20
848.09999999999991
 40
1.6999999999999997
  0
LINE
  8
_0-0_1
  6
CONTINUOUS
 62
    2
 10
1080.2661000000001
 20
845.59999999999991
 11
1080.2661000000001
 21
898.09999999999991
  0
LINE
  8
_0-1_2
  6
CONTINUOUS
 62
    2
 10
1036.1591000000001
 20
1330.2046
 11
1036.1591000000001
 21
1277.7046
  0
CIRCLE
  8
_0-1_2
  6
CONTINUOUS
 62
    2
 10
1036.1591000000001
 20
1327.7046
 40
1.6999999999999997
  0
LINE
  8
_0-1_2
  6
CONTINUOUS
 62
    2
 10
1036.1591000000001
 20
1327.7046
 11
1249.1591000000001
 21
1327.7046
  0
CIRCLE
  8
_0-1_2
  6
CONTINUOUS
 62
    2
 10
1249.1591000000001
 20
1327.7046
 40
1.6999999999999997
  0
LINE
  8
_0-1_2
  6
CONTINUOUS
 62
    2
 10
1249.1591000000001
 20
1330.2046
 11
1249.1591000000001
 21
1277.7046
  0
CIRCLE
  8
_0-1_2
  6
CONTINUOUS
 62
    2
 10
1249.1591000000001
 20
1327.7046
 40
1.6999999999999997
  0
LINE
  8
_0-1_2
  6
CONTINUOUS
 62
    2
 10
1249.1591000000001
 20
1327.7046
 11
1503.8761
 21
1327.7046
  0
CIRCLE
  8
_0-1_2
  6
CONTINUOUS
 62
    2
 10
1503.8761
 20
1327.7046
 40
1.6999999999999997
  0
LINE
  8
_0-1_2
  6
CONTINUOUS
 62
    2
 10
1503.8761
 20
1330.2046
 11
1503.8761
 21
1277.7046
  0
CIRCLE
  8
_0-1_2
  6
CONTINUOUS
 62
    2
 10
1503.8761
 20
1327.7046
 40
1.6999999999999997
  0
LINE
  8
_0-1_2
  6
CONTINUOUS
 62
    2
 10
1503.8761
 20
1327.7046
 11
1759.1590999999999
 21
1327.7046
  0
CIRCLE
  8
_0-1_2
  6
CONTINUOUS
 62
    2
 10
1759.1590999999999
 20
1327.7046
 40
1.6999999999999997
  0
LINE
  8
_0-1_2
  6
CONTINUOUS
 62
    2
 10
1759.1590999999999
 20
1330.2046
 11
1759.1590999999999
 21
1277.7046
  0
CIRCLE
  8
_0-1_2
  6
CONTINUOUS
 62
    2
 10
1759.1590999999999
 20
1327.7046
 40
1.6999999999999997
  0
LINE
  8
_0-1_2
  6
CONTINUOUS
 62
    2
 10
1759.1590999999999
 20
1327.7046
 11
2014.1590999999999
 21
1327.7046
  0
CIRCLE
  8
_0-1_2
  6
CONTINUOUS
 62
    2
 10
2014.1590999999999
 20
1327.7046
 40
1.6999999999999997
  0
LINE
  8
_0-1_2
  6
CONTINUOUS
 62
    2
 10
2014.1590999999999
 20
1330.2046
 11
2014.1590999999999
 21
1277.7046
  0
LINE
  8
_0-4_5
  6
CONTINUOUS
 62
    2
 10
1082.1369
 20
984.57009999999991
 11
1087.4402
 21
989.87339999999995
  0
LINE
  8
_0-4_5
  6
CONTINUOUS
 62
    2
 10
1087.4402
 20
989.87339999999995
 11
1085.499
 21
982.62899999999991
  0
LINE
  8
_0-4_5
  6
CONTINUOUS
 62
    2
 10
1087.4402
 20
989.87339999999995
 11
1016.9313999999999
 21
867.7485999999999
  0
LINE
  8
_0-4_5
  6
CONTINUOUS
 62
    2
 10
1016.9313999999999
 20
867.7485999999999
 11
808.2179000000001
 21
867.7485999999999
  0
LINE
  8
_0-1_2
  6
CONTINUOUS
 62
    2
 10
1079.7845
 20
1124.6323
 11
1081.7257
 21
1117.3878999999999
  0
LINE
  8
_0-1_2
  6
CONTINUOUS
 62
    2
 10
1081.7257
 20
1117.3878999999999
 11
1076.4223999999999
 21
1122.6912
  0
LINE
  8
_0-1_2
  6
CONTINUOUS
 62
    2
 10
1081.7257
 20
1117.3878999999999
 11
1021.8518999999999
 21
1221.0923
  0
LINE
  8
_0-1_2
  6
CONTINUOUS
 62
    2
 10
1021.8518999999999
 20
1221.0923
 11
963.96370000000002
 21
1221.0923
  0
LINE
  8
_0-0_1
  6
CONTINUOUS
 62
    2
 10
1677.8013000000001
 20
1091.2466999999999
 11
1677.8013000000001
 21
1098.7466999999999
  0
LINE
  8
_0-0_1
  6
CONTINUOUS
 62
    2
 10
1677.8013000000001
 20
1098.7466999999999
 11
1681.5513000000001
 21
1092.2515000000001
  0
LINE
  8
_0-0_1
  6
CONTINUOUS
 62
    2
 10
1677.8013000000001
 20
1098.7466999999999
 11
1769.4268999999999
 21
756.7953
  0
LINE
  8
_0-0_1
  6
CONTINUOUS
 62
    2
 10
1177.9668999999999
 20
984.21170000000006
 11
1180.2664
 21
984.21160000000009
  0
LINE
  8
_0-0_1
  6
CONTINUOUS
 62
    2
 10
1177.9659999999999
 20
1044.2118
 11
1180.2665999999999
 21
1044.2114999999999
  0
LINE
  8
_0-0_1
  6
CONTINUOUS
 62
    2
 10
1177.9667999999999
 20
1059.2125000000001
 11
1177.9659999999999
 21
1044.2118
  0
LINE
  8
_0-0_1
  6
CONTINUOUS
 62
    2
 10
1135.2673
 20
1061.9133999999999
 11
1175.2663
 21
1061.9124999999999
  0
LINE
  8
_0-0_1
  6
CONTINUOUS
 62
    2
 10
1175.2673
 20
1064.2117000000001
 11
1135.2664
 21
1064.2122999999999
  0
LINE
  8
_0-0_1
  6
CONTINUOUS
 62
    2
 10
1180.2669000000001
 20
1059.2121
 11
1180.2665999999999
 21
1044.2114999999999
  0
LINE
  8
_0-0_1
  6
CONTINUOUS
 62
    2
 10
1130.2646
 20
969.21160000000009
 11
1130.2666999999999
 21
1059.2125000000001
  0
LINE
  8
_0-0_1
  6
CONTINUOUS
 62
    2
 10
1175.2663
 20
964.21109999999999
 11
1135.2643
 21
964.21199999999999
  0
LINE
  8
_0-0_1
  6
CONTINUOUS
 62
    2
 10
1180.2660000000001
 20
969.21080000000006
 11
1180.2664
 21
984.21160000000009
  0
LINE
  8
_0-0_1
  6
CONTINUOUS
 62
    2
 10
1177.9666999999999
 20
969.21090000000004
 11
1177.9668999999999
 21
984.21170000000006
  0
LINE
  8
_0-0_1
  6
CONTINUOUS
 62
    2
 10
1135.2655999999999
 20
966.51109999999994
 11
1175.2664
 21
966.51050000000009
  0
LINE
  8
_0-0_1
  6
CONTINUOUS
 62
    2
 10
1132.5651
 20
969.21119999999996
 11
1132.5675000000001
 21
1059.213
  0
LINE
  8
_0-0_1
  6
CONTINUOUS
 62
    2
 10
1205.2677000000001
 20
1005.2121
 11
1197.4733000000001
 21
1009.7119
  0
LINE
  8
_0-0_1
  6
CONTINUOUS
 62
    2
 10
1197.4733000000001
 20
1009.7119
 11
1197.473
 21
1018.7118
  0
LINE
  8
_0-0_1
  6
CONTINUOUS
 62
    2
 10
1197.473
 20
1018.7118
 11
1205.2668000000001
 21
1023.212
  0
LINE
  8
_0-0_1
  6
CONTINUOUS
 62
    2
 10
1205.2668000000001
 20
1023.212
 11
1213.0613000000001
 21
1018.7122999999999
  0
LINE
  8
_0-0_1
  6
CONTINUOUS
 62
    2
 10
1213.0613000000001
 20
1018.7122999999999
 11
1213.0617
 21
1009.7123999999999
  0
LINE
  8
_0-0_1
  6
CONTINUOUS
 62
    2
 10
1213.0617
 20
1009.7123999999999
 11
1205.2677000000001
 21
1005.2121
  0
LINE
  8
_0-0_1
  6
CONTINUOUS
 62
    2
 10
1210.2668000000001
 20
1004.2119
 11
1210.2674
 21
1008.0987
  0
LINE
  8
_0-0_1
  6
CONTINUOUS
 62
    2
 10
1200.2674
 20
1004.2117000000001
 11
1200.2672
 21
1008.0989
  0
LINE
  8
_0-0_1
  6
CONTINUOUS
 62
    2
 10
1200.2678000000001
 20
1024.2122999999999
 11
1200.2673
 21
1020.3253999999999
  0
LINE
  8
_0-0_1
  6
CONTINUOUS
 62
    2
 10
1210.2671
 20
1024.2123999999999
 11
1210.2674
 21
1020.3253
  0
LINE
  8
_0-0_1
  6
CONTINUOUS
 62
    2
 10
2135.3249999999998
 20
964.21180000000004
 11
1185.2668000000001
 21
964.21180000000004
  0
LINE
  8
_0-0_1
  6
CONTINUOUS
 62
    2
 10
1180.2669000000001
 20
1054.2121
 11
1180.2669000000001
 21
974.21209999999996
  0
LINE
  8
_0-0_1
  6
CONTINUOUS
 62
    2
 10
1185.2668000000001
 20
966.51080000000002
 11
2135.3249999999998
 21
966.51080000000002
  0
LINE
  8
_0-0_1
  6
CONTINUOUS
 62
    2
 10
1185.2668000000001
 20
1061.9123
 11
2135.3249999999998
 21
1061.9123
  0
LINE
  8
_0-0_1
  6
CONTINUOUS
 62
    2
 10
1230.2669000000001
 20
1054.2121
 11
1230.2669000000001
 21
1044.2114999999999
  0
LINE
  8
_0-0_1
  6
CONTINUOUS
 62
    2
 10
1183.4667999999999
 20
1054.2121
 11
1183.4667999999999
 21
974.21209999999996
  0
LINE
  8
_0-0_1
  6
CONTINUOUS
 62
    2
 10
1180.2669000000001
 20
1054.2121
 11
1185.2668000000001
 21
1054.2121
  0
LINE
  8
_0-0_1
  6
CONTINUOUS
 62
    2
 10
1185.2668000000001
 20
1054.2121
 11
1230.2669000000001
 21
1054.2121
  0
LINE
  8
_0-0_1
  6
CONTINUOUS
 62
    2
 10
1230.2669000000001
 20
1044.2114999999999
 11
1230.2669000000001
 21
984.21160000000009
  0
LINE
  8
_0-0_1
  6
CONTINUOUS
 62
    2
 10
1230.2669000000001
 20
984.21160000000009
 11
1230.2669000000001
 21
974.21209999999996
  0
LINE
  8
_0-0_1
  6
CONTINUOUS
 62
    2
 10
1180.2669000000001
 20
974.21209999999996
 11
1185.2668000000001
 21
974.21209999999996
  0
LINE
  8
_0-0_1
  6
CONTINUOUS
 62
    2
 10
1185.2668000000001
 20
974.21209999999996
 11
1230.2669000000001
 21
974.21209999999996
  0
LINE
  8
_0-0_1
  6
CONTINUOUS
 62
    2
 10
1185.2668000000001
 20
1064.2118
 11
1185.2668000000001
 21
1044.2114999999999
  0
LINE
  8
_0-0_1
  6
CONTINUOUS
 62
    2
 10
1185.2668000000001
 20
1044.2114999999999
 11
1185.2668000000001
 21
974.21209999999996
  0
LINE
  8
_0-0_1
  6
CONTINUOUS
 62
    2
 10
1185.2668000000001
 20
974.21209999999996
 11
1185.2668000000001
 21
964.21180000000004
  0
LINE
  8
_0-0_1
  6
DASHED1
 62
    2
 10
1185.2668000000001
 20
1044.2114999999999
 11
2135.3249999999998
 21
1044.2114999999999
  0
LINE
  8
_0-0_1
  6
DASHED1
 62
    2
 10
1185.2668000000001
 20
984.21160000000009
 11
2135.3249999999998
 21
984.21160000000009
  0
LINE
  8
_0-0_1
  6
CONTINUOUS
 62
    2
 10
1130.2660000000001
 20
1064.2118
 11
1130.2660000000001
 21
928.9550999999999
  0
LINE
  8
_0-0_1
  6
CONTINUOUS
 62
    2
 10
1080.2661000000001
 20
1064.2118
 11
1080.2661000000001
 21
928.9550999999999
  0
LINE
  8
_0-0_1
  6
CONTINUOUS
 62
    2
 10
1130.2650000000001
 20
982.07240000000002
 11
1080.2661000000001
 21
1032.0713000000001
  0
LINE
  8
_0-0_1
  6
CONTINUOUS
 62
    2
 10
1130.2647999999999
 20
977.8297
 11
1080.2661000000001
 21
1027.8286000000001
  0
LINE
  8
_0-0_1
  6
CONTINUOUS
 62
    2
 10
1080.2656999999999
 20
1019.2127
 11
1080.2664
 21
1009.2116000000001
  0
LINE
  8
_0-0_1
  6
CONTINUOUS
 62
    2
 10
1083.2657999999999
 20
1019.2118
 11
1083.2662
 21
1009.2128
  0
LINE
  8
_0-0_1
  6
CONTINUOUS
 62
    2
 10
1080.2664
 20
1009.2116000000001
 11
1083.2662
 21
1009.2128
  0
LINE
  8
_0-0_1
  6
CONTINUOUS
 62
    2
 10
1080.2656999999999
 20
1019.2127
 11
1083.2657999999999
 21
1019.2118
  0
LINE
  8
_0-0_1
  6
CONTINUOUS
 62
    2
 10
1080.2661000000001
 20
1014.2121
 11
1083.2664
 21
1014.2121
  0
LINE
  8
_0-0_1
  6
CONTINUOUS
 62
    2
 10
1145.2659000000001
 20
1014.2183
 11
1139.6657
 21
1012.2175999999999
  0
LINE
  8
_0-0_1
  6
CONTINUOUS
 62
    2
 10
1145.2659000000001
 20
1014.2183
 11
1139.6659999999999
 21
1016.2175999999999
  0
LINE
  8
_0-0_1
  6
CONTINUOUS
 62
    2
 10
1099.3680999999999
 20
1010.9762000000001
 11
1098.3104000000001
 21
1017.6231
  0
LINE
  8
_0-0_1
  6
CONTINUOUS
 62
    2
 10
1109.3687
 20
1010.9782
 11
1108.3109999999999
 21
1017.625
  0
LINE
  8
_0-0_1
  6
CONTINUOUS
 62
    2
 10
1119.3677
 20
1010.9786999999999
 11
1118.3099999999999
 21
1017.6255000000001
  0
LINE
  8
_0-0_1
  6
CONTINUOUS
 62
    2
 10
1129.3683000000001
 20
1010.9806000000001
 11
1128.3112000000001
 21
1017.6261
  0
LINE
  8
_0-0_1
  6
CONTINUOUS
 62
    2
 10
1138.1103000000001
 20
1010.9807000000001
 11
1137.0527
 21
1017.6277
  0
LINE
  8
_0-0_1
  6
CONTINUOUS
 62
    2
 10
1086.2638999999999
 20
1016.2131999999999
 11
1139.6659999999999
 21
1016.2175999999999
  0
LINE
  8
_0-0_1
  6
CONTINUOUS
 62
    2
 10
1083.2657999999999
 20
1019.2118
 11
1086.2638999999999
 21
1016.2131999999999
  0
LINE
  8
_0-0_1
  6
CONTINUOUS
 62
    2
 10
1086.2666999999999
 20
1012.2130999999999
 11
1139.6657
 21
1012.2175999999999
  0
LINE
  8
_0-0_1
  6
CONTINUOUS
 62
    2
 10
1083.2662
 20
1009.2128
 11
1086.2666999999999
 21
1012.2130999999999
  0
LINE
  8
_0-0_1
  6
CONTINUOUS
 62
    2
 10
1070.2660000000001
 20
1089.2118
 11
1070.2660000000001
 21
1064.2118
  0
LINE
  8
_0-0_1
  6
CONTINUOUS
 62
    2
 10
2135.3249999999998
 20
1064.2118
 11
1070.2660000000001
 21
1064.2118
  0
ARC
  8
_0-0_1
  6
CONTINUOUS
 62
    2
 10
1175.2664
 20
1059.2122999999999
 40
2.7000000000000002
 50
0.01099
 51
90.003097999999994
  0
ARC
  8
_0-0_1
  6
CONTINUOUS
 62
    2
 10
1135.2677000000001
 20
1059.2131999999999
 40
2.7000000000000002
 50
90.003098000000008
 51
179.98340999999999
  0
ARC
  8
_0-0_1
  6
CONTINUOUS
 62
    2
 10
1135.2655
 20
1059.2130999999999
 40
4.9989999999999997
 50
89.991318000000007
 51
180.00197
  0
ARC
  8
_0-0_1
  6
CONTINUOUS
 62
    2
 10
1175.2678000000001
 20
1059.213
 40
4.9989999999999997
 50
359.99557999999996
 51
90.012588999999963
  0
ARC
  8
_0-0_1
  6
CONTINUOUS
 62
    2
 10
1135.2638999999999
 20
969.21080000000006
 40
4.9989999999999997
 50
179.98068000000001
 51
270.00623000000007
  0
ARC
  8
_0-0_1
  6
CONTINUOUS
 62
    2
 10
1175.2671
 20
969.21029999999996
 40
4.9989999999999997
 50
269.98493999999999
 51
0.0168699999999887
  0
ARC
  8
_0-0_1
  6
CONTINUOUS
 62
    2
 10
1175.2661000000001
 20
969.21080000000006
 40
2.7000000000000002
 50
269.99128999999999
 51
0.0109900000000208
  0
ARC
  8
_0-0_1
  6
CONTINUOUS
 62
    2
 10
1135.2650000000001
 20
969.21129999999994
 40
2.7000000000000002
 50
179.98340999999999
 51
269.99128999999999
  0
ARC
  8
_0-0_1
  6
CONTINUOUS
 62
    2
 10
1205.2672
 20
1004.2118
 40
5
 50
179.99697000000003
 51
0.0118600000000697
  0
ARC
  8
_0-0_1
  6
CONTINUOUS
 62
    2
 10
1205.2674
 20
1024.2122999999999
 40
5
 50
0.0118599999999999
 51
179.99697
  0
LINE
  8
_0-0_1
  6
CONTINUOUS
 62
    4
 10
1771.7629999999999
 20
1165.329
 11
1773.8137999999999
 21
1166.1346000000001
  0
LINE
  8
_0-0_1
  6
CONTINUOUS
 62
    4
 10
1773.8137999999999
 20
1166.1346000000001
 11
1777.3622999999998
 21
1167.5307
  0
LINE
  8
_0-0_1
  6
CONTINUOUS
 62
    4
 10
1777.3622999999998
 20
1167.5307
 11
1780.9348
 21
1168.943
  0
LINE
  8
_0-0_1
  6
CONTINUOUS
 62
    4
 10
1780.9348
 20
1168.943
 11
1784.5355
 21
1170.3771999999999
  0
LINE
  8
_0-0_1
  6
CONTINUOUS
 62
    4
 10
1784.5355
 20
1170.3771999999999
 11
1788.1684
 21
1171.8393000000001
  0
LINE
  8
_0-0_1
  6
CONTINUOUS
 62
    4
 10
1788.1684
 20
1171.8393000000001
 11
1791.8271
 21
1173.3308999999999
  0
LINE
  8
_0-0_1
  6
CONTINUOUS
 62
    4
 10
1791.8271
 20
1173.3308999999999
 11
1793.9702000000002
 21
1174.2148999999999
  0
LINE
  8
_0-0_1
  6
CONTINUOUS
 62
    4
 10
1793.9702000000002
 20
1174.2148999999999
 11
1795.9823000000001
 21
1175.0498
  0
LINE
  8
_0-0_1
  6
CONTINUOUS
 62
    4
 10
1795.9823000000001
 20
1175.0498
 11
1799.2361000000001
 21
1176.3667
  0
LINE
  8
_0-0_1
  6
CONTINUOUS
 62
    4
 10
1799.2361000000001
 20
1176.3667
 11
1802.1167
 21
1177.4293
  0
LINE
  8
_0-0_1
  6
CONTINUOUS
 62
    4
 10
1802.1167
 20
1177.4293
 11
1804.5745000000002
 21
1178.1833999999999
  0
LINE
  8
_0-0_1
  6
CONTINUOUS
 62
    4
 10
1804.5745000000002
 20
1178.1833999999999
 11
1806.5603999999998
 21
1178.6186
  0
LINE
  8
_0-0_1
  6
CONTINUOUS
 62
    4
 10
1806.5603999999998
 20
1178.6186
 11
1808.3371999999999
 21
1178.8079
  0
LINE
  8
_0-0_1
  6
CONTINUOUS
 62
    4
 10
1808.3371999999999
 20
1178.8079
 11
1809.0167999999999
 21
1178.8086000000001
  0
LINE
  8
_0-0_1
  6
CONTINUOUS
 62
    4
 10
1809.0167999999999
 20
1178.8086000000001
 11
1808.9405999999999
 21
1178.8131000000001
  0
LINE
  8
_0-0_1
  6
CONTINUOUS
 62
    4
 10
1808.9405999999999
 20
1178.8131000000001
 11
1809.5551999999998
 21
1178.7501
  0
LINE
  8
_0-0_1
  6
CONTINUOUS
 62
    4
 10
1809.5551999999998
 20
1178.7501
 11
1810.1469999999999
 21
1178.6587
  0
LINE
  8
_0-0_1
  6
CONTINUOUS
 62
    4
 10
1810.1469999999999
 20
1178.6587
 11
1810.8164000000002
 21
1178.5228999999999
  0
LINE
  8
_0-0_1
  6
CONTINUOUS
 62
    4
 10
1810.8164000000002
 20
1178.5228999999999
 11
1811.5524999999998
 21
1178.3407
  0
LINE
  8
_0-0_1
  6
CONTINUOUS
 62
    4
 10
1811.5524999999998
 20
1178.3407
 11
1812.4052000000001
 21
1178.0941
  0
LINE
  8
_0-0_1
  6
CONTINUOUS
 62
    4
 10
1812.4052000000001
 20
1178.0941
 11
1812.6504
 21
1178.0155999999999
  0
LINE
  8
_0-0_1
  6
CONTINUOUS
 62
    4
 10
1812.6504
 20
1178.0155999999999
 11
1814.2184000000002
 21
1177.4454000000001
  0
LINE
  8
_0-0_1
  6
CONTINUOUS
 62
    4
 10
1814.2184000000002
 20
1177.4454000000001
 11
1817.1849999999999
 21
1176.1161999999999
  0
LINE
  8
_0-0_1
  6
CONTINUOUS
 62
    4
 10
1817.1849999999999
 20
1176.1161999999999
 11
1820.1689000000001
 21
1174.4972
  0
LINE
  8
_0-0_1
  6
CONTINUOUS
 62
    4
 10
1820.1689000000001
 20
1174.4972
 11
1823.3645999999999
 21
1172.5201999999999
  0
LINE
  8
_0-0_1
  6
CONTINUOUS
 62
    4
 10
1823.3645999999999
 20
1172.5201999999999
 11
1826.7817
 21
1170.2228
  0
LINE
  8
_0-0_1
  6
CONTINUOUS
 62
    4
 10
1826.7817
 20
1170.2228
 11
1830.4234000000001
 21
1167.6709000000001
  0
LINE
  8
_0-0_1
  6
CONTINUOUS
 62
    4
 10
1830.4234000000001
 20
1167.6709000000001
 11
1832.6525000000001
 21
1166.0995
  0
LINE
  8
_0-0_1
  6
CONTINUOUS
 62
    4
 10
1832.6525000000001
 20
1166.0995
 11
1836.1770999999999
 21
1163.6481000000001
  0
LINE
  8
_0-0_1
  6
CONTINUOUS
 62
    4
 10
1836.1770999999999
 20
1163.6481000000001
 11
1842.3276000000001
 21
1159.5085999999999
  0
LINE
  8
_0-0_1
  6
CONTINUOUS
 62
    4
 10
1842.3276000000001
 20
1159.5085999999999
 11
1848.6886
 21
1155.4570000000001
  0
LINE
  8
_0-0_1
  6
CONTINUOUS
 62
    4
 10
1848.6886
 20
1155.4570000000001
 11
1855.2642999999998
 21
1151.5596
  0
LINE
  8
_0-0_1
  6
CONTINUOUS
 62
    4
 10
1855.2642999999998
 20
1151.5596
 11
1862.0825
 21
1147.8705
  0
LINE
  8
_0-0_1
  6
CONTINUOUS
 62
    4
 10
1862.0825
 20
1147.8705
 11
1869.0733
 21
1144.4933000000001
  0
LINE
  8
_0-0_1
  6
CONTINUOUS
 62
    4
 10
1869.0733
 20
1144.4933000000001
 11
1873.3732
 21
1142.6287
  0
LINE
  8
_0-0_1
  6
CONTINUOUS
 62
    4
 10
1873.3732
 20
1142.6287
 11
1876.9989
 21
1141.1812
  0
LINE
  8
_0-0_1
  6
CONTINUOUS
 62
    4
 10
1876.9989
 20
1141.1812
 11
1883.0859
 21
1139.0041000000001
  0
LINE
  8
_0-0_1
  6
CONTINUOUS
 62
    4
 10
1883.0859
 20
1139.0041000000001
 11
1889.3633
 21
1137.0805
  0
LINE
  8
_0-0_1
  6
CONTINUOUS
 62
    4
 10
1889.3633
 20
1137.0805
 11
1895.7354
 21
1135.4478999999999
  0
LINE
  8
_0-0_1
  6
CONTINUOUS
 62
    4
 10
1895.7354
 20
1135.4478999999999
 11
1902.1889000000001
 21
1134.115
  0
LINE
  8
_0-0_1
  6
CONTINUOUS
 62
    4
 10
1902.1889000000001
 20
1134.115
 11
1908.6172999999999
 21
1133.1059
  0
LINE
  8
_0-0_1
  6
CONTINUOUS
 62
    4
 10
1908.6172999999999
 20
1133.1059
 11
1912.4829
 21
1132.6511
  0
LINE
  8
_0-0_1
  6
CONTINUOUS
 62
    4
 10
1912.4829
 20
1132.6511
 11
1915.4816000000001
 21
1132.3744999999999
  0
LINE
  8
_0-0_1
  6
CONTINUOUS
 62
    4
 10
1915.4816000000001
 20
1132.3744999999999
 11
1920.3789000000002
 21
1132.0606
  0
LINE
  8
_0-0_1
  6
CONTINUOUS
 62
    4
 10
1920.3789000000002
 20
1132.0606
 11
1925.2891
 21
1131.9047
  0
LINE
  8
_0-0_1
  6
CONTINUOUS
 62
    4
 10
1925.2891
 20
1131.9047
 11
1930.1372000000001
 21
1131.8895
  0
LINE
  8
_0-0_1
  6
CONTINUOUS
 62
    4
 10
1930.1372000000001
 20
1131.8895
 11
1934.9200999999998
 21
1131.9938999999999
  0
LINE
  8
_0-0_1
  6
CONTINUOUS
 62
    4
 10
1934.9200999999998
 20
1131.9938999999999
 11
1939.6053999999999
 21
1132.1964
  0
LINE
  8
_0-0_1
  6
CONTINUOUS
 62
    4
 10
1939.6053999999999
 20
1132.1964
 11
1942.3806
 21
1132.3563999999999
  0
LINE
  8
_0-0_1
  6
CONTINUOUS
 62
    4
 10
1942.3806
 20
1132.3563999999999
 11
1947.4083999999998
 21
1132.712
  0
LINE
  8
_0-0_1
  6
CONTINUOUS
 62
    4
 10
1947.4083999999998
 20
1132.712
 11
1955.9245000000001
 21
1133.4920999999999
  0
LINE
  8
_0-0_1
  6
CONTINUOUS
 62
    4
 10
1955.9245000000001
 20
1133.4920999999999
 11
1964.3966999999998
 21
1134.4608000000001
  0
LINE
  8
_0-0_1
  6
CONTINUOUS
 62
    4
 10
1964.3966999999998
 20
1134.4608000000001
 11
1972.7732999999998
 21
1135.5730000000001
  0
LINE
  8
_0-0_1
  6
CONTINUOUS
 62
    4
 10
1972.7732999999998
 20
1135.5730000000001
 11
1981.0578
 21
1136.7893999999999
  0
LINE
  8
_0-0_1
  6
CONTINUOUS
 62
    4
 10
1981.0578
 20
1136.7893999999999
 11
1989.2485000000001
 21
1138.0712000000001
  0
LINE
  8
_0-0_1
  6
CONTINUOUS
 62
    4
 10
1989.2485000000001
 20
1138.0712000000001
 11
1993.9753999999998
 21
1138.8326999999999
  0
LINE
  8
_0-0_1
  6
CONTINUOUS
 62
    4
 10
1993.9753999999998
 20
1138.8326999999999
 11
1996.4254999999998
 21
1139.2308
  0
LINE
  8
_0-0_1
  6
CONTINUOUS
 62
    4
 10
1996.4254999999998
 20
1139.2308
 11
2000.6304
 21
1139.9182000000001
  0
LINE
  8
_0-0_1
  6
CONTINUOUS
 62
    4
 10
2000.6304
 20
1139.9182000000001
 11
2004.8326999999999
 21
1140.6094000000001
  0
LINE
  8
_0-0_1
  6
CONTINUOUS
 62
    4
 10
2004.8326999999999
 20
1140.6094000000001
 11
2009.0302000000001
 21
1141.3031000000001
  0
LINE
  8
_0-0_1
  6
CONTINUOUS
 62
    4
 10
2009.0302000000001
 20
1141.3031000000001
 11
2013.2231000000002
 21
1141.9984999999999
  0
LINE
  8
_0-0_1
  6
CONTINUOUS
 62
    4
 10
2013.2231000000002
 20
1141.9984999999999
 11
2017.4117000000001
 21
1142.6947
  0
LINE
  8
_0-0_1
  6
CONTINUOUS
 62
    4
 10
2017.4117000000001
 20
1142.6947
 11
2019.0257999999999
 21
1142.9631999999999
  0
LINE
  8
_0-0_1
  6
CONTINUOUS
 62
    4
 10
1255.1566
 20
1183.1592000000001
 11
1256.2816
 21
1183.6080999999999
  0
LINE
  8
_0-0_1
  6
CONTINUOUS
 62
    2
 10
1069.338
 20
1127.6259
 11
1069.338
 21
1091.3325
  0
LINE
  8
_0-0_1
  6
CONTINUOUS
 62
    2
 10
1104.338
 20
1114.2771
 11
1104.338
 21
1091.3325
  0
LINE
  8
_0-0_1
  6
CONTINUOUS
 62
    2
 10
1069.338
 20
1127.6259
 11
1104.338
 21
1114.2771
  0
LINE
  8
_0-0_1
  6
CONTINUOUS
 62
    4
 10
1375.6972999999998
 20
1103.1332
 11
1367.1619000000001
 21
1117.6665
  0
LINE
  8
_0-0_1
  6
CONTINUOUS
 62
    4
 10
1383.8652
 20
1102.4829
 11
1392.1713999999999
 21
1112.5483999999999
  0
ARC
  8
_0-0_1
  6
CONTINUOUS
 62
    4
 10
1380.0088000000001
 20
1105.6652999999999
 40
5
 50
210.42578
 51
320.47001
  0
LINE
  8
_0-0_1
  6
CONTINUOUS
 62
    4
 10
1459.8108000000002
 20
1102.0129999999999
 11
1452.4854
 21
1113.3190999999999
  0
LINE
  8
_0-0_1
  6
CONTINUOUS
 62
    4
 10
1468.3202999999999
 20
1102.2029
 11
1477.2588000000001
 21
1117.4485999999999
  0
ARC
  8
_0-0_1
  6
DASHED1
 62
    4
 10
1464.0070000000001
 20
1104.7318
 40
5
 50
212.93986000000001
 51
329.61716000000001
  0
LINE
  8
_0-0_1
  6
CONTINUOUS
 62
    4
 10
1256.2811999999999
 20
1183.6072999999999
 11
1257.0907999999999
 21
1183.9253000000001
  0
LINE
  8
_0-0_1
  6
CONTINUOUS
 62
    4
 10
1257.0907999999999
 20
1183.9253000000001
 11
1260.6210000000001
 21
1185.3143
  0
LINE
  8
_0-0_1
  6
CONTINUOUS
 62
    4
 10
1260.6210000000001
 20
1185.3143
 11
1264.1584
 21
1186.7127
  0
LINE
  8
_0-0_1
  6
CONTINUOUS
 62
    4
 10
1264.1584
 20
1186.7127
 11
1267.7076999999999
 21
1188.1264000000001
  0
LINE
  8
_0-0_1
  6
CONTINUOUS
 62
    4
 10
1267.7076999999999
 20
1188.1264000000001
 11
1271.2734
 21
1189.5614
  0
LINE
  8
_0-0_1
  6
CONTINUOUS
 62
    4
 10
1271.2734
 20
1189.5614
 11
1274.8599999999999
 21
1191.0236
  0
LINE
  8
_0-0_1
  6
CONTINUOUS
 62
    4
 10
1274.8599999999999
 20
1191.0236
 11
1276.9517000000001
 21
1191.8865000000001
  0
LINE
  8
_0-0_1
  6
CONTINUOUS
 62
    4
 10
1276.9517000000001
 20
1191.8865000000001
 11
1279.0192999999999
 21
1192.7443000000001
  0
LINE
  8
_0-0_1
  6
CONTINUOUS
 62
    4
 10
1279.0192999999999
 20
1192.7443000000001
 11
1282.6059
 21
1194.1959999999999
  0
LINE
  8
_0-0_1
  6
CONTINUOUS
 62
    4
 10
1282.6059
 20
1194.1959999999999
 11
1286.2203999999999
 21
1195.5292999999999
  0
LINE
  8
_0-0_1
  6
CONTINUOUS
 62
    4
 10
1286.2203999999999
 20
1195.5292999999999
 11
1289.8630000000001
 21
1196.6469
  0
LINE
  8
_0-0_1
  6
CONTINUOUS
 62
    4
 10
1289.8630000000001
 20
1196.6469
 11
1293.5343
 21
1197.4514999999999
  0
LINE
  8
_0-0_1
  6
CONTINUOUS
 62
    4
 10
1293.5343
 20
1197.4514999999999
 11
1297.2344000000001
 21
1197.8457000000001
  0
LINE
  8
_0-0_1
  6
CONTINUOUS
 62
    4
 10
1297.2344000000001
 20
1197.8457000000001
 11
1299.3939
 21
1197.848
  0
LINE
  8
_0-0_1
  6
CONTINUOUS
 62
    4
 10
1299.3939
 20
1197.848
 11
1300.2438000000002
 21
1197.7985000000001
  0
LINE
  8
_0-0_1
  6
CONTINUOUS
 62
    4
 10
1300.2438000000002
 20
1197.7985000000001
 11
1301.7103999999999
 21
1197.6483000000001
  0
LINE
  8
_0-0_1
  6
CONTINUOUS
 62
    4
 10
1301.7103999999999
 20
1197.6483000000001
 11
1303.1747999999998
 21
1197.422
  0
LINE
  8
_0-0_1
  6
CONTINUOUS
 62
    4
 10
1303.1747999999998
 20
1197.422
 11
1304.6327999999999
 21
1197.1262999999999
  0
LINE
  8
_0-0_1
  6
CONTINUOUS
 62
    4
 10
1304.6327999999999
 20
1197.1262999999999
 11
1306.0799999999999
 21
1196.768
  0
LINE
  8
_0-0_1
  6
CONTINUOUS
 62
    4
 10
1306.0799999999999
 20
1196.768
 11
1307.5124000000001
 21
1196.3538000000001
  0
LINE
  8
_0-0_1
  6
CONTINUOUS
 62
    4
 10
1307.5124000000001
 20
1196.3538000000001
 11
1308.3346000000001
 21
1196.0907
  0
LINE
  8
_0-0_1
  6
CONTINUOUS
 62
    4
 10
1308.3346000000001
 20
1196.0907
 11
1310.8458999999998
 21
1195.1774
  0
LINE
  8
_0-0_1
  6
CONTINUOUS
 62
    4
 10
1310.8458999999998
 20
1195.1774
 11
1315.0314000000001
 21
1193.3021000000001
  0
LINE
  8
_0-0_1
  6
CONTINUOUS
 62
    4
 10
1315.0314000000001
 20
1193.3021000000001
 11
1319.0661
 21
1191.1129000000001
  0
LINE
  8
_0-0_1
  6
CONTINUOUS
 62
    4
 10
1319.0661
 20
1191.1129000000001
 11
1322.9872
 21
1188.6871000000001
  0
LINE
  8
_0-0_1
  6
CONTINUOUS
 62
    4
 10
1322.9872
 20
1188.6871000000001
 11
1326.8317
 21
1186.1024
  0
LINE
  8
_0-0_1
  6
CONTINUOUS
 62
    4
 10
1326.8317
 20
1186.1024
 11
1330.6366
 21
1183.4362000000001
  0
LINE
  8
_0-0_1
  6
CONTINUOUS
 62
    4
 10
1330.6366
 20
1183.4362000000001
 11
1332.8397999999997
 21
1181.883
  0
LINE
  8
_0-0_1
  6
CONTINUOUS
 62
    4
 10
1332.8397999999997
 20
1181.883
 11
1336.2044000000001
 21
1179.5428999999999
  0
LINE
  8
_0-0_1
  6
CONTINUOUS
 62
    4
 10
1336.2044000000001
 20
1179.5428999999999
 11
1342.0521000000003
 21
1175.6071999999999
  0
LINE
  8
_0-0_1
  6
CONTINUOUS
 62
    4
 10
1342.0521000000003
 20
1175.6071999999999
 11
1347.9775999999997
 21
1171.8330000000001
  0
LINE
  8
_0-0_1
  6
CONTINUOUS
 62
    4
 10
1347.9775999999997
 20
1171.8330000000001
 11
1354.0021999999999
 21
1168.2623000000001
  0
LINE
  8
_0-0_1
  6
CONTINUOUS
 62
    4
 10
1354.0021999999999
 20
1168.2623000000001
 11
1360.1474000000003
 21
1164.9372000000001
  0
LINE
  8
_0-0_1
  6
CONTINUOUS
 62
    4
 10
1360.1474000000003
 20
1164.9372000000001
 11
1366.4347
 21
1161.8998999999999
  0
LINE
  8
_0-0_1
  6
CONTINUOUS
 62
    4
 10
1366.4347
 20
1161.8998999999999
 11
1370.1549
 21
1160.2867000000001
  0
LINE
  8
_0-0_1
  6
CONTINUOUS
 62
    4
 10
1370.1549
 20
1160.2867000000001
 11
1373.2314999999999
 21
1159.0583999999999
  0
LINE
  8
_0-0_1
  6
CONTINUOUS
 62
    4
 10
1373.2314999999999
 20
1159.0583999999999
 11
1378.6195
 21
1157.1313
  0
LINE
  8
_0-0_1
  6
CONTINUOUS
 62
    4
 10
1378.6195
 20
1157.1313
 11
1384.0992000000001
 21
1155.4521
  0
LINE
  8
_0-0_1
  6
CONTINUOUS
 62
    4
 10
1384.0992000000001
 20
1155.4521
 11
1389.6546000000001
 21
1154.0288
  0
LINE
  8
_0-0_1
  6
CONTINUOUS
 62
    4
 10
1389.6546000000001
 20
1154.0288
 11
1395.2696000000001
 21
1152.8690999999999
  0
LINE
  8
_0-0_1
  6
CONTINUOUS
 62
    4
 10
1395.2696000000001
 20
1152.8690999999999
 11
1400.9283
 21
1151.9808
  0
LINE
  8
_0-0_1
  6
CONTINUOUS
 62
    4
 10
1400.9283
 20
1151.9808
 11
1404.2239999999997
 21
1151.5930000000001
  0
LINE
  8
_0-0_1
  6
CONTINUOUS
 62
    4
 10
1404.2239999999997
 20
1151.5930000000001
 11
1406.7467999999999
 21
1151.3604
  0
LINE
  8
_0-0_1
  6
CONTINUOUS
 62
    4
 10
1406.7467999999999
 20
1151.3604
 11
1411.1032
 21
1151.0811000000001
  0
LINE
  8
_0-0_1
  6
CONTINUOUS
 62
    4
 10
1411.1032
 20
1151.0811000000001
 11
1415.4657999999999
 21
1150.9426000000001
  0
LINE
  8
_0-0_1
  6
CONTINUOUS
 62
    4
 10
1415.4657999999999
 20
1150.9426000000001
 11
1419.8316
 21
1150.9289000000001
  0
LINE
  8
_0-0_1
  6
CONTINUOUS
 62
    4
 10
1419.8316
 20
1150.9289000000001
 11
1424.1977999999999
 21
1151.0242000000001
  0
LINE
  8
_0-0_1
  6
CONTINUOUS
 62
    4
 10
1424.1977999999999
 20
1151.0242000000001
 11
1428.5615000000003
 21
1151.2128
  0
LINE
  8
_0-0_1
  6
CONTINUOUS
 62
    4
 10
1428.5615000000003
 20
1151.2128
 11
1431.0902000000001
 21
1151.3586
  0
LINE
  8
_0-0_1
  6
CONTINUOUS
 62
    4
 10
1431.0902000000001
 20
1151.3586
 11
1435.8150000000001
 21
1151.6928
  0
LINE
  8
_0-0_1
  6
CONTINUOUS
 62
    4
 10
1435.8150000000001
 20
1151.6928
 11
1443.9436000000001
 21
1152.4373000000001
  0
LINE
  8
_0-0_1
  6
CONTINUOUS
 62
    4
 10
1443.9436000000001
 20
1152.4373000000001
 11
1452.0522000000001
 21
1153.3644999999999
  0
LINE
  8
_0-0_1
  6
CONTINUOUS
 62
    4
 10
1452.0522000000001
 20
1153.3644999999999
 11
1460.1439
 21
1154.4389000000001
  0
LINE
  8
_0-0_1
  6
CONTINUOUS
 62
    4
 10
1460.1439
 20
1154.4389000000001
 11
1468.2215000000001
 21
1155.6249
  0
LINE
  8
_0-0_1
  6
CONTINUOUS
 62
    4
 10
1468.2215000000001
 20
1155.6249
 11
1476.2883000000002
 21
1156.8873000000001
  0
LINE
  8
_0-0_1
  6
CONTINUOUS
 62
    4
 10
1476.2883000000002
 20
1156.8873000000001
 11
1480.9630999999999
 21
1157.6404
  0
LINE
  8
_0-0_1
  6
CONTINUOUS
 62
    4
 10
1480.9630999999999
 20
1157.6404
 11
1483.3926999999999
 21
1158.0352
  0
LINE
  8
_0-0_1
  6
CONTINUOUS
 62
    4
 10
1483.3926999999999
 20
1158.0352
 11
1487.5805
 21
1158.7197000000001
  0
LINE
  8
_0-0_1
  6
CONTINUOUS
 62
    4
 10
1487.5805
 20
1158.7197000000001
 11
1491.7671
 21
1159.4084
  0
LINE
  8
_0-0_1
  6
CONTINUOUS
 62
    4
 10
1491.7671
 20
1159.4084
 11
1495.9526999999998
 21
1160.1001000000001
  0
LINE
  8
_0-0_1
  6
CONTINUOUS
 62
    4
 10
1495.9526999999998
 20
1160.1001000000001
 11
1500.1376
 21
1160.7942
  0
LINE
  8
_0-0_1
  6
CONTINUOUS
 62
    4
 10
1500.1376
 20
1160.7942
 11
1504.3220000000001
 21
1161.4897000000001
  0
LINE
  8
_0-0_1
  6
CONTINUOUS
 62
    4
 10
1504.3220000000001
 20
1161.4897000000001
 11
1506.7489
 21
1161.8933999999999
  0
LINE
  8
_0-0_1
  6
CONTINUOUS
 62
    4
 10
1261.6257000000001
 20
1166.3678
 11
1263.6765
 21
1167.1732999999999
  0
LINE
  8
_0-0_1
  6
CONTINUOUS
 62
    4
 10
1263.6765
 20
1167.1732999999999
 11
1267.2249999999999
 21
1168.5695000000001
  0
LINE
  8
_0-0_1
  6
CONTINUOUS
 62
    4
 10
1267.2249999999999
 20
1168.5695000000001
 11
1270.7974999999999
 21
1169.9818
  0
LINE
  8
_0-0_1
  6
CONTINUOUS
 62
    4
 10
1270.7974999999999
 20
1169.9818
 11
1274.3982000000001
 21
1171.4159999999999
  0
LINE
  8
_0-0_1
  6
CONTINUOUS
 62
    4
 10
1274.3982000000001
 20
1171.4159999999999
 11
1278.0310999999999
 21
1172.8780999999999
  0
LINE
  8
_0-0_1
  6
CONTINUOUS
 62
    4
 10
1278.0310999999999
 20
1172.8780999999999
 11
1281.6898000000001
 21
1174.3697
  0
LINE
  8
_0-0_1
  6
CONTINUOUS
 62
    4
 10
1281.6898000000001
 20
1174.3697
 11
1283.8329000000001
 21
1175.2537
  0
LINE
  8
_0-0_1
  6
CONTINUOUS
 62
    4
 10
1283.8329000000001
 20
1175.2537
 11
1285.8449999999998
 21
1176.0886
  0
LINE
  8
_0-0_1
  6
CONTINUOUS
 62
    4
 10
1285.8449999999998
 20
1176.0886
 11
1289.0987999999998
 21
1177.4055000000001
  0
LINE
  8
_0-0_1
  6
CONTINUOUS
 62
    4
 10
1289.0987999999998
 20
1177.4055000000001
 11
1291.9793999999999
 21
1178.4681
  0
LINE
  8
_0-0_1
  6
CONTINUOUS
 62
    4
 10
1291.9793999999999
 20
1178.4681
 11
1294.4372000000001
 21
1179.2221999999999
  0
LINE
  8
_0-0_1
  6
CONTINUOUS
 62
    4
 10
1294.4372000000001
 20
1179.2221999999999
 11
1296.4231
 21
1179.6574000000001
  0
LINE
  8
_0-0_1
  6
CONTINUOUS
 62
    4
 10
1296.4231
 20
1179.6574000000001
 11
1298.1999000000001
 21
1179.8467000000001
  0
LINE
  8
_0-0_1
  6
CONTINUOUS
 62
    4
 10
1298.1999000000001
 20
1179.8467000000001
 11
1298.8795
 21
1179.8474000000001
  0
LINE
  8
_0-0_1
  6
CONTINUOUS
 62
    4
 10
1298.8795
 20
1179.8474000000001
 11
1298.8033999999998
 21
1179.8517999999999
  0
LINE
  8
_0-0_1
  6
CONTINUOUS
 62
    4
 10
1298.8033999999998
 20
1179.8517999999999
 11
1299.4178999999999
 21
1179.7889
  0
LINE
  8
_0-0_1
  6
CONTINUOUS
 62
    4
 10
1299.4178999999999
 20
1179.7889
 11
1300.0097000000001
 21
1179.6975
  0
LINE
  8
_0-0_1
  6
CONTINUOUS
 62
    4
 10
1300.0097000000001
 20
1179.6975
 11
1300.6791000000001
 21
1179.5617
  0
LINE
  8
_0-0_1
  6
CONTINUOUS
 62
    4
 10
1300.6791000000001
 20
1179.5617
 11
1301.4151999999999
 21
1179.3795
  0
LINE
  8
_0-0_1
  6
CONTINUOUS
 62
    4
 10
1301.4151999999999
 20
1179.3795
 11
1302.2678999999998
 21
1179.1329000000001
  0
LINE
  8
_0-0_1
  6
CONTINUOUS
 62
    4
 10
1302.2678999999998
 20
1179.1329000000001
 11
1302.5130999999999
 21
1179.0544
  0
LINE
  8
_0-0_1
  6
CONTINUOUS
 62
    4
 10
1302.5130999999999
 20
1179.0544
 11
1304.0811000000003
 21
1178.4842000000001
  0
LINE
  8
_0-0_1
  6
CONTINUOUS
 62
    4
 10
1304.0811000000003
 20
1178.4842000000001
 11
1307.0477000000001
 21
1177.155
  0
LINE
  8
_0-0_1
  6
CONTINUOUS
 62
    4
 10
1307.0477000000001
 20
1177.155
 11
1310.0317
 21
1175.5359000000001
  0
LINE
  8
_0-0_1
  6
CONTINUOUS
 62
    4
 10
1310.0317
 20
1175.5359000000001
 11
1313.2273
 21
1173.559
  0
LINE
  8
_0-0_1
  6
CONTINUOUS
 62
    4
 10
1313.2273
 20
1173.559
 11
1316.6443999999999
 21
1171.2616
  0
LINE
  8
_0-0_1
  6
CONTINUOUS
 62
    4
 10
1316.6443999999999
 20
1171.2616
 11
1320.2861000000003
 21
1168.7097000000001
  0
LINE
  8
_0-0_1
  6
CONTINUOUS
 62
    4
 10
1320.2861000000003
 20
1168.7097000000001
 11
1322.5152
 21
1167.1383000000001
  0
LINE
  8
_0-0_1
  6
CONTINUOUS
 62
    4
 10
1322.5152
 20
1167.1383000000001
 11
1326.0398
 21
1164.6868999999999
  0
LINE
  8
_0-0_1
  6
CONTINUOUS
 62
    4
 10
1326.0398
 20
1164.6868999999999
 11
1332.1904
 21
1160.5473999999999
  0
LINE
  8
_0-0_1
  6
CONTINUOUS
 62
    4
 10
1332.1904
 20
1160.5473999999999
 11
1338.5513000000001
 21
1156.4957999999999
  0
LINE
  8
_0-0_1
  6
CONTINUOUS
 62
    4
 10
1338.5513000000001
 20
1156.4957999999999
 11
1345.127
 21
1152.5984000000001
  0
LINE
  8
_0-0_1
  6
CONTINUOUS
 62
    4
 10
1345.127
 20
1152.5984000000001
 11
1351.9452000000001
 21
1148.9093
  0
LINE
  8
_0-0_1
  6
CONTINUOUS
 62
    4
 10
1351.9452000000001
 20
1148.9093
 11
1358.9360999999999
 21
1145.5319999999999
  0
LINE
  8
_0-0_1
  6
CONTINUOUS
 62
    4
 10
1358.9360999999999
 20
1145.5319999999999
 11
1363.2358999999999
 21
1143.6675
  0
LINE
  8
_0-0_1
  6
CONTINUOUS
 62
    4
 10
1363.2358999999999
 20
1143.6675
 11
1366.8616
 21
1142.22
  0
LINE
  8
_0-0_1
  6
CONTINUOUS
 62
    4
 10
1366.8616
 20
1142.22
 11
1372.9486999999999
 21
1140.0428999999999
  0
LINE
  8
_0-0_1
  6
CONTINUOUS
 62
    4
 10
1372.9486999999999
 20
1140.0428999999999
 11
1379.2260000000001
 21
1138.1193000000001
  0
LINE
  8
_0-0_1
  6
CONTINUOUS
 62
    4
 10
1379.2260000000001
 20
1138.1193000000001
 11
1385.5981999999999
 21
1136.4866999999999
  0
LINE
  8
_0-0_1
  6
CONTINUOUS
 62
    4
 10
1385.5981999999999
 20
1136.4866999999999
 11
1392.0516
 21
1135.1538
  0
LINE
  8
_0-0_1
  6
CONTINUOUS
 62
    4
 10
1392.0516
 20
1135.1538
 11
1398.48
 21
1134.1447000000001
  0
LINE
  8
_0-0_1
  6
CONTINUOUS
 62
    4
 10
1398.48
 20
1134.1447000000001
 11
1402.3456000000001
 21
1133.6899000000001
  0
LINE
  8
_0-0_1
  6
CONTINUOUS
 62
    4
 10
1402.3456000000001
 20
1133.6899000000001
 11
1405.3442999999997
 21
1133.4132999999999
  0
LINE
  8
_0-0_1
  6
CONTINUOUS
 62
    4
 10
1405.3442999999997
 20
1133.4132999999999
 11
1410.2415999999998
 21
1133.0994000000001
  0
LINE
  8
_0-0_1
  6
CONTINUOUS
 62
    4
 10
1410.2415999999998
 20
1133.0994000000001
 11
1415.1518000000001
 21
1132.9435000000001
  0
LINE
  8
_0-0_1
  6
CONTINUOUS
 62
    4
 10
1415.1518000000001
 20
1132.9435000000001
 11
1419.9999
 21
1132.9283
  0
LINE
  8
_0-0_1
  6
CONTINUOUS
 62
    4
 10
1419.9999
 20
1132.9283
 11
1424.7828
 21
1133.0327
  0
LINE
  8
_0-0_1
  6
CONTINUOUS
 62
    4
 10
1424.7828
 20
1133.0327
 11
1429.4681
 21
1133.2351000000001
  0
LINE
  8
_0-0_1
  6
CONTINUOUS
 62
    4
 10
1429.4681
 20
1133.2351000000001
 11
1432.2433000000001
 21
1133.3951999999999
  0
LINE
  8
_0-0_1
  6
CONTINUOUS
 62
    4
 10
1432.2433000000001
 20
1133.3951999999999
 11
1437.2710999999999
 21
1133.7508
  0
LINE
  8
_0-0_1
  6
CONTINUOUS
 62
    4
 10
1437.2710999999999
 20
1133.7508
 11
1445.7872000000002
 21
1134.5308
  0
LINE
  8
_0-0_1
  6
CONTINUOUS
 62
    4
 10
1445.7872000000002
 20
1134.5308
 11
1454.2593999999999
 21
1135.4996000000001
  0
LINE
  8
_0-0_1
  6
CONTINUOUS
 62
    4
 10
1454.2593999999999
 20
1135.4996000000001
 11
1462.636
 21
1136.6117999999999
  0
LINE
  8
_0-0_1
  6
CONTINUOUS
 62
    4
 10
1462.636
 20
1136.6117999999999
 11
1470.9205000000002
 21
1137.8281999999999
  0
LINE
  8
_0-0_1
  6
CONTINUOUS
 62
    4
 10
1470.9205000000002
 20
1137.8281999999999
 11
1479.1111999999998
 21
1139.1099999999999
  0
LINE
  8
_0-0_1
  6
CONTINUOUS
 62
    4
 10
1479.1111999999998
 20
1139.1099999999999
 11
1483.8380999999999
 21
1139.8715
  0
LINE
  8
_0-0_1
  6
CONTINUOUS
 62
    4
 10
1483.8380999999999
 20
1139.8715
 11
1486.2882
 21
1140.2696000000001
  0
LINE
  8
_0-0_1
  6
CONTINUOUS
 62
    4
 10
1486.2882
 20
1140.2696000000001
 11
1490.4931000000001
 21
1140.9568999999999
  0
LINE
  8
_0-0_1
  6
CONTINUOUS
 62
    4
 10
1490.4931000000001
 20
1140.9568999999999
 11
1494.6954000000001
 21
1141.6481000000001
  0
LINE
  8
_0-0_1
  6
CONTINUOUS
 62
    4
 10
1494.6954000000001
 20
1141.6481000000001
 11
1498.8928999999998
 21
1142.3418999999999
  0
LINE
  8
_0-0_1
  6
CONTINUOUS
 62
    4
 10
1498.8928999999998
 20
1142.3418999999999
 11
1503.0857999999998
 21
1143.0373
  0
LINE
  8
_0-0_1
  6
CONTINUOUS
 62
    4
 10
1503.0857999999998
 20
1143.0373
 11
1507.2743999999998
 21
1143.7335
  0
LINE
  8
_0-0_1
  6
CONTINUOUS
 62
    4
 10
1507.2743999999998
 20
1143.7335
 11
1508.8885
 21
1144.002
  0
ARC
  8
_0-0_1
  6
CONTINUOUS
 62
    4
 10
1543.1241
 20
1169.7991
 40
3
 50
103.0288
 51
179.49999999999997
  0
LINE
  8
_0-0_1
  6
CONTINUOUS
 62
    4
 10
1255.1976999999999
 20
1163.8244999999999
 11
1261.5899999999999
 21
1166.3466000000001
  0
ARC
  8
_0-0_1
  6
CONTINUOUS
 62
    4
 10
1254.8307
 20
1164.7547
 40
1
 50
179.5
 51
291.53165999999999
  0
LINE
  8
_0-0_1
  6
CONTINUOUS
 62
    4
 10
1547.6880000000001
 20
1173.9345000000001
 11
1542.4477999999999
 21
1172.7219
  0
ARC
  8
_0-0_1
  6
CONTINUOUS
 62
    4
 10
1547.9135000000001
 20
1172.9602
 40
1
 50
359.50000000000006
 51
103.02880000000002
  0
LINE
  8
_0-0_1
  6
CONTINUOUS
 62
    4
 10
1510.0731000000001
 20
1142.2641000000001
 11
1540.3868000000002
 21
1149.3580999999999
  0
ARC
  8
_0-0_1
  6
CONTINUOUS
 62
    4
 10
1547.7276999999999
 20
1151.6674
 40
1
 50
359.50000000000006
 51
103.08296000000006
  0
LINE
  8
_0-0_1
  6
CONTINUOUS
 62
    4
 10
1541.1678000000002
 20
1151.1695999999999
 11
1547.5012999999999
 21
1152.6414
  0
LINE
  8
_0-0_1
  6
CONTINUOUS
 62
    4
 10
1540.3942000000002
 20
1150.2041999999999
 11
1540.3868000000002
 21
1149.3580999999999
  0
ARC
  8
_0-0_1
  6
CONTINUOUS
 62
    4
 10
1541.3942000000002
 20
1150.1955
 40
1
 50
103.08296000000001
 51
179.50000000000003
  0
ARC
  8
_0-0_1
  6
CONTINUOUS
 62
    4
 10
1547.7476000000001
 20
1153.9504999999999
 40
1
 50
283.04496999999998
 51
359.5
  0
LINE
  8
_0-0_1
  6
CONTINUOUS
 62
    4
 10
1507.6024000000002
 20
1141.7606000000001
 11
1510.0304999999998
 21
1142.1645000000001
  0
LINE
  8
_0-0_1
  6
CONTINUOUS
 62
    4
 10
1503.4133000000002
 20
1141.0643
 11
1507.6024000000002
 21
1141.7606000000001
  0
LINE
  8
_0-0_1
  6
CONTINUOUS
 62
    4
 10
1499.2195999999999
 20
1140.3688
 11
1503.4133000000002
 21
1141.0643
  0
LINE
  8
_0-0_1
  6
CONTINUOUS
 62
    4
 10
1495.0207999999998
 20
1139.6748
 11
1499.2195999999999
 21
1140.3688
  0
LINE
  8
_0-0_1
  6
CONTINUOUS
 62
    4
 10
1490.8166999999999
 20
1138.9833000000001
 11
1495.0207999999998
 21
1139.6748
  0
LINE
  8
_0-0_1
  6
CONTINUOUS
 62
    4
 10
1486.6098999999999
 20
1138.2956999999999
 11
1490.8166999999999
 21
1138.9833000000001
  0
LINE
  8
_0-0_1
  6
CONTINUOUS
 62
    4
 10
1484.1576
 20
1137.8972000000001
 11
1486.6098999999999
 21
1138.2956999999999
  0
LINE
  8
_0-0_1
  6
CONTINUOUS
 62
    4
 10
1479.4247999999998
 20
1137.1347000000001
 11
1484.1576
 21
1137.8972000000001
  0
LINE
  8
_0-0_1
  6
CONTINUOUS
 62
    4
 10
1471.2204000000002
 20
1135.8507999999999
 11
1479.4247999999998
 21
1137.1347000000001
  0
LINE
  8
_0-0_1
  6
CONTINUOUS
 62
    4
 10
1462.9128999999998
 20
1134.6310000000001
 11
1471.2204000000002
 21
1135.8507999999999
  0
LINE
  8
_0-0_1
  6
CONTINUOUS
 62
    4
 10
1454.5046000000002
 20
1133.5146
 11
1462.9128999999998
 21
1134.6310000000001
  0
LINE
  8
_0-0_1
  6
CONTINUOUS
 62
    4
 10
1445.9920999999999
 20
1132.5411999999999
 11
1454.5046000000002
 21
1133.5146
  0
LINE
  8
_0-0_1
  6
CONTINUOUS
 62
    4
 10
1437.4328999999998
 20
1131.7572
 11
1445.9920999999999
 21
1132.5411999999999
  0
LINE
  8
_0-0_1
  6
CONTINUOUS
 62
    4
 10
1432.3714
 20
1131.3992000000001
 11
1437.4328999999998
 21
1131.7572
  0
LINE
  8
_0-0_1
  6
CONTINUOUS
 62
    4
 10
1429.5688
 20
1131.2375999999999
 11
1432.3714
 21
1131.3992000000001
  0
LINE
  8
_0-0_1
  6
CONTINUOUS
 62
    4
 10
1424.8478
 20
1131.0337
 11
1429.5688
 21
1131.2375999999999
  0
LINE
  8
_0-0_1
  6
CONTINUOUS
 62
    4
 10
1420.0186000000003
 20
1130.9282000000001
 11
1424.8478
 21
1131.0337
  0
LINE
  8
_0-0_1
  6
CONTINUOUS
 62
    4
 10
1415.1169
 20
1130.9436000000001
 11
1420.0186000000003
 21
1130.9282000000001
  0
LINE
  8
_0-0_1
  6
CONTINUOUS
 62
    4
 10
1410.1459
 20
1131.1015
 11
1415.1169
 21
1130.9436000000001
  0
LINE
  8
_0-0_1
  6
CONTINUOUS
 62
    4
 10
1405.1884999999997
 20
1131.4192
 11
1410.1459
 21
1131.1015
  0
LINE
  8
_0-0_1
  6
CONTINUOUS
 62
    4
 10
1402.1369
 20
1131.7005999999999
 11
1405.1884999999997
 21
1131.4192
  0
LINE
  8
_0-0_1
  6
CONTINUOUS
 62
    4
 10
1398.2080000000001
 20
1132.1629
 11
1402.1369
 21
1131.7005999999999
  0
LINE
  8
_0-0_1
  6
CONTINUOUS
 62
    4
 10
1391.6940999999999
 20
1133.1854000000001
 11
1398.2080000000001
 21
1132.1629
  0
LINE
  8
_0-0_1
  6
CONTINUOUS
 62
    4
 10
1385.1474000000003
 20
1134.5376000000001
 11
1391.6940999999999
 21
1133.1854000000001
  0
LINE
  8
_0-0_1
  6
CONTINUOUS
 62
    4
 10
1378.6844999999998
 20
1136.1934000000001
 11
1385.1474000000003
 21
1134.5376000000001
  0
LINE
  8
_0-0_1
  6
CONTINUOUS
 62
    4
 10
1372.3186000000001
 20
1138.1442
 11
1378.6844999999998
 21
1136.1934000000001
  0
LINE
  8
_0-0_1
  6
CONTINUOUS
 62
    4
 10
1366.1538
 20
1140.3490999999999
 11
1372.3186000000001
 21
1138.1442
  0
LINE
  8
_0-0_1
  6
CONTINUOUS
 62
    4
 10
1362.4671000000001
 20
1141.8208999999999
 11
1366.1538
 21
1140.3490999999999
  0
LINE
  8
_0-0_1
  6
CONTINUOUS
 62
    4
 10
1358.1029000000001
 20
1143.7134000000001
 11
1362.4671000000001
 21
1141.8208999999999
  0
LINE
  8
_0-0_1
  6
CONTINUOUS
 62
    4
 10
1351.0337999999999
 20
1147.1284000000001
 11
1358.1029000000001
 21
1143.7134000000001
  0
LINE
  8
_0-0_1
  6
CONTINUOUS
 62
    4
 10
1344.1409000000001
 20
1150.8579999999999
 11
1351.0337999999999
 21
1147.1284000000001
  0
LINE
  8
_0-0_1
  6
CONTINUOUS
 62
    4
 10
1337.5038999999997
 20
1154.7917
 11
1344.1409000000001
 21
1150.8579999999999
  0
LINE
  8
_0-0_1
  6
CONTINUOUS
 62
    4
 10
1331.0945999999999
 20
1158.8741
 11
1337.5038999999997
 21
1154.7917
  0
LINE
  8
_0-0_1
  6
CONTINUOUS
 62
    4
 10
1324.9104
 20
1163.0362
 11
1331.0945999999999
 21
1158.8741
  0
LINE
  8
_0-0_1
  6
CONTINUOUS
 62
    4
 10
1321.3680999999999
 20
1165.4999
 11
1324.9104
 21
1163.0362
  0
LINE
  8
_0-0_1
  6
CONTINUOUS
 62
    4
 10
1319.1361000000002
 20
1167.0734
 11
1321.3680999999999
 21
1165.4999
  0
LINE
  8
_0-0_1
  6
CONTINUOUS
 62
    4
 10
1315.5125
 20
1169.6125999999999
 11
1319.1361000000002
 21
1167.0734
  0
LINE
  8
_0-0_1
  6
CONTINUOUS
 62
    4
 10
1312.1428000000001
 20
1171.8780999999999
 11
1315.5125
 21
1169.6125999999999
  0
LINE
  8
_0-0_1
  6
CONTINUOUS
 62
    4
 10
1309.0278000000001
 20
1173.8052
 11
1312.1428000000001
 21
1171.8780999999999
  0
LINE
  8
_0-0_1
  6
CONTINUOUS
 62
    4
 10
1306.1606000000002
 20
1175.3608999999999
 11
1309.0278000000001
 21
1173.8052
  0
LINE
  8
_0-0_1
  6
CONTINUOUS
 62
    4
 10
1303.3295000000001
 20
1176.6294
 11
1306.1606000000002
 21
1175.3608999999999
  0
LINE
  8
_0-0_1
  6
CONTINUOUS
 62
    4
 10
1301.8662999999997
 20
1177.1614999999999
 11
1303.3295000000001
 21
1176.6294
  0
LINE
  8
_0-0_1
  6
CONTINUOUS
 62
    4
 10
1301.6851999999999
 20
1177.2194999999999
 11
1301.8662999999997
 21
1177.1614999999999
  0
LINE
  8
_0-0_1
  6
CONTINUOUS
 62
    4
 10
1300.8969
 20
1177.4474
 11
1301.6851999999999
 21
1177.2194999999999
  0
LINE
  8
_0-0_1
  6
CONTINUOUS
 62
    4
 10
1300.2397999999998
 20
1177.6101000000001
 11
1300.8969
 21
1177.4474
  0
LINE
  8
_0-0_1
  6
CONTINUOUS
 62
    4
 10
1299.6579999999999
 20
1177.7281
 11
1300.2397999999998
 21
1177.6101000000001
  0
LINE
  8
_0-0_1
  6
CONTINUOUS
 62
    4
 10
1299.6179000000002
 20
1177.7343000000001
 11
1299.6579999999999
 21
1177.7281
  0
LINE
  8
_0-0_1
  6
CONTINUOUS
 62
    4
 10
1503.5918000000001
 20
1122.5731000000001
 11
1505.2058999999999
 21
1122.8416
  0
LINE
  8
_0-0_1
  6
CONTINUOUS
 62
    4
 10
1499.4032000000002
 20
1121.8769
 11
1503.5918000000001
 21
1122.5731000000001
  0
LINE
  8
_0-0_1
  6
CONTINUOUS
 62
    4
 10
1495.2103000000002
 20
1121.1814999999999
 11
1499.4032000000002
 21
1121.8769
  0
LINE
  8
_0-0_1
  6
CONTINUOUS
 62
    4
 10
1491.0128
 20
1120.4876999999999
 11
1495.2103000000002
 21
1121.1814999999999
  0
LINE
  8
_0-0_1
  6
CONTINUOUS
 62
    4
 10
1486.8105
 20
1119.7965999999999
 11
1491.0128
 21
1120.4876999999999
  0
LINE
  8
_0-0_1
  6
CONTINUOUS
 62
    4
 10
1482.6055999999999
 20
1119.1092000000001
 11
1486.8105
 21
1119.7965999999999
  0
LINE
  8
_0-0_1
  6
CONTINUOUS
 62
    4
 10
1480.1556
 20
1118.7111
 11
1482.6055999999999
 21
1119.1092000000001
  0
LINE
  8
_0-0_1
  6
CONTINUOUS
 62
    4
 10
1475.4286000000002
 20
1117.9495999999999
 11
1480.1556
 21
1118.7111
  0
LINE
  8
_0-0_1
  6
CONTINUOUS
 62
    4
 10
1467.2379000000001
 20
1116.6677999999999
 11
1475.4286000000002
 21
1117.9495999999999
  0
LINE
  8
_0-0_1
  6
CONTINUOUS
 62
    4
 10
1458.9533999999999
 20
1115.4513999999999
 11
1467.2379000000001
 21
1116.6677999999999
  0
LINE
  8
_0-0_1
  6
CONTINUOUS
 62
    4
 10
1450.5767999999998
 20
1114.3391999999999
 11
1458.9533999999999
 21
1115.4513999999999
  0
LINE
  8
_0-0_1
  6
CONTINUOUS
 62
    4
 10
1442.1046000000001
 20
1113.3704
 11
1450.5767999999998
 21
1114.3391999999999
  0
LINE
  8
_0-0_1
  6
CONTINUOUS
 62
    4
 10
1433.5886
 20
1112.5904
 11
1442.1046000000001
 21
1113.3704
  0
LINE
  8
_0-0_1
  6
CONTINUOUS
 62
    4
 10
1428.5607
 20
1112.2348
 11
1433.5886
 21
1112.5904
  0
LINE
  8
_0-0_1
  6
CONTINUOUS
 62
    4
 10
1425.7855
 20
1112.0746999999999
 11
1428.5607
 21
1112.2348
  0
LINE
  8
_0-0_1
  6
CONTINUOUS
 62
    4
 10
1421.1002000000003
 20
1111.8723
 11
1425.7855
 21
1112.0746999999999
  0
LINE
  8
_0-0_1
  6
CONTINUOUS
 62
    4
 10
1416.3173000000002
 20
1111.7679000000001
 11
1421.1002000000003
 21
1111.8723
  0
LINE
  8
_0-0_1
  6
CONTINUOUS
 62
    4
 10
1411.4692
 20
1111.7831000000001
 11
1416.3173000000002
 21
1111.7679000000001
  0
LINE
  8
_0-0_1
  6
CONTINUOUS
 62
    4
 10
1406.559
 20
1111.9390000000001
 11
1411.4692
 21
1111.7831000000001
  0
LINE
  8
_0-0_1
  6
CONTINUOUS
 62
    4
 10
1401.6617999999999
 20
1112.2529
 11
1406.559
 21
1111.9390000000001
  0
LINE
  8
_0-0_1
  6
CONTINUOUS
 62
    4
 10
1398.663
 20
1112.5295000000001
 11
1401.6617999999999
 21
1112.2529
  0
LINE
  8
_0-0_1
  6
CONTINUOUS
 62
    4
 10
1394.7974999999999
 20
1112.9843000000001
 11
1398.663
 21
1112.5295000000001
  0
LINE
  8
_0-0_1
  6
CONTINUOUS
 62
    4
 10
1388.3689999999999
 20
1113.9934000000001
 11
1394.7974999999999
 21
1112.9843000000001
  0
LINE
  8
_0-0_1
  6
CONTINUOUS
 62
    4
 10
1381.9156
 20
1115.3262999999999
 11
1388.3689999999999
 21
1113.9934000000001
  0
LINE
  8
_0-0_1
  6
CONTINUOUS
 62
    4
 10
1375.5434
 20
1116.9589000000001
 11
1381.9156
 21
1115.3262999999999
  0
LINE
  8
_0-0_1
  6
CONTINUOUS
 62
    4
 10
1369.2661000000001
 20
1118.8824999999999
 11
1375.5434
 21
1116.9589000000001
  0
LINE
  8
_0-0_1
  6
CONTINUOUS
 62
    4
 10
1363.1790000000001
 20
1121.0596
 11
1369.2661000000001
 21
1118.8824999999999
  0
LINE
  8
_0-0_1
  6
CONTINUOUS
 62
    4
 10
1359.5533
 20
1122.5071
 11
1363.1790000000001
 21
1121.0596
  0
LINE
  8
_0-0_1
  6
CONTINUOUS
 62
    4
 10
1355.2535
 20
1124.3715999999999
 11
1359.5533
 21
1122.5071
  0
LINE
  8
_0-0_1
  6
CONTINUOUS
 62
    4
 10
1348.2626
 20
1127.7489
 11
1355.2535
 21
1124.3715999999999
  0
LINE
  8
_0-0_1
  6
CONTINUOUS
 62
    4
 10
1341.4445000000001
 20
1131.4380000000001
 11
1348.2626
 21
1127.7489
  0
LINE
  8
_0-0_1
  6
CONTINUOUS
 62
    4
 10
1334.8687
 20
1135.3353999999999
 11
1341.4445000000001
 21
1131.4380000000001
  0
LINE
  8
_0-0_1
  6
CONTINUOUS
 62
    4
 10
1328.5078000000001
 20
1139.3869999999999
 11
1334.8687
 21
1135.3353999999999
  0
LINE
  8
_0-0_1
  6
CONTINUOUS
 62
    4
 10
1322.3571999999999
 20
1143.5264999999999
 11
1328.5078000000001
 21
1139.3869999999999
  0
LINE
  8
_0-0_1
  6
CONTINUOUS
 62
    4
 10
1318.8326999999999
 20
1145.9779000000001
 11
1322.3571999999999
 21
1143.5264999999999
  0
LINE
  8
_0-0_1
  6
CONTINUOUS
 62
    4
 10
1316.6034999999999
 20
1147.5492999999999
 11
1318.8326999999999
 21
1145.9779000000001
  0
LINE
  8
_0-0_1
  6
CONTINUOUS
 62
    4
 10
1312.9618
 20
1150.1012000000001
 11
1316.6034999999999
 21
1147.5492999999999
  0
LINE
  8
_0-0_1
  6
CONTINUOUS
 62
    4
 10
1309.5446999999999
 20
1152.3986
 11
1312.9618
 21
1150.1012000000001
  0
LINE
  8
_0-0_1
  6
CONTINUOUS
 62
    4
 10
1306.3490999999999
 20
1154.3755000000001
 11
1309.5446999999999
 21
1152.3986
  0
LINE
  8
_0-0_1
  6
CONTINUOUS
 62
    4
 10
1303.3651
 20
1155.9946
 11
1306.3490999999999
 21
1154.3755000000001
  0
LINE
  8
_0-0_1
  6
CONTINUOUS
 62
    4
 10
1300.3986
 20
1157.3237999999999
 11
1303.3651
 21
1155.9946
  0
LINE
  8
_0-0_1
  6
CONTINUOUS
 62
    4
 10
1299.6486
 20
1157.5965000000001
 11
1300.3986
 21
1157.3237999999999
  0
LINE
  8
_0-0_1
  6
CONTINUOUS
 62
    4
 10
1299.9817000000003
 20
1177.6396999999999
 11
1299.8055999999999
 21
1157.4662000000001
  0
LINE
  8
_0-0_1
  6
CONTINUOUS
 62
    4
 10
1547.7957000000001
 20
1132.6280999999999
 11
1504.9755
 21
1122.7067999999999
  0
ARC
  8
_0-0_1
  6
CONTINUOUS
 62
    4
 10
1547.5700000000002
 20
1133.6022
 40
1
 50
283.04496999999998
 51
359.5
  0
LINE
  8
_0-0_1
  6
CONTINUOUS
 62
    4
 10
1500.4847
 20
1112.3933
 11
1498.2392
 21
1120.9666999999999
  0
ARC
  8
_0-0_1
  6
CONTINUOUS
 62
    4
 10
1503.3868000000002
 20
1113.1533999999999
 40
3
 50
194.67639000000003
 51
270.00000000000006
  0
LINE
  8
_0-0_1
  6
CONTINUOUS
 62
    4
 10
1506.8045999999999
 20
1110.1533999999999
 11
1503.3868000000002
 21
1110.1533999999999
  0
LINE
  8
_0-0_1
  6
CONTINUOUS
 62
    4
 10
1509.7638000000002
 20
1112.6602
 11
1511.6977999999999
 21
1124.2643
  0
ARC
  8
_0-0_1
  6
CONTINUOUS
 62
    4
 10
1506.8045999999999
 20
1113.1533999999999
 40
3
 50
270
 51
350.53766999999999
  0
LINE
  8
_0-0_1
  6
CONTINUOUS
 62
    4
 10
1253.8977
 20
1181.3016
 11
1253.8977
 21
1164.7692
  0
ARC
  8
_0-0_1
  6
CONTINUOUS
 62
    4
 10
1255.8977
 20
1181.3016
 40
2
 50
111.74902000000002
 51
180
  0
LINE
  8
_0-0_1
  6
CONTINUOUS
 62
    4
 10
1547.9733000000001
 20
1152.9764
 11
1508.8977
 21
1143.9227000000001
  0
LINE
  8
_0-0_1
  6
CONTINUOUS
 62
    4
 10
1508.8977
 20
1162.3995
 11
1508.8977
 21
1143.9227000000001
  0
LINE
  8
_0-0_1
  6
CONTINUOUS
 62
    4
 10
1506.8733000000002
 20
1161.9304999999999
 11
1540.1224999999999
 21
1169.6342
  0
LINE
  8
_0-0_1
  6
CONTINUOUS
 62
    4
 10
1548.8341
 20
1173.0083
 11
1548.8341
 21
1153.9282000000001
  0
LINE
  8
_0-0_1
  6
CONTINUOUS
 62
    4
 10
1548.9414999999999
 20
1151.9413
 11
1548.9414999999999
 21
1133.7701999999999
  0
LINE
  8
_0-0_1
  6
CONTINUOUS
 62
    4
 10
1630.8602000000001
 20
1103.2199000000001
 11
1622.3247999999999
 21
1117.7532000000001
  0
LINE
  8
_0-0_1
  6
CONTINUOUS
 62
    4
 10
1639.0281
 20
1102.5696
 11
1647.3343
 21
1112.6351
  0
ARC
  8
_0-0_1
  6
CONTINUOUS
 62
    4
 10
1635.1716999999999
 20
1105.752
 40
5
 50
210.42578
 51
320.47001
  0
LINE
  8
_0-0_1
  6
CONTINUOUS
 62
    4
 10
1714.9737
 20
1102.0997
 11
1707.6484
 21
1113.4058
  0
LINE
  8
_0-0_1
  6
CONTINUOUS
 62
    4
 10
1723.4832999999999
 20
1102.2897
 11
1732.4216999999999
 21
1117.5353
  0
ARC
  8
_0-0_1
  6
DASHED1
 62
    4
 10
1719.1698999999999
 20
1104.8185000000001
 40
5
 50
212.93986000000001
 51
329.61716000000001
  0
LINE
  8
_0-0_1
  6
CONTINUOUS
 62
    4
 10
1511.4441999999999
 20
1183.694
 11
1512.2537000000002
 21
1184.0119999999999
  0
LINE
  8
_0-0_1
  6
CONTINUOUS
 62
    4
 10
1512.2537000000002
 20
1184.0119999999999
 11
1515.7838999999999
 21
1185.4010000000001
  0
LINE
  8
_0-0_1
  6
CONTINUOUS
 62
    4
 10
1515.7838999999999
 20
1185.4010000000001
 11
1519.3213999999998
 21
1186.7994000000001
  0
LINE
  8
_0-0_1
  6
CONTINUOUS
 62
    4
 10
1519.3213999999998
 20
1186.7994000000001
 11
1522.8706000000002
 21
1188.2131999999999
  0
LINE
  8
_0-0_1
  6
CONTINUOUS
 62
    4
 10
1522.8706000000002
 20
1188.2131999999999
 11
1526.4362999999998
 21
1189.6481000000001
  0
LINE
  8
_0-0_1
  6
CONTINUOUS
 62
    4
 10
1526.4362999999998
 20
1189.6481000000001
 11
1530.0228999999999
 21
1191.1103000000001
  0
LINE
  8
_0-0_1
  6
CONTINUOUS
 62
    4
 10
1530.0228999999999
 20
1191.1103000000001
 11
1532.1145999999999
 21
1191.9731999999999
  0
LINE
  8
_0-0_1
  6
CONTINUOUS
 62
    4
 10
1532.1145999999999
 20
1191.9731999999999
 11
1534.1822000000002
 21
1192.8311000000001
  0
LINE
  8
_0-0_1
  6
CONTINUOUS
 62
    4
 10
1534.1822000000002
 20
1192.8311000000001
 11
1537.7687999999998
 21
1194.2827
  0
LINE
  8
_0-0_1
  6
CONTINUOUS
 62
    4
 10
1537.7687999999998
 20
1194.2827
 11
1541.3833
 21
1195.616
  0
LINE
  8
_0-0_1
  6
CONTINUOUS
 62
    4
 10
1541.3833
 20
1195.616
 11
1545.0259999999998
 21
1196.7336
  0
LINE
  8
_0-0_1
  6
CONTINUOUS
 62
    4
 10
1545.0259999999998
 20
1196.7336
 11
1548.6972000000001
 21
1197.5382
  0
LINE
  8
_0-0_1
  6
CONTINUOUS
 62
    4
 10
1548.6972000000001
 20
1197.5382
 11
1552.3973000000001
 21
1197.9323999999999
  0
LINE
  8
_0-0_1
  6
CONTINUOUS
 62
    4
 10
1552.3973000000001
 20
1197.9323999999999
 11
1554.5567999999998
 21
1197.9347
  0
LINE
  8
_0-0_1
  6
CONTINUOUS
 62
    4
 10
1554.5567999999998
 20
1197.9347
 11
1555.4067
 21
1197.8851999999999
  0
LINE
  8
_0-0_1
  6
CONTINUOUS
 62
    4
 10
1555.4067
 20
1197.8851999999999
 11
1556.8733000000002
 21
1197.7349999999999
  0
LINE
  8
_0-0_1
  6
CONTINUOUS
 62
    4
 10
1556.8733000000002
 20
1197.7349999999999
 11
1558.3377
 21
1197.5087000000001
  0
LINE
  8
_0-0_1
  6
CONTINUOUS
 62
    4
 10
1558.3377
 20
1197.5087000000001
 11
1559.7957000000001
 21
1197.2130999999999
  0
LINE
  8
_0-0_1
  6
CONTINUOUS
 62
    4
 10
1559.7957000000001
 20
1197.2130999999999
 11
1561.2429999999999
 21
1196.8547000000001
  0
LINE
  8
_0-0_1
  6
CONTINUOUS
 62
    4
 10
1561.2429999999999
 20
1196.8547000000001
 11
1562.6752999999999
 21
1196.4404999999999
  0
LINE
  8
_0-0_1
  6
CONTINUOUS
 62
    4
 10
1562.6752999999999
 20
1196.4404999999999
 11
1563.4974999999999
 21
1196.1774
  0
LINE
  8
_0-0_1
  6
CONTINUOUS
 62
    4
 10
1563.4974999999999
 20
1196.1774
 11
1566.0088000000001
 21
1195.2641000000001
  0
LINE
  8
_0-0_1
  6
CONTINUOUS
 62
    4
 10
1566.0088000000001
 20
1195.2641000000001
 11
1570.1943000000001
 21
1193.3887999999999
  0
LINE
  8
_0-0_1
  6
CONTINUOUS
 62
    4
 10
1570.1943000000001
 20
1193.3887999999999
 11
1574.2291
 21
1191.1995999999999
  0
LINE
  8
_0-0_1
  6
CONTINUOUS
 62
    4
 10
1574.2291
 20
1191.1995999999999
 11
1578.1502
 21
1188.7737999999999
  0
LINE
  8
_0-0_1
  6
CONTINUOUS
 62
    4
 10
1578.1502
 20
1188.7737999999999
 11
1581.9946
 21
1186.1891000000001
  0
LINE
  8
_0-0_1
  6
CONTINUOUS
 62
    4
 10
1581.9946
 20
1186.1891000000001
 11
1585.7995000000001
 21
1183.5228999999999
  0
LINE
  8
_0-0_1
  6
CONTINUOUS
 62
    4
 10
1585.7995000000001
 20
1183.5228999999999
 11
1588.0027
 21
1181.9697000000001
  0
LINE
  8
_0-0_1
  6
CONTINUOUS
 62
    4
 10
1588.0027
 20
1181.9697000000001
 11
1591.3672999999999
 21
1179.6296
  0
LINE
  8
_0-0_1
  6
CONTINUOUS
 62
    4
 10
1591.3672999999999
 20
1179.6296
 11
1597.2150000000001
 21
1175.6939
  0
LINE
  8
_0-0_1
  6
CONTINUOUS
 62
    4
 10
1597.2150000000001
 20
1175.6939
 11
1603.1405
 21
1171.9196999999999
  0
LINE
  8
_0-0_1
  6
CONTINUOUS
 62
    4
 10
1603.1405
 20
1171.9196999999999
 11
1609.1651000000002
 21
1168.3489999999999
  0
LINE
  8
_0-0_1
  6
CONTINUOUS
 62
    4
 10
1609.1651000000002
 20
1168.3489999999999
 11
1615.3103000000001
 21
1165.0238999999999
  0
LINE
  8
_0-0_1
  6
CONTINUOUS
 62
    4
 10
1615.3103000000001
 20
1165.0238999999999
 11
1621.5976000000001
 21
1161.9866
  0
LINE
  8
_0-0_1
  6
CONTINUOUS
 62
    4
 10
1621.5976000000001
 20
1161.9866
 11
1625.3177999999998
 21
1160.3733999999999
  0
LINE
  8
_0-0_1
  6
CONTINUOUS
 62
    4
 10
1625.3177999999998
 20
1160.3733999999999
 11
1628.3944999999999
 21
1159.1451
  0
LINE
  8
_0-0_1
  6
CONTINUOUS
 62
    4
 10
1628.3944999999999
 20
1159.1451
 11
1633.7824000000001
 21
1157.2180000000001
  0
LINE
  8
_0-0_1
  6
CONTINUOUS
 62
    4
 10
1633.7824000000001
 20
1157.2180000000001
 11
1639.2620999999999
 21
1155.5389
  0
LINE
  8
_0-0_1
  6
CONTINUOUS
 62
    4
 10
1639.2620999999999
 20
1155.5389
 11
1644.8175000000001
 21
1154.1155000000001
  0
LINE
  8
_0-0_1
  6
CONTINUOUS
 62
    4
 10
1644.8175000000001
 20
1154.1155000000001
 11
1650.4324999999999
 21
1152.9558
  0
LINE
  8
_0-0_1
  6
CONTINUOUS
 62
    4
 10
1650.4324999999999
 20
1152.9558
 11
1656.0911999999998
 21
1152.0675000000001
  0
LINE
  8
_0-0_1
  6
CONTINUOUS
 62
    4
 10
1656.0911999999998
 20
1152.0675000000001
 11
1659.3869
 21
1151.6796999999999
  0
LINE
  8
_0-0_1
  6
CONTINUOUS
 62
    4
 10
1659.3869
 20
1151.6796999999999
 11
1661.9097000000002
 21
1151.4471000000001
  0
LINE
  8
_0-0_1
  6
CONTINUOUS
 62
    4
 10
1661.9097000000002
 20
1151.4471000000001
 11
1666.2660999999998
 21
1151.1678999999999
  0
LINE
  8
_0-0_1
  6
CONTINUOUS
 62
    4
 10
1666.2660999999998
 20
1151.1678999999999
 11
1670.6287000000002
 21
1151.0292999999999
  0
LINE
  8
_0-0_1
  6
CONTINUOUS
 62
    4
 10
1670.6287000000002
 20
1151.0292999999999
 11
1674.9944999999998
 21
1151.0155999999999
  0
LINE
  8
_0-0_1
  6
CONTINUOUS
 62
    4
 10
1674.9944999999998
 20
1151.0155999999999
 11
1679.3607000000002
 21
1151.1110000000001
  0
LINE
  8
_0-0_1
  6
CONTINUOUS
 62
    4
 10
1679.3607000000002
 20
1151.1110000000001
 11
1683.7244000000001
 21
1151.2995000000001
  0
LINE
  8
_0-0_1
  6
CONTINUOUS
 62
    4
 10
1683.7244000000001
 20
1151.2995000000001
 11
1686.2530999999999
 21
1151.4453000000001
  0
LINE
  8
_0-0_1
  6
CONTINUOUS
 62
    4
 10
1686.2530999999999
 20
1151.4453000000001
 11
1690.9780000000001
 21
1151.7795000000001
  0
LINE
  8
_0-0_1
  6
CONTINUOUS
 62
    4
 10
1690.9780000000001
 20
1151.7795000000001
 11
1699.1064999999999
 21
1152.5239999999999
  0
LINE
  8
_0-0_1
  6
CONTINUOUS
 62
    4
 10
1699.1064999999999
 20
1152.5239999999999
 11
1707.2150999999999
 21
1153.4512
  0
LINE
  8
_0-0_1
  6
CONTINUOUS
 62
    4
 10
1707.2150999999999
 20
1153.4512
 11
1715.3067999999998
 21
1154.5255999999999
  0
LINE
  8
_0-0_1
  6
CONTINUOUS
 62
    4
 10
1715.3067999999998
 20
1154.5255999999999
 11
1723.3845000000001
 21
1155.7116000000001
  0
LINE
  8
_0-0_1
  6
CONTINUOUS
 62
    4
 10
1723.3845000000001
 20
1155.7116000000001
 11
1731.4512
 21
1156.9739999999999
  0
LINE
  8
_0-0_1
  6
CONTINUOUS
 62
    4
 10
1731.4512
 20
1156.9739999999999
 11
1736.1260000000002
 21
1157.7271000000001
  0
LINE
  8
_0-0_1
  6
CONTINUOUS
 62
    4
 10
1736.1260000000002
 20
1157.7271000000001
 11
1738.5556000000001
 21
1158.1219000000001
  0
LINE
  8
_0-0_1
  6
CONTINUOUS
 62
    4
 10
1738.5556000000001
 20
1158.1219000000001
 11
1742.7435
 21
1158.8064999999999
  0
LINE
  8
_0-0_1
  6
CONTINUOUS
 62
    4
 10
1742.7435
 20
1158.8064999999999
 11
1746.9299999999998
 21
1159.4951000000001
  0
LINE
  8
_0-0_1
  6
CONTINUOUS
 62
    4
 10
1746.9299999999998
 20
1159.4951000000001
 11
1751.1156000000001
 21
1160.1868999999999
  0
LINE
  8
_0-0_1
  6
CONTINUOUS
 62
    4
 10
1751.1156000000001
 20
1160.1868999999999
 11
1755.3004999999998
 21
1160.8809000000001
  0
LINE
  8
_0-0_1
  6
CONTINUOUS
 62
    4
 10
1755.3004999999998
 20
1160.8809000000001
 11
1759.4848999999999
 21
1161.5763999999999
  0
LINE
  8
_0-0_1
  6
CONTINUOUS
 62
    4
 10
1759.4848999999999
 20
1161.5763999999999
 11
1761.9117999999999
 21
1161.9801
  0
LINE
  8
_0-0_1
  6
CONTINUOUS
 62
    4
 10
1516.7885999999999
 20
1166.4545000000001
 11
1518.8395
 21
1167.2601
  0
LINE
  8
_0-0_1
  6
CONTINUOUS
 62
    4
 10
1518.8395
 20
1167.2601
 11
1522.3879000000002
 21
1168.6561999999999
  0
LINE
  8
_0-0_1
  6
CONTINUOUS
 62
    4
 10
1522.3879000000002
 20
1168.6561999999999
 11
1525.9603999999999
 21
1170.0685000000001
  0
LINE
  8
_0-0_1
  6
CONTINUOUS
 62
    4
 10
1525.9603999999999
 20
1170.0685000000001
 11
1529.5610999999999
 21
1171.5027
  0
LINE
  8
_0-0_1
  6
CONTINUOUS
 62
    4
 10
1529.5610999999999
 20
1171.5027
 11
1533.194
 21
1172.9648
  0
LINE
  8
_0-0_1
  6
CONTINUOUS
 62
    4
 10
1533.194
 20
1172.9648
 11
1536.8528000000001
 21
1174.4564
  0
LINE
  8
_0-0_1
  6
CONTINUOUS
 62
    4
 10
1536.8528000000001
 20
1174.4564
 11
1538.9958000000001
 21
1175.3404
  0
LINE
  8
_0-0_1
  6
CONTINUOUS
 62
    4
 10
1538.9958000000001
 20
1175.3404
 11
1541.0079999999998
 21
1176.1753000000001
  0
LINE
  8
_0-0_1
  6
CONTINUOUS
 62
    4
 10
1541.0079999999998
 20
1176.1753000000001
 11
1544.2618000000002
 21
1177.4921999999999
  0
LINE
  8
_0-0_1
  6
CONTINUOUS
 62
    4
 10
1544.2618000000002
 20
1177.4921999999999
 11
1547.1423
 21
1178.5547999999999
  0
LINE
  8
_0-0_1
  6
CONTINUOUS
 62
    4
 10
1547.1423
 20
1178.5547999999999
 11
1549.6001000000001
 21
1179.3089
  0
LINE
  8
_0-0_1
  6
CONTINUOUS
 62
    4
 10
1549.6001000000001
 20
1179.3089
 11
1551.5859999999998
 21
1179.7440999999999
  0
LINE
  8
_0-0_1
  6
CONTINUOUS
 62
    4
 10
1551.5859999999998
 20
1179.7440999999999
 11
1553.3627999999999
 21
1179.9333999999999
  0
LINE
  8
_0-0_1
  6
CONTINUOUS
 62
    4
 10
1553.3627999999999
 20
1179.9333999999999
 11
1554.0423999999998
 21
1179.9340999999999
  0
LINE
  8
_0-0_1
  6
CONTINUOUS
 62
    4
 10
1554.0423999999998
 20
1179.9340999999999
 11
1553.9663
 21
1179.9386
  0
LINE
  8
_0-0_1
  6
CONTINUOUS
 62
    4
 10
1553.9663
 20
1179.9386
 11
1554.5808000000002
 21
1179.8757000000001
  0
LINE
  8
_0-0_1
  6
CONTINUOUS
 62
    4
 10
1554.5808000000002
 20
1179.8757000000001
 11
1555.1725999999999
 21
1179.7842000000001
  0
LINE
  8
_0-0_1
  6
CONTINUOUS
 62
    4
 10
1555.1725999999999
 20
1179.7842000000001
 11
1555.8420000000001
 21
1179.6484
  0
LINE
  8
_0-0_1
  6
CONTINUOUS
 62
    4
 10
1555.8420000000001
 20
1179.6484
 11
1556.5781999999999
 21
1179.4662000000001
  0
LINE
  8
_0-0_1
  6
CONTINUOUS
 62
    4
 10
1556.5781999999999
 20
1179.4662000000001
 11
1557.4308000000001
 21
1179.2195999999999
  0
LINE
  8
_0-0_1
  6
CONTINUOUS
 62
    4
 10
1557.4308000000001
 20
1179.2195999999999
 11
1557.6761000000001
 21
1179.1411000000001
  0
LINE
  8
_0-0_1
  6
CONTINUOUS
 62
    4
 10
1557.6761000000001
 20
1179.1411000000001
 11
1559.2440999999999
 21
1178.5708999999999
  0
LINE
  8
_0-0_1
  6
CONTINUOUS
 62
    4
 10
1559.2440999999999
 20
1178.5708999999999
 11
1562.2105999999999
 21
1177.2417
  0
LINE
  8
_0-0_1
  6
CONTINUOUS
 62
    4
 10
1562.2105999999999
 20
1177.2417
 11
1565.1945999999998
 21
1175.6226999999999
  0
LINE
  8
_0-0_1
  6
CONTINUOUS
 62
    4
 10
1565.1945999999998
 20
1175.6226999999999
 11
1568.3901999999998
 21
1173.6457
  0
LINE
  8
_0-0_1
  6
CONTINUOUS
 62
    4
 10
1568.3901999999998
 20
1173.6457
 11
1571.8072999999999
 21
1171.3483000000001
  0
LINE
  8
_0-0_1
  6
CONTINUOUS
 62
    4
 10
1571.8072999999999
 20
1171.3483000000001
 11
1575.4490000000001
 21
1168.7963999999999
  0
LINE
  8
_0-0_1
  6
CONTINUOUS
 62
    4
 10
1575.4490000000001
 20
1168.7963999999999
 11
1577.6781999999998
 21
1167.2249999999999
  0
LINE
  8
_0-0_1
  6
CONTINUOUS
 62
    4
 10
1577.6781999999998
 20
1167.2249999999999
 11
1581.2026999999998
 21
1164.7736
  0
LINE
  8
_0-0_1
  6
CONTINUOUS
 62
    4
 10
1581.2026999999998
 20
1164.7736
 11
1587.3533000000002
 21
1160.6341
  0
LINE
  8
_0-0_1
  6
CONTINUOUS
 62
    4
 10
1587.3533000000002
 20
1160.6341
 11
1593.7141999999999
 21
1156.5825
  0
LINE
  8
_0-0_1
  6
CONTINUOUS
 62
    4
 10
1593.7141999999999
 20
1156.5825
 11
1600.29
 21
1152.6850999999999
  0
LINE
  8
_0-0_1
  6
CONTINUOUS
 62
    4
 10
1600.29
 20
1152.6850999999999
 11
1607.1080999999999
 21
1148.9960000000001
  0
LINE
  8
_0-0_1
  6
CONTINUOUS
 62
    4
 10
1607.1080999999999
 20
1148.9960000000001
 11
1614.0990000000002
 21
1145.6188
  0
LINE
  8
_0-0_1
  6
CONTINUOUS
 62
    4
 10
1614.0990000000002
 20
1145.6188
 11
1618.3987999999999
 21
1143.7542000000001
  0
LINE
  8
_0-0_1
  6
CONTINUOUS
 62
    4
 10
1618.3987999999999
 20
1143.7542000000001
 11
1622.0245
 21
1142.3067000000001
  0
LINE
  8
_0-0_1
  6
CONTINUOUS
 62
    4
 10
1622.0245
 20
1142.3067000000001
 11
1628.1116000000002
 21
1140.1296
  0
LINE
  8
_0-0_1
  6
CONTINUOUS
 62
    4
 10
1628.1116000000002
 20
1140.1296
 11
1634.3888999999999
 21
1138.2059999999999
  0
LINE
  8
_0-0_1
  6
CONTINUOUS
 62
    4
 10
1634.3888999999999
 20
1138.2059999999999
 11
1640.7611000000002
 21
1136.5734
  0
LINE
  8
_0-0_1
  6
CONTINUOUS
 62
    4
 10
1640.7611000000002
 20
1136.5734
 11
1647.2145
 21
1135.2405000000001
  0
LINE
  8
_0-0_1
  6
CONTINUOUS
 62
    4
 10
1647.2145
 20
1135.2405000000001
 11
1653.643
 21
1134.2313999999999
  0
LINE
  8
_0-0_1
  6
CONTINUOUS
 62
    4
 10
1653.643
 20
1134.2313999999999
 11
1657.5084999999999
 21
1133.7765999999999
  0
LINE
  8
_0-0_1
  6
CONTINUOUS
 62
    4
 10
1657.5084999999999
 20
1133.7765999999999
 11
1660.5073000000002
 21
1133.5
  0
LINE
  8
_0-0_1
  6
CONTINUOUS
 62
    4
 10
1660.5073000000002
 20
1133.5
 11
1665.4045999999998
 21
1133.1860999999999
  0
LINE
  8
_0-0_1
  6
CONTINUOUS
 62
    4
 10
1665.4045999999998
 20
1133.1860999999999
 11
1670.3146999999999
 21
1133.0301999999999
  0
LINE
  8
_0-0_1
  6
CONTINUOUS
 62
    4
 10
1670.3146999999999
 20
1133.0301999999999
 11
1675.1628000000001
 21
1133.0150000000001
  0
LINE
  8
_0-0_1
  6
CONTINUOUS
 62
    4
 10
1675.1628000000001
 20
1133.0150000000001
 11
1679.9457000000002
 21
1133.1194
  0
LINE
  8
_0-0_1
  6
CONTINUOUS
 62
    4
 10
1679.9457000000002
 20
1133.1194
 11
1684.6309999999999
 21
1133.3218999999999
  0
LINE
  8
_0-0_1
  6
CONTINUOUS
 62
    4
 10
1684.6309999999999
 20
1133.3218999999999
 11
1687.4061999999999
 21
1133.4819
  0
LINE
  8
_0-0_1
  6
CONTINUOUS
 62
    4
 10
1687.4061999999999
 20
1133.4819
 11
1692.4340999999999
 21
1133.8375000000001
  0
LINE
  8
_0-0_1
  6
CONTINUOUS
 62
    4
 10
1692.4340999999999
 20
1133.8375000000001
 11
1700.9502000000002
 21
1134.6176
  0
LINE
  8
_0-0_1
  6
CONTINUOUS
 62
    4
 10
1700.9502000000002
 20
1134.6176
 11
1709.4223000000002
 21
1135.5862999999999
  0
LINE
  8
_0-0_1
  6
CONTINUOUS
 62
    4
 10
1709.4223000000002
 20
1135.5862999999999
 11
1717.7988999999998
 21
1136.6985
  0
LINE
  8
_0-0_1
  6
CONTINUOUS
 62
    4
 10
1717.7988999999998
 20
1136.6985
 11
1726.0834
 21
1137.9149
  0
LINE
  8
_0-0_1
  6
CONTINUOUS
 62
    4
 10
1726.0834
 20
1137.9149
 11
1734.2741000000001
 21
1139.1967
  0
LINE
  8
_0-0_1
  6
CONTINUOUS
 62
    4
 10
1734.2741000000001
 20
1139.1967
 11
1739.0011
 21
1139.9582
  0
LINE
  8
_0-0_1
  6
CONTINUOUS
 62
    4
 10
1739.0011
 20
1139.9582
 11
1741.4511000000002
 21
1140.3562999999999
  0
LINE
  8
_0-0_1
  6
CONTINUOUS
 62
    4
 10
1741.4511000000002
 20
1140.3562999999999
 11
1745.6559999999999
 21
1141.0436999999999
  0
LINE
  8
_0-0_1
  6
CONTINUOUS
 62
    4
 10
1745.6559999999999
 20
1141.0436999999999
 11
1749.8582999999999
 21
1141.7348999999999
  0
LINE
  8
_0-0_1
  6
CONTINUOUS
 62
    4
 10
1749.8582999999999
 20
1141.7348999999999
 11
1754.0558000000001
 21
1142.4286
  0
LINE
  8
_0-0_1
  6
CONTINUOUS
 62
    4
 10
1754.0558000000001
 20
1142.4286
 11
1758.2487000000001
 21
1143.124
  0
LINE
  8
_0-0_1
  6
CONTINUOUS
 62
    4
 10
1758.2487000000001
 20
1143.124
 11
1762.4373000000001
 21
1143.8202000000001
  0
LINE
  8
_0-0_1
  6
CONTINUOUS
 62
    4
 10
1762.4373000000001
 20
1143.8202000000001
 11
1764.0513999999998
 21
1144.0887
  0
ARC
  8
_0-0_1
  6
CONTINUOUS
 62
    4
 10
1798.2869999999998
 20
1169.8859
 40
3
 50
103.0288
 51
179.49999999999997
  0
LINE
  8
_0-0_1
  6
CONTINUOUS
 62
    4
 10
1510.3607000000002
 20
1163.9112
 11
1516.7529
 21
1166.4332999999999
  0
ARC
  8
_0-0_1
  6
CONTINUOUS
 62
    4
 10
1509.9935999999998
 20
1164.8415
 40
1
 50
179.5
 51
291.53165999999999
  0
LINE
  8
_0-0_1
  6
CONTINUOUS
 62
    4
 10
1802.8510000000001
 20
1174.0211999999999
 11
1797.6107000000002
 21
1172.8086000000001
  0
ARC
  8
_0-0_1
  6
CONTINUOUS
 62
    4
 10
1803.0763999999999
 20
1173.047
 40
1
 50
359.50000000000006
 51
103.02880000000002
  0
LINE
  8
_0-0_1
  6
CONTINUOUS
 62
    4
 10
1765.2359999999999
 20
1142.3507999999999
 11
1795.5497999999998
 21
1149.4448
  0
ARC
  8
_0-0_1
  6
CONTINUOUS
 62
    4
 10
1802.8906000000002
 20
1151.7541000000001
 40
1
 50
359.50000000000006
 51
103.08296000000006
  0
LINE
  8
_0-0_1
  6
CONTINUOUS
 62
    4
 10
1796.3308000000002
 20
1151.2563
 11
1802.6642000000002
 21
1152.7281
  0
LINE
  8
_0-0_1
  6
CONTINUOUS
 62
    4
 10
1795.5572000000002
 20
1150.2909999999999
 11
1795.5497999999998
 21
1149.4448
  0
ARC
  8
_0-0_1
  6
CONTINUOUS
 62
    4
 10
1796.5571
 20
1150.2822000000001
 40
1
 50
103.08296000000001
 51
179.50000000000003
  0
ARC
  8
_0-0_1
  6
CONTINUOUS
 62
    4
 10
1802.9105
 20
1154.0373
 40
1
 50
283.04496999999998
 51
359.5
  0
LINE
  8
_0-0_1
  6
CONTINUOUS
 62
    4
 10
1762.7653
 20
1141.8472999999999
 11
1765.1934000000001
 21
1142.2511999999999
  0
LINE
  8
_0-0_1
  6
CONTINUOUS
 62
    4
 10
1758.5763000000002
 20
1141.1510000000001
 11
1762.7653
 21
1141.8472999999999
  0
LINE
  8
_0-0_1
  6
CONTINUOUS
 62
    4
 10
1754.3825000000002
 20
1140.4555
 11
1758.5763000000002
 21
1141.1510000000001
  0
LINE
  8
_0-0_1
  6
CONTINUOUS
 62
    4
 10
1750.1837
 20
1139.7615000000001
 11
1754.3825000000002
 21
1140.4555
  0
LINE
  8
_0-0_1
  6
CONTINUOUS
 62
    4
 10
1745.9796000000001
 20
1139.0699999999999
 11
1750.1837
 21
1139.7615000000001
  0
LINE
  8
_0-0_1
  6
CONTINUOUS
 62
    4
 10
1741.7728000000002
 20
1138.3824
 11
1745.9796000000001
 21
1139.0699999999999
  0
LINE
  8
_0-0_1
  6
CONTINUOUS
 62
    4
 10
1739.3204999999998
 20
1137.9838999999999
 11
1741.7728000000002
 21
1138.3824
  0
LINE
  8
_0-0_1
  6
CONTINUOUS
 62
    4
 10
1734.5877999999998
 20
1137.2213999999999
 11
1739.3204999999998
 21
1137.9838999999999
  0
LINE
  8
_0-0_1
  6
CONTINUOUS
 62
    4
 10
1726.3833
 20
1135.9375
 11
1734.5877999999998
 21
1137.2213999999999
  0
LINE
  8
_0-0_1
  6
CONTINUOUS
 62
    4
 10
1718.0758000000001
 20
1134.7176999999999
 11
1726.3833
 21
1135.9375
  0
LINE
  8
_0-0_1
  6
CONTINUOUS
 62
    4
 10
1709.6676000000002
 20
1133.6013
 11
1718.0758000000001
 21
1134.7176999999999
  0
LINE
  8
_0-0_1
  6
CONTINUOUS
 62
    4
 10
1701.1550000000002
 20
1132.6279
 11
1709.6676000000002
 21
1133.6013
  0
LINE
  8
_0-0_1
  6
CONTINUOUS
 62
    4
 10
1692.5958000000001
 20
1131.8440000000001
 11
1701.1550000000002
 21
1132.6279
  0
LINE
  8
_0-0_1
  6
CONTINUOUS
 62
    4
 10
1687.5342999999998
 20
1131.4858999999999
 11
1692.5958000000001
 21
1131.8440000000001
  0
LINE
  8
_0-0_1
  6
CONTINUOUS
 62
    4
 10
1684.7316999999998
 20
1131.3243
 11
1687.5342999999998
 21
1131.4858999999999
  0
LINE
  8
_0-0_1
  6
CONTINUOUS
 62
    4
 10
1680.0106999999998
 20
1131.1204
 11
1684.7316999999998
 21
1131.3243
  0
LINE
  8
_0-0_1
  6
CONTINUOUS
 62
    4
 10
1675.1815000000001
 20
1131.0148999999999
 11
1680.0106999999998
 21
1131.1204
  0
LINE
  8
_0-0_1
  6
CONTINUOUS
 62
    4
 10
1670.2799
 20
1131.0302999999999
 11
1675.1815000000001
 21
1131.0148999999999
  0
LINE
  8
_0-0_1
  6
CONTINUOUS
 62
    4
 10
1665.3087999999998
 20
1131.1882000000001
 11
1670.2799
 21
1131.0302999999999
  0
LINE
  8
_0-0_1
  6
CONTINUOUS
 62
    4
 10
1660.3514
 20
1131.5059000000001
 11
1665.3087999999998
 21
1131.1882000000001
  0
LINE
  8
_0-0_1
  6
CONTINUOUS
 62
    4
 10
1657.2997999999998
 20
1131.7873999999999
 11
1660.3514
 21
1131.5059000000001
  0
LINE
  8
_0-0_1
  6
CONTINUOUS
 62
    4
 10
1653.3708999999999
 20
1132.2496000000001
 11
1657.2997999999998
 21
1131.7873999999999
  0
LINE
  8
_0-0_1
  6
CONTINUOUS
 62
    4
 10
1646.857
 20
1133.2722000000001
 11
1653.3708999999999
 21
1132.2496000000001
  0
LINE
  8
_0-0_1
  6
CONTINUOUS
 62
    4
 10
1640.3103999999998
 20
1134.6242999999999
 11
1646.857
 21
1133.2722000000001
  0
LINE
  8
_0-0_1
  6
CONTINUOUS
 62
    4
 10
1633.8474000000001
 20
1136.2801999999999
 11
1640.3103999999998
 21
1134.6242999999999
  0
LINE
  8
_0-0_1
  6
CONTINUOUS
 62
    4
 10
1627.4814999999999
 20
1138.2309
 11
1633.8474000000001
 21
1136.2801999999999
  0
LINE
  8
_0-0_1
  6
CONTINUOUS
 62
    4
 10
1621.3166999999999
 20
1140.4358
 11
1627.4814999999999
 21
1138.2309
  0
LINE
  8
_0-0_1
  6
CONTINUOUS
 62
    4
 10
1617.6300999999999
 20
1141.9076
 11
1621.3166999999999
 21
1140.4358
  0
LINE
  8
_0-0_1
  6
CONTINUOUS
 62
    4
 10
1613.2658000000001
 20
1143.8000999999999
 11
1617.6300999999999
 21
1141.9076
  0
LINE
  8
_0-0_1
  6
CONTINUOUS
 62
    4
 10
1606.1967
 20
1147.2150999999999
 11
1613.2658000000001
 21
1143.8000999999999
  0
LINE
  8
_0-0_1
  6
CONTINUOUS
 62
    4
 10
1599.3038000000001
 20
1150.9447
 11
1606.1967
 21
1147.2150999999999
  0
LINE
  8
_0-0_1
  6
CONTINUOUS
 62
    4
 10
1592.6669000000002
 20
1154.8784000000001
 11
1599.3038000000001
 21
1150.9447
  0
LINE
  8
_0-0_1
  6
CONTINUOUS
 62
    4
 10
1586.2575000000002
 20
1158.9608000000001
 11
1592.6669000000002
 21
1154.8784000000001
  0
LINE
  8
_0-0_1
  6
CONTINUOUS
 62
    4
 10
1580.0733
 20
1163.1229000000001
 11
1586.2575000000002
 21
1158.9608000000001
  0
LINE
  8
_0-0_1
  6
CONTINUOUS
 62
    4
 10
1576.5309999999999
 20
1165.5867000000001
 11
1580.0733
 21
1163.1229000000001
  0
LINE
  8
_0-0_1
  6
CONTINUOUS
 62
    4
 10
1574.299
 20
1167.1601000000001
 11
1576.5309999999999
 21
1165.5867000000001
  0
LINE
  8
_0-0_1
  6
CONTINUOUS
 62
    4
 10
1570.6754000000001
 20
1169.6993
 11
1574.299
 21
1167.1601000000001
  0
LINE
  8
_0-0_1
  6
CONTINUOUS
 62
    4
 10
1567.3058000000001
 20
1171.9648
 11
1570.6754000000001
 21
1169.6993
  0
LINE
  8
_0-0_1
  6
CONTINUOUS
 62
    4
 10
1564.1907999999999
 20
1173.8919000000001
 11
1567.3058000000001
 21
1171.9648
  0
LINE
  8
_0-0_1
  6
CONTINUOUS
 62
    4
 10
1561.3235
 20
1175.4476
 11
1564.1907999999999
 21
1173.8919000000001
  0
LINE
  8
_0-0_1
  6
CONTINUOUS
 62
    4
 10
1558.4924000000001
 20
1176.7161000000001
 11
1561.3235
 21
1175.4476
  0
LINE
  8
_0-0_1
  6
CONTINUOUS
 62
    4
 10
1557.0291999999999
 20
1177.2482
 11
1558.4924000000001
 21
1176.7161000000001
  0
LINE
  8
_0-0_1
  6
CONTINUOUS
 62
    4
 10
1556.8481000000002
 20
1177.3062
 11
1557.0291999999999
 21
1177.2482
  0
LINE
  8
_0-0_1
  6
CONTINUOUS
 62
    4
 10
1556.0598
 20
1177.5341000000001
 11
1556.8481000000002
 21
1177.3062
  0
LINE
  8
_0-0_1
  6
CONTINUOUS
 62
    4
 10
1555.4027000000001
 20
1177.6967999999999
 11
1556.0598
 21
1177.5341000000001
  0
LINE
  8
_0-0_1
  6
CONTINUOUS
 62
    4
 10
1554.8209000000002
 20
1177.8148000000001
 11
1555.4027000000001
 21
1177.6967999999999
  0
LINE
  8
_0-0_1
  6
CONTINUOUS
 62
    4
 10
1554.7808
 20
1177.8209999999999
 11
1554.8209000000002
 21
1177.8148000000001
  0
LINE
  8
_0-0_1
  6
CONTINUOUS
 62
    4
 10
1758.7547
 20
1122.6597999999999
 11
1760.3688000000002
 21
1122.9283
  0
LINE
  8
_0-0_1
  6
CONTINUOUS
 62
    4
 10
1754.5661
 20
1121.9636
 11
1758.7547
 21
1122.6597999999999
  0
LINE
  8
_0-0_1
  6
CONTINUOUS
 62
    4
 10
1750.3732
 20
1121.2682
 11
1754.5661
 21
1121.9636
  0
LINE
  8
_0-0_1
  6
CONTINUOUS
 62
    4
 10
1746.1756999999998
 20
1120.5744999999999
 11
1750.3732
 21
1121.2682
  0
LINE
  8
_0-0_1
  6
CONTINUOUS
 62
    4
 10
1741.9733999999999
 20
1119.8833
 11
1746.1756999999998
 21
1120.5744999999999
  0
LINE
  8
_0-0_1
  6
CONTINUOUS
 62
    4
 10
1737.7685000000001
 20
1119.1958999999999
 11
1741.9733999999999
 21
1119.8833
  0
LINE
  8
_0-0_1
  6
CONTINUOUS
 62
    4
 10
1735.3184999999999
 20
1118.7978000000001
 11
1737.7685000000001
 21
1119.1958999999999
  0
LINE
  8
_0-0_1
  6
CONTINUOUS
 62
    4
 10
1730.5915
 20
1118.0363
 11
1735.3184999999999
 21
1118.7978000000001
  0
LINE
  8
_0-0_1
  6
CONTINUOUS
 62
    4
 10
1722.4009000000001
 20
1116.7545
 11
1730.5915
 21
1118.0363
  0
LINE
  8
_0-0_1
  6
CONTINUOUS
 62
    4
 10
1714.1163999999999
 20
1115.5381
 11
1722.4009000000001
 21
1116.7545
  0
LINE
  8
_0-0_1
  6
CONTINUOUS
 62
    4
 10
1705.7397000000001
 20
1114.4259
 11
1714.1163999999999
 21
1115.5381
  0
LINE
  8
_0-0_1
  6
CONTINUOUS
 62
    4
 10
1697.2676000000001
 20
1113.4572000000001
 11
1705.7397000000001
 21
1114.4259
  0
LINE
  8
_0-0_1
  6
CONTINUOUS
 62
    4
 10
1688.7514999999999
 20
1112.6771000000001
 11
1697.2676000000001
 21
1113.4572000000001
  0
LINE
  8
_0-0_1
  6
CONTINUOUS
 62
    4
 10
1683.7235999999998
 20
1112.3215
 11
1688.7514999999999
 21
1112.6771000000001
  0
LINE
  8
_0-0_1
  6
CONTINUOUS
 62
    4
 10
1680.9484000000002
 20
1112.1614999999999
 11
1683.7235999999998
 21
1112.3215
  0
LINE
  8
_0-0_1
  6
CONTINUOUS
 62
    4
 10
1676.2631000000001
 20
1111.9590000000001
 11
1680.9484000000002
 21
1112.1614999999999
  0
LINE
  8
_0-0_1
  6
CONTINUOUS
 62
    4
 10
1671.4802
 20
1111.8545999999999
 11
1676.2631000000001
 21
1111.9590000000001
  0
LINE
  8
_0-0_1
  6
CONTINUOUS
 62
    4
 10
1666.6322
 20
1111.8697999999999
 11
1671.4802
 21
1111.8545999999999
  0
LINE
  8
_0-0_1
  6
CONTINUOUS
 62
    4
 10
1661.7220000000002
 20
1112.0257999999999
 11
1666.6322
 21
1111.8697999999999
  0
LINE
  8
_0-0_1
  6
CONTINUOUS
 62
    4
 10
1656.8247000000001
 20
1112.3396
 11
1661.7220000000002
 21
1112.0257999999999
  0
LINE
  8
_0-0_1
  6
CONTINUOUS
 62
    4
 10
1653.8258999999998
 20
1112.6161999999999
 11
1656.8247000000001
 21
1112.3396
  0
LINE
  8
_0-0_1
  6
CONTINUOUS
 62
    4
 10
1649.9603999999999
 20
1113.0709999999999
 11
1653.8258999999998
 21
1112.6161999999999
  0
LINE
  8
_0-0_1
  6
CONTINUOUS
 62
    4
 10
1643.5320000000002
 20
1114.0800999999999
 11
1649.9603999999999
 21
1113.0709999999999
  0
LINE
  8
_0-0_1
  6
CONTINUOUS
 62
    4
 10
1637.0785000000001
 20
1115.413
 11
1643.5320000000002
 21
1114.0800999999999
  0
LINE
  8
_0-0_1
  6
CONTINUOUS
 62
    4
 10
1630.7062999999998
 20
1117.0455999999999
 11
1637.0785000000001
 21
1115.413
  0
LINE
  8
_0-0_1
  6
CONTINUOUS
 62
    4
 10
1624.4290000000001
 20
1118.9692
 11
1630.7062999999998
 21
1117.0455999999999
  0
LINE
  8
_0-0_1
  6
CONTINUOUS
 62
    4
 10
1618.3418999999999
 20
1121.1464000000001
 11
1624.4290000000001
 21
1118.9692
  0
LINE
  8
_0-0_1
  6
CONTINUOUS
 62
    4
 10
1614.7163
 20
1122.5938000000001
 11
1618.3418999999999
 21
1121.1464000000001
  0
LINE
  8
_0-0_1
  6
CONTINUOUS
 62
    4
 10
1610.4164000000001
 20
1124.4584
 11
1614.7163
 21
1122.5938000000001
  0
LINE
  8
_0-0_1
  6
CONTINUOUS
 62
    4
 10
1603.4254999999998
 20
1127.8356000000001
 11
1610.4164000000001
 21
1124.4584
  0
LINE
  8
_0-0_1
  6
CONTINUOUS
 62
    4
 10
1596.6073999999999
 20
1131.5246999999999
 11
1603.4254999999998
 21
1127.8356000000001
  0
LINE
  8
_0-0_1
  6
CONTINUOUS
 62
    4
 10
1590.0315999999998
 20
1135.4221
 11
1596.6073999999999
 21
1131.5246999999999
  0
LINE
  8
_0-0_1
  6
CONTINUOUS
 62
    4
 10
1583.6707000000001
 20
1139.4737
 11
1590.0315999999998
 21
1135.4221
  0
LINE
  8
_0-0_1
  6
CONTINUOUS
 62
    4
 10
1577.5201000000002
 20
1143.6132
 11
1583.6707000000001
 21
1139.4737
  0
LINE
  8
_0-0_1
  6
CONTINUOUS
 62
    4
 10
1573.9956000000002
 20
1146.0645999999999
 11
1577.5201000000002
 21
1143.6132
  0
LINE
  8
_0-0_1
  6
CONTINUOUS
 62
    4
 10
1571.7664
 20
1147.636
 11
1573.9956000000002
 21
1146.0645999999999
  0
LINE
  8
_0-0_1
  6
CONTINUOUS
 62
    4
 10
1568.1246999999998
 20
1150.1878999999999
 11
1571.7664
 21
1147.636
  0
LINE
  8
_0-0_1
  6
CONTINUOUS
 62
    4
 10
1564.7076000000002
 20
1152.4853000000001
 11
1568.1246999999998
 21
1150.1878999999999
  0
LINE
  8
_0-0_1
  6
CONTINUOUS
 62
    4
 10
1561.5120000000002
 20
1154.4622999999999
 11
1564.7076000000002
 21
1152.4853000000001
  0
LINE
  8
_0-0_1
  6
CONTINUOUS
 62
    4
 10
1558.5279999999998
 20
1156.0814
 11
1561.5120000000002
 21
1154.4622999999999
  0
LINE
  8
_0-0_1
  6
CONTINUOUS
 62
    4
 10
1555.5614999999998
 20
1157.4105
 11
1558.5279999999998
 21
1156.0814
  0
LINE
  8
_0-0_1
  6
CONTINUOUS
 62
    4
 10
1554.8114999999998
 20
1157.6831999999999
 11
1555.5614999999998
 21
1157.4105
  0
LINE
  8
_0-0_1
  6
CONTINUOUS
 62
    4
 10
1555.1446000000001
 20
1177.7264
 11
1554.9684999999999
 21
1157.5528999999999
  0
LINE
  8
_0-0_1
  6
CONTINUOUS
 62
    4
 10
1802.9587000000001
 20
1132.7148
 11
1760.1385
 21
1122.7935
  0
ARC
  8
_0-0_1
  6
CONTINUOUS
 62
    4
 10
1802.7329
 20
1133.6890000000001
 40
1
 50
283.04496999999998
 51
359.5
  0
LINE
  8
_0-0_1
  6
CONTINUOUS
 62
    4
 10
1755.6475999999998
 20
1112.48
 11
1753.4022
 21
1121.0534
  0
ARC
  8
_0-0_1
  6
CONTINUOUS
 62
    4
 10
1758.5497
 20
1113.2401
 40
3
 50
194.67639000000003
 51
270.00000000000006
  0
LINE
  8
_0-0_1
  6
CONTINUOUS
 62
    4
 10
1761.9675000000002
 20
1110.2401
 11
1758.5497
 21
1110.2401
  0
LINE
  8
_0-0_1
  6
CONTINUOUS
 62
    4
 10
1764.9267
 20
1112.7469000000001
 11
1766.8607000000002
 21
1124.3511000000001
  0
ARC
  8
_0-0_1
  6
CONTINUOUS
 62
    4
 10
1761.9675000000002
 20
1113.2401
 40
3
 50
270
 51
350.53766999999999
  0
LINE
  8
_0-0_1
  6
CONTINUOUS
 62
    4
 10
1509.0605999999998
 20
1181.3883000000001
 11
1509.0605999999998
 21
1164.8559
  0
LINE
  8
_0-0_1
  6
CONTINUOUS
 62
    4
 10
1510.3195000000001
 20
1183.2460000000001
 11
1511.4445000000001
 21
1183.6948
  0
ARC
  8
_0-0_1
  6
CONTINUOUS
 62
    4
 10
1511.0605999999998
 20
1181.3883000000001
 40
2
 50
111.74902000000002
 51
180
  0
LINE
  8
_0-0_1
  6
CONTINUOUS
 62
    4
 10
1803.1361999999999
 20
1153.0631000000001
 11
1764.0605999999998
 21
1144.0093999999999
  0
LINE
  8
_0-0_1
  6
CONTINUOUS
 62
    4
 10
1764.0605999999998
 20
1162.4863
 11
1764.0605999999998
 21
1144.0093999999999
  0
LINE
  8
_0-0_1
  6
CONTINUOUS
 62
    4
 10
1762.0362
 20
1162.0172
 11
1795.2854000000002
 21
1169.7209
  0
LINE
  8
_0-0_1
  6
CONTINUOUS
 62
    4
 10
1803.9969999999998
 20
1173.095
 11
1803.9969999999998
 21
1154.0148999999999
  0
LINE
  8
_0-0_1
  6
CONTINUOUS
 62
    4
 10
1804.1044000000002
 20
1152.028
 11
1804.1044000000002
 21
1133.8569
  0
LINE
  8
_0-0_1
  6
CONTINUOUS
 62
    4
 10
1885.8346000000001
 20
1102.0944
 11
1877.2991999999999
 21
1116.6277
  0
LINE
  8
_0-0_1
  6
CONTINUOUS
 62
    4
 10
1894.0025000000001
 20
1101.4440999999999
 11
1902.3087
 21
1111.5096000000001
  0
ARC
  8
_0-0_1
  6
DASHED1
 62
    4
 10
1890.1460000000002
 20
1104.6265000000001
 40
5
 50
210.42578
 51
320.47001
  0
LINE
  8
_0-0_1
  6
CONTINUOUS
 62
    4
 10
1969.9481000000001
 20
1100.9742000000001
 11
1962.6226999999999
 21
1112.2802999999999
  0
LINE
  8
_0-0_1
  6
CONTINUOUS
 62
    4
 10
1978.4576000000002
 20
1101.1641999999999
 11
1987.3960999999999
 21
1116.4097999999999
  0
ARC
  8
_0-0_1
  6
CONTINUOUS
 62
    4
 10
1974.1442999999999
 20
1103.693
 40
5
 50
212.93986000000001
 51
329.61716000000001
  0
LINE
  8
_0-0_1
  6
CONTINUOUS
 62
    4
 10
1766.4185000000002
 20
1182.5685000000001
 11
1767.2280999999998
 21
1182.8865000000001
  0
LINE
  8
_0-0_1
  6
CONTINUOUS
 62
    4
 10
1767.2280999999998
 20
1182.8865000000001
 11
1770.7583
 21
1184.2755
  0
LINE
  8
_0-0_1
  6
CONTINUOUS
 62
    4
 10
1770.7583
 20
1184.2755
 11
1774.2957000000001
 21
1185.6739
  0
LINE
  8
_0-0_1
  6
CONTINUOUS
 62
    4
 10
1774.2957000000001
 20
1185.6739
 11
1777.8449999999998
 21
1187.0877
  0
LINE
  8
_0-0_1
  6
CONTINUOUS
 62
    4
 10
1777.8449999999998
 20
1187.0877
 11
1781.4106000000002
 21
1188.5226
  0
LINE
  8
_0-0_1
  6
CONTINUOUS
 62
    4
 10
1781.4106000000002
 20
1188.5226
 11
1784.9973
 21
1189.9848
  0
LINE
  8
_0-0_1
  6
CONTINUOUS
 62
    4
 10
1784.9973
 20
1189.9848
 11
1787.0889999999999
 21
1190.8477
  0
LINE
  8
_0-0_1
  6
CONTINUOUS
 62
    4
 10
1787.0889999999999
 20
1190.8477
 11
1789.1565999999998
 21
1191.7056
  0
LINE
  8
_0-0_1
  6
CONTINUOUS
 62
    4
 10
1789.1565999999998
 20
1191.7056
 11
1792.7431999999999
 21
1193.1572000000001
  0
LINE
  8
_0-0_1
  6
CONTINUOUS
 62
    4
 10
1792.7431999999999
 20
1193.1572000000001
 11
1796.3575999999998
 21
1194.4905000000001
  0
LINE
  8
_0-0_1
  6
CONTINUOUS
 62
    4
 10
1796.3575999999998
 20
1194.4905000000001
 11
1800.0003000000002
 21
1195.6080999999999
  0
LINE
  8
_0-0_1
  6
CONTINUOUS
 62
    4
 10
1800.0003000000002
 20
1195.6080999999999
 11
1803.6716000000001
 21
1196.4127000000001
  0
LINE
  8
_0-0_1
  6
CONTINUOUS
 62
    4
 10
1803.6716000000001
 20
1196.4127000000001
 11
1807.3717000000001
 21
1196.8069
  0
LINE
  8
_0-0_1
  6
CONTINUOUS
 62
    4
 10
1807.3717000000001
 20
1196.8069
 11
1809.5311999999999
 21
1196.8091999999999
  0
LINE
  8
_0-0_1
  6
CONTINUOUS
 62
    4
 10
1809.5311999999999
 20
1196.8091999999999
 11
1810.3811000000001
 21
1196.7597000000001
  0
LINE
  8
_0-0_1
  6
CONTINUOUS
 62
    4
 10
1810.3811000000001
 20
1196.7597000000001
 11
1811.8476999999998
 21
1196.6095
  0
LINE
  8
_0-0_1
  6
CONTINUOUS
 62
    4
 10
1811.8476999999998
 20
1196.6095
 11
1813.3121000000001
 21
1196.3832
  0
LINE
  8
_0-0_1
  6
CONTINUOUS
 62
    4
 10
1813.3121000000001
 20
1196.3832
 11
1814.77
 21
1196.0875000000001
  0
LINE
  8
_0-0_1
  6
CONTINUOUS
 62
    4
 10
1814.77
 20
1196.0875000000001
 11
1816.2172999999998
 21
1195.7292
  0
LINE
  8
_0-0_1
  6
CONTINUOUS
 62
    4
 10
1816.2172999999998
 20
1195.7292
 11
1817.6496999999999
 21
1195.3150000000001
  0
LINE
  8
_0-0_1
  6
CONTINUOUS
 62
    4
 10
1817.6496999999999
 20
1195.3150000000001
 11
1818.4719
 21
1195.0518999999999
  0
LINE
  8
_0-0_1
  6
CONTINUOUS
 62
    4
 10
1818.4719
 20
1195.0518999999999
 11
1820.9830999999999
 21
1194.1386
  0
LINE
  8
_0-0_1
  6
CONTINUOUS
 62
    4
 10
1820.9830999999999
 20
1194.1386
 11
1825.1686
 21
1192.2633000000001
  0
LINE
  8
_0-0_1
  6
CONTINUOUS
 62
    4
 10
1825.1686
 20
1192.2633000000001
 11
1829.2033999999999
 21
1190.0741
  0
LINE
  8
_0-0_1
  6
CONTINUOUS
 62
    4
 10
1829.2033999999999
 20
1190.0741
 11
1833.1244999999999
 21
1187.6483000000001
  0
LINE
  8
_0-0_1
  6
CONTINUOUS
 62
    4
 10
1833.1244999999999
 20
1187.6483000000001
 11
1836.9690000000001
 21
1185.0636
  0
LINE
  8
_0-0_1
  6
CONTINUOUS
 62
    4
 10
1836.9690000000001
 20
1185.0636
 11
1840.7737999999999
 21
1182.3974000000001
  0
LINE
  8
_0-0_1
  6
CONTINUOUS
 62
    4
 10
1840.7737999999999
 20
1182.3974000000001
 11
1842.9771000000001
 21
1180.8442
  0
LINE
  8
_0-0_1
  6
CONTINUOUS
 62
    4
 10
1842.9771000000001
 20
1180.8442
 11
1846.3416999999999
 21
1178.5041000000001
  0
LINE
  8
_0-0_1
  6
CONTINUOUS
 62
    4
 10
1846.3416999999999
 20
1178.5041000000001
 11
1852.1894000000002
 21
1174.5684000000001
  0
LINE
  8
_0-0_1
  6
CONTINUOUS
 62
    4
 10
1852.1894000000002
 20
1174.5684000000001
 11
1858.1147999999998
 21
1170.7942
  0
LINE
  8
_0-0_1
  6
CONTINUOUS
 62
    4
 10
1858.1147999999998
 20
1170.7942
 11
1864.1395000000002
 21
1167.2235000000001
  0
LINE
  8
_0-0_1
  6
CONTINUOUS
 62
    4
 10
1864.1395000000002
 20
1167.2235000000001
 11
1870.2847000000002
 21
1163.8984
  0
LINE
  8
_0-0_1
  6
CONTINUOUS
 62
    4
 10
1870.2847000000002
 20
1163.8984
 11
1876.5720000000001
 21
1160.8611000000001
  0
LINE
  8
_0-0_1
  6
CONTINUOUS
 62
    4
 10
1876.5720000000001
 20
1160.8611000000001
 11
1880.2921999999999
 21
1159.2479000000001
  0
LINE
  8
_0-0_1
  6
CONTINUOUS
 62
    4
 10
1880.2921999999999
 20
1159.2479000000001
 11
1883.3688000000002
 21
1158.0196000000001
  0
LINE
  8
_0-0_1
  6
CONTINUOUS
 62
    4
 10
1883.3688000000002
 20
1158.0196000000001
 11
1888.7568000000001
 21
1156.0925
  0
LINE
  8
_0-0_1
  6
CONTINUOUS
 62
    4
 10
1888.7568000000001
 20
1156.0925
 11
1894.2365
 21
1154.4133999999999
  0
LINE
  8
_0-0_1
  6
CONTINUOUS
 62
    4
 10
1894.2365
 20
1154.4133999999999
 11
1899.7919000000002
 21
1152.99
  0
LINE
  8
_0-0_1
  6
CONTINUOUS
 62
    4
 10
1899.7919000000002
 20
1152.99
 11
1905.4069
 21
1151.8303000000001
  0
LINE
  8
_0-0_1
  6
CONTINUOUS
 62
    4
 10
1905.4069
 20
1151.8303000000001
 11
1911.0655999999999
 21
1150.942
  0
LINE
  8
_0-0_1
  6
CONTINUOUS
 62
    4
 10
1911.0655999999999
 20
1150.942
 11
1914.3613
 21
1150.5542
  0
LINE
  8
_0-0_1
  6
CONTINUOUS
 62
    4
 10
1914.3613
 20
1150.5542
 11
1916.8841000000002
 21
1150.3216
  0
LINE
  8
_0-0_1
  6
CONTINUOUS
 62
    4
 10
1916.8841000000002
 20
1150.3216
 11
1921.2404999999999
 21
1150.0424
  0
LINE
  8
_0-0_1
  6
CONTINUOUS
 62
    4
 10
1921.2404999999999
 20
1150.0424
 11
1925.6030999999998
 21
1149.9038
  0
LINE
  8
_0-0_1
  6
CONTINUOUS
 62
    4
 10
1925.6030999999998
 20
1149.9038
 11
1929.9688999999998
 21
1149.8901000000001
  0
LINE
  8
_0-0_1
  6
CONTINUOUS
 62
    4
 10
1929.9688999999998
 20
1149.8901000000001
 11
1934.3350999999998
 21
1149.9855
  0
LINE
  8
_0-0_1
  6
CONTINUOUS
 62
    4
 10
1934.3350999999998
 20
1149.9855
 11
1938.6988000000001
 21
1150.174
  0
LINE
  8
_0-0_1
  6
CONTINUOUS
 62
    4
 10
1938.6988000000001
 20
1150.174
 11
1941.2274000000002
 21
1150.3198
  0
LINE
  8
_0-0_1
  6
CONTINUOUS
 62
    4
 10
1941.2274000000002
 20
1150.3198
 11
1945.9522999999999
 21
1150.654
  0
LINE
  8
_0-0_1
  6
CONTINUOUS
 62
    4
 10
1945.9522999999999
 20
1150.654
 11
1954.0808999999999
 21
1151.3985
  0
LINE
  8
_0-0_1
  6
CONTINUOUS
 62
    4
 10
1954.0808999999999
 20
1151.3985
 11
1962.1895
 21
1152.3257000000001
  0
LINE
  8
_0-0_1
  6
CONTINUOUS
 62
    4
 10
1962.1895
 20
1152.3257000000001
 11
1970.2811000000002
 21
1153.4001000000001
  0
LINE
  8
_0-0_1
  6
CONTINUOUS
 62
    4
 10
1970.2811000000002
 20
1153.4001000000001
 11
1978.3588
 21
1154.5861
  0
LINE
  8
_0-0_1
  6
CONTINUOUS
 62
    4
 10
1978.3588
 20
1154.5861
 11
1986.4254999999998
 21
1155.8485000000001
  0
LINE
  8
_0-0_1
  6
CONTINUOUS
 62
    4
 10
1986.4254999999998
 20
1155.8485000000001
 11
1991.1003999999998
 21
1156.6016
  0
LINE
  8
_0-0_1
  6
CONTINUOUS
 62
    4
 10
1991.1003999999998
 20
1156.6016
 11
1993.5300000000002
 21
1156.9964
  0
LINE
  8
_0-0_1
  6
CONTINUOUS
 62
    4
 10
1993.5300000000002
 20
1156.9964
 11
1997.7177999999999
 21
1157.681
  0
LINE
  8
_0-0_1
  6
CONTINUOUS
 62
    4
 10
1997.7177999999999
 20
1157.681
 11
2001.9043999999999
 21
1158.3696
  0
LINE
  8
_0-0_1
  6
CONTINUOUS
 62
    4
 10
2001.9043999999999
 20
1158.3696
 11
2006.0900000000001
 21
1159.0614
  0
LINE
  8
_0-0_1
  6
CONTINUOUS
 62
    4
 10
2006.0900000000001
 20
1159.0614
 11
2010.2748999999999
 21
1159.7554
  0
LINE
  8
_0-0_1
  6
CONTINUOUS
 62
    4
 10
2010.2748999999999
 20
1159.7554
 11
2014.4593
 21
1160.4509
  0
LINE
  8
_0-0_1
  6
CONTINUOUS
 62
    4
 10
2014.4593
 20
1160.4509
 11
2016.8861999999999
 21
1160.8545999999999
  0
ARC
  8
_0-0_1
  6
CONTINUOUS
 62
    4
 10
2053.2613999999999
 20
1168.7603999999999
 40
3
 50
103.0288
 51
179.49999999999997
  0
LINE
  8
_0-0_1
  6
CONTINUOUS
 62
    4
 10
1765.335
 20
1162.7856999999999
 11
1771.7273
 21
1165.3078
  0
ARC
  8
_0-0_1
  6
CONTINUOUS
 62
    4
 10
1764.9679999999998
 20
1163.7158999999999
 40
1
 50
179.5
 51
291.53165999999999
  0
LINE
  8
_0-0_1
  6
CONTINUOUS
 62
    4
 10
2057.8253
 20
1172.8957
 11
2052.585
 21
1171.6831
  0
ARC
  8
_0-0_1
  6
CONTINUOUS
 62
    4
 10
2058.0508
 20
1171.9214999999999
 40
1
 50
359.50000000000006
 51
103.02880000000002
  0
LINE
  8
_0-0_1
  6
CONTINUOUS
 62
    4
 10
2020.2103999999999
 20
1141.2253000000001
 11
2050.5241000000001
 21
1148.3193000000001
  0
ARC
  8
_0-0_1
  6
CONTINUOUS
 62
    4
 10
2057.8649999999998
 20
1150.6286
 40
1
 50
359.50000000000006
 51
103.08296000000006
  0
LINE
  8
_0-0_1
  6
CONTINUOUS
 62
    4
 10
2051.3051
 20
1150.1307999999999
 11
2057.6386000000002
 21
1151.6025999999999
  0
LINE
  8
_0-0_1
  6
CONTINUOUS
 62
    4
 10
2050.5315000000001
 20
1149.1655000000001
 11
2050.5241000000001
 21
1148.3193000000001
  0
ARC
  8
_0-0_1
  6
CONTINUOUS
 62
    4
 10
2051.5315000000001
 20
1149.1567
 40
1
 50
103.08296000000001
 51
179.50000000000003
  0
ARC
  8
_0-0_1
  6
CONTINUOUS
 62
    4
 10
2057.8849
 20
1152.9118000000001
 40
1
 50
283.04496999999998
 51
359.5
  0
LINE
  8
_0-0_1
  6
CONTINUOUS
 62
    4
 10
2017.7397000000001
 20
1140.7218
 11
2020.1678000000002
 21
1141.1257000000001
  0
LINE
  8
_0-0_1
  6
CONTINUOUS
 62
    4
 10
2013.5506
 20
1140.0255
 11
2017.7397000000001
 21
1140.7218
  0
LINE
  8
_0-0_1
  6
CONTINUOUS
 62
    4
 10
2009.3568
 20
1139.3299999999999
 11
2013.5506
 21
1140.0255
  0
LINE
  8
_0-0_1
  6
CONTINUOUS
 62
    4
 10
2005.1581000000001
 20
1138.636
 11
2009.3568
 21
1139.3299999999999
  0
LINE
  8
_0-0_1
  6
CONTINUOUS
 62
    4
 10
2000.9540000000002
 20
1137.9445000000001
 11
2005.1581000000001
 21
1138.636
  0
LINE
  8
_0-0_1
  6
CONTINUOUS
 62
    4
 10
1996.7471999999998
 20
1137.2569000000001
 11
2000.9540000000002
 21
1137.9445000000001
  0
LINE
  8
_0-0_1
  6
CONTINUOUS
 62
    4
 10
1994.2948999999999
 20
1136.8584000000001
 11
1996.7471999999998
 21
1137.2569000000001
  0
LINE
  8
_0-0_1
  6
CONTINUOUS
 62
    4
 10
1989.5621000000001
 20
1136.0959
 11
1994.2948999999999
 21
1136.8584000000001
  0
LINE
  8
_0-0_1
  6
CONTINUOUS
 62
    4
 10
1981.3577
 20
1134.8119999999999
 11
1989.5621000000001
 21
1136.0959
  0
LINE
  8
_0-0_1
  6
CONTINUOUS
 62
    4
 10
1973.0502000000001
 20
1133.5922
 11
1981.3577
 21
1134.8119999999999
  0
LINE
  8
_0-0_1
  6
CONTINUOUS
 62
    4
 10
1964.6419000000001
 20
1132.4757999999999
 11
1973.0502000000001
 21
1133.5922
  0
LINE
  8
_0-0_1
  6
CONTINUOUS
 62
    4
 10
1956.1293999999998
 20
1131.5024000000001
 11
1964.6419000000001
 21
1132.4757999999999
  0
LINE
  8
_0-0_1
  6
CONTINUOUS
 62
    4
 10
1947.5702000000001
 20
1130.7184
 11
1956.1293999999998
 21
1131.5024000000001
  0
LINE
  8
_0-0_1
  6
CONTINUOUS
 62
    4
 10
1942.5086999999999
 20
1130.3604
 11
1947.5702000000001
 21
1130.7184
  0
LINE
  8
_0-0_1
  6
CONTINUOUS
 62
    4
 10
1939.7060999999999
 20
1130.1987999999999
 11
1942.5086999999999
 21
1130.3604
  0
LINE
  8
_0-0_1
  6
CONTINUOUS
 62
    4
 10
1934.9850999999999
 20
1129.9948999999999
 11
1939.7060999999999
 21
1130.1987999999999
  0
LINE
  8
_0-0_1
  6
CONTINUOUS
 62
    4
 10
1930.1559000000002
 20
1129.8894
 11
1934.9850999999999
 21
1129.9948999999999
  0
LINE
  8
_0-0_1
  6
CONTINUOUS
 62
    4
 10
1925.2541999999999
 20
1129.9048
 11
1930.1559000000002
 21
1129.8894
  0
LINE
  8
_0-0_1
  6
CONTINUOUS
 62
    4
 10
1920.2831999999999
 20
1130.0626999999999
 11
1925.2541999999999
 21
1129.9048
  0
LINE
  8
_0-0_1
  6
CONTINUOUS
 62
    4
 10
1915.3258000000001
 20
1130.3804
 11
1920.2831999999999
 21
1130.0626999999999
  0
LINE
  8
_0-0_1
  6
CONTINUOUS
 62
    4
 10
1912.2741999999998
 20
1130.6619000000001
 11
1915.3258000000001
 21
1130.3804
  0
LINE
  8
_0-0_1
  6
CONTINUOUS
 62
    4
 10
1908.3453
 20
1131.1241
 11
1912.2741999999998
 21
1130.6619000000001
  0
LINE
  8
_0-0_1
  6
CONTINUOUS
 62
    4
 10
1901.8314
 20
1132.1466
 11
1908.3453
 21
1131.1241
  0
LINE
  8
_0-0_1
  6
CONTINUOUS
 62
    4
 10
1895.2847000000002
 20
1133.4988000000001
 11
1901.8314
 21
1132.1466
  0
LINE
  8
_0-0_1
  6
CONTINUOUS
 62
    4
 10
1888.8218000000002
 20
1135.1547
 11
1895.2847000000002
 21
1133.4988000000001
  0
LINE
  8
_0-0_1
  6
CONTINUOUS
 62
    4
 10
1882.4558999999999
 20
1137.1053999999999
 11
1888.8218000000002
 21
1135.1547
  0
LINE
  8
_0-0_1
  6
CONTINUOUS
 62
    4
 10
1876.2910999999999
 20
1139.3103000000001
 11
1882.4558999999999
 21
1137.1053999999999
  0
LINE
  8
_0-0_1
  6
CONTINUOUS
 62
    4
 10
1872.6044000000002
 20
1140.7820999999999
 11
1876.2910999999999
 21
1139.3103000000001
  0
LINE
  8
_0-0_1
  6
CONTINUOUS
 62
    4
 10
1868.2402000000002
 20
1142.6746000000001
 11
1872.6044000000002
 21
1140.7820999999999
  0
LINE
  8
_0-0_1
  6
CONTINUOUS
 62
    4
 10
1861.1711
 20
1146.0896
 11
1868.2402000000002
 21
1142.6746000000001
  0
LINE
  8
_0-0_1
  6
CONTINUOUS
 62
    4
 10
1854.2782000000002
 20
1149.8191999999999
 11
1861.1711
 21
1146.0896
  0
LINE
  8
_0-0_1
  6
CONTINUOUS
 62
    4
 10
1847.6412
 20
1153.7529
 11
1854.2782000000002
 21
1149.8191999999999
  0
LINE
  8
_0-0_1
  6
CONTINUOUS
 62
    4
 10
1841.2319000000002
 20
1157.8353
 11
1847.6412
 21
1153.7529
  0
LINE
  8
_0-0_1
  6
CONTINUOUS
 62
    4
 10
1835.0477000000001
 20
1161.9974
 11
1841.2319000000002
 21
1157.8353
  0
LINE
  8
_0-0_1
  6
CONTINUOUS
 62
    4
 10
1831.5054
 20
1164.4612
 11
1835.0477000000001
 21
1161.9974
  0
LINE
  8
_0-0_1
  6
CONTINUOUS
 62
    4
 10
1829.2732999999998
 20
1166.0346
 11
1831.5054
 21
1164.4612
  0
LINE
  8
_0-0_1
  6
CONTINUOUS
 62
    4
 10
1825.6498000000001
 20
1168.5737999999999
 11
1829.2732999999998
 21
1166.0346
  0
LINE
  8
_0-0_1
  6
CONTINUOUS
 62
    4
 10
1822.2800999999999
 20
1170.8393000000001
 11
1825.6498000000001
 21
1168.5737999999999
  0
LINE
  8
_0-0_1
  6
CONTINUOUS
 62
    4
 10
1819.1651000000002
 20
1172.7664
 11
1822.2800999999999
 21
1170.8393000000001
  0
LINE
  8
_0-0_1
  6
CONTINUOUS
 62
    4
 10
1816.2979
 20
1174.3221000000001
 11
1819.1651000000002
 21
1172.7664
  0
LINE
  8
_0-0_1
  6
CONTINUOUS
 62
    4
 10
1813.4668000000001
 20
1175.5906
 11
1816.2979
 21
1174.3221000000001
  0
LINE
  8
_0-0_1
  6
CONTINUOUS
 62
    4
 10
1812.0036
 20
1176.1226999999999
 11
1813.4668000000001
 21
1175.5906
  0
LINE
  8
_0-0_1
  6
CONTINUOUS
 62
    4
 10
1811.8225000000002
 20
1176.1806999999999
 11
1812.0036
 21
1176.1226999999999
  0
LINE
  8
_0-0_1
  6
CONTINUOUS
 62
    4
 10
1811.0342000000001
 20
1176.4086
 11
1811.8225000000002
 21
1176.1806999999999
  0
LINE
  8
_0-0_1
  6
CONTINUOUS
 62
    4
 10
1810.3771000000002
 20
1176.5713000000001
 11
1811.0342000000001
 21
1176.4086
  0
LINE
  8
_0-0_1
  6
CONTINUOUS
 62
    4
 10
1809.7953000000002
 20
1176.6893
 11
1810.3771000000002
 21
1176.5713000000001
  0
LINE
  8
_0-0_1
  6
CONTINUOUS
 62
    4
 10
1809.7552000000001
 20
1176.6955
 11
1809.7953000000002
 21
1176.6893
  0
LINE
  8
_0-0_1
  6
CONTINUOUS
 62
    4
 10
2013.7291
 20
1121.5343
 11
2015.3431999999998
 21
1121.8027999999999
  0
LINE
  8
_0-0_1
  6
CONTINUOUS
 62
    4
 10
2009.5405000000001
 20
1120.8380999999999
 11
2013.7291
 21
1121.5343
  0
LINE
  8
_0-0_1
  6
CONTINUOUS
 62
    4
 10
2005.3476000000001
 20
1120.1427000000001
 11
2009.5405000000001
 21
1120.8380999999999
  0
LINE
  8
_0-0_1
  6
CONTINUOUS
 62
    4
 10
2001.1500999999998
 20
1119.4490000000001
 11
2005.3476000000001
 21
1120.1427000000001
  0
LINE
  8
_0-0_1
  6
CONTINUOUS
 62
    4
 10
1996.9477999999999
 20
1118.7578000000001
 11
2001.1500999999998
 21
1119.4490000000001
  0
LINE
  8
_0-0_1
  6
CONTINUOUS
 62
    4
 10
1992.7429000000002
 20
1118.0704000000001
 11
1996.9477999999999
 21
1118.7578000000001
  0
LINE
  8
_0-0_1
  6
CONTINUOUS
 62
    4
 10
1990.2928999999999
 20
1117.6723
 11
1992.7429000000002
 21
1118.0704000000001
  0
LINE
  8
_0-0_1
  6
CONTINUOUS
 62
    4
 10
1985.5659000000001
 20
1116.9108000000001
 11
1990.2928999999999
 21
1117.6723
  0
LINE
  8
_0-0_1
  6
CONTINUOUS
 62
    4
 10
1977.3751999999999
 20
1115.6289999999999
 11
1985.5659000000001
 21
1116.9108000000001
  0
LINE
  8
_0-0_1
  6
CONTINUOUS
 62
    4
 10
1969.0907000000002
 20
1114.4126000000001
 11
1977.3751999999999
 21
1115.6289999999999
  0
LINE
  8
_0-0_1
  6
CONTINUOUS
 62
    4
 10
1960.7141000000001
 20
1113.3004000000001
 11
1969.0907000000002
 21
1114.4126000000001
  0
LINE
  8
_0-0_1
  6
CONTINUOUS
 62
    4
 10
1952.2419
 20
1112.3317
 11
1960.7141000000001
 21
1113.3004000000001
  0
LINE
  8
_0-0_1
  6
CONTINUOUS
 62
    4
 10
1943.7258000000002
 20
1111.5516
 11
1952.2419
 21
1112.3317
  0
LINE
  8
_0-0_1
  6
CONTINUOUS
 62
    4
 10
1938.6979999999999
 20
1111.1959999999999
 11
1943.7258000000002
 21
1111.5516
  0
LINE
  8
_0-0_1
  6
CONTINUOUS
 62
    4
 10
1935.9227999999998
 20
1111.0360000000001
 11
1938.6979999999999
 21
1111.1959999999999
  0
LINE
  8
_0-0_1
  6
CONTINUOUS
 62
    4
 10
1931.2375000000002
 20
1110.8335
 11
1935.9227999999998
 21
1111.0360000000001
  0
LINE
  8
_0-0_1
  6
CONTINUOUS
 62
    4
 10
1926.4546
 20
1110.7291
 11
1931.2375000000002
 21
1110.8335
  0
LINE
  8
_0-0_1
  6
CONTINUOUS
 62
    4
 10
1921.6064999999999
 20
1110.7443000000001
 11
1926.4546
 21
1110.7291
  0
LINE
  8
_0-0_1
  6
CONTINUOUS
 62
    4
 10
1916.6963000000001
 20
1110.9002
 11
1921.6064999999999
 21
1110.7443000000001
  0
LINE
  8
_0-0_1
  6
CONTINUOUS
 62
    4
 10
1911.799
 20
1111.2140999999999
 11
1916.6963000000001
 21
1110.9002
  0
LINE
  8
_0-0_1
  6
CONTINUOUS
 62
    4
 10
1908.8002999999999
 20
1111.4907000000001
 11
1911.799
 21
1111.2140999999999
  0
LINE
  8
_0-0_1
  6
CONTINUOUS
 62
    4
 10
1904.9346999999998
 20
1111.9455
 11
1908.8002999999999
 21
1111.4907000000001
  0
LINE
  8
_0-0_1
  6
CONTINUOUS
 62
    4
 10
1898.5063
 20
1112.9546
 11
1904.9346999999998
 21
1111.9455
  0
LINE
  8
_0-0_1
  6
CONTINUOUS
 62
    4
 10
1892.0529000000001
 20
1114.2874999999999
 11
1898.5063
 21
1112.9546
  0
LINE
  8
_0-0_1
  6
CONTINUOUS
 62
    4
 10
1885.6806999999999
 20
1115.9201
 11
1892.0529000000001
 21
1114.2874999999999
  0
LINE
  8
_0-0_1
  6
CONTINUOUS
 62
    4
 10
1879.4034000000001
 20
1117.8436999999999
 11
1885.6806999999999
 21
1115.9201
  0
LINE
  8
_0-0_1
  6
CONTINUOUS
 62
    4
 10
1873.3163
 20
1120.0208
 11
1879.4034000000001
 21
1117.8436999999999
  0
LINE
  8
_0-0_1
  6
CONTINUOUS
 62
    4
 10
1869.6905999999999
 20
1121.4683
 11
1873.3163
 21
1120.0208
  0
LINE
  8
_0-0_1
  6
CONTINUOUS
 62
    4
 10
1865.3908000000001
 20
1123.3329000000001
 11
1869.6905999999999
 21
1121.4683
  0
LINE
  8
_0-0_1
  6
CONTINUOUS
 62
    4
 10
1858.3998999999999
 20
1126.7101
 11
1865.3908000000001
 21
1123.3329000000001
  0
LINE
  8
_0-0_1
  6
CONTINUOUS
 62
    4
 10
1851.5817999999999
 20
1130.3992000000001
 11
1858.3998999999999
 21
1126.7101
  0
LINE
  8
_0-0_1
  6
CONTINUOUS
 62
    4
 10
1845.0059999999999
 20
1134.2965999999999
 11
1851.5817999999999
 21
1130.3992000000001
  0
LINE
  8
_0-0_1
  6
CONTINUOUS
 62
    4
 10
1838.6451000000002
 20
1138.3481999999999
 11
1845.0059999999999
 21
1134.2965999999999
  0
LINE
  8
_0-0_1
  6
CONTINUOUS
 62
    4
 10
1832.4944999999998
 20
1142.4876999999999
 11
1838.6451000000002
 21
1138.3481999999999
  0
LINE
  8
_0-0_1
  6
CONTINUOUS
 62
    4
 10
1828.9699000000001
 20
1144.9391000000001
 11
1832.4944999999998
 21
1142.4876999999999
  0
LINE
  8
_0-0_1
  6
CONTINUOUS
 62
    4
 10
1826.7408
 20
1146.5105000000001
 11
1828.9699000000001
 21
1144.9391000000001
  0
LINE
  8
_0-0_1
  6
CONTINUOUS
 62
    4
 10
1823.0990999999999
 20
1149.0624
 11
1826.7408
 21
1146.5105000000001
  0
LINE
  8
_0-0_1
  6
CONTINUOUS
 62
    4
 10
1819.6819999999998
 20
1151.3598
 11
1823.0990999999999
 21
1149.0624
  0
LINE
  8
_0-0_1
  6
CONTINUOUS
 62
    4
 10
1816.4863999999998
 20
1153.3368
 11
1819.6819999999998
 21
1151.3598
  0
LINE
  8
_0-0_1
  6
CONTINUOUS
 62
    4
 10
1813.5023999999999
 20
1154.9558999999999
 11
1816.4863999999998
 21
1153.3368
  0
LINE
  8
_0-0_1
  6
CONTINUOUS
 62
    4
 10
1810.5358999999999
 20
1156.2850000000001
 11
1813.5023999999999
 21
1154.9558999999999
  0
LINE
  8
_0-0_1
  6
CONTINUOUS
 62
    4
 10
1809.7858999999999
 20
1156.5577000000001
 11
1810.5358999999999
 21
1156.2850000000001
  0
LINE
  8
_0-0_1
  6
CONTINUOUS
 62
    4
 10
1810.1190000000001
 20
1176.6008999999999
 11
1809.9429
 21
1156.4274
  0
LINE
  8
_0-0_1
  6
CONTINUOUS
 62
    4
 10
2057.933
 20
1131.5893000000001
 11
2015.1127999999999
 21
1121.6679999999999
  0
ARC
  8
_0-0_1
  6
CONTINUOUS
 62
    4
 10
2057.7073
 20
1132.5635
 40
1
 50
283.04496999999998
 51
359.5
  0
LINE
  8
_0-0_1
  6
CONTINUOUS
 62
    4
 10
2010.6219999999998
 20
1111.3544999999999
 11
2008.3764999999999
 21
1119.9278999999999
  0
ARC
  8
_0-0_1
  6
CONTINUOUS
 62
    4
 10
2013.5241000000001
 20
1112.1146000000001
 40
3
 50
194.67639000000003
 51
270.00000000000006
  0
LINE
  8
_0-0_1
  6
CONTINUOUS
 62
    4
 10
2016.9418999999998
 20
1109.1146000000001
 11
2013.5241000000001
 21
1109.1146000000001
  0
LINE
  8
_0-0_1
  6
CONTINUOUS
 62
    4
 10
2019.9011
 20
1111.6214
 11
2021.8350999999998
 21
1123.2256
  0
ARC
  8
_0-0_1
  6
CONTINUOUS
 62
    4
 10
2016.9418999999998
 20
1112.1146000000001
 40
3
 50
270
 51
350.53766999999999
  0
LINE
  8
_0-0_1
  6
CONTINUOUS
 62
    4
 10
1764.0349999999999
 20
1180.2628
 11
1764.0349999999999
 21
1163.7303999999999
  0
LINE
  8
_0-0_1
  6
CONTINUOUS
 62
    4
 10
1765.2939000000001
 20
1182.1205
 11
1766.4189000000001
 21
1182.5693000000001
  0
ARC
  8
_0-0_1
  6
CONTINUOUS
 62
    4
 10
1766.0349999999999
 20
1180.2628
 40
2
 50
111.74902000000002
 51
180
  0
LINE
  8
_0-0_1
  6
CONTINUOUS
 62
    4
 10
2058.1106
 20
1151.9376
 11
2019.0349999999999
 21
1142.8839
  0
LINE
  8
_0-0_1
  6
CONTINUOUS
 62
    4
 10
2019.0349999999999
 20
1161.3607999999999
 11
2019.0349999999999
 21
1142.8839
  0
LINE
  8
_0-0_1
  6
CONTINUOUS
 62
    4
 10
2017.0106000000001
 20
1160.8916999999999
 11
2050.2597999999998
 21
1168.5953999999999
  0
LINE
  8
_0-0_1
  6
CONTINUOUS
 62
    4
 10
2058.9713999999999
 20
1171.9694999999999
 11
2058.9713999999999
 21
1152.8894
  0
LINE
  8
_0-0_1
  6
CONTINUOUS
 62
    4
 10
2059.0787
 20
1150.9024999999999
 11
2059.0787
 21
1132.7313999999999
  0
LINE
  8
_0-0_1
  6
CONTINUOUS
 62
    4
 10
1047.4724000000001
 20
1179.2642000000001
 11
1051.7817
 21
1177.3884
  0
LINE
  8
_0-0_1
  6
CONTINUOUS
 62
    4
 10
1051.7817
 20
1177.3884
 11
1059.163
 21
1174.2049
  0
LINE
  8
_0-0_1
  6
CONTINUOUS
 62
    4
 10
1059.163
 20
1174.2049
 11
1066.4684999999999
 21
1171.1342999999999
  0
LINE
  8
_0-0_1
  6
CONTINUOUS
 62
    4
 10
1066.4684999999999
 20
1171.1342999999999
 11
1073.7116000000001
 21
1168.2191
  0
LINE
  8
_0-0_1
  6
CONTINUOUS
 62
    4
 10
1073.7116000000001
 20
1168.2191
 11
1080.9045000000001
 21
1165.4997000000001
  0
LINE
  8
_0-0_1
  6
CONTINUOUS
 62
    4
 10
1080.9045000000001
 20
1165.4997000000001
 11
1088.124
 21
1162.9922999999999
  0
LINE
  8
_0-0_1
  6
CONTINUOUS
 62
    4
 10
1088.124
 20
1162.9922999999999
 11
1092.2373
 21
1161.6804999999999
  0
LINE
  8
_0-0_1
  6
CONTINUOUS
 62
    4
 10
1092.2373
 20
1161.6804999999999
 11
1095.1415
 21
1160.8106
  0
LINE
  8
_0-0_1
  6
CONTINUOUS
 62
    4
 10
1095.1415
 20
1160.8106
 11
1100.3752999999999
 21
1159.3510000000001
  0
LINE
  8
_0-0_1
  6
CONTINUOUS
 62
    4
 10
1100.3752999999999
 20
1159.3510000000001
 11
1105.6456000000001
 21
1158.0038999999999
  0
LINE
  8
_0-0_1
  6
CONTINUOUS
 62
    4
 10
1105.6456000000001
 20
1158.0038999999999
 11
1110.9947999999999
 21
1156.7439999999999
  0
LINE
  8
_0-0_1
  6
CONTINUOUS
 62
    4
 10
1110.9947999999999
 20
1156.7439999999999
 11
1116.4177
 21
1155.5587
  0
LINE
  8
_0-0_1
  6
CONTINUOUS
 62
    4
 10
1116.4177
 20
1155.5587
 11
1121.9256
 21
1154.4318000000001
  0
LINE
  8
_0-0_1
  6
CONTINUOUS
 62
    4
 10
1121.9256
 20
1154.4318000000001
 11
1125.1187
 21
1153.8072999999999
  0
LINE
  8
_0-0_1
  6
CONTINUOUS
 62
    4
 10
1125.1187
 20
1153.8072999999999
 11
1127.5813000000001
 21
1153.3386
  0
LINE
  8
_0-0_1
  6
CONTINUOUS
 62
    4
 10
1127.5813000000001
 20
1153.3386
 11
1131.8393000000001
 21
1152.5632000000001
  0
LINE
  8
_0-0_1
  6
CONTINUOUS
 62
    4
 10
1131.8393000000001
 20
1152.5632000000001
 11
1136.0157999999999
 21
1151.8614
  0
LINE
  8
_0-0_1
  6
CONTINUOUS
 62
    4
 10
1136.0157999999999
 20
1151.8614
 11
1140.1239
 21
1151.2466999999999
  0
LINE
  8
_0-0_1
  6
CONTINUOUS
 62
    4
 10
1140.1239
 20
1151.2466999999999
 11
1144.163
 21
1150.7336
  0
LINE
  8
_0-0_1
  6
CONTINUOUS
 62
    4
 10
1144.163
 20
1150.7336
 11
1148.1952000000001
 21
1150.3297
  0
LINE
  8
_0-0_1
  6
CONTINUOUS
 62
    4
 10
1148.1952000000001
 20
1150.3297
 11
1150.4174
 21
1150.1605
  0
LINE
  8
_0-0_1
  6
CONTINUOUS
 62
    4
 10
1150.4174
 20
1150.1605
 11
1152.6313
 21
1150.0337
  0
LINE
  8
_0-0_1
  6
CONTINUOUS
 62
    4
 10
1152.6313
 20
1150.0337
 11
1156.6637000000001
 21
1149.8986
  0
LINE
  8
_0-0_1
  6
CONTINUOUS
 62
    4
 10
1156.6637000000001
 20
1149.8986
 11
1160.7186999999999
 21
1149.8692000000001
  0
LINE
  8
_0-0_1
  6
CONTINUOUS
 62
    4
 10
1160.7186999999999
 20
1149.8692000000001
 11
1164.8561
 21
1149.9299000000001
  0
LINE
  8
_0-0_1
  6
CONTINUOUS
 62
    4
 10
1164.8561
 20
1149.9299000000001
 11
1169.0733
 21
1150.066
  0
LINE
  8
_0-0_1
  6
CONTINUOUS
 62
    4
 10
1169.0733
 20
1150.066
 11
1173.3805
 21
1150.2624000000001
  0
LINE
  8
_0-0_1
  6
CONTINUOUS
 62
    4
 10
1173.3805
 20
1150.2624000000001
 11
1175.8788999999999
 21
1150.3955000000001
  0
LINE
  8
_0-0_1
  6
CONTINUOUS
 62
    4
 10
1175.8788999999999
 20
1150.3955000000001
 11
1178.7393
 21
1150.5604000000001
  0
LINE
  8
_0-0_1
  6
CONTINUOUS
 62
    4
 10
1178.7393
 20
1150.5604000000001
 11
1183.6899000000001
 21
1150.8796
  0
LINE
  8
_0-0_1
  6
CONTINUOUS
 62
    4
 10
1183.6899000000001
 20
1150.8796
 11
1188.5912000000001
 21
1151.2447
  0
LINE
  8
_0-0_1
  6
CONTINUOUS
 62
    4
 10
1188.5912000000001
 20
1151.2447
 11
1193.4559999999999
 21
1151.6635000000001
  0
LINE
  8
_0-0_1
  6
CONTINUOUS
 62
    4
 10
1193.4559999999999
 20
1151.6635000000001
 11
1198.2827
 21
1152.1428000000001
  0
LINE
  8
_0-0_1
  6
CONTINUOUS
 62
    4
 10
1198.2827
 20
1152.1428000000001
 11
1203.1018999999999
 21
1152.693
  0
LINE
  8
_0-0_1
  6
CONTINUOUS
 62
    4
 10
1203.1018999999999
 20
1152.693
 11
1205.7547999999999
 21
1153.0299
  0
LINE
  8
_0-0_1
  6
CONTINUOUS
 62
    4
 10
1205.7547999999999
 20
1153.0299
 11
1213.5044
 21
1154.1602
  0
LINE
  8
_0-0_1
  6
CONTINUOUS
 62
    4
 10
1213.5044
 20
1154.1602
 11
1226.9728
 21
1156.5911000000001
  0
LINE
  8
_0-0_1
  6
CONTINUOUS
 62
    4
 10
1226.9728
 20
1156.5911000000001
 11
1240.4132999999999
 21
1159.5191
  0
LINE
  8
_0-0_1
  6
CONTINUOUS
 62
    4
 10
1240.4132999999999
 20
1159.5191
 11
1253.9308000000001
 21
1162.8625999999999
  0
LINE
  8
_0-0_1
  6
CONTINUOUS
 62
    4
 10
1253.9308000000001
 20
1162.8625999999999
 11
1267.5404000000001
 21
1166.5207
  0
LINE
  8
_0-0_1
  6
CONTINUOUS
 62
    4
 10
1267.5404000000001
 20
1166.5207
 11
1281.2583
 21
1170.3888999999999
  0
LINE
  8
_0-0_1
  6
CONTINUOUS
 62
    4
 10
1281.2583
 20
1170.3888999999999
 11
1287.0193999999997
 21
1172.0409
  0
LINE
  8
_0-0_1
  6
CONTINUOUS
 62
    4
 10
1287.0409999999997
 20
1174.5504000000001
 11
1286.9591
 21
1172.2066
  0
ARC
  8
_0-0_1
  6
CONTINUOUS
 62
    4
 10
1288.0404000000001
 20
1174.5155
 40
1
 50
106.29949000000002
 51
178.00000000000003
  0
LINE
  8
_0-0_1
  6
CONTINUOUS
 62
    4
 10
1293.7144000000001
 20
1177.2166
 11
1287.7597000000001
 21
1175.4753000000001
  0
ARC
  8
_0-0_1
  6
CONTINUOUS
 62
    4
 10
1293.9951000000001
 20
1176.2566999999999
 40
1
 50
358
 51
106.29949000000001
  0
LINE
  8
_0-0_1
  6
CONTINUOUS
 62
    4
 10
1047.4419
 20
1179.2961
 11
1040.0939000000001
 21
1182.7208000000001
  0
LINE
  8
_0-0_1
  6
CONTINUOUS
 62
    4
 10
1286.3012000000001
 20
1152.2544
 11
1286.2617
 21
1151.1231
  0
ARC
  8
_0-0_1
  6
CONTINUOUS
 62
    4
 10
1287.3006
 20
1152.2194999999999
 40
1
 50
106.35783000000001
 51
178.00000000000003
  0
LINE
  8
_0-0_1
  6
CONTINUOUS
 62
    4
 10
1286.2764999999999
 20
1151.0239999999999
 11
1272.8503000000001
 21
1147.2381
  0
LINE
  8
_0-0_1
  6
CONTINUOUS
 62
    4
 10
1272.8503000000001
 20
1147.2381
 11
1258.9282000000001
 21
1143.4960000000001
  0
LINE
  8
_0-0_1
  6
CONTINUOUS
 62
    4
 10
1258.9282000000001
 20
1143.4960000000001
 11
1244.9438
 21
1140.037
  0
LINE
  8
_0-0_1
  6
CONTINUOUS
 62
    4
 10
1244.9438
 20
1140.037
 11
1230.8788
 21
1136.973
  0
LINE
  8
_0-0_1
  6
CONTINUOUS
 62
    4
 10
1230.8788
 20
1136.973
 11
1216.7248
 21
1134.4182000000001
  0
LINE
  8
_0-0_1
  6
CONTINUOUS
 62
    4
 10
1216.7248
 20
1134.4182000000001
 11
1208.4583
 21
1133.2126000000001
  0
LINE
  8
_0-0_1
  6
CONTINUOUS
 62
    4
 10
1208.4583
 20
1133.2126000000001
 11
1205.4963
 21
1132.8363999999999
  0
LINE
  8
_0-0_1
  6
CONTINUOUS
 62
    4
 10
1205.4963
 20
1132.8363999999999
 11
1200.4051999999999
 21
1132.2552000000001
  0
LINE
  8
_0-0_1
  6
CONTINUOUS
 62
    4
 10
1200.4051999999999
 20
1132.2552000000001
 11
1195.3018999999999
 21
1131.7484999999999
  0
LINE
  8
_0-0_1
  6
CONTINUOUS
 62
    4
 10
1195.3018999999999
 20
1131.7484999999999
 11
1190.1918000000001
 21
1131.3085000000001
  0
LINE
  8
_0-0_1
  6
CONTINUOUS
 62
    4
 10
1190.1918000000001
 20
1131.3085000000001
 11
1185.0762999999999
 21
1130.9275
  0
LINE
  8
_0-0_1
  6
CONTINUOUS
 62
    4
 10
1185.0762999999999
 20
1130.9275
 11
1179.9585
 21
1130.5975000000001
  0
LINE
  8
_0-0_1
  6
CONTINUOUS
 62
    4
 10
1179.9585
 20
1130.5975000000001
 11
1176.9862000000001
 21
1130.4260999999999
  0
LINE
  8
_0-0_1
  6
CONTINUOUS
 62
    4
 10
1176.9862000000001
 20
1130.4260999999999
 11
1174.3678
 21
1130.2867000000001
  0
LINE
  8
_0-0_1
  6
CONTINUOUS
 62
    4
 10
1174.3678
 20
1130.2867000000001
 11
1169.8516
 21
1130.0807
  0
LINE
  8
_0-0_1
  6
CONTINUOUS
 62
    4
 10
1169.8516
 20
1130.0807
 11
1165.3253999999999
 21
1129.9346
  0
LINE
  8
_0-0_1
  6
CONTINUOUS
 62
    4
 10
1165.3253999999999
 20
1129.9346
 11
1160.7928999999999
 21
1129.8680999999999
  0
LINE
  8
_0-0_1
  6
CONTINUOUS
 62
    4
 10
1160.7928999999999
 20
1129.8680999999999
 11
1156.2562
 21
1129.9010000000001
  0
LINE
  8
_0-0_1
  6
CONTINUOUS
 62
    4
 10
1156.2562
 20
1129.9010000000001
 11
1151.7244000000001
 21
1130.0528999999999
  0
LINE
  8
_0-0_1
  6
CONTINUOUS
 62
    4
 10
1151.7244000000001
 20
1130.0528999999999
 11
1149.0863999999999
 21
1130.204
  0
LINE
  8
_0-0_1
  6
CONTINUOUS
 62
    4
 10
1149.0863999999999
 20
1130.204
 11
1146.4391000000001
 21
1130.4055000000001
  0
LINE
  8
_0-0_1
  6
CONTINUOUS
 62
    4
 10
1146.4391000000001
 20
1130.4055000000001
 11
1141.9057
 21
1130.8596
  0
LINE
  8
_0-0_1
  6
CONTINUOUS
 62
    4
 10
1141.9057
 20
1130.8596
 11
1137.3834999999999
 21
1131.4340999999999
  0
LINE
  8
_0-0_1
  6
CONTINUOUS
 62
    4
 10
1137.3834999999999
 20
1131.4340999999999
 11
1132.8786
 21
1132.1081999999999
  0
LINE
  8
_0-0_1
  6
CONTINUOUS
 62
    4
 10
1132.8786
 20
1132.1081999999999
 11
1128.3905
 21
1132.8623
  0
LINE
  8
_0-0_1
  6
CONTINUOUS
 62
    4
 10
1128.3905
 20
1132.8623
 11
1123.9199000000001
 21
1133.6765
  0
LINE
  8
_0-0_1
  6
CONTINUOUS
 62
    4
 10
1123.9199000000001
 20
1133.6765
 11
1121.3298
 21
1134.1695
  0
LINE
  8
_0-0_1
  6
CONTINUOUS
 62
    4
 10
1121.3298
 20
1134.1695
 11
1118.0018
 21
1134.8203000000001
  0
LINE
  8
_0-0_1
  6
CONTINUOUS
 62
    4
 10
1118.0018
 20
1134.8203000000001
 11
1112.2777000000001
 21
1135.9914000000001
  0
LINE
  8
_0-0_1
  6
CONTINUOUS
 62
    4
 10
1112.2777000000001
 20
1135.9914000000001
 11
1106.5666000000001
 21
1137.2397000000001
  0
LINE
  8
_0-0_1
  6
CONTINUOUS
 62
    4
 10
1106.5666000000001
 20
1137.2397000000001
 11
1100.8761
 21
1138.5799999999999
  0
LINE
  8
_0-0_1
  6
CONTINUOUS
 62
    4
 10
1100.8761
 20
1138.5799999999999
 11
1095.2121
 21
1140.0277000000001
  0
LINE
  8
_0-0_1
  6
CONTINUOUS
 62
    4
 10
1095.2121
 20
1140.0277000000001
 11
1089.5853999999999
 21
1141.5969
  0
LINE
  8
_0-0_1
  6
CONTINUOUS
 62
    4
 10
1089.5853999999999
 20
1141.5969
 11
1086.3289
 21
1142.5723
  0
LINE
  8
_0-0_1
  6
CONTINUOUS
 62
    4
 10
1086.3289
 20
1142.5723
 11
1081.8036
 21
1144.0155999999999
  0
LINE
  8
_0-0_1
  6
CONTINUOUS
 62
    4
 10
1081.8036
 20
1144.0155999999999
 11
1074.0861
 21
1146.6958999999999
  0
LINE
  8
_0-0_1
  6
CONTINUOUS
 62
    4
 10
1074.0861
 20
1146.6958999999999
 11
1066.4407000000001
 21
1149.5863999999999
  0
LINE
  8
_0-0_1
  6
CONTINUOUS
 62
    4
 10
1066.4407000000001
 20
1149.5863999999999
 11
1058.8596
 21
1152.6376
  0
LINE
  8
_0-0_1
  6
CONTINUOUS
 62
    4
 10
1058.8596
 20
1152.6376
 11
1058.4809
 21
1152.7968000000001
  0
LINE
  8
_0-0_1
  6
CONTINUOUS
 62
    4
 10
1292.2637
 20
1134.0133000000001
 11
1291.652
 21
1133.8379
  0
LINE
  8
_0-0_1
  6
CONTINUOUS
 62
    4
 10
1291.652
 20
1133.8379
 11
1277.6292000000001
 21
1129.8837000000001
  0
LINE
  8
_0-0_1
  6
CONTINUOUS
 62
    4
 10
1277.6292000000001
 20
1129.8837000000001
 11
1263.4258
 21
1126.066
  0
LINE
  8
_0-0_1
  6
CONTINUOUS
 62
    4
 10
1263.4258
 20
1126.066
 11
1249.0213000000001
 21
1122.5030999999999
  0
LINE
  8
_0-0_1
  6
CONTINUOUS
 62
    4
 10
1249.0213000000001
 20
1122.5030999999999
 11
1234.3942999999999
 21
1119.3166000000001
  0
LINE
  8
_0-0_1
  6
CONTINUOUS
 62
    4
 10
1234.3942999999999
 20
1119.3166000000001
 11
1219.6231
 21
1116.6505
  0
LINE
  8
_0-0_1
  6
CONTINUOUS
 62
    4
 10
1219.6231
 20
1116.6505
 11
1210.8915
 21
1115.3770999999999
  0
LINE
  8
_0-0_1
  6
CONTINUOUS
 62
    4
 10
1210.8915
 20
1115.3770999999999
 11
1207.6512
 21
1114.9655
  0
LINE
  8
_0-0_1
  6
CONTINUOUS
 62
    4
 10
1207.6512
 20
1114.9655
 11
1202.3154
 21
1114.3563999999999
  0
LINE
  8
_0-0_1
  6
CONTINUOUS
 62
    4
 10
1202.3154
 20
1114.3563999999999
 11
1196.9632999999999
 21
1113.8249000000001
  0
LINE
  8
_0-0_1
  6
CONTINUOUS
 62
    4
 10
1196.9632999999999
 20
1113.8249000000001
 11
1191.6323
 21
1113.366
  0
LINE
  8
_0-0_1
  6
CONTINUOUS
 62
    4
 10
1191.6323
 20
1113.366
 11
1186.3240000000001
 21
1112.9706000000001
  0
LINE
  8
_0-0_1
  6
CONTINUOUS
 62
    4
 10
1186.3240000000001
 20
1112.9706000000001
 11
1181.0558000000001
 21
1112.6307999999999
  0
LINE
  8
_0-0_1
  6
CONTINUOUS
 62
    4
 10
1181.0558000000001
 20
1112.6307999999999
 11
1177.9828
 21
1112.4536000000001
  0
LINE
  8
_0-0_1
  6
CONTINUOUS
 62
    4
 10
1177.9828
 20
1112.4536000000001
 11
1175.2563
 21
1112.3085000000001
  0
LINE
  8
_0-0_1
  6
CONTINUOUS
 62
    4
 10
1175.2563
 20
1112.3085000000001
 11
1170.5519999999999
 21
1112.0939000000001
  0
LINE
  8
_0-0_1
  6
CONTINUOUS
 62
    4
 10
1170.5519999999999
 20
1112.0939000000001
 11
1165.7478000000001
 21
1111.9389000000001
  0
LINE
  8
_0-0_1
  6
CONTINUOUS
 62
    4
 10
1165.7478000000001
 20
1111.9389000000001
 11
1160.8598
 21
1111.8671999999999
  0
LINE
  8
_0-0_1
  6
CONTINUOUS
 62
    4
 10
1160.8598
 20
1111.8671999999999
 11
1155.8895
 21
1111.9032
  0
LINE
  8
_0-0_1
  6
CONTINUOUS
 62
    4
 10
1155.8895
 20
1111.9032
 11
1150.9082000000001
 21
1112.0700999999999
  0
LINE
  8
_0-0_1
  6
CONTINUOUS
 62
    4
 10
1150.9082000000001
 20
1112.0700999999999
 11
1147.8885
 21
1112.2430999999999
  0
LINE
  8
_0-0_1
  6
CONTINUOUS
 62
    4
 10
1147.8885
 20
1112.2430999999999
 11
1144.8586
 21
1112.4737
  0
LINE
  8
_0-0_1
  6
CONTINUOUS
 62
    4
 10
1144.8586
 20
1112.4737
 11
1139.8742
 21
1112.9730999999999
  0
LINE
  8
_0-0_1
  6
CONTINUOUS
 62
    4
 10
1139.8742
 20
1112.9730999999999
 11
1134.9170999999999
 21
1113.6026999999999
  0
LINE
  8
_0-0_1
  6
CONTINUOUS
 62
    4
 10
1134.9170999999999
 20
1113.6026999999999
 11
1130.0551
 21
1114.3303000000001
  0
LINE
  8
_0-0_1
  6
CONTINUOUS
 62
    4
 10
1130.0551
 20
1114.3303000000001
 11
1125.2864999999999
 21
1115.1315
  0
LINE
  8
_0-0_1
  6
CONTINUOUS
 62
    4
 10
1125.2864999999999
 20
1115.1315
 11
1120.6244999999999
 21
1115.9806000000001
  0
LINE
  8
_0-0_1
  6
CONTINUOUS
 62
    4
 10
1120.6244999999999
 20
1115.9806000000001
 11
1117.9196999999999
 21
1116.4954
  0
LINE
  8
_0-0_1
  6
CONTINUOUS
 62
    4
 10
1117.9196999999999
 20
1116.4954
 11
1114.4704999999999
 21
1117.1699000000001
  0
LINE
  8
_0-0_1
  6
CONTINUOUS
 62
    4
 10
1114.4704999999999
 20
1117.1699000000001
 11
1108.5518
 21
1118.3807999999999
  0
LINE
  8
_0-0_1
  6
CONTINUOUS
 62
    4
 10
1108.5518
 20
1118.3807999999999
 11
1102.5812000000001
 21
1119.6858
  0
LINE
  8
_0-0_1
  6
CONTINUOUS
 62
    4
 10
1102.5812000000001
 20
1119.6858
 11
1096.5835999999999
 21
1121.0985000000001
  0
LINE
  8
_0-0_1
  6
CONTINUOUS
 62
    4
 10
1096.5835999999999
 20
1121.0985000000001
 11
1090.5651
 21
1122.6368
  0
LINE
  8
_0-0_1
  6
CONTINUOUS
 62
    4
 10
1090.5651
 20
1122.6368
 11
1084.5849000000001
 21
1124.3045
  0
LINE
  8
_0-0_1
  6
CONTINUOUS
 62
    4
 10
1084.5849000000001
 20
1124.3045
 11
1081.0114000000001
 21
1125.3749
  0
LINE
  8
_0-0_1
  6
CONTINUOUS
 62
    4
 10
1081.0114000000001
 20
1125.3749
 11
1076.1152999999999
 21
1126.9365
  0
LINE
  8
_0-0_1
  6
CONTINUOUS
 62
    4
 10
1076.1152999999999
 20
1126.9365
 11
1067.9494999999999
 21
1129.7725
  0
LINE
  8
_0-0_1
  6
CONTINUOUS
 62
    4
 10
1067.9494999999999
 20
1129.7725
 11
1059.8968
 21
1132.8169
  0
LINE
  8
_0-0_1
  6
CONTINUOUS
 62
    4
 10
1059.8968
 20
1132.8169
 11
1058.4763
 21
1133.3887
  0
LINE
  8
_0-0_1
  6
CONTINUOUS
 62
    4
 10
1036.5143
 20
1162.2642000000001
 11
1040.1505
 21
1101.7714000000001
  0
LINE
  8
_0-0_1
  6
CONTINUOUS
 62
    4
 10
1040.2661000000001
 20
1160.9875999999999
 11
1036.2891
 21
1162.2086999999999
  0
LINE
  8
_0-0_1
  6
CONTINUOUS
 62
    4
 10
1040.2661000000001
 20
1182.8743999999999
 11
1040.2661000000001
 21
1100.8838000000001
  0
LINE
  8
_0-0_1
  6
CONTINUOUS
 62
    4
 10
1040.2661000000001
 20
1100.8838000000001
 11
1058.2661000000001
 21
1100.8838000000001
  0
LINE
  8
_0-0_1
  6
CONTINUOUS
 62
    4
 10
1058.2661000000001
 20
1155.0043000000001
 11
1058.2661000000001
 21
1100.8838000000001
  0
ARC
  8
_0-0_1
  6
CONTINUOUS
 62
    4
 10
1042.3236999999999
 20
1121.6715999999999
 40
36.94905
 50
64.439241999999993
 51
92.897946000000005
  0
LINE
  8
_0-0_1
  6
CONTINUOUS
 62
    4
 10
1286.1815999999999
 20
1153.0752
 11
1292.9377999999999
 21
1155.0126
  0
LINE
  8
_0-0_1
  6
CONTINUOUS
 62
    4
 10
1272.3193000000001
 20
1149.1663000000001
 11
1286.1815999999999
 21
1153.0752
  0
LINE
  8
_0-0_1
  6
CONTINUOUS
 62
    4
 10
1258.4284
 20
1145.4327000000001
 11
1272.3193000000001
 21
1149.1663000000001
  0
LINE
  8
_0-0_1
  6
CONTINUOUS
 62
    4
 10
1244.4908
 20
1141.9852000000001
 11
1258.4284
 21
1145.4327000000001
  0
LINE
  8
_0-0_1
  6
CONTINUOUS
 62
    4
 10
1230.4882
 20
1138.9348
 11
1244.4908
 21
1141.9852000000001
  0
LINE
  8
_0-0_1
  6
CONTINUOUS
 62
    4
 10
1216.4027000000001
 20
1136.3924
 11
1230.4882
 21
1138.9348
  0
LINE
  8
_0-0_1
  6
CONTINUOUS
 62
    4
 10
1208.1880000000001
 20
1135.1944000000001
 11
1216.4027000000001
 21
1136.3924
  0
LINE
  8
_0-0_1
  6
CONTINUOUS
 62
    4
 10
1205.2569000000001
 20
1134.8219999999999
 11
1208.1880000000001
 21
1135.1944000000001
  0
LINE
  8
_0-0_1
  6
CONTINUOUS
 62
    4
 10
1200.1929
 20
1134.2439999999999
 11
1205.2569000000001
 21
1134.8219999999999
  0
LINE
  8
_0-0_1
  6
CONTINUOUS
 62
    4
 10
1195.1172999999999
 20
1133.74
 11
1200.1929
 21
1134.2439999999999
  0
LINE
  8
_0-0_1
  6
CONTINUOUS
 62
    4
 10
1190.0317
 20
1133.3022000000001
 11
1195.1172999999999
 21
1133.74
  0
LINE
  8
_0-0_1
  6
CONTINUOUS
 62
    4
 10
1184.9376
 20
1132.9227000000001
 11
1190.0317
 21
1133.3022000000001
  0
LINE
  8
_0-0_1
  6
CONTINUOUS
 62
    4
 10
1179.8366000000001
 20
1132.5938000000001
 11
1184.9376
 21
1132.9227000000001
  0
LINE
  8
_0-0_1
  6
CONTINUOUS
 62
    4
 10
1176.8755000000001
 20
1132.423
 11
1179.8366000000001
 21
1132.5938000000001
  0
LINE
  8
_0-0_1
  6
CONTINUOUS
 62
    4
 10
1174.2691
 20
1132.2842000000001
 11
1176.8755000000001
 21
1132.423
  0
LINE
  8
_0-0_1
  6
CONTINUOUS
 62
    4
 10
1169.7737999999999
 20
1132.0791999999999
 11
1174.2691
 21
1132.2842000000001
  0
LINE
  8
_0-0_1
  6
CONTINUOUS
 62
    4
 10
1165.2784999999999
 20
1131.9340999999999
 11
1169.7737999999999
 21
1132.0791999999999
  0
LINE
  8
_0-0_1
  6
CONTINUOUS
 62
    4
 10
1160.7855
 20
1131.8681999999999
 11
1165.2784999999999
 21
1131.9340999999999
  0
LINE
  8
_0-0_1
  6
CONTINUOUS
 62
    4
 10
1156.297
 20
1131.9006999999999
 11
1160.7855
 21
1131.8681999999999
  0
LINE
  8
_0-0_1
  6
CONTINUOUS
 62
    4
 10
1151.8151
 20
1132.0509999999999
 11
1156.297
 21
1131.9006999999999
  0
LINE
  8
_0-0_1
  6
CONTINUOUS
 62
    4
 10
1149.2194999999999
 20
1132.1995999999999
 11
1151.8151
 21
1132.0509999999999
  0
LINE
  8
_0-0_1
  6
CONTINUOUS
 62
    4
 10
1146.6147000000001
 20
1132.3978999999999
 11
1149.2194999999999
 21
1132.1995999999999
  0
LINE
  8
_0-0_1
  6
CONTINUOUS
 62
    4
 10
1142.1314
 20
1132.847
 11
1146.6147000000001
 21
1132.3978999999999
  0
LINE
  8
_0-0_1
  6
CONTINUOUS
 62
    4
 10
1137.6575
 20
1133.4152999999999
 11
1142.1314
 21
1132.847
  0
LINE
  8
_0-0_1
  6
CONTINUOUS
 62
    4
 10
1133.1922999999999
 20
1134.0835
 11
1137.6575
 21
1133.4152999999999
  0
LINE
  8
_0-0_1
  6
CONTINUOUS
 62
    4
 10
1128.7354
 20
1134.8324
 11
1133.1922999999999
 21
1134.0835
  0
LINE
  8
_0-0_1
  6
CONTINUOUS
 62
    4
 10
1124.2860000000001
 20
1135.6427000000001
 11
1128.7354
 21
1134.8324
  0
LINE
  8
_0-0_1
  6
CONTINUOUS
 62
    4
 10
1121.7086999999999
 20
1136.1332
 11
1124.2860000000001
 21
1135.6427000000001
  0
LINE
  8
_0-0_1
  6
CONTINUOUS
 62
    4
 10
1118.3942
 20
1136.7814000000001
 11
1121.7086999999999
 21
1136.1332
  0
LINE
  8
_0-0_1
  6
CONTINUOUS
 62
    4
 10
1112.6917000000001
 20
1137.9481000000001
 11
1118.3942
 21
1136.7814000000001
  0
LINE
  8
_0-0_1
  6
CONTINUOUS
 62
    4
 10
1107.0093999999999
 20
1139.1901
 11
1112.6917000000001
 21
1137.9481000000001
  0
LINE
  8
_0-0_1
  6
CONTINUOUS
 62
    4
 10
1101.3531
 20
1140.5224000000001
 11
1107.0093999999999
 21
1139.1901
  0
LINE
  8
_0-0_1
  6
CONTINUOUS
 62
    4
 10
1095.7284
 20
1141.9601
 11
1101.3531
 21
1140.5224000000001
  0
LINE
  8
_0-0_1
  6
CONTINUOUS
 62
    4
 10
1090.1410000000001
 20
1143.5182
 11
1095.7284
 21
1141.9601
  0
LINE
  8
_0-0_1
  6
CONTINUOUS
 62
    4
 10
1086.9196999999999
 20
1144.4830999999999
 11
1090.1410000000001
 21
1143.5182
  0
LINE
  8
_0-0_1
  6
CONTINUOUS
 62
    4
 10
1082.4357
 20
1145.9132
 11
1086.9196999999999
 21
1144.4830999999999
  0
LINE
  8
_0-0_1
  6
CONTINUOUS
 62
    4
 10
1074.7679000000001
 20
1148.5762999999999
 11
1082.4357
 21
1145.9132
  0
LINE
  8
_0-0_1
  6
CONTINUOUS
 62
    4
 10
1067.1677999999999
 20
1151.4495999999999
 11
1074.7679000000001
 21
1148.5762999999999
  0
LINE
  8
_0-0_1
  6
CONTINUOUS
 62
    4
 10
1059.6205
 20
1154.4873
 11
1067.1677999999999
 21
1151.4495999999999
  0
LINE
  8
_0-0_1
  6
CONTINUOUS
 62
    4
 10
1058.3848
 20
1155.0066999999999
 11
1059.6205
 21
1154.4873
  0
LINE
  8
_0-0_1
  6
CONTINUOUS
 62
    4
 10
1253.9657
 20
1162.5459000000001
 11
1253.9657
 21
1144.7886000000001
  0
LINE
  8
_0-0_1
  6
CONTINUOUS
 62
    4
 10
1293.5504000000001
 20
1155.0961
 11
1287.0189
 21
1153.1790000000001
  0
ARC
  8
_0-0_1
  6
CONTINUOUS
 62
    4
 10
1293.8320000000001
 20
1154.1366
 40
1
 50
0
 51
106.35783000000001
  0
LINE
  8
_0-0_1
  6
CONTINUOUS
 62
    4
 10
1294.1622000000002
 20
1155.4612
 11
1292.9419000000003
 21
1155.0344
  0
LINE
  8
_0-0_1
  6
CONTINUOUS
 62
    4
 10
1294.8320000000001
 20
1156.4050999999999
 11
1294.8320000000001
 21
1176.1679999999999
  0
ARC
  8
_0-0_1
  6
CONTINUOUS
 62
    4
 10
1293.8320000000001
 20
1156.4050999999999
 40
1
 50
289.27960000000002
 51
0.0000000000000127
  0
LINE
  8
_0-0_1
  6
CONTINUOUS
 62
    4
 10
1294.1352999999999
 20
1134.623
 11
1292.3210999999997
 21
1134.0456999999999
  0
LINE
  8
_0-0_1
  6
CONTINUOUS
 62
    4
 10
1294.8320000000001
 20
1135.576
 11
1294.8320000000001
 21
1154.1366
  0
ARC
  8
_0-0_1
  6
CONTINUOUS
 62
    4
 10
1293.8320000000001
 20
1135.576
 40
1
 50
287.65382
 51
0.0000000000000254
  0
LINE
  8
_0-0_1
  6
DASHED1
 62
    2
 10
1082.4499000000001
 20
1153.3097
 11
1098.4499000000001
 21
1153.3097
  0
LINE
  8
_0-0_1
  6
DASHED1
 62
    2
 10
1098.4499000000001
 20
1153.3097
 11
1098.4499000000001
 21
1150.3097
  0
LINE
  8
_0-0_1
  6
DASHED1
 62
    2
 10
1082.4499000000001
 20
1153.3097
 11
1082.4499000000001
 21
1150.3097
  0
LINE
  8
_0-0_1
  6
DASHED1
 62
    2
 10
1082.4499000000001
 20
1150.3097
 11
1098.4499000000001
 21
1150.3097
  0
LINE
  8
_0-0_1
  6
DASHED1
 62
    2
 10
1093.4499000000001
 20
1095.4136000000001
 11
1090.3996999999999
 21
1080.9047
  0
LINE
  8
_0-0_1
  6
DASHED1
 62
    2
 10
1093.4499000000001
 20
1150.3097
 11
1093.4499000000001
 21
1095.4136000000001
  0
LINE
  8
_0-0_1
  6
DASHED1
 62
    2
 10
1090.3996999999999
 20
1080.9047
 11
1087.4499000000001
 21
1095.1622
  0
LINE
  8
_0-0_1
  6
DASHED1
 62
    2
 10
1087.4499000000001
 20
1150.3097
 11
1087.4499000000001
 21
1095.1622
  0
LINE
  8
_0-0_1
  6
DASHED1
 62
    2
 10
1357.7411999999999
 20
1148.5904
 11
1373.7411999999999
 21
1148.5904
  0
LINE
  8
_0-0_1
  6
DASHED1
 62
    2
 10
1373.7411999999999
 20
1148.5904
 11
1373.7411999999999
 21
1145.5904
  0
LINE
  8
_0-0_1
  6
DASHED1
 62
    2
 10
1357.7411999999999
 20
1148.5904
 11
1357.7411999999999
 21
1145.5904
  0
LINE
  8
_0-0_1
  6
DASHED1
 62
    2
 10
1357.7411999999999
 20
1145.5904
 11
1373.7411999999999
 21
1145.5904
  0
LINE
  8
_0-0_1
  6
DASHED1
 62
    2
 10
1368.7411999999999
 20
1090.6943000000001
 11
1365.6911
 21
1076.1854000000001
  0
LINE
  8
_0-0_1
  6
DASHED1
 62
    2
 10
1368.7411999999999
 20
1145.5904
 11
1368.7411999999999
 21
1090.6943000000001
  0
LINE
  8
_0-0_1
  6
DASHED1
 62
    2
 10
1365.6911
 20
1076.1854000000001
 11
1362.7411999999999
 21
1090.4429
  0
LINE
  8
_0-0_1
  6
DASHED1
 62
    2
 10
1362.7411999999999
 20
1145.5904
 11
1362.7411999999999
 21
1090.4429
  0
LINE
  8
_0-0_1
  6
DASHED1
 62
    2
 10
1612.5823
 20
1143.8711000000001
 11
1628.5823
 21
1143.8711000000001
  0
LINE
  8
_0-0_1
  6
DASHED1
 62
    2
 10
1628.5823
 20
1143.8711000000001
 11
1628.5823
 21
1140.8711000000001
  0
LINE
  8
_0-0_1
  6
DASHED1
 62
    2
 10
1612.5823
 20
1143.8711000000001
 11
1612.5823
 21
1140.8711000000001
  0
LINE
  8
_0-0_1
  6
DASHED1
 62
    2
 10
1612.5823
 20
1140.8711000000001
 11
1628.5823
 21
1140.8711000000001
  0
LINE
  8
_0-0_1
  6
DASHED1
 62
    2
 10
1623.5823
 20
1085.9749999999999
 11
1620.5322000000001
 21
1071.4661000000001
  0
LINE
  8
_0-0_1
  6
DASHED1
 62
    2
 10
1623.5823
 20
1140.8711000000001
 11
1623.5823
 21
1085.9749999999999
  0
LINE
  8
_0-0_1
  6
DASHED1
 62
    2
 10
1620.5322000000001
 20
1071.4661000000001
 11
1617.5823
 21
1085.7236
  0
LINE
  8
_0-0_1
  6
DASHED1
 62
    2
 10
1617.5823
 20
1140.8711000000001
 11
1617.5823
 21
1085.7236
  0
LINE
  8
_0-0_1
  6
DASHED1
 62
    2
 10
1873.7157999999999
 20
1145.4441999999999
 11
1889.7157999999999
 21
1145.4441999999999
  0
LINE
  8
_0-0_1
  6
DASHED1
 62
    2
 10
1889.7157999999999
 20
1145.4441999999999
 11
1889.7157999999999
 21
1142.4441999999999
  0
LINE
  8
_0-0_1
  6
DASHED1
 62
    2
 10
1873.7157999999999
 20
1145.4441999999999
 11
1873.7157999999999
 21
1142.4441999999999
  0
LINE
  8
_0-0_1
  6
DASHED1
 62
    2
 10
1873.7157999999999
 20
1142.4441999999999
 11
1889.7157999999999
 21
1142.4441999999999
  0
LINE
  8
_0-0_1
  6
DASHED1
 62
    2
 10
1884.7157999999999
 20
1087.5481
 11
1881.6655999999998
 21
1073.0391999999999
  0
LINE
  8
_0-0_1
  6
DASHED1
 62
    2
 10
1884.7157999999999
 20
1142.4441999999999
 11
1884.7157999999999
 21
1087.5481
  0
LINE
  8
_0-0_1
  6
DASHED1
 62
    2
 10
1881.6655999999998
 20
1073.0391999999999
 11
1878.7157999999999
 21
1087.2967000000001
  0
LINE
  8
_0-0_1
  6
DASHED1
 62
    2
 10
1878.7157999999999
 20
1142.4441999999999
 11
1878.7157999999999
 21
1087.2967000000001
  0
LINE
  8
_0-0_1
  6
CONTINUOUS
 62
    2
 10
1069.338
 20
1091.3325
 11
1104.338
 21
1114.2771
  0
LINE
  8
_0-0_1
  6
CONTINUOUS
 62
    2
 10
1104.338
 20
1091.3325
 11
1069.338
 21
1127.6259
  0
LINE
  8
_0-0_1
  6
CONTINUOUS
 62
    7
 10
963.96370000000002
 20
1221.0923
 11
1021.8518999999999
 21
1221.0923
  0
LINE
  8
_0-0_1
  6
CONTINUOUS
 62
    7
 10
1108.5155999999999
 20
1240.9170999999999
 11
1156.5155999999999
 21
1240.9170999999999
  0
LINE
  8
_0-0_1
  6
CONTINUOUS
 62
    7
 10
1156.5155999999999
 20
1240.9170999999999
 11
1108.5155999999999
 21
1240.9170999999999
  0
LINE
  8
_0-0_1
  6
CONTINUOUS
 62
    7
 10
1036.1591000000001
 20
1277.7046
 11
1036.1591000000001
 21
1329.4046000000001
  0
LINE
  8
_0-0_1
  6
CONTINUOUS
 62
    7
 10
1036.1591000000001
 20
1327.7046
 11
2014.1590999999999
 21
1327.7046
  0
LINE
  8
_0-0_1
  6
CONTINUOUS
 62
    7
 10
2014.1590999999999
 20
1277.7046
 11
2014.1590999999999
 21
1329.4046000000001
  0
LINE
  8
_0-0_1
  6
CONTINUOUS
 62
    7
 10
1759.1590999999999
 20
1329.4046000000001
 11
1759.1590999999999
 21
1277.7046
  0
LINE
  8
_0-0_1
  6
CONTINUOUS
 62
    7
 10
1503.8761
 20
1329.4046000000001
 11
1503.8761
 21
1277.7046
  0
LINE
  8
_0-0_1
  6
CONTINUOUS
 62
    7
 10
1249.1591000000001
 20
1330.2046
 11
1249.1591000000001
 21
1277.7046
  0
LINE
  8
_0-0_1
  6
CONTINUOUS
 62
    7
 10
1069.338
 20
1127.6259
 11
1069.338
 21
1091.3325
  0
LINE
  8
_0-0_1
  6
CONTINUOUS
 62
    7
 10
1069.338
 20
1091.3325
 11
1104.338
 21
1091.3325
  0
LINE
  8
_0-0_1
  6
CONTINUOUS
 62
    7
 10
1104.338
 20
1091.3325
 11
1104.338
 21
1114.2771
  0
LINE
  8
_0-0_1
  6
CONTINUOUS
 62
    7
 10
1120.7603999999999
 20
1109.6908000000001
 11
1120.7603999999999
 21
1094.6908000000001
  0
LINE
  8
_0-0_1
  6
CONTINUOUS
 62
    7
 10
1120.7603999999999
 20
1094.6908000000001
 11
2135.3249999999998
 21
1094.6908000000001
  0
LINE
  8
_0-0_1
  6
CONTINUOUS
 62
    7
 10
2135.3249999999998
 20
1109.6908000000001
 11
1120.7603999999999
 21
1109.6908000000001
  0
LINE
  8
_0-0_1
  6
CONTINUOUS
 62
    7
 10
1070.2660000000001
 20
1089.9908
 11
1070.2660000000001
 21
1064.2118
  0
LINE
  8
_0-0_1
  6
CONTINUOUS
 62
    7
 10
1070.2660000000001
 20
1064.2118
 11
2135.3249999999998
 21
1064.2118
  0
LINE
  8
_0-0_1
  6
CONTINUOUS
 62
    7
 10
2135.3249999999998
 20
1089.9908
 11
1070.2660000000001
 21
1089.9908
  0
LINE
  8
_0-0_1
  6
CONTINUOUS
 62
    7
 10
1185.2668000000001
 20
1064.2118
 11
1185.2668000000001
 21
964.21180000000004
  0
LINE
  8
_0-0_1
  6
CONTINUOUS
 62
    7
 10
1185.2668000000001
 20
964.21180000000004
 11
2135.3249999999998
 21
964.21180000000004
  0
LINE
  8
_0-0_1
  6
CONTINUOUS
 62
    7
 10
2135.3249999999998
 20
984.21160000000009
 11
1185.2668000000001
 21
984.21160000000009
  0
LINE
  8
_0-0_1
  6
CONTINUOUS
 62
    7
 10
1180.2669000000001
 20
1054.2121
 11
1180.2669000000001
 21
974.21209999999996
  0
LINE
  8
_0-0_1
  6
CONTINUOUS
 62
    7
 10
1180.2669000000001
 20
974.21209999999996
 11
1230.2669000000001
 21
974.21209999999996
  0
LINE
  8
_0-0_1
  6
CONTINUOUS
 62
    7
 10
1230.2669000000001
 20
974.21209999999996
 11
1230.2669000000001
 21
1054.2121
  0
LINE
  8
_0-0_1
  6
CONTINUOUS
 62
    7
 10
1230.2669000000001
 20
1054.2121
 11
1180.2669000000001
 21
1054.2121
  0
LINE
  8
_0-0_1
  6
CONTINUOUS
 62
    7
 10
1183.4667999999999
 20
1054.2121
 11
1183.4667999999999
 21
974.21209999999996
  0
LINE
  8
_0-0_1
  6
CONTINUOUS
 62
    7
 10
1185.2668000000001
 20
1061.9123
 11
2135.3249999999998
 21
1061.9123
  0
LINE
  8
_0-0_1
  6
CONTINUOUS
 62
    7
 10
2135.3249999999998
 20
1044.2114999999999
 11
1185.2668000000001
 21
1044.2114999999999
  0
LINE
  8
_0-0_1
  6
CONTINUOUS
 62
    7
 10
1185.2668000000001
 20
966.51080000000002
 11
2135.3249999999998
 21
966.51080000000002
  0
LINE
  8
_0-0_1
  6
CONTINUOUS
 62
    7
 10
808.2179000000001
 20
867.7485999999999
 11
1016.9313999999999
 21
867.7485999999999
  0
LINE
  8
_0-0_1
  6
CONTINUOUS
 62
    7
 10
1040.2661000000001
 20
898.09999999999991
 11
1040.2661000000001
 21
846.39999999999986
  0
LINE
  8
_0-0_1
  6
CONTINUOUS
 62
    7
 10
1040.2661000000001
 20
848.09999999999991
 11
1080.2661000000001
 21
848.09999999999991
  0
LINE
  8
_0-0_1
  6
CONTINUOUS
 62
    7
 10
1080.2661000000001
 20
846.39999999999986
 11
1080.2661000000001
 21
898.09999999999991
  0
LINE
  8
_0-0_1
  6
CONTINUOUS
 62
    7
 10
1068.2661000000001
 20
898.09999999999991
 11
1068.2661000000001
 21
846.39999999999986
  0
LINE
  8
_0-0_1
  6
CONTINUOUS
 62
    7
 10
1080.2661000000001
 20
1064.2118
 11
1080.2661000000001
 21
928.9550999999999
  0
LINE
  8
_0-0_1
  6
CONTINUOUS
 62
    7
 10
1070.7355
 20
928.9550999999999
 11
1101.1337000000001
 21
928.9550999999999
  0
LINE
  8
_0-0_1
  6
CONTINUOUS
 62
    7
 10
1111.0245
 20
928.9550999999999
 11
1141.6367
 21
928.9550999999999
  0
LINE
  8
_0-0_1
  6
CONTINUOUS
 62
    7
 10
1130.2660000000001
 20
928.9550999999999
 11
1130.2660000000001
 21
1064.2118
  0
LINE
  8
_0-0_1
  6
CONTINUOUS
 62
    7
 10
1080.2661000000001
 20
1032.0713000000001
 11
1130.2649000846639
 21
982.07249991533627
  0
LINE
  8
_0-0_1
  6
CONTINUOUS
 62
    7
 10
1130.2647999999999
 20
977.8297
 11
1080.2661000000001
 21
1027.8286000000001
  0
LINE
  8
_0-0_1
  6
CONTINUOUS
 62
    7
 10
1082.1369
 20
984.57009999999991
 11
1087.4402
 21
989.87339999999995
  0
LINE
  8
_0-0_1
  6
CONTINUOUS
 62
    7
 10
1087.4402
 20
989.87339999999995
 11
1085.499
 21
982.62899999999991
  0
LINE
  8
_0-0_1
  6
CONTINUOUS
 62
    7
 10
1087.4402
 20
989.87339999999995
 11
1016.9313999999999
 21
867.7485999999999
  0
LINE
  8
_0-0_1
  6
CONTINUOUS
 62
    7
 10
1101.1337000000001
 20
928.9550999999999
 11
1104.0599
 21
932.85680000000002
  0
LINE
  8
_0-0_1
  6
CONTINUOUS
 62
    7
 10
1104.0599
 20
932.85680000000002
 11
1108.7186999999999
 21
923.6848
  0
LINE
  8
_0-0_1
  6
CONTINUOUS
 62
    7
 10
1108.7186999999999
 20
923.6848
 11
1111.0245
 21
928.9550999999999
  0
LINE
  8
_0-0_1
  6
CONTINUOUS
 62
    7
 10
1135.2675540101895
 20
1061.9131999960532
 11
1175.2662540101894
 21
1061.9122999960532
  0
LINE
  8
_0-0_1
  6
CONTINUOUS
 62
    7
 10
1177.9667999999999
 20
1059.2125000000001
 11
1177.9659999999999
 21
1044.2118
  0
LINE
  8
_0-0_1
  6
CONTINUOUS
 62
    7
 10
1180.2669000000001
 20
1059.2121
 11
1180.2669000000001
 21
1054.2121
  0
LINE
  8
_0-0_1
  6
CONTINUOUS
 62
    7
 10
1132.567700113183
 20
1059.2139817853208
 11
1132.565000113183
 21
969.21208178532083
  0
LINE
  8
_0-0_1
  6
CONTINUOUS
 62
    7
 10
1135.2645895509215
 20
966.51130003119772
 11
1175.2664
 21
966.51050000000009
  0
LINE
  8
_0-0_1
  6
CONTINUOUS
 62
    7
 10
1177.9660999503312
 20
969.21131789154583
 11
1177.9668999999999
 21
984.21170000000006
  0
LINE
  8
_0-0_1
  6
CONTINUOUS
 62
    7
 10
1177.9668999999999
 20
984.21170000000006
 11
1180.2664
 21
984.21160000000009
  0
LINE
  8
_0-0_1
  6
CONTINUOUS
 62
    7
 10
1180.2669000000001
 20
974.21209999999996
 11
1180.2660000000001
 21
969.21080000000006
  0
LINE
  8
_0-0_1
  6
CONTINUOUS
 62
    7
 10
1135.2643
 20
964.21199999999999
 11
1175.2663
 21
964.21109999999999
  0
ARC
  8
_0-0_1
  6
CONTINUOUS
 62
    7
 10
1135.1033015731855
 20
1059.3773895386407
 40
2.5411244634971109
 50
86.293948948468653
 51
183.70914882205952
  0
ARC
  8
_0-0_1
  6
CONTINUOUS
 62
    7
 10
1135.2134883867873
 20
1059.2647365863972
 40
4.9470641803612718
 50
90.031900184047942
 51
180.60500358324077
  0
ARC
  8
_0-0_1
  6
CONTINUOUS
 62
    7
 10
1175.3471315196946
 20
1059.292653760308
 40
2.6208944221385506
 50
358.24747295171795
 51
91.768356513168044
  0
ARC
  8
_0-0_1
  6
CONTINUOUS
 62
    7
 10
1175.2581676511206
 20
1059.2029676511206
 40
5.0087406743118823
 50
0.1044664461096019
 51
89.895533553890516
  0
ARC
  8
_0-0_1
  6
CONTINUOUS
 62
    7
 10
1175.3162800817711
 20
969.16120304368474
 40
2.6508858010882301
 50
268.90647877708659
 51
1.0742042037682973
  0
ARC
  8
_0-0_1
  6
CONTINUOUS
 62
    7
 10
1175.2618391053904
 20
969.21535997599551
 40
5.0042619642592081
 50
270.05107455797776
 51
359.95891858594052
  0
ARC
  8
_0-0_1
  6
CONTINUOUS
 62
    7
 10
1135.3145332472511
 20
969.26072571758914
 40
2.7498792660390774
 50
181.03196095064254
 51
268.95932872672984
  0
ARC
  8
_0-0_1
  6
CONTINUOUS
 62
    7
 10
1135.2640912212414
 20
969.21099117755944
 40
4.9991911604238934
 50
179.98287182677967
 51
270.00403817322069
  0
LINE
  8
_0-0_1
  6
CONTINUOUS
 62
    7
 10
1069.338
 20
1127.6259
 11
1104.338
 21
1114.2771
  0
LINE
  8
_0-0_1
  6
CONTINUOUS
 62
    7
 10
1104.338
 20
1114.2771
 11
1069.338
 21
1091.3325
  0
LINE
  8
_0-0_1
  6
CONTINUOUS
 62
    7
 10
1104.338
 20
1091.3325
 11
1069.338
 21
1127.6259
  0
LINE
  8
_0-0_1
  6
CONTINUOUS
 62
    7
 10
1076.4223999999999
 20
1122.6912
 11
1081.7257
 21
1117.3878999999999
  0
LINE
  8
_0-0_1
  6
CONTINUOUS
 62
    7
 10
1081.7257
 20
1117.3878999999999
 11
1079.7845
 21
1124.6323
  0
LINE
  8
_0-0_1
  6
CONTINUOUS
 62
    7
 10
1079.7845
 20
1124.6323
 11
1081.7257
 21
1117.3878999999999
  0
LINE
  8
_0-0_1
  6
CONTINUOUS
 62
    7
 10
1081.7257
 20
1117.3878999999999
 11
1021.8518999999999
 21
1221.0923
  0
LINE
  8
_0-0_1
  6
CONTINUOUS
 62
    7
 10
1156.5155999999999
 20
1240.9170999999999
 11
1219.4306999999999
 21
1131.9449
  0
LINE
  8
_0-0_1
  6
CONTINUOUS
 62
    7
 10
1219.4306999999999
 20
1131.9449
 11
1217.4896000000001
 21
1139.1893
  0
LINE
  8
_0-0_1
  6
CONTINUOUS
 62
    7
 10
1219.4306999999999
 20
1131.9449
 11
1214.1274000000001
 21
1137.2482
  0
LINE
  8
_0-0_1
  6
CONTINUOUS
 62
    7
 10
1590.5241000000001
 20
1149.1247000000001
 11
1594.2741000000001
 21
1155.6198999999999
  0
LINE
  8
_0-0_1
  6
CONTINUOUS
 62
    7
 10
1590.5241000000001
 20
1149.1247000000001
 11
1590.5241000000001
 21
1156.6247000000001
  0
LINE
  8
_0-0_1
  6
CONTINUOUS
 62
    7
 10
1590.5241000000001
 20
1149.1247000000001
 11
1617.3391999999999
 21
1249.2
  0
LINE
  8
_0-0_1
  6
CONTINUOUS
 62
    7
 10
1677.8013000000001
 20
1098.7466999999999
 11
1677.8013000000001
 21
1091.2466999999999
  0
LINE
  8
_0-0_1
  6
CONTINUOUS
 62
    7
 10
1677.8013000000001
 20
1098.7466999999999
 11
1681.5513000000001
 21
1092.2515000000001
  0
LINE
  8
_0-0_1
  6
CONTINUOUS
 62
    7
 10
1677.8013000000001
 20
1098.7466999999999
 11
1769.4268999999999
 21
756.7953
  0
TEXT
  8
_0-1_2
 62
    7
 10
1108.5155999999997
 20
1243.417099999999
 40
20
 41
1
 50
0
  1
左袖瓦
  0
TEXT
  8
_0-1_2
 62
    7
 10
973.85189999999966
 20
1223.5923
 40
20
 41
1
 50
0
  1
登淀　
  0
TEXT
  8
_0-1_2
 62
    7
 10
1617.5002569185008
 20
1257.094506823682
 40
20
 41
1
 50
0
  1
桟　瓦
  0
TEXT
  8
_0-1_2
 62
    7
 10
1132.2251821720206
 20
1333.5515185940133
 40
20
 41
1
 50
0
  1
213
  0
TEXT
  8
_0-1_2
 62
    7
 10
1365.1003972730941
 20
1339.1969783540392
 40
20
 41
1
 50
0
  1
255
  0
TEXT
  8
_0-1_2
 62
    7
 10
1614.9119916542461
 20
1340.6083432940459
 40
20
 41
1
 50
0
  1
255
  0
TEXT
  8
_0-1_2
 62
    7
 10
1871.7804107354305
 20
1339.1969783540392
 40
20
 41
1
 50
0
  1
255
  0
TEXT
  8
_0-0_1
 62
    7
 10
1040.4864610715974
 20
821.22604537165103
 40
20
 41
1
 50
0
  1
2812
  0
TEXT
  8
_0-0_1
 62
    7
 10
1756.0484856548967
 20
852.27607405179413
 40
20
 41
1
 50
0
  1
瓦桟：１５ｘ３０以上
  0
TEXT
  8
_0-0_1
 62
    7
 10
1757.4598505949032
 20
821.22604537165103
 40
20
 41
1
 50
0
  1
下葺材：ルーフィング
  0
TEXT
  8
_0-0_1
 62
    7
 10
1764.5166752949358
 20
791.5873816315144
 40
20
 41
1
 50
0
  1
野地板：硬質木片セメントパネルｔ＝25
  0
TEXT
  8
_0-0_1
 62
    7
 10
1778.630324695001
 20
760.53735295137119
 40
20
 41
1
 50
0
  1
鋼製：C－100x50x⑳x2.3　@606
  0
TEXT
  8
_0-4_5
 62
    7
 10
800.55442127049105
 20
870.6238182718788
 40
20
 41
1
 50
0
  1
破風板：薄型ALCパネル
  0
LINE
  8
_0-0_1
  6
CONTINUOUS
 62
    2
 10
1769.4268999999999
 20
756.7953
 11
2076.4283270363744
 21
756.7953
  0
LINE
  8
_0-0_1
  6
CONTINUOUS
 62
    7
 10
1769.4268999999999
 20
756.7953
 11
2072.1942322163545
 21
756.7953
  0
LINE
  8
_0-0_1
  6
CONTINUOUS
 62
    2
 10
1762.2537000000002
 20
786.66190000000006
 11
2149.8193039167127
 21
786.66190000000006
  0
LINE
  8
_0-0_1
  6
CONTINUOUS
 62
    7
 10
2135.705654516647
 20
786.66190000000006
 11
1762.2537000000002
 21
786.66190000000006
  0
LINE
  8
_0-0_1
  6
CONTINUOUS
 62
    2
 10
1752.7105999999999
 20
816.75720000000001
 11
1962.1077668958469
 21
816.75720000000001
  0
LINE
  8
_0-0_1
  6
CONTINUOUS
 62
    7
 10
1752.7105999999999
 20
816.75720000000001
 11
1966.3418617158663
 21
816.75720000000001
  0
LINE
  8
_0-0_1
  6
CONTINUOUS
 62
    2
 10
1744.0812000000001
 20
846.85259999999994
 11
1964.9304967758599
 21
846.85259999999994
  0
LINE
  8
_0-0_1
  6
CONTINUOUS
 62
    7
 10
1744.0812000000001
 20
846.85259999999994
 11
1963.5191318358534
 21
846.85259999999994
  0
LINE
  8
_0-1_2
  6
CONTINUOUS
 62
    2
 10
1617.3391999999999
 20
1249.2
 11
1681.246143834552
 21
1249.2
  0
LINE
  8
_0-0_1
  6
CONTINUOUS
 62
    7
 10
1617.3391999999999
 20
1249.2
 11
1684.0688737145649
 21
1249.2
  0
ENDSEC
  0
EOF
