  0
SECTION
  2
HEADER
  9
$ACADVER
  1
AC1018
  9
$ACADMAINTVER
 70
     0
  9
$DWGCODEPAGE
  3
ANSI_932
  9
$INSBASE
 10
0.0
 20
0.0
 30
0.0
  9
$EXTMIN
 10
909.4537433253753
 20
763.5314999189358
 30
-0.0015258207003583
  9
$EXTMAX
 10
2078.900304949959
 20
1356.816105098482
 30
0.0000000349246037
  9
$LIMMIN
 10
0.0
 20
0.0
  9
$LIMMAX
 10
2970.0
 20
2100.0
  9
$ORTHOMODE
 70
     0
  9
$REGENMODE
 70
     1
  9
$FILLMODE
 70
     1
  9
$QTEXTMODE
 70
     0
  9
$MIRRTEXT
 70
     0
  9
$LTSCALE
 40
10.0
  9
$ATTMODE
 70
     1
  9
$TEXTSIZE
 40
0.2
  9
$TRACEWID
 40
0.05
  9
$TEXTSTYLE
  7
STANDARD
  9
$CLAYER
  8
0
  9
$CELTYPE
  6
CONTINUOUS
  9
$CECOLOR
 62
   256
  9
$CELTSCALE
 40
1.0
  9
$DISPSILH
 70
     0
  9
$DIMSCALE
 40
1.0
  9
$DIMASZ
 40
0.18
  9
$DIMEXO
 40
0.0625
  9
$DIMDLI
 40
0.38
  9
$DIMRND
 40
0.0
  9
$DIMDLE
 40
0.0
  9
$DIMEXE
 40
0.18
  9
$DIMTP
 40
0.0
  9
$DIMTM
 40
0.0
  9
$DIMTXT
 40
0.18
  9
$DIMCEN
 40
0.09
  9
$DIMTSZ
 40
0.0
  9
$DIMTOL
 70
     0
  9
$DIMLIM
 70
     0
  9
$DIMTIH
 70
     1
  9
$DIMTOH
 70
     1
  9
$DIMSE1
 70
     0
  9
$DIMSE2
 70
     0
  9
$DIMTAD
 70
     0
  9
$DIMZIN
 70
     0
  9
$DIMBLK
  1

  9
$DIMASO
 70
     1
  9
$DIMSHO
 70
     1
  9
$DIMPOST
  1

  9
$DIMAPOST
  1

  9
$DIMALT
 70
     0
  9
$DIMALTD
 70
     2
  9
$DIMALTF
 40
25.4
  9
$DIMLFAC
 40
1.0
  9
$DIMTOFL
 70
     0
  9
$DIMTVP
 40
0.0
  9
$DIMTIX
 70
     0
  9
$DIMSOXD
 70
     0
  9
$DIMSAH
 70
     0
  9
$DIMBLK1
  1

  9
$DIMBLK2
  1

  9
$DIMSTYLE
  2
Standard
  9
$DIMCLRD
 70
     0
  9
$DIMCLRE
 70
     0
  9
$DIMCLRT
 70
     0
  9
$DIMTFAC
 40
1.0
  9
$DIMGAP
 40
0.09
  9
$DIMJUST
 70
     0
  9
$DIMSD1
 70
     0
  9
$DIMSD2
 70
     0
  9
$DIMTOLJ
 70
     1
  9
$DIMTZIN
 70
     0
  9
$DIMALTZ
 70
     0
  9
$DIMALTTZ
 70
     0
  9
$DIMUPT
 70
     0
  9
$DIMDEC
 70
     4
  9
$DIMTDEC
 70
     4
  9
$DIMALTU
 70
     2
  9
$DIMALTTD
 70
     2
  9
$DIMTXSTY
  7
STANDARD
  9
$DIMAUNIT
 70
     0
  9
$DIMADEC
 70
     0
  9
$DIMALTRND
 40
0.0
  9
$DIMAZIN
 70
     0
  9
$DIMDSEP
 70
    46
  9
$DIMATFIT
 70
     3
  9
$DIMFRAC
 70
     0
  9
$DIMLDRBLK
  1

  9
$DIMLUNIT
 70
     2
  9
$DIMLWD
 70
    -2
  9
$DIMLWE
 70
    -2
  9
$DIMTMOVE
 70
     0
  9
$LUNITS
 70
     2
  9
$LUPREC
 70
     4
  9
$SKETCHINC
 40
0.1
  9
$FILLETRAD
 40
0.0
  9
$AUNITS
 70
     0
  9
$AUPREC
 70
     0
  9
$MENU
  1
.
  9
$ELEVATION
 40
0.0
  9
$PELEVATION
 40
0.0
  9
$THICKNESS
 40
0.0
  9
$LIMCHECK
 70
     0
  9
$CHAMFERA
 40
0.0
  9
$CHAMFERB
 40
0.0
  9
$CHAMFERC
 40
0.0
  9
$CHAMFERD
 40
0.0
  9
$SKPOLY
 70
     0
  9
$TDCREATE
 40
2454406.287923357
  9
$TDUCREATE
 40
2454405.912923356
  9
$TDUPDATE
 40
2454406.306218171
  9
$TDUUPDATE
 40
2454405.931218172
  9
$TDINDWG
 40
0.0182989699
  9
$TDUSRTIMER
 40
0.0182989699
  9
$USRTIMER
 70
     1
  9
$ANGBASE
 50
0.0
  9
$ANGDIR
 70
     0
  9
$PDMODE
 70
     0
  9
$PDSIZE
 40
0.0
  9
$PLINEWID
 40
0.0
  9
$SPLFRAME
 70
     0
  9
$SPLINETYPE
 70
     6
  9
$SPLINESEGS
 70
     8
  9
$HANDSEED
  5
52D
  9
$SURFTAB1
 70
     6
  9
$SURFTAB2
 70
     6
  9
$SURFTYPE
 70
     6
  9
$SURFU
 70
     6
  9
$SURFV
 70
     6
  9
$UCSBASE
  2

  9
$UCSNAME
  2

  9
$UCSORG
 10
0.0
 20
0.0
 30
0.0
  9
$UCSXDIR
 10
1.0
 20
0.0
 30
0.0
  9
$UCSYDIR
 10
0.0
 20
1.0
 30
0.0
  9
$UCSORTHOREF
  2

  9
$UCSORTHOVIEW
 70
     0
  9
$UCSORGTOP
 10
0.0
 20
0.0
 30
0.0
  9
$UCSORGBOTTOM
 10
0.0
 20
0.0
 30
0.0
  9
$UCSORGLEFT
 10
0.0
 20
0.0
 30
0.0
  9
$UCSORGRIGHT
 10
0.0
 20
0.0
 30
0.0
  9
$UCSORGFRONT
 10
0.0
 20
0.0
 30
0.0
  9
$UCSORGBACK
 10
0.0
 20
0.0
 30
0.0
  9
$PUCSBASE
  2

  9
$PUCSNAME
  2

  9
$PUCSORG
 10
0.0
 20
0.0
 30
0.0
  9
$PUCSXDIR
 10
1.0
 20
0.0
 30
0.0
  9
$PUCSYDIR
 10
0.0
 20
1.0
 30
0.0
  9
$PUCSORTHOREF
  2

  9
$PUCSORTHOVIEW
 70
     0
  9
$PUCSORGTOP
 10
0.0
 20
0.0
 30
0.0
  9
$PUCSORGBOTTOM
 10
0.0
 20
0.0
 30
0.0
  9
$PUCSORGLEFT
 10
0.0
 20
0.0
 30
0.0
  9
$PUCSORGRIGHT
 10
0.0
 20
0.0
 30
0.0
  9
$PUCSORGFRONT
 10
0.0
 20
0.0
 30
0.0
  9
$PUCSORGBACK
 10
0.0
 20
0.0
 30
0.0
  9
$USERI1
 70
     0
  9
$USERI2
 70
     0
  9
$USERI3
 70
     0
  9
$USERI4
 70
     0
  9
$USERI5
 70
     0
  9
$USERR1
 40
0.0
  9
$USERR2
 40
0.0
  9
$USERR3
 40
0.0
  9
$USERR4
 40
0.0
  9
$USERR5
 40
0.0
  9
$WORLDVIEW
 70
     1
  9
$SHADEDGE
 70
     3
  9
$SHADEDIF
 70
    70
  9
$TILEMODE
 70
     1
  9
$MAXACTVP
 70
    64
  9
$PINSBASE
 10
0.0
 20
0.0
 30
0.0
  9
$PLIMCHECK
 70
     0
  9
$PEXTMIN
 10
1.000000000000000E+20
 20
1.000000000000000E+20
 30
1.000000000000000E+20
  9
$PEXTMAX
 10
-1.000000000000000E+20
 20
-1.000000000000000E+20
 30
-1.000000000000000E+20
  9
$PLIMMIN
 10
0.0
 20
0.0
  9
$PLIMMAX
 10
12.0
 20
9.0
  9
$UNITMODE
 70
     0
  9
$VISRETAIN
 70
     1
  9
$PLINEGEN
 70
     0
  9
$PSLTSCALE
 70
     1
  9
$TREEDEPTH
 70
  3020
  9
$CMLSTYLE
  2
Standard
  9
$CMLJUST
 70
     0
  9
$CMLSCALE
 40
1.0
  9
$PROXYGRAPHICS
 70
     1
  9
$MEASUREMENT
 70
     0
  9
$CELWEIGHT
370
    -1
  9
$ENDCAPS
280
     0
  9
$JOINSTYLE
280
     0
  9
$LWDISPLAY
290
     0
  9
$INSUNITS
 70
     0
  9
$HYPERLINKBASE
  1

  9
$STYLESHEET
  1

  9
$XEDIT
290
     1
  9
$CEPSNTYPE
380
     0
  9
$PSTYLEMODE
290
     1
  9
$FINGERPRINTGUID
  2
{1D260FF1-894E-499C-AB91-6772E6B3F8AA}
  9
$VERSIONGUID
  2
{B187910A-8BBF-4645-9029-B2F03A492396}
  9
$EXTNAMES
290
     1
  9
$PSVPSCALE
 40
0.0
  9
$OLESTARTUP
290
     0
  9
$SORTENTS
280
   127
  9
$INDEXCTL
280
     0
  9
$HIDETEXT
280
     0
  9
$XCLIPFRAME
290
     0
  9
$HALOGAP
280
     0
  9
$OBSCOLOR
 70
   257
  9
$OBSLTYPE
280
     0
  9
$INTERSECTIONDISPLAY
280
     0
  9
$INTERSECTIONCOLOR
 70
   257
  9
$DIMASSOC
280
     1
  9
$PROJECTNAME
  1

  0
ENDSEC
  0
SECTION
  2
CLASSES
  0
CLASS
  1
ACDBDICTIONARYWDFLT
  2
AcDbDictionaryWithDefault
  3
ObjectDBX Classes
 90
        0
 91
        1
280
     0
281
     0
  0
ENDSEC
  0
SECTION
  2
TABLES
  0
TABLE
  2
VPORT
  5
8
330
0
100
AcDbSymbolTable
 70
     4
  0
VPORT
  5
52C
330
8
100
AcDbSymbolTableRecord
100
AcDbViewportTableRecord
  2
*Active
 70
     0
 10
0.0
 20
0.0
 11
1.0
 21
1.0
 12
1571.657158983087
 22
987.287489620146
 13
0.0
 23
0.0
 14
1.0
 24
1.0
 15
0.0
 25
0.0
 16
0.0
 26
0.0
 36
1.0
 17
0.0
 27
0.0
 37
0.0
 40
2233.885829957746
 41
1.326027397260274
 42
50.0
 43
0.0
 44
0.0
 50
0.0
 51
0.0
 71
     0
 72
   100
 73
     1
 74
     1
 75
     0
 76
     0
 77
     0
 78
     0
281
     0
 65
     1
110
0.0
120
0.0
130
0.0
111
1.0
121
0.0
131
0.0
112
0.0
122
1.0
132
0.0
 79
     0
146
0.0
  0
ENDTAB
  0
TABLE
  2
LTYPE
  5
5
330
0
100
AcDbSymbolTable
 70
    35
  0
LTYPE
  5
13
330
5
100
AcDbSymbolTableRecord
100
AcDbLinetypeTableRecord
  2
ByBlock
 70
     0
  3

 72
    65
 73
     0
 40
0.0
  0
LTYPE
  5
14
330
5
100
AcDbSymbolTableRecord
100
AcDbLinetypeTableRecord
  2
ByLayer
 70
     0
  3

 72
    65
 73
     0
 40
0.0
  0
LTYPE
  5
15
330
5
100
AcDbSymbolTableRecord
100
AcDbLinetypeTableRecord
  2
CONTINUOUS
 70
     0
  3
実線
 72
    65
 73
     0
 40
0.0
  0
LTYPE
  5
24
330
5
100
AcDbSymbolTableRecord
100
AcDbLinetypeTableRecord
  2
DASHED1
 70
     0
  3
--  --  --  --  --  --  --  --  
 72
    65
 73
     2
 40
2.5
 49
1.25
 74
     0
 49
-1.25
 74
     0
  0
LTYPE
  5
25
330
5
100
AcDbSymbolTableRecord
100
AcDbLinetypeTableRecord
  2
DASHED2
 70
     0
  3
----    ----    ----    ----    
 72
    65
 73
     2
 40
5.0
 49
2.5
 74
     0
 49
-2.5
 74
     0
  0
LTYPE
  5
26
330
5
100
AcDbSymbolTableRecord
100
AcDbLinetypeTableRecord
  2
DASHED3
 70
     0
  3
------  ------  ------  ------  
 72
    65
 73
     2
 40
5.0
 49
3.75
 74
     0
 49
-1.25
 74
     0
  0
LTYPE
  5
27
330
5
100
AcDbSymbolTableRecord
100
AcDbLinetypeTableRecord
  2
CENTER1
 70
     0
  3
----- - ----- - ----- - ----- - 
 72
    65
 73
     4
 40
10.0
 49
6.25
 74
     0
 49
-1.25
 74
     0
 49
1.25
 74
     0
 49
-1.25
 74
     0
  0
LTYPE
  5
28
330
5
100
AcDbSymbolTableRecord
100
AcDbLinetypeTableRecord
  2
CENTER2
 70
     0
  3
----------  --  ----------  --  
 72
    65
 73
     4
 40
20.0
 49
12.5
 74
     0
 49
-2.5
 74
     0
 49
2.5
 74
     0
 49
-2.5
 74
     0
  0
LTYPE
  5
29
330
5
100
AcDbSymbolTableRecord
100
AcDbLinetypeTableRecord
  2
PHANTOM1
 70
     0
  3
--- - - --- - - --- - - --- - - 
 72
    65
 73
     6
 40
10.0
 49
3.25
 74
     0
 49
-1.25
 74
     0
 49
1.25
 74
     0
 49
-1.25
 74
     0
 49
1.25
 74
     0
 49
-1.25
 74
     0
  0
LTYPE
  5
2A
330
5
100
AcDbSymbolTableRecord
100
AcDbLinetypeTableRecord
  2
PHANTOM2
 70
     0
  3
--------  -  -  --------  -  -  
 72
    65
 73
     6
 40
20.0
 49
10.0
 74
     0
 49
-2.5
 74
     0
 49
1.25
 74
     0
 49
-2.5
 74
     0
 49
1.25
 74
     0
 49
-2.5
 74
     0
  0
LTYPE
  5
2B
330
5
100
AcDbSymbolTableRecord
100
AcDbLinetypeTableRecord
  2
DOT
 70
     0
  3
-   -   -   -   -   -   -   -   
 72
    65
 73
     2
 40
2.5
 49
0.625
 74
     0
 49
-1.875
 74
     0
  0
LTYPE
  5
2C
330
5
100
AcDbSymbolTableRecord
100
AcDbLinetypeTableRecord
  2
DUMMY
 70
     0
  3
ダミー
 72
    65
 73
     0
 40
0.0
  0
LTYPE
  5
2D
330
5
100
AcDbSymbolTableRecord
100
AcDbLinetypeTableRecord
  2
RAND1
 70
     0
  3
ランダム線1
 72
    65
 73
     4
 40
10.0
 49
1.0
 74
     0
 49
-2.0
 74
     0
 49
3.0
 74
     0
 49
-4.0
 74
     0
  0
LTYPE
  5
2E
330
5
100
AcDbSymbolTableRecord
100
AcDbLinetypeTableRecord
  2
RAND2
 70
     0
  3
ランダム線2
 72
    65
 73
     4
 40
14.0
 49
2.0
 74
     0
 49
-3.0
 74
     0
 49
4.0
 74
     0
 49
-5.0
 74
     0
  0
LTYPE
  5
2F
330
5
100
AcDbSymbolTableRecord
100
AcDbLinetypeTableRecord
  2
RAND3
 70
     0
  3
ランダム線3
 72
    65
 73
     4
 40
18.0
 49
3.0
 74
     0
 49
-4.0
 74
     0
 49
5.0
 74
     0
 49
-6.0
 74
     0
  0
LTYPE
  5
30
330
5
100
AcDbSymbolTableRecord
100
AcDbLinetypeTableRecord
  2
RAND4
 70
     0
  3
ランダム線4
 72
    65
 73
     4
 40
22.0
 49
4.0
 74
     0
 49
-5.0
 74
     0
 49
6.0
 74
     0
 49
-7.0
 74
     0
  0
LTYPE
  5
31
330
5
100
AcDbSymbolTableRecord
100
AcDbLinetypeTableRecord
  2
RAND5
 70
     0
  3
ランダム線5
 72
    65
 73
     4
 40
26.0
 49
5.0
 74
     0
 49
-6.0
 74
     0
 49
7.0
 74
     0
 49
-8.0
 74
     0
  0
LTYPE
  5
32
330
5
100
AcDbSymbolTableRecord
100
AcDbLinetypeTableRecord
  2
LONG1
 70
     0
  3
----------  --  ----------  --  
 72
    65
 73
     4
 40
40.0
 49
32.5
 74
     0
 49
-2.5
 74
     0
 49
2.5
 74
     0
 49
-2.5
 74
     0
  0
LTYPE
  5
33
330
5
100
AcDbSymbolTableRecord
100
AcDbLinetypeTableRecord
  2
LONG2
 70
     0
  3
--------  -  -  --------  -  -  
 72
    65
 73
     6
 40
40.0
 49
30.0
 74
     0
 49
-2.5
 74
     0
 49
1.25
 74
     0
 49
-2.5
 74
     0
 49
1.25
 74
     0
 49
-2.5
 74
     0
  0
LTYPE
  5
34
330
5
100
AcDbSymbolTableRecord
100
AcDbLinetypeTableRecord
  2
LONG3
 70
     0
  3
+++++++++++++++..+++++++++++++++
 72
    65
 73
     2
 40
40.0
 49
37.5
 74
     0
 49
-2.5
 74
     0
  0
LTYPE
  5
35
330
5
100
AcDbSymbolTableRecord
100
AcDbLinetypeTableRecord
  2
LONG4
 70
     0
  3
+++++++++++++++..+++++++++++++++
 72
    65
 73
     2
 40
80.0
 49
75.0
 74
     0
 49
-5.0
 74
     0
  0
LTYPE
  5
36
330
5
100
AcDbSymbolTableRecord
100
AcDbLinetypeTableRecord
  2
LONG5
 70
     0
  3
----------  --  ----------  --  
 72
    65
 73
     4
 40
60.0
 49
37.5
 74
     0
 49
-7.5
 74
     0
 49
7.5
 74
     0
 49
-7.5
 74
     0
  0
LTYPE
  5
37
330
5
100
AcDbSymbolTableRecord
100
AcDbLinetypeTableRecord
  2
DASHED
 70
     0
  3
-------   -------------   ------
 72
    65
 73
     2
 40
7.5
 49
6.0
 74
     0
 49
-1.5
 74
     0
  0
LTYPE
  5
38
330
5
100
AcDbSymbolTableRecord
100
AcDbLinetypeTableRecord
  2
DASHED_SPACED
 70
     0
  3
----        --------        ----
 72
    65
 73
     2
 40
12.0
 49
6.0
 74
     0
 49
-6.0
 74
     0
  0
LTYPE
  5
39
330
5
100
AcDbSymbolTableRecord
100
AcDbLinetypeTableRecord
  2
LONG_DASHED_DOTTED
 70
     0
  3
------------- --- --------------
 72
    65
 73
     4
 40
15.25
 49
12.0
 74
     0
 49
-1.5
 74
     0
 49
0.25
 74
     0
 49
-1.5
 74
     0
  0
LTYPE
  5
3A
330
5
100
AcDbSymbolTableRecord
100
AcDbLinetypeTableRecord
  2
LONG_DASHED_DOUBLE-DOTTED
 70
     0
  3
----------- --- --- ------------
 72
    65
 73
     6
 40
17.0
 49
12.0
 74
     0
 49
-1.5
 74
     0
 49
0.25
 74
     0
 49
-1.5
 74
     0
 49
0.25
 74
     0
 49
-1.5
 74
     0
  0
LTYPE
  5
3B
330
5
100
AcDbSymbolTableRecord
100
AcDbLinetypeTableRecord
  2
LONG_DASHED_TRIPLICATE-DOTTED
 70
     0
  3
--------- --- --- --- ----------
 72
    65
 73
     8
 40
18.75
 49
12.0
 74
     0
 49
-1.5
 74
     0
 49
0.25
 74
     0
 49
-1.5
 74
     0
 49
0.25
 74
     0
 49
-1.5
 74
     0
 49
0.25
 74
     0
 49
-1.5
 74
     0
  0
LTYPE
  5
3C
330
5
100
AcDbSymbolTableRecord
100
AcDbLinetypeTableRecord
  2
DOTTED
 70
     0
  3
   -       -       -       -    
 72
    65
 73
     2
 40
1.75
 49
0.25
 74
     0
 49
-1.5
 74
     0
  0
LTYPE
  5
3D
330
5
100
AcDbSymbolTableRecord
100
AcDbLinetypeTableRecord
  2
CHAIN
 70
     0
  3
-------------- -- --------------
 72
    65
 73
     4
 40
18.5
 49
12.0
 74
     0
 49
-1.5
 74
     0
 49
3.5
 74
     0
 49
-1.5
 74
     0
  0
LTYPE
  5
3E
330
5
100
AcDbSymbolTableRecord
100
AcDbLinetypeTableRecord
  2
CHAIN_DOUBLE_DASH
 70
     0
  3
------------ -- -- -------------
 72
    65
 73
     6
 40
23.5
 49
12.0
 74
     0
 49
-1.5
 74
     0
 49
3.5
 74
     0
 49
-1.5
 74
     0
 49
3.5
 74
     0
 49
-1.5
 74
     0
  0
LTYPE
  5
3F
330
5
100
AcDbSymbolTableRecord
100
AcDbLinetypeTableRecord
  2
DASHED_DOTTED
 70
     0
  3
-----------     -     ----------
 72
    65
 73
     4
 40
9.25
 49
6.0
 74
     0
 49
-1.5
 74
     0
 49
0.25
 74
     0
 49
-1.5
 74
     0
  0
LTYPE
  5
40
330
5
100
AcDbSymbolTableRecord
100
AcDbLinetypeTableRecord
  2
DOUBLE-DASHED_DOTTED
 70
     0
  3
------   -----------   -   -----
 72
    65
 73
     6
 40
16.75
 49
6.0
 74
     0
 49
-1.5
 74
     0
 49
6.0
 74
     0
 49
-1.5
 74
     0
 49
0.25
 74
     0
 49
-1.5
 74
     0
  0
LTYPE
  5
41
330
5
100
AcDbSymbolTableRecord
100
AcDbLinetypeTableRecord
  2
DASHED_DOUBLE-DOTTED
 70
     0
  3
---------    -    -    ---------
 72
    65
 73
     6
 40
11.0
 49
6.0
 74
     0
 49
-1.5
 74
     0
 49
0.25
 74
     0
 49
-1.5
 74
     0
 49
0.25
 74
     0
 49
-1.5
 74
     0
  0
LTYPE
  5
42
330
5
100
AcDbSymbolTableRecord
100
AcDbLinetypeTableRecord
  2
DOUBLE-DASHED_DOUBLE-DOTTED
 70
     0
  3
-----   ---------   -   -   ----
 72
    65
 73
     8
 40
18.5
 49
6.0
 74
     0
 49
-1.5
 74
     0
 49
6.0
 74
     0
 49
-1.5
 74
     0
 49
0.25
 74
     0
 49
-1.5
 74
     0
 49
0.25
 74
     0
 49
-1.5
 74
     0
  0
LTYPE
  5
43
330
5
100
AcDbSymbolTableRecord
100
AcDbLinetypeTableRecord
  2
DASHED_TRIPLICATE-DOTTED
 70
     0
  3
-------    -    -    -    ------
 72
    65
 73
     8
 40
12.75
 49
6.0
 74
     0
 49
-1.5
 74
     0
 49
0.25
 74
     0
 49
-1.5
 74
     0
 49
0.25
 74
     0
 49
-1.5
 74
     0
 49
0.25
 74
     0
 49
-1.5
 74
     0
  0
LTYPE
  5
44
330
5
100
AcDbSymbolTableRecord
100
AcDbLinetypeTableRecord
  2
DOUBLE-DASHED_TRIPLICATE-DOTTED
 70
     0
  3
-----  ---------  -  -  -  -----
 72
    65
 73
    10
 40
20.25
 49
6.0
 74
     0
 49
-1.5
 74
     0
 49
6.0
 74
     0
 49
-1.5
 74
     0
 49
0.25
 74
     0
 49
-1.5
 74
     0
 49
0.25
 74
     0
 49
-1.5
 74
     0
 49
0.25
 74
     0
 49
-1.5
 74
     0
  0
LTYPE
  5
45
330
5
100
AcDbSymbolTableRecord
100
AcDbLinetypeTableRecord
  2
UNDEFINED
 70
     0
  3
--------------------------------
 72
    65
 73
     0
 40
0.0
  0
ENDTAB
  0
TABLE
  2
LAYER
  5
2
330
0
100
AcDbSymbolTable
 70
     6
  0
LAYER
  5
10
330
2
100
AcDbSymbolTableRecord
100
AcDbLayerTableRecord
  2
0
 70
     0
 62
     7
  6
CONTINUOUS
370
    -3
390
F
  0
LAYER
  5
47
330
2
100
AcDbSymbolTableRecord
100
AcDbLayerTableRecord
  2
_0-0_LAYER001
 70
     0
 62
     7
  6
CONTINUOUS
370
    -3
390
F
  0
LAYER
  5
48
330
2
100
AcDbSymbolTableRecord
100
AcDbLayerTableRecord
  2
_0-1_LAYER003
 70
     0
 62
     7
  6
CONTINUOUS
370
    -3
390
F
  0
LAYER
  5
49
330
2
100
AcDbSymbolTableRecord
100
AcDbLayerTableRecord
  2
_0-2_LAYER004
 70
     0
 62
     7
  6
CONTINUOUS
370
    -3
390
F
  0
LAYER
  5
4A
330
2
100
AcDbSymbolTableRecord
100
AcDbLayerTableRecord
  2
_0-3_LAYER007
 70
     0
 62
     7
  6
CONTINUOUS
370
    -3
390
F
  0
LAYER
  5
4B
330
2
100
AcDbSymbolTableRecord
100
AcDbLayerTableRecord
  2
ADD_LINE
 70
     0
 62
     7
  6
CONTINUOUS
370
    -3
390
F
  0
ENDTAB
  0
TABLE
  2
STYLE
  5
3
330
0
100
AcDbSymbolTable
 70
     2
  0
STYLE
  5
11
330
3
100
AcDbSymbolTableRecord
100
AcDbTextStyleTableRecord
  2
STANDARD
 70
     0
 40
0.0
 41
1.0
 50
0.0
 71
     0
 42
0.2
  3
txt
  4
bigfont.shx
  0
STYLE
  5
46
330
3
100
AcDbSymbolTableRecord
100
AcDbTextStyleTableRecord
  2
TATEGAKI
 70
     4
 40
0.0
 41
1.0
 50
0.0
 71
     0
 42
1.0
  3
txt
  4
bigfont.shx
  0
ENDTAB
  0
TABLE
  2
VIEW
  5
6
330
0
100
AcDbSymbolTable
 70
     0
  0
ENDTAB
  0
TABLE
  2
UCS
  5
7
330
0
100
AcDbSymbolTable
 70
     0
  0
ENDTAB
  0
TABLE
  2
APPID
  5
9
330
0
100
AcDbSymbolTable
 70
     1
  0
APPID
  5
12
330
9
100
AcDbSymbolTableRecord
100
AcDbRegAppTableRecord
  2
ACAD
 70
     0
  0
ENDTAB
  0
TABLE
  2
DIMSTYLE
  5
A
330
0
100
AcDbSymbolTable
 70
     1
100
AcDbDimStyleTable
 71
     0
  0
DIMSTYLE
105
528
330
A
100
AcDbSymbolTableRecord
100
AcDbDimStyleTableRecord
  2
Standard
 70
     0
340
11
  0
ENDTAB
  0
TABLE
  2
BLOCK_RECORD
  5
1
330
0
100
AcDbSymbolTable
 70
     0
  0
BLOCK_RECORD
  5
20
330
1
100
AcDbSymbolTableRecord
100
AcDbBlockTableRecord
  2
*Model_Space
340
23
  0
BLOCK_RECORD
  5
1C
330
1
100
AcDbSymbolTableRecord
100
AcDbBlockTableRecord
  2
*Paper_Space
340
1F
  0
ENDTAB
  0
ENDSEC
  0
SECTION
  2
BLOCKS
  0
BLOCK
  5
21
330
20
100
AcDbEntity
  8
0
100
AcDbBlockBegin
  2
*Model_Space
 70
     0
 10
0.0
 20
0.0
 30
0.0
  3
*Model_Space
  1

  0
ENDBLK
  5
22
330
20
100
AcDbEntity
  8
0
100
AcDbBlockEnd
  0
BLOCK
  5
1D
330
1C
100
AcDbEntity
 67
     1
  8
0
100
AcDbBlockBegin
  2
*Paper_Space
 70
     0
 10
0.0
 20
0.0
 30
0.0
  3
*Paper_Space
  1

  0
ENDBLK
  5
1E
330
1C
100
AcDbEntity
 67
     1
  8
0
100
AcDbBlockEnd
  0
ENDSEC
  0
SECTION
  2
ENTITIES
  0
LINE
  5
4F
330
20
100
AcDbEntity
  8
_0-0_LAYER001
  6
Continuous
 62
     2
100
AcDbLine
 10
1893.9866
 20
1094.4616
 30
0.0
 11
1903.9877
 21
1094.4609
 31
0.0
  0
LINE
  5
50
330
20
100
AcDbEntity
  8
_0-0_LAYER001
  6
Continuous
 62
     2
100
AcDbLine
 10
1893.9875
 20
1091.4615
 30
0.0
 11
1903.9865
 21
1091.4611
 31
0.0
  0
LINE
  5
51
330
20
100
AcDbEntity
  8
_0-0_LAYER001
  6
Continuous
 62
     2
100
AcDbLine
 10
1903.9877
 20
1094.4609
 30
0.0
 11
1903.9865
 21
1091.4611
 31
0.0
  0
LINE
  5
52
330
20
100
AcDbEntity
  8
_0-0_LAYER001
  6
Continuous
 62
     2
100
AcDbLine
 10
1893.9866
 20
1094.4616
 30
0.0
 11
1893.9875
 21
1091.4615
 31
0.0
  0
LINE
  5
53
330
20
100
AcDbEntity
  8
_0-0_LAYER001
  6
Continuous
 62
     2
100
AcDbLine
 10
1898.9872
 20
1094.4613
 30
0.0
 11
1898.9872
 21
1091.4609
 31
0.0
  0
LINE
  5
54
330
20
100
AcDbEntity
  8
_0-0_LAYER001
  6
Continuous
 62
     2
100
AcDbLine
 10
1898.981
 20
1049.4611
 30
0.0
 11
1900.9818
 21
1055.0613
 31
0.0
  0
LINE
  5
55
330
20
100
AcDbEntity
  8
_0-0_LAYER001
  6
Continuous
 62
     2
100
AcDbLine
 10
1898.981
 20
1049.4611
 30
0.0
 11
1896.9817
 21
1055.061
 31
0.0
  0
LINE
  5
56
330
20
100
AcDbEntity
  8
_0-0_LAYER001
  6
Continuous
 62
     2
100
AcDbLine
 10
1902.223
 20
1075.3592
 30
0.0
 11
1895.5762
 21
1076.4168
 31
0.0
  0
LINE
  5
57
330
20
100
AcDbEntity
  8
_0-0_LAYER001
  6
Continuous
 62
     2
100
AcDbLine
 10
1902.2212
 20
1075.3593
 30
0.0
 11
1895.5742
 21
1076.417
 31
0.0
  0
LINE
  5
58
330
20
100
AcDbEntity
  8
_0-0_LAYER001
  6
Continuous
 62
     2
100
AcDbLine
 10
1902.2206
 20
1075.3593
 30
0.0
 11
1895.5738
 21
1076.417
 31
0.0
  0
LINE
  5
59
330
20
100
AcDbEntity
  8
_0-0_LAYER001
  6
Continuous
 62
     2
100
AcDbLine
 10
1902.2187
 20
1065.3587
 30
0.0
 11
1895.5732
 21
1066.4158
 31
0.0
  0
LINE
  5
5A
330
20
100
AcDbEntity
  8
_0-0_LAYER001
  6
Continuous
 62
     2
100
AcDbLine
 10
1902.2186
 20
1056.6167
 30
0.0
 11
1895.5717
 21
1057.6744
 31
0.0
  0
LINE
  5
5B
330
20
100
AcDbEntity
  8
_0-0_LAYER001
  6
Continuous
 62
     2
100
AcDbLine
 10
1896.9844
 20
1088.4634
 30
0.0
 11
1896.9817
 21
1055.061
 31
0.0
  0
LINE
  5
5C
330
20
100
AcDbEntity
  8
_0-0_LAYER001
  6
Continuous
 62
     2
100
AcDbLine
 10
1893.9875
 20
1091.4615
 30
0.0
 11
1896.9861
 21
1088.4634
 31
0.0
  0
LINE
  5
5D
330
20
100
AcDbEntity
  8
_0-0_LAYER001
  6
Continuous
 62
     2
100
AcDbLine
 10
1900.9845
 20
1088.4606
 30
0.0
 11
1900.9818
 21
1055.0613
 31
0.0
  0
LINE
  5
5E
330
20
100
AcDbEntity
  8
_0-0_LAYER001
  6
Continuous
 62
     2
100
AcDbLine
 10
1903.9865
 20
1091.4611
 30
0.0
 11
1900.9862
 21
1088.4606
 31
0.0
  0
LINE
  5
5F
330
20
100
AcDbEntity
  8
_0-0_LAYER001
  6
Continuous
 62
     2
100
AcDbLine
 10
1938.9457
 20
938.1062
 30
0.0
 11
1934.2869
 21
928.9342000000001
 31
0.0
  0
LINE
  5
60
330
20
100
AcDbEntity
  8
_0-0_LAYER001
  6
Continuous
 62
     2
100
AcDbLine
 10
1941.8719
 20
934.2045999999999
 30
0.0
 11
1938.9457
 21
938.1062
 31
0.0
  0
LINE
  5
61
330
20
100
AcDbEntity
  8
_0-0_LAYER001
  6
Continuous
 62
     2
100
AcDbLine
 10
1934.2869
 20
928.9342000000001
 30
0.0
 11
1931.9811
 21
934.2045999999999
 31
0.0
  0
LINE
  5
62
330
20
100
AcDbEntity
  8
_0-0_LAYER001
  6
Continuous
 62
     2
100
AcDbLine
 10
1972.2701
 20
934.2045999999999
 30
0.0
 11
1941.8719
 21
934.2045999999999
 31
0.0
  0
LINE
  5
63
330
20
100
AcDbEntity
  8
_0-0_LAYER001
  6
Continuous
 62
     2
100
AcDbLine
 10
1931.9811
 20
934.2045999999999
 30
0.0
 11
1901.3689
 21
934.2045999999999
 31
0.0
  0
LINE
  5
64
330
20
100
AcDbEntity
  8
_0-1_LAYER003
  6
Continuous
 62
     2
100
AcDbLine
 10
1950.923
 20
997.6708
 30
0.0
 11
1948.9819
 21
1004.9152
 31
0.0
  0
LINE
  5
65
330
20
100
AcDbEntity
  8
_0-1_LAYER003
  6
Continuous
 62
     2
100
AcDbLine
 10
1948.9819
 20
1004.9152
 30
0.0
 11
1954.2852
 21
999.6119
 31
0.0
  0
LINE
  5
66
330
20
100
AcDbEntity
  8
_0-1_LAYER003
  6
Continuous
 62
     2
100
AcDbLine
 10
1948.9819
 20
1004.9152
 30
0.0
 11
2012.1223
 21
895.5526999999998
 31
0.0
  0
LINE
  5
67
330
20
100
AcDbEntity
  8
_0-1_LAYER003
  6
Continuous
 62
     2
100
AcDbLine
 10
2012.1223
 20
895.5526999999998
 30
0.0
 11
2060.1223
 21
895.5526999999998
 31
0.0
  0
LINE
  5
68
330
20
100
AcDbEntity
  8
_0-1_LAYER003
  6
Continuous
 62
     2
100
AcDbLine
 10
1306.5962
 20
1138.5748
 30
0.0
 11
1301.2929
 21
1133.2715
 31
0.0
  0
LINE
  5
69
330
20
100
AcDbEntity
  8
_0-1_LAYER003
  6
Continuous
 62
     2
100
AcDbLine
 10
1301.2929
 20
1133.2715
 30
0.0
 11
1303.234
 21
1140.5159
 31
0.0
  0
LINE
  5
6A
330
20
100
AcDbEntity
  8
_0-1_LAYER003
  6
Continuous
 62
     2
100
AcDbLine
 10
1301.2929
 20
1133.2715
 30
0.0
 11
1361.3981
 21
1237.3768
 31
0.0
  0
LINE
  5
6B
330
20
100
AcDbEntity
  8
_0-1_LAYER003
  6
Continuous
 62
     2
100
AcDbLine
 10
1361.3981
 20
1237.3768
 30
0.0
 11
1401.8981
 21
1237.3768
 31
0.0
  0
LINE
  5
6C
330
20
100
AcDbEntity
  8
_0-1_LAYER003
  6
Continuous
 62
     2
100
AcDbLine
 10
1769.3602
 20
1155.785
 30
0.0
 11
1764.0569
 21
1150.4817
 31
0.0
  0
LINE
  5
6D
330
20
100
AcDbEntity
  8
_0-1_LAYER003
  6
Continuous
 62
     2
100
AcDbLine
 10
1764.0569
 20
1150.4817
 30
0.0
 11
1765.997999999999
 21
1157.7261
 31
0.0
  0
LINE
  5
6E
330
20
100
AcDbEntity
  8
_0-1_LAYER003
  6
Continuous
 62
     2
100
AcDbLine
 10
1764.0569
 20
1150.4817
 30
0.0
 11
1813.2697
 21
1235.7208
 31
0.0
  0
LINE
  5
6F
330
20
100
AcDbEntity
  8
_0-1_LAYER003
  6
Continuous
 62
     2
100
AcDbLine
 10
1813.2697
 20
1235.7208
 30
0.0
 11
1861.2697
 21
1235.7208
 31
0.0
  0
LINE
  5
70
330
20
100
AcDbEntity
  8
_0-1_LAYER003
  6
Continuous
 62
     2
100
AcDbLine
 10
1973.0917
 20
1323.3405
 30
0.0
 11
1973.0917
 21
1270.8405
 31
0.0
  0
CIRCLE
  5
71
330
20
100
AcDbEntity
  8
_0-1_LAYER003
  6
Continuous
 62
     2
100
AcDbCircle
 10
1973.0917
 20
1320.8405
 30
0.0
 40
1.699999999999999
  0
LINE
  5
72
330
20
100
AcDbEntity
  8
_0-1_LAYER003
  6
Continuous
 62
     2
100
AcDbLine
 10
1973.0917
 20
1320.8405
 30
0.0
 11
1675.0917
 21
1320.8405
 31
0.0
  0
CIRCLE
  5
73
330
20
100
AcDbEntity
  8
_0-1_LAYER003
  6
Continuous
 62
     2
100
AcDbCircle
 10
1675.0917
 20
1320.8405
 30
0.0
 40
1.699999999999999
  0
LINE
  5
74
330
20
100
AcDbEntity
  8
_0-1_LAYER003
  6
Continuous
 62
     2
100
AcDbLine
 10
1675.0917
 20
1323.3405
 30
0.0
 11
1675.0917
 21
1270.8405
 31
0.0
  0
CIRCLE
  5
75
330
20
100
AcDbEntity
  8
_0-1_LAYER003
  6
Continuous
 62
     2
100
AcDbCircle
 10
1675.0917
 20
1320.8405
 30
0.0
 40
1.699999999999999
  0
LINE
  5
76
330
20
100
AcDbEntity
  8
_0-1_LAYER003
  6
Continuous
 62
     2
100
AcDbLine
 10
1675.0917
 20
1320.8405
 30
0.0
 11
1419.5244
 21
1320.8405
 31
0.0
  0
CIRCLE
  5
77
330
20
100
AcDbEntity
  8
_0-1_LAYER003
  6
Continuous
 62
     2
100
AcDbCircle
 10
1419.5244
 20
1320.8405
 30
0.0
 40
1.699999999999999
  0
LINE
  5
78
330
20
100
AcDbEntity
  8
_0-1_LAYER003
  6
Continuous
 62
     2
100
AcDbLine
 10
1419.5244
 20
1323.3405
 30
0.0
 11
1419.5244
 21
1270.8405
 31
0.0
  0
CIRCLE
  5
79
330
20
100
AcDbEntity
  8
_0-1_LAYER003
  6
Continuous
 62
     2
100
AcDbCircle
 10
1419.5244
 20
1320.8405
 30
0.0
 40
1.699999999999999
  0
LINE
  5
7A
330
20
100
AcDbEntity
  8
_0-1_LAYER003
  6
Continuous
 62
     2
100
AcDbLine
 10
1419.5244
 20
1320.8405
 30
0.0
 11
1165.0917
 21
1320.8405
 31
0.0
  0
CIRCLE
  5
7B
330
20
100
AcDbEntity
  8
_0-1_LAYER003
  6
Continuous
 62
     2
100
AcDbCircle
 10
1165.0917
 20
1320.8405
 30
0.0
 40
1.699999999999999
  0
LINE
  5
7C
330
20
100
AcDbEntity
  8
_0-1_LAYER003
  6
Continuous
 62
     2
100
AcDbLine
 10
1165.0917
 20
1323.3405
 30
0.0
 11
1165.0917
 21
1270.8405
 31
0.0
  0
LINE
  5
7D
330
20
100
AcDbEntity
  8
_0-0_LAYER001
  6
Continuous
 62
     1
100
AcDbLine
 10
918.9227999999999
 20
1074.4612
 30
0.0
 11
1923.9819
 21
1074.4612
 31
0.0
  0
LINE
  5
7E
330
20
100
AcDbEntity
  8
_0-0_LAYER001
  6
Continuous
 62
     1
100
AcDbLine
 10
918.9227999999999
 20
1079.4612
 30
0.0
 11
1923.9819
 21
1079.4612
 31
0.0
  0
LINE
  5
7F
330
20
100
AcDbEntity
  8
_0-0_LAYER001
  6
Continuous
 62
     1
100
AcDbLine
 10
918.9227999999999
 20
1084.4612
 30
0.0
 11
1923.9819
 21
1084.4612
 31
0.0
  0
LINE
  5
80
330
20
100
AcDbEntity
  8
_0-0_LAYER001
  6
Continuous
 62
     1
100
AcDbLine
 10
918.9227999999999
 20
1089.4612
 30
0.0
 11
1923.9819
 21
1089.4612
 31
0.0
  0
LINE
  5
81
330
20
100
AcDbEntity
  8
_0-1_LAYER003
  6
Continuous
 62
     2
100
AcDbLine
 10
1948.9819
 20
864.1907999999999
 30
0.0
 11
1948.9819
 21
912.9182
 31
0.0
  0
CIRCLE
  5
82
330
20
100
AcDbEntity
  8
_0-1_LAYER003
  6
Continuous
 62
     2
100
AcDbCircle
 10
1948.9819
 20
866.6907999999999
 30
0.0
 40
1.699999999999999
  0
LINE
  5
83
330
20
100
AcDbEntity
  8
_0-1_LAYER003
  6
Continuous
 62
     2
100
AcDbLine
 10
1948.9819
 20
866.6907999999999
 30
0.0
 11
1968.9819
 21
866.6907999999999
 31
0.0
  0
CIRCLE
  5
84
330
20
100
AcDbEntity
  8
_0-1_LAYER003
  6
Continuous
 62
     2
100
AcDbCircle
 10
1968.9819
 20
866.6907999999999
 30
0.0
 40
1.699999999999999
  0
LINE
  5
85
330
20
100
AcDbEntity
  8
_0-1_LAYER003
  6
Continuous
 62
     2
100
AcDbLine
 10
1968.9819
 20
864.1907999999999
 30
0.0
 11
1968.9819
 21
912.9182
 31
0.0
  0
LINE
  5
86
330
20
100
AcDbEntity
  8
_0-0_LAYER001
  6
Continuous
 62
     2
100
AcDbLine
 10
1212.8614
 20
1098.1107
 30
0.0
 11
1212.8614
 21
1105.6107
 31
0.0
  0
LINE
  5
87
330
20
100
AcDbEntity
  8
_0-0_LAYER001
  6
Continuous
 62
     2
100
AcDbLine
 10
1212.8614
 20
1105.6107
 30
0.0
 11
1216.6114
 21
1099.1155
 31
0.0
  0
LINE
  5
88
330
20
100
AcDbEntity
  8
_0-0_LAYER001
  6
Continuous
 62
     2
100
AcDbLine
 10
1212.8614
 20
1105.6107
 30
0.0
 11
1304.487
 21
763.6594
 31
0.0
  0
LINE
  5
89
330
20
100
AcDbEntity
  8
_0-1_LAYER003
  6
Continuous
 62
     2
100
AcDbLine
 10
923.5531000000001
 20
1094.4612
 30
0.0
 11
1923.9819
 21
1094.4612
 31
0.0
  0
LINE
  5
8A
330
20
100
AcDbEntity
  8
_0-3_LAYER007
  6
Continuous
 62
     2
100
AcDbLine
 10
1923.9819
 20
1114.9402
 30
0.0
 11
918.9227999999999
 21
1114.9402
 31
0.0
  0
LINE
  5
8B
330
20
100
AcDbEntity
  8
_0-2_LAYER004
  6
Continuous
 62
     2
100
AcDbLine
 10
1923.9819
 20
1099.9402
 30
0.0
 11
918.9227999999999
 21
1099.9402
 31
0.0
  0
LINE
  5
8C
330
20
100
AcDbEntity
  8
_0-2_LAYER004
  6
DASHED3
 62
     2
100
AcDbLine
 10
1919.4972
 20
1095.2402
 30
0.0
 11
918.9227999999999
 21
1095.2402
 31
0.0
  0
LINE
  5
8D
330
20
100
AcDbEntity
  8
_0-0_LAYER001
  6
Continuous
 62
     4
100
AcDbLine
 10
912.3281
 20
1190.6634
 30
0.0
 11
913.1376000000001
 21
1190.9814
 31
0.0
  0
LINE
  5
8E
330
20
100
AcDbEntity
  8
_0-0_LAYER001
  6
Continuous
 62
     4
100
AcDbLine
 10
913.1376000000001
 20
1190.9814
 30
0.0
 11
916.6678
 21
1192.3704
 31
0.0
  0
LINE
  5
8F
330
20
100
AcDbEntity
  8
_0-0_LAYER001
  6
Continuous
 62
     4
100
AcDbLine
 10
916.6678
 20
1192.3704
 30
0.0
 11
920.2052999999999
 21
1193.7688
 31
0.0
  0
LINE
  5
90
330
20
100
AcDbEntity
  8
_0-0_LAYER001
  6
Continuous
 62
     4
100
AcDbLine
 10
920.2052999999999
 20
1193.7688
 30
0.0
 11
923.7546
 21
1195.1825
 31
0.0
  0
LINE
  5
91
330
20
100
AcDbEntity
  8
_0-0_LAYER001
  6
Continuous
 62
     4
100
AcDbLine
 10
923.7546
 20
1195.1825
 30
0.0
 11
927.3201999999999
 21
1196.6175
 31
0.0
  0
LINE
  5
92
330
20
100
AcDbEntity
  8
_0-0_LAYER001
  6
Continuous
 62
     4
100
AcDbLine
 10
927.3201999999999
 20
1196.6175
 30
0.0
 11
930.9068999999999
 21
1198.0797
 31
0.0
  0
LINE
  5
93
330
20
100
AcDbEntity
  8
_0-0_LAYER001
  6
Continuous
 62
     4
100
AcDbLine
 10
930.9068999999999
 20
1198.0797
 30
0.0
 11
932.9985
 21
1198.9426
 31
0.0
  0
LINE
  5
94
330
20
100
AcDbEntity
  8
_0-0_LAYER001
  6
Continuous
 62
     4
100
AcDbLine
 10
932.9985
 20
1198.9426
 30
0.0
 11
935.0661
 21
1199.8004
 31
0.0
  0
LINE
  5
95
330
20
100
AcDbEntity
  8
_0-0_LAYER001
  6
Continuous
 62
     4
100
AcDbLine
 10
935.0661
 20
1199.8004
 30
0.0
 11
938.6526999999999
 21
1201.2521
 31
0.0
  0
LINE
  5
96
330
20
100
AcDbEntity
  8
_0-0_LAYER001
  6
Continuous
 62
     4
100
AcDbLine
 10
938.6526999999999
 20
1201.2521
 30
0.0
 11
942.2672
 21
1202.5854
 31
0.0
  0
LINE
  5
97
330
20
100
AcDbEntity
  8
_0-0_LAYER001
  6
Continuous
 62
     4
100
AcDbLine
 10
942.2672
 20
1202.5854
 30
0.0
 11
945.9099
 21
1203.703
 31
0.0
  0
LINE
  5
98
330
20
100
AcDbEntity
  8
_0-0_LAYER001
  6
Continuous
 62
     4
100
AcDbLine
 10
945.9099
 20
1203.703
 30
0.0
 11
949.5810999999999
 21
1204.5076
 31
0.0
  0
LINE
  5
99
330
20
100
AcDbEntity
  8
_0-0_LAYER001
  6
Continuous
 62
     4
100
AcDbLine
 10
949.5810999999999
 20
1204.5076
 30
0.0
 11
953.2813
 21
1204.9018
 31
0.0
  0
LINE
  5
9A
330
20
100
AcDbEntity
  8
_0-0_LAYER001
  6
Continuous
 62
     4
100
AcDbLine
 10
953.2813
 20
1204.9018
 30
0.0
 11
955.4406999999999
 21
1204.904
 31
0.0
  0
LINE
  5
9B
330
20
100
AcDbEntity
  8
_0-0_LAYER001
  6
Continuous
 62
     4
100
AcDbLine
 10
955.4406999999999
 20
1204.904
 30
0.0
 11
956.2907
 21
1204.8545
 31
0.0
  0
LINE
  5
9C
330
20
100
AcDbEntity
  8
_0-0_LAYER001
  6
Continuous
 62
     4
100
AcDbLine
 10
956.2907
 20
1204.8545
 30
0.0
 11
957.7573000000001
 21
1204.7044
 31
0.0
  0
LINE
  5
9D
330
20
100
AcDbEntity
  8
_0-0_LAYER001
  6
Continuous
 62
     4
100
AcDbLine
 10
957.7573000000001
 20
1204.7044
 30
0.0
 11
959.2216
 21
1204.4781
 31
0.0
  0
LINE
  5
9E
330
20
100
AcDbEntity
  8
_0-0_LAYER001
  6
Continuous
 62
     4
100
AcDbLine
 10
959.2216
 20
1204.4781
 30
0.0
 11
960.6796000000001
 21
1204.1824
 31
0.0
  0
LINE
  5
9F
330
20
100
AcDbEntity
  8
_0-0_LAYER001
  6
Continuous
 62
     4
100
AcDbLine
 10
960.6796000000001
 20
1204.1824
 30
0.0
 11
962.1268999999999
 21
1203.8241
 31
0.0
  0
LINE
  5
A0
330
20
100
AcDbEntity
  8
_0-0_LAYER001
  6
Continuous
 62
     4
100
AcDbLine
 10
962.1268999999999
 20
1203.8241
 30
0.0
 11
963.5592
 21
1203.4099
 31
0.0
  0
LINE
  5
A1
330
20
100
AcDbEntity
  8
_0-0_LAYER001
  6
Continuous
 62
     4
100
AcDbLine
 10
963.5592
 20
1203.4099
 30
0.0
 11
964.3815
 21
1203.1467
 31
0.0
  0
LINE
  5
A2
330
20
100
AcDbEntity
  8
_0-0_LAYER001
  6
Continuous
 62
     4
100
AcDbLine
 10
964.3815
 20
1203.1467
 30
0.0
 11
966.8927
 21
1202.2335
 31
0.0
  0
LINE
  5
A3
330
20
100
AcDbEntity
  8
_0-0_LAYER001
  6
Continuous
 62
     4
100
AcDbLine
 10
966.8927
 20
1202.2335
 30
0.0
 11
971.0782
 21
1200.3582
 31
0.0
  0
LINE
  5
A4
330
20
100
AcDbEntity
  8
_0-0_LAYER001
  6
Continuous
 62
     4
100
AcDbLine
 10
971.0782
 20
1200.3582
 30
0.0
 11
975.1130000000001
 21
1198.1689
 31
0.0
  0
LINE
  5
A5
330
20
100
AcDbEntity
  8
_0-0_LAYER001
  6
Continuous
 62
     4
100
AcDbLine
 10
975.1130000000001
 20
1198.1689
 30
0.0
 11
979.0340999999999
 21
1195.7432
 31
0.0
  0
LINE
  5
A6
330
20
100
AcDbEntity
  8
_0-0_LAYER001
  6
Continuous
 62
     4
100
AcDbLine
 10
979.0340999999999
 20
1195.7432
 30
0.0
 11
982.8786
 21
1193.1584
 31
0.0
  0
LINE
  5
A7
330
20
100
AcDbEntity
  8
_0-0_LAYER001
  6
Continuous
 62
     4
100
AcDbLine
 10
982.8786
 20
1193.1584
 30
0.0
 11
986.6834
 21
1190.4922
 31
0.0
  0
LINE
  5
A8
330
20
100
AcDbEntity
  8
_0-0_LAYER001
  6
Continuous
 62
     4
100
AcDbLine
 10
986.6834
 20
1190.4922
 30
0.0
 11
988.8867000000001
 21
1188.939
 31
0.0
  0
LINE
  5
A9
330
20
100
AcDbEntity
  8
_0-0_LAYER001
  6
Continuous
 62
     4
100
AcDbLine
 10
988.8867000000001
 20
1188.939
 30
0.0
 11
992.2512000000001
 21
1186.599
 31
0.0
  0
LINE
  5
AA
330
20
100
AcDbEntity
  8
_0-0_LAYER001
  6
Continuous
 62
     4
100
AcDbLine
 10
992.2512000000001
 20
1186.599
 30
0.0
 11
998.099
 21
1182.6633
 31
0.0
  0
LINE
  5
AB
330
20
100
AcDbEntity
  8
_0-0_LAYER001
  6
Continuous
 62
     4
100
AcDbLine
 10
998.099
 20
1182.6633
 30
0.0
 11
1004.0244
 21
1178.889
 31
0.0
  0
LINE
  5
AC
330
20
100
AcDbEntity
  8
_0-0_LAYER001
  6
Continuous
 62
     4
100
AcDbLine
 10
1004.0244
 20
1178.889
 30
0.0
 11
1010.049
 21
1175.3183
 31
0.0
  0
LINE
  5
AD
330
20
100
AcDbEntity
  8
_0-0_LAYER001
  6
Continuous
 62
     4
100
AcDbLine
 10
1010.049
 20
1175.3183
 30
0.0
 11
1016.1942
 21
1171.9933
 31
0.0
  0
LINE
  5
AE
330
20
100
AcDbEntity
  8
_0-0_LAYER001
  6
Continuous
 62
     4
100
AcDbLine
 10
1016.1942
 20
1171.9933
 30
0.0
 11
1022.4815
 21
1168.9559
 31
0.0
  0
LINE
  5
AF
330
20
100
AcDbEntity
  8
_0-0_LAYER001
  6
Continuous
 62
     4
100
AcDbLine
 10
1022.4815
 20
1168.9559
 30
0.0
 11
1026.2017
 21
1167.3427
 31
0.0
  0
LINE
  5
B0
330
20
100
AcDbEntity
  8
_0-0_LAYER001
  6
Continuous
 62
     4
100
AcDbLine
 10
1026.2017
 20
1167.3427
 30
0.0
 11
1029.2784
 21
1166.1145
 31
0.0
  0
LINE
  5
B1
330
20
100
AcDbEntity
  8
_0-0_LAYER001
  6
Continuous
 62
     4
100
AcDbLine
 10
1029.2784
 20
1166.1145
 30
0.0
 11
1034.6664
 21
1164.1874
 31
0.0
  0
LINE
  5
B2
330
20
100
AcDbEntity
  8
_0-0_LAYER001
  6
Continuous
 62
     4
100
AcDbLine
 10
1034.6664
 20
1164.1874
 30
0.0
 11
1040.146
 21
1162.5082
 31
0.0
  0
LINE
  5
B3
330
20
100
AcDbEntity
  8
_0-0_LAYER001
  6
Continuous
 62
     4
100
AcDbLine
 10
1040.146
 20
1162.5082
 30
0.0
 11
1045.7014
 21
1161.0849
 31
0.0
  0
LINE
  5
B4
330
20
100
AcDbEntity
  8
_0-0_LAYER001
  6
Continuous
 62
     4
100
AcDbLine
 10
1045.7014
 20
1161.0849
 30
0.0
 11
1051.3165
 21
1159.9251
 31
0.0
  0
LINE
  5
B5
330
20
100
AcDbEntity
  8
_0-0_LAYER001
  6
Continuous
 62
     4
100
AcDbLine
 10
1051.3165
 20
1159.9251
 30
0.0
 11
1056.9752
 21
1159.0369
 31
0.0
  0
LINE
  5
B6
330
20
100
AcDbEntity
  8
_0-0_LAYER001
  6
Continuous
 62
     4
100
AcDbLine
 10
1056.9752
 20
1159.0369
 30
0.0
 11
1060.2709
 21
1158.6491
 31
0.0
  0
LINE
  5
B7
330
20
100
AcDbEntity
  8
_0-0_LAYER001
  6
Continuous
 62
     4
100
AcDbLine
 10
1060.2709
 20
1158.6491
 30
0.0
 11
1062.7936
 21
1158.4164
 31
0.0
  0
LINE
  5
B8
330
20
100
AcDbEntity
  8
_0-0_LAYER001
  6
Continuous
 62
     4
100
AcDbLine
 10
1062.7936
 20
1158.4164
 30
0.0
 11
1067.1501
 21
1158.1372
 31
0.0
  0
LINE
  5
B9
330
20
100
AcDbEntity
  8
_0-0_LAYER001
  6
Continuous
 62
     4
100
AcDbLine
 10
1067.1501
 20
1158.1372
 30
0.0
 11
1071.5126
 21
1157.9987
 31
0.0
  0
LINE
  5
BA
330
20
100
AcDbEntity
  8
_0-0_LAYER001
  6
Continuous
 62
     4
100
AcDbLine
 10
1071.5126
 20
1157.9987
 30
0.0
 11
1075.8785
 21
1157.985
 31
0.0
  0
LINE
  5
BB
330
20
100
AcDbEntity
  8
_0-0_LAYER001
  6
Continuous
 62
     4
100
AcDbLine
 10
1075.8785
 20
1157.985
 30
0.0
 11
1080.2447
 21
1158.0803
 31
0.0
  0
LINE
  5
BC
330
20
100
AcDbEntity
  8
_0-0_LAYER001
  6
Continuous
 62
     4
100
AcDbLine
 10
1080.2447
 20
1158.0803
 30
0.0
 11
1084.6084
 21
1158.2688
 31
0.0
  0
LINE
  5
BD
330
20
100
AcDbEntity
  8
_0-0_LAYER001
  6
Continuous
 62
     4
100
AcDbLine
 10
1084.6084
 20
1158.2688
 30
0.0
 11
1087.137
 21
1158.4146
 31
0.0
  0
LINE
  5
BE
330
20
100
AcDbEntity
  8
_0-0_LAYER001
  6
Continuous
 62
     4
100
AcDbLine
 10
1087.137
 20
1158.4146
 30
0.0
 11
1091.8619
 21
1158.7488
 31
0.0
  0
LINE
  5
BF
330
20
100
AcDbEntity
  8
_0-0_LAYER001
  6
Continuous
 62
     4
100
AcDbLine
 10
1091.8619
 20
1158.7488
 30
0.0
 11
1099.9905
 21
1159.4934
 31
0.0
  0
LINE
  5
C0
330
20
100
AcDbEntity
  8
_0-0_LAYER001
  6
Continuous
 62
     4
100
AcDbLine
 10
1099.9905
 20
1159.4934
 30
0.0
 11
1108.0991
 21
1160.4206
 31
0.0
  0
LINE
  5
C1
330
20
100
AcDbEntity
  8
_0-0_LAYER001
  6
Continuous
 62
     4
100
AcDbLine
 10
1108.0991
 20
1160.4206
 30
0.0
 11
1116.1907
 21
1161.4949
 31
0.0
  0
LINE
  5
C2
330
20
100
AcDbEntity
  8
_0-0_LAYER001
  6
Continuous
 62
     4
100
AcDbLine
 10
1116.1907
 20
1161.4949
 30
0.0
 11
1124.2684
 21
1162.681
 31
0.0
  0
LINE
  5
C3
330
20
100
AcDbEntity
  8
_0-0_LAYER001
  6
Continuous
 62
     4
100
AcDbLine
 10
1124.2684
 20
1162.681
 30
0.0
 11
1132.3351
 21
1163.9433
 31
0.0
  0
LINE
  5
C4
330
20
100
AcDbEntity
  8
_0-0_LAYER001
  6
Continuous
 62
     4
100
AcDbLine
 10
1132.3351
 20
1163.9433
 30
0.0
 11
1137.01
 21
1164.6965
 31
0.0
  0
LINE
  5
C5
330
20
100
AcDbEntity
  8
_0-0_LAYER001
  6
Continuous
 62
     4
100
AcDbLine
 10
1137.01
 20
1164.6965
 30
0.0
 11
1139.4396
 21
1165.0913
 31
0.0
  0
LINE
  5
C6
330
20
100
AcDbEntity
  8
_0-0_LAYER001
  6
Continuous
 62
     4
100
AcDbLine
 10
1139.4396
 20
1165.0913
 30
0.0
 11
1143.6274
 21
1165.7758
 31
0.0
  0
LINE
  5
C7
330
20
100
AcDbEntity
  8
_0-0_LAYER001
  6
Continuous
 62
     4
100
AcDbLine
 10
1143.6274
 20
1165.7758
 30
0.0
 11
1147.814
 21
1166.4644
 31
0.0
  0
LINE
  5
C8
330
20
100
AcDbEntity
  8
_0-0_LAYER001
  6
Continuous
 62
     4
100
AcDbLine
 10
1147.814
 20
1166.4644
 30
0.0
 11
1151.9995
 21
1167.1562
 31
0.0
  0
LINE
  5
C9
330
20
100
AcDbEntity
  8
_0-0_LAYER001
  6
Continuous
 62
     4
100
AcDbLine
 10
1151.9995
 20
1167.1562
 30
0.0
 11
1156.1844
 21
1167.8503
 31
0.0
  0
LINE
  5
CA
330
20
100
AcDbEntity
  8
_0-0_LAYER001
  6
Continuous
 62
     4
100
AcDbLine
 10
1156.1844
 20
1167.8503
 30
0.0
 11
1160.3689
 21
1168.5458
 31
0.0
  0
LINE
  5
CB
330
20
100
AcDbEntity
  8
_0-0_LAYER001
  6
Continuous
 62
     4
100
AcDbLine
 10
1160.3689
 20
1168.5458
 30
0.0
 11
1162.7958
 21
1168.9495
 31
0.0
  0
LINE
  5
CC
330
20
100
AcDbEntity
  8
_0-0_LAYER001
  6
Continuous
 62
     4
100
AcDbLine
 10
917.6726
 20
1173.4238
 30
0.0
 11
919.7233999999999
 21
1174.2294
 31
0.0
  0
LINE
  5
CD
330
20
100
AcDbEntity
  8
_0-0_LAYER001
  6
Continuous
 62
     4
100
AcDbLine
 10
919.7233999999999
 20
1174.2294
 30
0.0
 11
923.2718
 21
1175.6256
 31
0.0
  0
LINE
  5
CE
330
20
100
AcDbEntity
  8
_0-0_LAYER001
  6
Continuous
 62
     4
100
AcDbLine
 10
923.2718
 20
1175.6256
 30
0.0
 11
926.8444
 21
1177.0379
 31
0.0
  0
LINE
  5
CF
330
20
100
AcDbEntity
  8
_0-0_LAYER001
  6
Continuous
 62
     4
100
AcDbLine
 10
926.8444
 20
1177.0379
 30
0.0
 11
930.4451
 21
1178.4721
 31
0.0
  0
LINE
  5
D0
330
20
100
AcDbEntity
  8
_0-0_LAYER001
  6
Continuous
 62
     4
100
AcDbLine
 10
930.4451
 20
1178.4721
 30
0.0
 11
934.078
 21
1179.9342
 31
0.0
  0
LINE
  5
D1
330
20
100
AcDbEntity
  8
_0-0_LAYER001
  6
Continuous
 62
     4
100
AcDbLine
 10
934.078
 20
1179.9342
 30
0.0
 11
937.7367000000001
 21
1181.4257
 31
0.0
  0
LINE
  5
D2
330
20
100
AcDbEntity
  8
_0-0_LAYER001
  6
Continuous
 62
     4
100
AcDbLine
 10
937.7367000000001
 20
1181.4257
 30
0.0
 11
939.8798000000001
 21
1182.3098
 31
0.0
  0
LINE
  5
D3
330
20
100
AcDbEntity
  8
_0-0_LAYER001
  6
Continuous
 62
     4
100
AcDbLine
 10
939.8798000000001
 20
1182.3098
 30
0.0
 11
941.8919
 21
1183.1446
 31
0.0
  0
LINE
  5
D4
330
20
100
AcDbEntity
  8
_0-0_LAYER001
  6
Continuous
 62
     4
100
AcDbLine
 10
941.8919
 20
1183.1446
 30
0.0
 11
945.1457000000001
 21
1184.4616
 31
0.0
  0
LINE
  5
D5
330
20
100
AcDbEntity
  8
_0-0_LAYER001
  6
Continuous
 62
     4
100
AcDbLine
 10
945.1457000000001
 20
1184.4616
 30
0.0
 11
948.0263
 21
1185.5242
 31
0.0
  0
LINE
  5
D6
330
20
100
AcDbEntity
  8
_0-0_LAYER001
  6
Continuous
 62
     4
100
AcDbLine
 10
948.0263
 20
1185.5242
 30
0.0
 11
950.4841
 21
1186.2783
 31
0.0
  0
LINE
  5
D7
330
20
100
AcDbEntity
  8
_0-0_LAYER001
  6
Continuous
 62
     4
100
AcDbLine
 10
950.4841
 20
1186.2783
 30
0.0
 11
952.4699
 21
1186.7135
 31
0.0
  0
LINE
  5
D8
330
20
100
AcDbEntity
  8
_0-0_LAYER001
  6
Continuous
 62
     4
100
AcDbLine
 10
952.4699
 20
1186.7135
 30
0.0
 11
954.2467999999999
 21
1186.9028
 31
0.0
  0
LINE
  5
D9
330
20
100
AcDbEntity
  8
_0-0_LAYER001
  6
Continuous
 62
     4
100
AcDbLine
 10
954.2467999999999
 20
1186.9028
 30
0.0
 11
954.9263999999999
 21
1186.9035
 31
0.0
  0
LINE
  5
DA
330
20
100
AcDbEntity
  8
_0-0_LAYER001
  6
Continuous
 62
     4
100
AcDbLine
 10
954.9263999999999
 20
1186.9035
 30
0.0
 11
954.8502000000002
 21
1186.9079
 31
0.0
  0
LINE
  5
DB
330
20
100
AcDbEntity
  8
_0-0_LAYER001
  6
Continuous
 62
     4
100
AcDbLine
 10
954.8502000000002
 20
1186.9079
 30
0.0
 11
955.4648
 21
1186.845
 31
0.0
  0
LINE
  5
DC
330
20
100
AcDbEntity
  8
_0-0_LAYER001
  6
Continuous
 62
     4
100
AcDbLine
 10
955.4648
 20
1186.845
 30
0.0
 11
956.0565
 21
1186.7536
 31
0.0
  0
LINE
  5
DD
330
20
100
AcDbEntity
  8
_0-0_LAYER001
  6
Continuous
 62
     4
100
AcDbLine
 10
956.0565
 20
1186.7536
 30
0.0
 11
956.7258999999999
 21
1186.6178
 31
0.0
  0
LINE
  5
DE
330
20
100
AcDbEntity
  8
_0-0_LAYER001
  6
Continuous
 62
     4
100
AcDbLine
 10
956.7258999999999
 20
1186.6178
 30
0.0
 11
957.4621
 21
1186.4355
 31
0.0
  0
LINE
  5
DF
330
20
100
AcDbEntity
  8
_0-0_LAYER001
  6
Continuous
 62
     4
100
AcDbLine
 10
957.4621
 20
1186.4355
 30
0.0
 11
958.3147999999999
 21
1186.189
 31
0.0
  0
LINE
  5
E0
330
20
100
AcDbEntity
  8
_0-0_LAYER001
  6
Continuous
 62
     4
100
AcDbLine
 10
958.3147999999999
 20
1186.189
 30
0.0
 11
958.5599999999999
 21
1186.1105
 31
0.0
  0
LINE
  5
E1
330
20
100
AcDbEntity
  8
_0-0_LAYER001
  6
Continuous
 62
     4
100
AcDbLine
 10
958.5599999999999
 20
1186.1105
 30
0.0
 11
960.128
 21
1185.5403
 31
0.0
  0
LINE
  5
E2
330
20
100
AcDbEntity
  8
_0-0_LAYER001
  6
Continuous
 62
     4
100
AcDbLine
 10
960.128
 20
1185.5403
 30
0.0
 11
963.0945999999999
 21
1184.2111
 31
0.0
  0
LINE
  5
E3
330
20
100
AcDbEntity
  8
_0-0_LAYER001
  6
Continuous
 62
     4
100
AcDbLine
 10
963.0945999999999
 20
1184.2111
 30
0.0
 11
966.0785
 21
1182.592
 31
0.0
  0
LINE
  5
E4
330
20
100
AcDbEntity
  8
_0-0_LAYER001
  6
Continuous
 62
     4
100
AcDbLine
 10
966.0785
 20
1182.592
 30
0.0
 11
969.2741000000001
 21
1180.6151
 31
0.0
  0
LINE
  5
E5
330
20
100
AcDbEntity
  8
_0-0_LAYER001
  6
Continuous
 62
     4
100
AcDbLine
 10
969.2741000000001
 20
1180.6151
 30
0.0
 11
972.6912999999999
 21
1178.3177
 31
0.0
  0
LINE
  5
E6
330
20
100
AcDbEntity
  8
_0-0_LAYER001
  6
Continuous
 62
     4
100
AcDbLine
 10
972.6912999999999
 20
1178.3177
 30
0.0
 11
976.3329999999999
 21
1175.7658
 31
0.0
  0
LINE
  5
E7
330
20
100
AcDbEntity
  8
_0-0_LAYER001
  6
Continuous
 62
     4
100
AcDbLine
 10
976.3329999999999
 20
1175.7658
 30
0.0
 11
978.5621
 21
1174.1943
 31
0.0
  0
LINE
  5
E8
330
20
100
AcDbEntity
  8
_0-0_LAYER001
  6
Continuous
 62
     4
100
AcDbLine
 10
978.5621
 20
1174.1943
 30
0.0
 11
982.0866000000002
 21
1171.743
 31
0.0
  0
LINE
  5
E9
330
20
100
AcDbEntity
  8
_0-0_LAYER001
  6
Continuous
 62
     4
100
AcDbLine
 10
982.0866000000002
 20
1171.743
 30
0.0
 11
988.2372
 21
1167.6035
 31
0.0
  0
LINE
  5
EA
330
20
100
AcDbEntity
  8
_0-0_LAYER001
  6
Continuous
 62
     4
100
AcDbLine
 10
988.2372
 20
1167.6035
 30
0.0
 11
994.5981000000001
 21
1163.5519
 31
0.0
  0
LINE
  5
EB
330
20
100
AcDbEntity
  8
_0-0_LAYER001
  6
Continuous
 62
     4
100
AcDbLine
 10
994.5981000000001
 20
1163.5519
 30
0.0
 11
1001.1739
 21
1159.6545
 31
0.0
  0
LINE
  5
EC
330
20
100
AcDbEntity
  8
_0-0_LAYER001
  6
Continuous
 62
     4
100
AcDbLine
 10
1001.1739
 20
1159.6545
 30
0.0
 11
1007.992
 21
1155.9653
 31
0.0
  0
LINE
  5
ED
330
20
100
AcDbEntity
  8
_0-0_LAYER001
  6
Continuous
 62
     4
100
AcDbLine
 10
1007.992
 20
1155.9653
 30
0.0
 11
1014.9829
 21
1152.5881
 31
0.0
  0
LINE
  5
EE
330
20
100
AcDbEntity
  8
_0-0_LAYER001
  6
Continuous
 62
     4
100
AcDbLine
 10
1014.9829
 20
1152.5881
 30
0.0
 11
1019.2828
 21
1150.7235
 31
0.0
  0
LINE
  5
EF
330
20
100
AcDbEntity
  8
_0-0_LAYER001
  6
Continuous
 62
     4
100
AcDbLine
 10
1019.2828
 20
1150.7235
 30
0.0
 11
1022.9084
 21
1149.2761
 31
0.0
  0
LINE
  5
F0
330
20
100
AcDbEntity
  8
_0-0_LAYER001
  6
Continuous
 62
     4
100
AcDbLine
 10
1022.9084
 20
1149.2761
 30
0.0
 11
1028.9955
 21
1147.0989
 31
0.0
  0
LINE
  5
F1
330
20
100
AcDbEntity
  8
_0-0_LAYER001
  6
Continuous
 62
     4
100
AcDbLine
 10
1028.9955
 20
1147.0989
 30
0.0
 11
1035.2728
 21
1145.1754
 31
0.0
  0
LINE
  5
F2
330
20
100
AcDbEntity
  8
_0-0_LAYER001
  6
Continuous
 62
     4
100
AcDbLine
 10
1035.2728
 20
1145.1754
 30
0.0
 11
1041.645
 21
1143.5428
 31
0.0
  0
LINE
  5
F3
330
20
100
AcDbEntity
  8
_0-0_LAYER001
  6
Continuous
 62
     4
100
AcDbLine
 10
1041.645
 20
1143.5428
 30
0.0
 11
1048.0985
 21
1142.2099
 31
0.0
  0
LINE
  5
F4
330
20
100
AcDbEntity
  8
_0-0_LAYER001
  6
Continuous
 62
     4
100
AcDbLine
 10
1048.0985
 20
1142.2099
 30
0.0
 11
1054.5269
 21
1141.2008
 31
0.0
  0
LINE
  5
F5
330
20
100
AcDbEntity
  8
_0-0_LAYER001
  6
Continuous
 62
     4
100
AcDbLine
 10
1054.5269
 20
1141.2008
 30
0.0
 11
1058.3924
 21
1140.746
 31
0.0
  0
LINE
  5
F6
330
20
100
AcDbEntity
  8
_0-0_LAYER001
  6
Continuous
 62
     4
100
AcDbLine
 10
1058.3924
 20
1140.746
 30
0.0
 11
1061.3912
 21
1140.4694
 31
0.0
  0
LINE
  5
F7
330
20
100
AcDbEntity
  8
_0-0_LAYER001
  6
Continuous
 62
     4
100
AcDbLine
 10
1061.3912
 20
1140.4694
 30
0.0
 11
1066.2885
 21
1140.1555
 31
0.0
  0
LINE
  5
F8
330
20
100
AcDbEntity
  8
_0-0_LAYER001
  6
Continuous
 62
     4
100
AcDbLine
 10
1066.2885
 20
1140.1555
 30
0.0
 11
1071.1987
 21
1139.9996
 31
0.0
  0
LINE
  5
F9
330
20
100
AcDbEntity
  8
_0-0_LAYER001
  6
Continuous
 62
     4
100
AcDbLine
 10
1071.1987
 20
1139.9996
 30
0.0
 11
1076.0467
 21
1139.9844
 31
0.0
  0
LINE
  5
FA
330
20
100
AcDbEntity
  8
_0-0_LAYER001
  6
Continuous
 62
     4
100
AcDbLine
 10
1076.0467
 20
1139.9844
 30
0.0
 11
1080.8296
 21
1140.0888
 31
0.0
  0
LINE
  5
FB
330
20
100
AcDbEntity
  8
_0-0_LAYER001
  6
Continuous
 62
     4
100
AcDbLine
 10
1080.8296
 20
1140.0888
 30
0.0
 11
1085.5149
 21
1140.2912
 31
0.0
  0
LINE
  5
FC
330
20
100
AcDbEntity
  8
_0-0_LAYER001
  6
Continuous
 62
     4
100
AcDbLine
 10
1085.5149
 20
1140.2912
 30
0.0
 11
1088.2901
 21
1140.4512
 31
0.0
  0
LINE
  5
FD
330
20
100
AcDbEntity
  8
_0-0_LAYER001
  6
Continuous
 62
     4
100
AcDbLine
 10
1088.2901
 20
1140.4512
 30
0.0
 11
1093.318
 21
1140.8069
 31
0.0
  0
LINE
  5
FE
330
20
100
AcDbEntity
  8
_0-0_LAYER001
  6
Continuous
 62
     4
100
AcDbLine
 10
1093.318
 20
1140.8069
 30
0.0
 11
1101.8341
 21
1141.5869
 31
0.0
  0
LINE
  5
FF
330
20
100
AcDbEntity
  8
_0-0_LAYER001
  6
Continuous
 62
     4
100
AcDbLine
 10
1101.8341
 20
1141.5869
 30
0.0
 11
1110.3063
 21
1142.5557
 31
0.0
  0
LINE
  5
100
330
20
100
AcDbEntity
  8
_0-0_LAYER001
  6
Continuous
 62
     4
100
AcDbLine
 10
1110.3063
 20
1142.5557
 30
0.0
 11
1118.6829
 21
1143.6679
 31
0.0
  0
LINE
  5
101
330
20
100
AcDbEntity
  8
_0-0_LAYER001
  6
Continuous
 62
     4
100
AcDbLine
 10
1118.6829
 20
1143.6679
 30
0.0
 11
1126.9674
 21
1144.8843
 31
0.0
  0
LINE
  5
102
330
20
100
AcDbEntity
  8
_0-0_LAYER001
  6
Continuous
 62
     4
100
AcDbLine
 10
1126.9674
 20
1144.8843
 30
0.0
 11
1135.158
 21
1146.166
 31
0.0
  0
LINE
  5
103
330
20
100
AcDbEntity
  8
_0-0_LAYER001
  6
Continuous
 62
     4
100
AcDbLine
 10
1135.158
 20
1146.166
 30
0.0
 11
1139.885
 21
1146.9276
 31
0.0
  0
LINE
  5
104
330
20
100
AcDbEntity
  8
_0-0_LAYER001
  6
Continuous
 62
     4
100
AcDbLine
 10
1139.885
 20
1146.9276
 30
0.0
 11
1142.335
 21
1147.3257
 31
0.0
  0
LINE
  5
105
330
20
100
AcDbEntity
  8
_0-0_LAYER001
  6
Continuous
 62
     4
100
AcDbLine
 10
1142.335
 20
1147.3257
 30
0.0
 11
1146.54
 21
1148.013
 31
0.0
  0
LINE
  5
106
330
20
100
AcDbEntity
  8
_0-0_LAYER001
  6
Continuous
 62
     4
100
AcDbLine
 10
1146.54
 20
1148.013
 30
0.0
 11
1150.7423
 21
1148.7042
 31
0.0
  0
LINE
  5
107
330
20
100
AcDbEntity
  8
_0-0_LAYER001
  6
Continuous
 62
     4
100
AcDbLine
 10
1150.7423
 20
1148.7042
 30
0.0
 11
1154.9397
 21
1149.398
 31
0.0
  0
LINE
  5
108
330
20
100
AcDbEntity
  8
_0-0_LAYER001
  6
Continuous
 62
     4
100
AcDbLine
 10
1154.9397
 20
1149.398
 30
0.0
 11
1159.1326
 21
1150.0934
 31
0.0
  0
LINE
  5
109
330
20
100
AcDbEntity
  8
_0-0_LAYER001
  6
Continuous
 62
     4
100
AcDbLine
 10
1159.1326
 20
1150.0934
 30
0.0
 11
1163.3212
 21
1150.7896
 31
0.0
  0
LINE
  5
10A
330
20
100
AcDbEntity
  8
_0-0_LAYER001
  6
Continuous
 62
     4
100
AcDbLine
 10
1163.3212
 20
1150.7896
 30
0.0
 11
1164.9353
 21
1151.058
 31
0.0
  0
LINE
  5
10B
330
20
100
AcDbEntity
  8
_0-0_LAYER001
  6
Continuous
 62
     4
100
AcDbLine
 10
1162.9202
 20
1168.9866
 30
0.0
 11
1196.1694
 21
1176.6903
 31
0.0
  0
LINE
  5
10C
330
20
100
AcDbEntity
  8
_0-0_LAYER001
  6
Continuous
 62
     4
100
AcDbLine
 10
1031.7442
 20
1110.1892
 30
0.0
 11
1023.2087
 21
1124.7226
 31
0.0
  0
LINE
  5
10D
330
20
100
AcDbEntity
  8
_0-0_LAYER001
  6
Continuous
 62
     4
100
AcDbLine
 10
1039.9121
 20
1109.5389
 30
0.0
 11
1048.2183
 21
1119.6044
 31
0.0
  0
ARC
  5
10E
330
20
100
AcDbEntity
  8
_0-0_LAYER001
  6
Continuous
 62
     4
100
AcDbCircle
 10
1036.0556
 20
1112.7214
 30
0.0
 40
5.0
100
AcDbArc
 50
210.42578
 51
320.47001
  0
LINE
  5
10F
330
20
100
AcDbEntity
  8
_0-0_LAYER001
  6
Continuous
 62
     4
100
AcDbLine
 10
1115.8577
 20
1109.0691
 30
0.0
 11
1108.5323
 21
1120.3751
 31
0.0
  0
LINE
  5
110
330
20
100
AcDbEntity
  8
_0-0_LAYER001
  6
Continuous
 62
     4
100
AcDbLine
 10
1124.3672
 20
1109.259
 30
0.0
 11
1133.3056
 21
1124.5047
 31
0.0
  0
ARC
  5
111
330
20
100
AcDbEntity
  8
_0-0_LAYER001
  6
Continuous
 62
     4
100
AcDbCircle
 10
1120.0539
 20
1111.7879
 30
0.0
 40
5.0
100
AcDbArc
 50
212.93986
 51
329.61716
  0
ARC
  5
112
330
20
100
AcDbEntity
  8
_0-0_LAYER001
  6
Continuous
 62
     4
100
AcDbCircle
 10
1199.1709
 20
1176.8552
 30
0.0
 40
3.0
100
AcDbArc
 50
103.0288
 51
179.4999999999999
  0
LINE
  5
113
330
20
100
AcDbEntity
  8
_0-0_LAYER001
  6
Continuous
 62
     4
100
AcDbLine
 10
911.2446000000002
 20
1170.8806
 30
0.0
 11
917.6368999999999
 21
1173.4027
 31
0.0
  0
ARC
  5
114
330
20
100
AcDbEntity
  8
_0-0_LAYER001
  6
Continuous
 62
     4
100
AcDbCircle
 10
910.8776
 20
1171.8108
 30
0.0
 40
1.0
100
AcDbArc
 50
179.5
 51
291.53166
  0
LINE
  5
115
330
20
100
AcDbEntity
  8
_0-0_LAYER001
  6
Continuous
 62
     4
100
AcDbLine
 10
1203.7349
 20
1180.9906
 30
0.0
 11
1198.4946
 21
1179.778
 31
0.0
  0
ARC
  5
116
330
20
100
AcDbEntity
  8
_0-0_LAYER001
  6
Continuous
 62
     4
100
AcDbCircle
 10
1203.9603
 20
1180.0163
 30
0.0
 40
1.0
100
AcDbArc
 50
359.5000000000001
 51
103.0288
  0
LINE
  5
117
330
20
100
AcDbEntity
  8
_0-0_LAYER001
  6
Continuous
 62
     4
100
AcDbLine
 10
1166.12
 20
1149.3202
 30
0.0
 11
1196.4337
 21
1156.4142
 31
0.0
  0
ARC
  5
118
330
20
100
AcDbEntity
  8
_0-0_LAYER001
  6
Continuous
 62
     4
100
AcDbCircle
 10
1203.7745
 20
1158.7235
 30
0.0
 40
1.0
100
AcDbArc
 50
359.5000000000001
 51
103.08296
  0
LINE
  5
119
330
20
100
AcDbEntity
  8
_0-0_LAYER001
  6
Continuous
 62
     4
100
AcDbLine
 10
1197.2147
 20
1158.2256
 30
0.0
 11
1203.5482
 21
1159.6975
 31
0.0
  0
LINE
  5
11A
330
20
100
AcDbEntity
  8
_0-0_LAYER001
  6
Continuous
 62
     4
100
AcDbLine
 10
1196.4411
 20
1157.2603
 30
0.0
 11
1196.4337
 21
1156.4142
 31
0.0
  0
ARC
  5
11B
330
20
100
AcDbEntity
  8
_0-0_LAYER001
  6
Continuous
 62
     4
100
AcDbCircle
 10
1197.441
 20
1157.2516
 30
0.0
 40
1.0
100
AcDbArc
 50
103.08296
 51
179.5
  0
ARC
  5
11C
330
20
100
AcDbEntity
  8
_0-0_LAYER001
  6
Continuous
 62
     4
100
AcDbCircle
 10
1203.7944
 20
1161.0066
 30
0.0
 40
1.0
100
AcDbArc
 50
283.04497
 51
359.5000000000001
  0
LINE
  5
11D
330
20
100
AcDbEntity
  8
_0-0_LAYER001
  6
Continuous
 62
     4
100
AcDbLine
 10
1163.6493
 20
1148.8166
 30
0.0
 11
1166.0774
 21
1149.2205
 31
0.0
  0
LINE
  5
11E
330
20
100
AcDbEntity
  8
_0-0_LAYER001
  6
Continuous
 62
     4
100
AcDbLine
 10
1159.4602
 20
1148.1204
 30
0.0
 11
1163.6493
 21
1148.8166
 31
0.0
  0
LINE
  5
11F
330
20
100
AcDbEntity
  8
_0-0_LAYER001
  6
Continuous
 62
     4
100
AcDbLine
 10
1155.2664
 20
1147.4248
 30
0.0
 11
1159.4602
 21
1148.1204
 31
0.0
  0
LINE
  5
120
330
20
100
AcDbEntity
  8
_0-0_LAYER001
  6
Continuous
 62
     4
100
AcDbLine
 10
1151.0676
 20
1146.7309
 30
0.0
 11
1155.2664
 21
1147.4248
 31
0.0
  0
LINE
  5
121
330
20
100
AcDbEntity
  8
_0-0_LAYER001
  6
Continuous
 62
     4
100
AcDbLine
 10
1146.8636
 20
1146.0394
 30
0.0
 11
1151.0676
 21
1146.7309
 31
0.0
  0
LINE
  5
122
330
20
100
AcDbEntity
  8
_0-0_LAYER001
  6
Continuous
 62
     4
100
AcDbLine
 10
1142.6567
 20
1145.3517
 30
0.0
 11
1146.8636
 21
1146.0394
 31
0.0
  0
LINE
  5
123
330
20
100
AcDbEntity
  8
_0-0_LAYER001
  6
Continuous
 62
     4
100
AcDbLine
 10
1140.2045
 20
1144.9532
 30
0.0
 11
1142.6567
 21
1145.3517
 31
0.0
  0
LINE
  5
124
330
20
100
AcDbEntity
  8
_0-0_LAYER001
  6
Continuous
 62
     4
100
AcDbLine
 10
1135.4717
 20
1144.1908
 30
0.0
 11
1140.2045
 21
1144.9532
 31
0.0
  0
LINE
  5
125
330
20
100
AcDbEntity
  8
_0-0_LAYER001
  6
Continuous
 62
     4
100
AcDbLine
 10
1127.2673
 20
1142.9069
 30
0.0
 11
1135.4717
 21
1144.1908
 31
0.0
  0
LINE
  5
126
330
20
100
AcDbEntity
  8
_0-0_LAYER001
  6
Continuous
 62
     4
100
AcDbLine
 10
1118.9598
 20
1141.6871
 30
0.0
 11
1127.2673
 21
1142.9069
 31
0.0
  0
LINE
  5
127
330
20
100
AcDbEntity
  8
_0-0_LAYER001
  6
Continuous
 62
     4
100
AcDbLine
 10
1110.5515
 20
1140.5707
 30
0.0
 11
1118.9598
 21
1141.6871
 31
0.0
  0
LINE
  5
128
330
20
100
AcDbEntity
  8
_0-0_LAYER001
  6
Continuous
 62
     4
100
AcDbLine
 10
1102.0389
 20
1139.5973
 30
0.0
 11
1110.5515
 21
1140.5707
 31
0.0
  0
LINE
  5
129
330
20
100
AcDbEntity
  8
_0-0_LAYER001
  6
Continuous
 62
     4
100
AcDbLine
 10
1093.4798
 20
1138.8133
 30
0.0
 11
1102.0389
 21
1139.5973
 31
0.0
  0
LINE
  5
12A
330
20
100
AcDbEntity
  8
_0-0_LAYER001
  6
Continuous
 62
     4
100
AcDbLine
 10
1088.4183
 20
1138.4553
 30
0.0
 11
1093.4798
 21
1138.8133
 31
0.0
  0
LINE
  5
12B
330
20
100
AcDbEntity
  8
_0-0_LAYER001
  6
Continuous
 62
     4
100
AcDbLine
 10
1085.6157
 20
1138.2937
 30
0.0
 11
1088.4183
 21
1138.4553
 31
0.0
  0
LINE
  5
12C
330
20
100
AcDbEntity
  8
_0-0_LAYER001
  6
Continuous
 62
     4
100
AcDbLine
 10
1080.8946
 20
1138.0897
 30
0.0
 11
1085.6157
 21
1138.2937
 31
0.0
  0
LINE
  5
12D
330
20
100
AcDbEntity
  8
_0-0_LAYER001
  6
Continuous
 62
     4
100
AcDbLine
 10
1076.0654
 20
1137.9843
 30
0.0
 11
1080.8946
 21
1138.0897
 31
0.0
  0
LINE
  5
12E
330
20
100
AcDbEntity
  8
_0-0_LAYER001
  6
Continuous
 62
     4
100
AcDbLine
 10
1071.1638
 20
1137.9997
 30
0.0
 11
1076.0654
 21
1137.9843
 31
0.0
  0
LINE
  5
12F
330
20
100
AcDbEntity
  8
_0-0_LAYER001
  6
Continuous
 62
     4
100
AcDbLine
 10
1066.1928
 20
1138.1575
 30
0.0
 11
1071.1638
 21
1137.9997
 31
0.0
  0
LINE
  5
130
330
20
100
AcDbEntity
  8
_0-0_LAYER001
  6
Continuous
 62
     4
100
AcDbLine
 10
1061.2354
 20
1138.4753
 30
0.0
 11
1066.1928
 21
1138.1575
 31
0.0
  0
LINE
  5
131
330
20
100
AcDbEntity
  8
_0-0_LAYER001
  6
Continuous
 62
     4
100
AcDbLine
 10
1058.1837
 20
1138.7567
 30
0.0
 11
1061.2354
 21
1138.4753
 31
0.0
  0
LINE
  5
132
330
20
100
AcDbEntity
  8
_0-0_LAYER001
  6
Continuous
 62
     4
100
AcDbLine
 10
1054.2549
 20
1139.219
 30
0.0
 11
1058.1837
 21
1138.7567
 31
0.0
  0
LINE
  5
133
330
20
100
AcDbEntity
  8
_0-0_LAYER001
  6
Continuous
 62
     4
100
AcDbLine
 10
1047.7409
 20
1140.2415
 30
0.0
 11
1054.2549
 21
1139.219
 31
0.0
  0
LINE
  5
134
330
20
100
AcDbEntity
  8
_0-0_LAYER001
  6
Continuous
 62
     4
100
AcDbLine
 10
1041.1943
 20
1141.5936
 30
0.0
 11
1047.7409
 21
1140.2415
 31
0.0
  0
LINE
  5
135
330
20
100
AcDbEntity
  8
_0-0_LAYER001
  6
Continuous
 62
     4
100
AcDbLine
 10
1034.7314
 20
1143.2495
 30
0.0
 11
1041.1943
 21
1141.5936
 31
0.0
  0
LINE
  5
136
330
20
100
AcDbEntity
  8
_0-0_LAYER001
  6
Continuous
 62
     4
100
AcDbLine
 10
1028.3654
 20
1145.2002
 30
0.0
 11
1034.7314
 21
1143.2495
 31
0.0
  0
LINE
  5
137
330
20
100
AcDbEntity
  8
_0-0_LAYER001
  6
Continuous
 62
     4
100
AcDbLine
 10
1022.2007
 20
1147.4052
 30
0.0
 11
1028.3654
 21
1145.2002
 31
0.0
  0
LINE
  5
138
330
20
100
AcDbEntity
  8
_0-0_LAYER001
  6
Continuous
 62
     4
100
AcDbLine
 10
1018.514
 20
1148.877
 30
0.0
 11
1022.2007
 21
1147.4052
 31
0.0
  0
LINE
  5
139
330
20
100
AcDbEntity
  8
_0-0_LAYER001
  6
Continuous
 62
     4
100
AcDbLine
 10
1014.1497
 20
1150.7695
 30
0.0
 11
1018.514
 21
1148.877
 31
0.0
  0
LINE
  5
13A
330
20
100
AcDbEntity
  8
_0-0_LAYER001
  6
Continuous
 62
     4
100
AcDbLine
 10
1007.0807
 20
1154.1844
 30
0.0
 11
1014.1497
 21
1150.7695
 31
0.0
  0
LINE
  5
13B
330
20
100
AcDbEntity
  8
_0-0_LAYER001
  6
Continuous
 62
     4
100
AcDbLine
 10
1000.1878
 20
1157.9141
 30
0.0
 11
1007.0807
 21
1154.1844
 31
0.0
  0
LINE
  5
13C
330
20
100
AcDbEntity
  8
_0-0_LAYER001
  6
Continuous
 62
     4
100
AcDbLine
 10
993.5508
 20
1161.8477
 30
0.0
 11
1000.1878
 21
1157.9141
 31
0.0
  0
LINE
  5
13D
330
20
100
AcDbEntity
  8
_0-0_LAYER001
  6
Continuous
 62
     4
100
AcDbLine
 10
987.1414999999998
 20
1165.9302
 30
0.0
 11
993.5508
 21
1161.8477
 31
0.0
  0
LINE
  5
13E
330
20
100
AcDbEntity
  8
_0-0_LAYER001
  6
Continuous
 62
     4
100
AcDbLine
 10
980.9571999999999
 20
1170.0923
 30
0.0
 11
987.1414999999998
 21
1165.9302
 31
0.0
  0
LINE
  5
13F
330
20
100
AcDbEntity
  8
_0-0_LAYER001
  6
Continuous
 62
     4
100
AcDbLine
 10
977.4149000000001
 20
1172.556
 30
0.0
 11
980.9571999999999
 21
1170.0923
 31
0.0
  0
LINE
  5
140
330
20
100
AcDbEntity
  8
_0-0_LAYER001
  6
Continuous
 62
     4
100
AcDbLine
 10
975.1829
 20
1174.1295
 30
0.0
 11
977.4149000000001
 21
1172.556
 31
0.0
  0
LINE
  5
141
330
20
100
AcDbEntity
  8
_0-0_LAYER001
  6
Continuous
 62
     4
100
AcDbLine
 10
971.5593
 20
1176.6687
 30
0.0
 11
975.1829
 21
1174.1295
 31
0.0
  0
LINE
  5
142
330
20
100
AcDbEntity
  8
_0-0_LAYER001
  6
Continuous
 62
     4
100
AcDbLine
 10
968.1897000000001
 20
1178.9342
 30
0.0
 11
971.5593
 21
1176.6687
 31
0.0
  0
LINE
  5
143
330
20
100
AcDbEntity
  8
_0-0_LAYER001
  6
Continuous
 62
     4
100
AcDbLine
 10
965.0747
 20
1180.8612
 30
0.0
 11
968.1897000000001
 21
1178.9342
 31
0.0
  0
LINE
  5
144
330
20
100
AcDbEntity
  8
_0-0_LAYER001
  6
Continuous
 62
     4
100
AcDbLine
 10
962.2075
 20
1182.417
 30
0.0
 11
965.0747
 21
1180.8612
 31
0.0
  0
LINE
  5
145
330
20
100
AcDbEntity
  8
_0-0_LAYER001
  6
Continuous
 62
     4
100
AcDbLine
 10
959.3764
 20
1183.6854
 30
0.0
 11
962.2075
 21
1182.417
 31
0.0
  0
LINE
  5
146
330
20
100
AcDbEntity
  8
_0-0_LAYER001
  6
Continuous
 62
     4
100
AcDbLine
 10
957.9131999999999
 20
1184.2176
 30
0.0
 11
959.3764
 21
1183.6854
 31
0.0
  0
LINE
  5
147
330
20
100
AcDbEntity
  8
_0-0_LAYER001
  6
Continuous
 62
     4
100
AcDbLine
 10
957.7320999999999
 20
1184.2755
 30
0.0
 11
957.9131999999999
 21
1184.2176
 31
0.0
  0
LINE
  5
148
330
20
100
AcDbEntity
  8
_0-0_LAYER001
  6
Continuous
 62
     4
100
AcDbLine
 10
956.9437999999999
 20
1184.5035
 30
0.0
 11
957.7320999999999
 21
1184.2755
 31
0.0
  0
LINE
  5
149
330
20
100
AcDbEntity
  8
_0-0_LAYER001
  6
Continuous
 62
     4
100
AcDbLine
 10
956.2865999999999
 20
1184.6662
 30
0.0
 11
956.9437999999999
 21
1184.5035
 31
0.0
  0
LINE
  5
14A
330
20
100
AcDbEntity
  8
_0-0_LAYER001
  6
Continuous
 62
     4
100
AcDbLine
 10
955.7047999999999
 20
1184.7842
 30
0.0
 11
956.2865999999999
 21
1184.6662
 31
0.0
  0
LINE
  5
14B
330
20
100
AcDbEntity
  8
_0-0_LAYER001
  6
Continuous
 62
     4
100
AcDbLine
 10
955.6648
 20
1184.7904
 30
0.0
 11
955.7047999999999
 21
1184.7842
 31
0.0
  0
LINE
  5
14C
330
20
100
AcDbEntity
  8
_0-0_LAYER001
  6
Continuous
 62
     4
100
AcDbLine
 10
1159.6386
 20
1129.6292
 30
0.0
 11
1161.2527
 21
1129.8976
 31
0.0
  0
LINE
  5
14D
330
20
100
AcDbEntity
  8
_0-0_LAYER001
  6
Continuous
 62
     4
100
AcDbLine
 10
1155.45
 20
1128.933
 30
0.0
 11
1159.6386
 21
1129.6292
 31
0.0
  0
LINE
  5
14E
330
20
100
AcDbEntity
  8
_0-0_LAYER001
  6
Continuous
 62
     4
100
AcDbLine
 10
1151.2571
 20
1128.2376
 30
0.0
 11
1155.45
 21
1128.933
 31
0.0
  0
LINE
  5
14F
330
20
100
AcDbEntity
  8
_0-0_LAYER001
  6
Continuous
 62
     4
100
AcDbLine
 10
1147.0597
 20
1127.5438
 30
0.0
 11
1151.2571
 21
1128.2376
 31
0.0
  0
LINE
  5
150
330
20
100
AcDbEntity
  8
_0-0_LAYER001
  6
Continuous
 62
     4
100
AcDbLine
 10
1142.8574
 20
1126.8526
 30
0.0
 11
1147.0597
 21
1127.5438
 31
0.0
  0
LINE
  5
151
330
20
100
AcDbEntity
  8
_0-0_LAYER001
  6
Continuous
 62
     4
100
AcDbLine
 10
1138.6524
 20
1126.1653
 30
0.0
 11
1142.8574
 21
1126.8526
 31
0.0
  0
LINE
  5
152
330
20
100
AcDbEntity
  8
_0-0_LAYER001
  6
Continuous
 62
     4
100
AcDbLine
 10
1136.2024
 20
1125.7672
 30
0.0
 11
1138.6524
 21
1126.1653
 31
0.0
  0
LINE
  5
153
330
20
100
AcDbEntity
  8
_0-0_LAYER001
  6
Continuous
 62
     4
100
AcDbLine
 10
1131.4754
 20
1125.0056
 30
0.0
 11
1136.2024
 21
1125.7672
 31
0.0
  0
LINE
  5
154
330
20
100
AcDbEntity
  8
_0-0_LAYER001
  6
Continuous
 62
     4
100
AcDbLine
 10
1123.2848
 20
1123.7239
 30
0.0
 11
1131.4754
 21
1125.0056
 31
0.0
  0
LINE
  5
155
330
20
100
AcDbEntity
  8
_0-0_LAYER001
  6
Continuous
 62
     4
100
AcDbLine
 10
1115.0003
 20
1122.5075
 30
0.0
 11
1123.2848
 21
1123.7239
 31
0.0
  0
LINE
  5
156
330
20
100
AcDbEntity
  8
_0-0_LAYER001
  6
Continuous
 62
     4
100
AcDbLine
 10
1106.6237
 20
1121.3953
 30
0.0
 11
1115.0003
 21
1122.5075
 31
0.0
  0
LINE
  5
157
330
20
100
AcDbEntity
  8
_0-0_LAYER001
  6
Continuous
 62
     4
100
AcDbLine
 10
1098.1515
 20
1120.4265
 30
0.0
 11
1106.6237
 21
1121.3953
 31
0.0
  0
LINE
  5
158
330
20
100
AcDbEntity
  8
_0-0_LAYER001
  6
Continuous
 62
     4
100
AcDbLine
 10
1089.6354
 20
1119.6465
 30
0.0
 11
1098.1515
 21
1120.4265
 31
0.0
  0
LINE
  5
159
330
20
100
AcDbEntity
  8
_0-0_LAYER001
  6
Continuous
 62
     4
100
AcDbLine
 10
1084.6076
 20
1119.2908
 30
0.0
 11
1089.6354
 21
1119.6465
 31
0.0
  0
LINE
  5
15A
330
20
100
AcDbEntity
  8
_0-0_LAYER001
  6
Continuous
 62
     4
100
AcDbLine
 10
1081.8324
 20
1119.1308
 30
0.0
 11
1084.6076
 21
1119.2908
 31
0.0
  0
LINE
  5
15B
330
20
100
AcDbEntity
  8
_0-0_LAYER001
  6
Continuous
 62
     4
100
AcDbLine
 10
1077.1471
 20
1118.9284
 30
0.0
 11
1081.8324
 21
1119.1308
 31
0.0
  0
LINE
  5
15C
330
20
100
AcDbEntity
  8
_0-0_LAYER001
  6
Continuous
 62
     4
100
AcDbLine
 10
1072.3641
 20
1118.824
 30
0.0
 11
1077.1471
 21
1118.9284
 31
0.0
  0
LINE
  5
15D
330
20
100
AcDbEntity
  8
_0-0_LAYER001
  6
Continuous
 62
     4
100
AcDbLine
 10
1067.5161
 20
1118.8392
 30
0.0
 11
1072.3641
 21
1118.824
 31
0.0
  0
LINE
  5
15E
330
20
100
AcDbEntity
  8
_0-0_LAYER001
  6
Continuous
 62
     4
100
AcDbLine
 10
1062.6059
 20
1118.9951
 30
0.0
 11
1067.5161
 21
1118.8392
 31
0.0
  0
LINE
  5
15F
330
20
100
AcDbEntity
  8
_0-0_LAYER001
  6
Continuous
 62
     4
100
AcDbLine
 10
1057.7086
 20
1119.309
 30
0.0
 11
1062.6059
 21
1118.9951
 31
0.0
  0
LINE
  5
160
330
20
100
AcDbEntity
  8
_0-0_LAYER001
  6
Continuous
 62
     4
100
AcDbLine
 10
1054.7099
 20
1119.5856
 30
0.0
 11
1057.7086
 21
1119.309
 31
0.0
  0
LINE
  5
161
330
20
100
AcDbEntity
  8
_0-0_LAYER001
  6
Continuous
 62
     4
100
AcDbLine
 10
1050.8443
 20
1120.0404
 30
0.0
 11
1054.7099
 21
1119.5856
 31
0.0
  0
LINE
  5
162
330
20
100
AcDbEntity
  8
_0-0_LAYER001
  6
Continuous
 62
     4
100
AcDbLine
 10
1044.4159
 20
1121.0495
 30
0.0
 11
1050.8443
 21
1120.0404
 31
0.0
  0
LINE
  5
163
330
20
100
AcDbEntity
  8
_0-0_LAYER001
  6
Continuous
 62
     4
100
AcDbLine
 10
1037.9624
 20
1122.3824
 30
0.0
 11
1044.4159
 21
1121.0495
 31
0.0
  0
LINE
  5
164
330
20
100
AcDbEntity
  8
_0-0_LAYER001
  6
Continuous
 62
     4
100
AcDbLine
 10
1031.5902
 20
1124.015
 30
0.0
 11
1037.9624
 21
1122.3824
 31
0.0
  0
LINE
  5
165
330
20
100
AcDbEntity
  8
_0-0_LAYER001
  6
Continuous
 62
     4
100
AcDbLine
 10
1025.3129
 20
1125.9385
 30
0.0
 11
1031.5902
 21
1124.015
 31
0.0
  0
LINE
  5
166
330
20
100
AcDbEntity
  8
_0-0_LAYER001
  6
Continuous
 62
     4
100
AcDbLine
 10
1019.2258
 20
1128.1157
 30
0.0
 11
1025.3129
 21
1125.9385
 31
0.0
  0
LINE
  5
167
330
20
100
AcDbEntity
  8
_0-0_LAYER001
  6
Continuous
 62
     4
100
AcDbLine
 10
1015.6002
 20
1129.5631
 30
0.0
 11
1019.2258
 21
1128.1157
 31
0.0
  0
LINE
  5
168
330
20
100
AcDbEntity
  8
_0-0_LAYER001
  6
Continuous
 62
     4
100
AcDbLine
 10
1011.3003
 20
1131.4277
 30
0.0
 11
1015.6002
 21
1129.5631
 31
0.0
  0
LINE
  5
169
330
20
100
AcDbEntity
  8
_0-0_LAYER001
  6
Continuous
 62
     4
100
AcDbLine
 10
1004.3094
 20
1134.8049
 30
0.0
 11
1011.3003
 21
1131.4277
 31
0.0
  0
LINE
  5
16A
330
20
100
AcDbEntity
  8
_0-0_LAYER001
  6
Continuous
 62
     4
100
AcDbLine
 10
997.4913
 20
1138.4941
 30
0.0
 11
1004.3094
 21
1134.8049
 31
0.0
  0
LINE
  5
16B
330
20
100
AcDbEntity
  8
_0-0_LAYER001
  6
Continuous
 62
     4
100
AcDbLine
 10
990.9156000000001
 20
1142.3915
 30
0.0
 11
997.4913
 21
1138.4941
 31
0.0
  0
LINE
  5
16C
330
20
100
AcDbEntity
  8
_0-0_LAYER001
  6
Continuous
 62
     4
100
AcDbLine
 10
984.5546
 20
1146.4431
 30
0.0
 11
990.9156000000001
 21
1142.3915
 31
0.0
  0
LINE
  5
16D
330
20
100
AcDbEntity
  8
_0-0_LAYER001
  6
Continuous
 62
     4
100
AcDbLine
 10
978.4041
 20
1150.5826
 30
0.0
 11
984.5546
 21
1146.4431
 31
0.0
  0
LINE
  5
16E
330
20
100
AcDbEntity
  8
_0-0_LAYER001
  6
Continuous
 62
     4
100
AcDbLine
 10
974.8794999999999
 20
1153.0339
 30
0.0
 11
978.4041
 21
1150.5826
 31
0.0
  0
LINE
  5
16F
330
20
100
AcDbEntity
  8
_0-0_LAYER001
  6
Continuous
 62
     4
100
AcDbLine
 10
972.6504000000002
 20
1154.6054
 30
0.0
 11
974.8794999999999
 21
1153.0339
 31
0.0
  0
LINE
  5
170
330
20
100
AcDbEntity
  8
_0-0_LAYER001
  6
Continuous
 62
     4
100
AcDbLine
 10
969.0087000000001
 20
1157.1573
 30
0.0
 11
972.6504000000002
 21
1154.6054
 31
0.0
  0
LINE
  5
171
330
20
100
AcDbEntity
  8
_0-0_LAYER001
  6
Continuous
 62
     4
100
AcDbLine
 10
965.5915999999999
 20
1159.4547
 30
0.0
 11
969.0087000000001
 21
1157.1573
 31
0.0
  0
LINE
  5
172
330
20
100
AcDbEntity
  8
_0-0_LAYER001
  6
Continuous
 62
     4
100
AcDbLine
 10
962.3958999999999
 20
1161.4316
 30
0.0
 11
965.5915999999999
 21
1159.4547
 31
0.0
  0
LINE
  5
173
330
20
100
AcDbEntity
  8
_0-0_LAYER001
  6
Continuous
 62
     4
100
AcDbLine
 10
959.412
 20
1163.0507
 30
0.0
 11
962.3958999999999
 21
1161.4316
 31
0.0
  0
LINE
  5
174
330
20
100
AcDbEntity
  8
_0-0_LAYER001
  6
Continuous
 62
     4
100
AcDbLine
 10
956.4453999999999
 20
1164.3799
 30
0.0
 11
959.412
 21
1163.0507
 31
0.0
  0
LINE
  5
175
330
20
100
AcDbEntity
  8
_0-0_LAYER001
  6
Continuous
 62
     4
100
AcDbLine
 10
955.6955
 20
1164.6526
 30
0.0
 11
956.4453999999999
 21
1164.3799
 31
0.0
  0
LINE
  5
176
330
20
100
AcDbEntity
  8
_0-0_LAYER001
  6
Continuous
 62
     4
100
AcDbLine
 10
956.0285
 20
1184.6957
 30
0.0
 11
955.8524999999999
 21
1164.5223
 31
0.0
  0
LINE
  5
177
330
20
100
AcDbEntity
  8
_0-0_LAYER001
  6
Continuous
 62
     4
100
AcDbLine
 10
1203.8426
 20
1139.6841
 30
0.0
 11
1161.0224
 21
1129.7629
 31
0.0
  0
ARC
  5
178
330
20
100
AcDbEntity
  8
_0-0_LAYER001
  6
Continuous
 62
     4
100
AcDbCircle
 10
1203.6169
 20
1140.6583
 30
0.0
 40
1.0
100
AcDbArc
 50
283.04497
 51
359.5000000000001
  0
LINE
  5
179
330
20
100
AcDbEntity
  8
_0-0_LAYER001
  6
Continuous
 62
     4
100
AcDbLine
 10
1156.5315
 20
1119.4494
 30
0.0
 11
1154.2861
 21
1128.0228
 31
0.0
  0
ARC
  5
17A
330
20
100
AcDbEntity
  8
_0-0_LAYER001
  6
Continuous
 62
     4
100
AcDbCircle
 10
1159.4336
 20
1120.2095
 30
0.0
 40
3.0
100
AcDbArc
 50
194.67639
 51
270.0000000000001
  0
LINE
  5
17B
330
20
100
AcDbEntity
  8
_0-0_LAYER001
  6
Continuous
 62
     4
100
AcDbLine
 10
1162.8515
 20
1117.2095
 30
0.0
 11
1159.4336
 21
1117.2095
 31
0.0
  0
LINE
  5
17C
330
20
100
AcDbEntity
  8
_0-0_LAYER001
  6
Continuous
 62
     4
100
AcDbLine
 10
1165.8106
 20
1119.7163
 30
0.0
 11
1167.7447
 21
1131.3204
 31
0.0
  0
ARC
  5
17D
330
20
100
AcDbEntity
  8
_0-0_LAYER001
  6
Continuous
 62
     4
100
AcDbCircle
 10
1162.8515
 20
1120.2095
 30
0.0
 40
3.0
100
AcDbArc
 50
270.0
 51
350.53767
  0
LINE
  5
17E
330
20
100
AcDbEntity
  8
_0-0_LAYER001
  6
Continuous
 62
     4
100
AcDbLine
 10
909.9444999999999
 20
1188.3577
 30
0.0
 11
909.9444999999999
 21
1171.8252
 31
0.0
  0
LINE
  5
17F
330
20
100
AcDbEntity
  8
_0-0_LAYER001
  6
Continuous
 62
     4
100
AcDbLine
 10
911.2033999999999
 20
1190.2153
 30
0.0
 11
912.3283999999999
 21
1190.6641
 31
0.0
  0
ARC
  5
180
330
20
100
AcDbEntity
  8
_0-0_LAYER001
  6
Continuous
 62
     4
100
AcDbCircle
 10
911.9444999999998
 20
1188.3577
 30
0.0
 40
2.0
100
AcDbArc
 50
111.74902
 51
180.0
  0
LINE
  5
181
330
20
100
AcDbEntity
  8
_0-0_LAYER001
  6
Continuous
 62
     4
100
AcDbLine
 10
1204.0202
 20
1160.0324
 30
0.0
 11
1164.9445
 21
1150.9788
 31
0.0
  0
LINE
  5
182
330
20
100
AcDbEntity
  8
_0-0_LAYER001
  6
Continuous
 62
     4
100
AcDbLine
 10
1164.9445
 20
1169.4556
 30
0.0
 11
1164.9445
 21
1150.9788
 31
0.0
  0
LINE
  5
183
330
20
100
AcDbEntity
  8
_0-0_LAYER001
  6
Continuous
 62
     4
100
AcDbLine
 10
1204.8809
 20
1180.0644
 30
0.0
 11
1204.8809
 21
1160.9843
 31
0.0
  0
LINE
  5
184
330
20
100
AcDbEntity
  8
_0-0_LAYER001
  6
Continuous
 62
     4
100
AcDbLine
 10
1204.9883
 20
1158.9974
 30
0.0
 11
1204.9883
 21
1140.8263
 31
0.0
  0
LINE
  5
185
330
20
100
AcDbEntity
  8
_0-0_LAYER001
  6
DASHED1
 62
     2
100
AcDbLine
 10
1013.0327
 20
1156.2371
 30
0.0
 11
1029.0327
 21
1156.2371
 31
0.0
  0
LINE
  5
186
330
20
100
AcDbEntity
  8
_0-0_LAYER001
  6
DASHED1
 62
     2
100
AcDbLine
 10
1029.0327
 20
1156.2371
 30
0.0
 11
1029.0327
 21
1153.2371
 31
0.0
  0
LINE
  5
187
330
20
100
AcDbEntity
  8
_0-0_LAYER001
  6
DASHED1
 62
     2
100
AcDbLine
 10
1013.0327
 20
1156.2371
 30
0.0
 11
1013.0327
 21
1153.2371
 31
0.0
  0
LINE
  5
188
330
20
100
AcDbEntity
  8
_0-0_LAYER001
  6
DASHED1
 62
     2
100
AcDbLine
 10
1013.0327
 20
1153.2371
 30
0.0
 11
1029.0327
 21
1153.2371
 31
0.0
  0
LINE
  5
189
330
20
100
AcDbEntity
  8
_0-0_LAYER001
  6
DASHED1
 62
     2
100
AcDbLine
 10
1024.0327
 20
1098.341
 30
0.0
 11
1020.9825
 21
1083.8321
 31
0.0
  0
LINE
  5
18A
330
20
100
AcDbEntity
  8
_0-0_LAYER001
  6
DASHED1
 62
     2
100
AcDbLine
 10
1024.0327
 20
1153.2371
 30
0.0
 11
1024.0327
 21
1098.341
 31
0.0
  0
LINE
  5
18B
330
20
100
AcDbEntity
  8
_0-0_LAYER001
  6
DASHED1
 62
     2
100
AcDbLine
 10
1020.9825
 20
1083.8321
 30
0.0
 11
1018.0327
 21
1098.0896
 31
0.0
  0
LINE
  5
18C
330
20
100
AcDbEntity
  8
_0-0_LAYER001
  6
DASHED1
 62
     2
100
AcDbLine
 10
1018.0327
 20
1153.2371
 30
0.0
 11
1018.0327
 21
1098.0896
 31
0.0
  0
LINE
  5
18D
330
20
100
AcDbEntity
  8
_0-0_LAYER001
  6
Continuous
 62
     4
100
AcDbLine
 10
1422.3281
 20
1189.6123
 30
0.0
 11
1423.1376
 21
1189.9303
 31
0.0
  0
LINE
  5
18E
330
20
100
AcDbEntity
  8
_0-0_LAYER001
  6
Continuous
 62
     4
100
AcDbLine
 10
1423.1376
 20
1189.9303
 30
0.0
 11
1426.6678
 21
1191.3194
 31
0.0
  0
LINE
  5
18F
330
20
100
AcDbEntity
  8
_0-0_LAYER001
  6
Continuous
 62
     4
100
AcDbLine
 10
1426.6678
 20
1191.3194
 30
0.0
 11
1430.2053
 21
1192.7178
 31
0.0
  0
LINE
  5
190
330
20
100
AcDbEntity
  8
_0-0_LAYER001
  6
Continuous
 62
     4
100
AcDbLine
 10
1430.2053
 20
1192.7178
 30
0.0
 11
1433.7546
 21
1194.1315
 31
0.0
  0
LINE
  5
191
330
20
100
AcDbEntity
  8
_0-0_LAYER001
  6
Continuous
 62
     4
100
AcDbLine
 10
1433.7546
 20
1194.1315
 30
0.0
 11
1437.3202
 21
1195.5665
 31
0.0
  0
LINE
  5
192
330
20
100
AcDbEntity
  8
_0-0_LAYER001
  6
Continuous
 62
     4
100
AcDbLine
 10
1437.3202
 20
1195.5665
 30
0.0
 11
1440.9069
 21
1197.0287
 31
0.0
  0
LINE
  5
193
330
20
100
AcDbEntity
  8
_0-0_LAYER001
  6
Continuous
 62
     4
100
AcDbLine
 10
1440.9069
 20
1197.0287
 30
0.0
 11
1442.9985
 21
1197.8916
 31
0.0
  0
LINE
  5
194
330
20
100
AcDbEntity
  8
_0-0_LAYER001
  6
Continuous
 62
     4
100
AcDbLine
 10
1442.9985
 20
1197.8916
 30
0.0
 11
1445.0661
 21
1198.7494
 31
0.0
  0
LINE
  5
195
330
20
100
AcDbEntity
  8
_0-0_LAYER001
  6
Continuous
 62
     4
100
AcDbLine
 10
1445.0661
 20
1198.7494
 30
0.0
 11
1448.6527
 21
1200.2011
 31
0.0
  0
LINE
  5
196
330
20
100
AcDbEntity
  8
_0-0_LAYER001
  6
Continuous
 62
     4
100
AcDbLine
 10
1448.6527
 20
1200.2011
 30
0.0
 11
1452.2672
 21
1201.5344
 31
0.0
  0
LINE
  5
197
330
20
100
AcDbEntity
  8
_0-0_LAYER001
  6
Continuous
 62
     4
100
AcDbLine
 10
1452.2672
 20
1201.5344
 30
0.0
 11
1455.9099
 21
1202.652
 31
0.0
  0
LINE
  5
198
330
20
100
AcDbEntity
  8
_0-0_LAYER001
  6
Continuous
 62
     4
100
AcDbLine
 10
1455.9099
 20
1202.652
 30
0.0
 11
1459.5811
 21
1203.4565
 31
0.0
  0
LINE
  5
199
330
20
100
AcDbEntity
  8
_0-0_LAYER001
  6
Continuous
 62
     4
100
AcDbLine
 10
1459.5811
 20
1203.4565
 30
0.0
 11
1463.2813
 21
1203.8507
 31
0.0
  0
LINE
  5
19A
330
20
100
AcDbEntity
  8
_0-0_LAYER001
  6
Continuous
 62
     4
100
AcDbLine
 10
1463.2813
 20
1203.8507
 30
0.0
 11
1465.4407
 21
1203.853
 31
0.0
  0
LINE
  5
19B
330
20
100
AcDbEntity
  8
_0-0_LAYER001
  6
Continuous
 62
     4
100
AcDbLine
 10
1465.4407
 20
1203.853
 30
0.0
 11
1466.2907
 21
1203.8035
 31
0.0
  0
LINE
  5
19C
330
20
100
AcDbEntity
  8
_0-0_LAYER001
  6
Continuous
 62
     4
100
AcDbLine
 10
1466.2907
 20
1203.8035
 30
0.0
 11
1467.7573
 21
1203.6534
 31
0.0
  0
LINE
  5
19D
330
20
100
AcDbEntity
  8
_0-0_LAYER001
  6
Continuous
 62
     4
100
AcDbLine
 10
1467.7573
 20
1203.6534
 30
0.0
 11
1469.2216
 21
1203.4271
 31
0.0
  0
LINE
  5
19E
330
20
100
AcDbEntity
  8
_0-0_LAYER001
  6
Continuous
 62
     4
100
AcDbLine
 10
1469.2216
 20
1203.4271
 30
0.0
 11
1470.6796
 21
1203.1314
 31
0.0
  0
LINE
  5
19F
330
20
100
AcDbEntity
  8
_0-0_LAYER001
  6
Continuous
 62
     4
100
AcDbLine
 10
1470.6796
 20
1203.1314
 30
0.0
 11
1472.1269
 21
1202.7731
 31
0.0
  0
LINE
  5
1A0
330
20
100
AcDbEntity
  8
_0-0_LAYER001
  6
Continuous
 62
     4
100
AcDbLine
 10
1472.1269
 20
1202.7731
 30
0.0
 11
1473.5592
 21
1202.3589
 31
0.0
  0
LINE
  5
1A1
330
20
100
AcDbEntity
  8
_0-0_LAYER001
  6
Continuous
 62
     4
100
AcDbLine
 10
1473.5592
 20
1202.3589
 30
0.0
 11
1474.3815
 21
1202.0957
 31
0.0
  0
LINE
  5
1A2
330
20
100
AcDbEntity
  8
_0-0_LAYER001
  6
Continuous
 62
     4
100
AcDbLine
 10
1474.3815
 20
1202.0957
 30
0.0
 11
1476.8927
 21
1201.1825
 31
0.0
  0
LINE
  5
1A3
330
20
100
AcDbEntity
  8
_0-0_LAYER001
  6
Continuous
 62
     4
100
AcDbLine
 10
1476.8927
 20
1201.1825
 30
0.0
 11
1481.0782
 21
1199.3072
 31
0.0
  0
LINE
  5
1A4
330
20
100
AcDbEntity
  8
_0-0_LAYER001
  6
Continuous
 62
     4
100
AcDbLine
 10
1481.0782
 20
1199.3072
 30
0.0
 11
1485.112999999999
 21
1197.1179
 31
0.0
  0
LINE
  5
1A5
330
20
100
AcDbEntity
  8
_0-0_LAYER001
  6
Continuous
 62
     4
100
AcDbLine
 10
1485.112999999999
 20
1197.1179
 30
0.0
 11
1489.0341
 21
1194.6921
 31
0.0
  0
LINE
  5
1A6
330
20
100
AcDbEntity
  8
_0-0_LAYER001
  6
Continuous
 62
     4
100
AcDbLine
 10
1489.0341
 20
1194.6921
 30
0.0
 11
1492.8786
 21
1192.1074
 31
0.0
  0
LINE
  5
1A7
330
20
100
AcDbEntity
  8
_0-0_LAYER001
  6
Continuous
 62
     4
100
AcDbLine
 10
1492.8786
 20
1192.1074
 30
0.0
 11
1496.6834
 21
1189.4412
 31
0.0
  0
LINE
  5
1A8
330
20
100
AcDbEntity
  8
_0-0_LAYER001
  6
Continuous
 62
     4
100
AcDbLine
 10
1496.6834
 20
1189.4412
 30
0.0
 11
1498.8867
 21
1187.888
 31
0.0
  0
LINE
  5
1A9
330
20
100
AcDbEntity
  8
_0-0_LAYER001
  6
Continuous
 62
     4
100
AcDbLine
 10
1498.8867
 20
1187.888
 30
0.0
 11
1502.2512
 21
1185.5479
 31
0.0
  0
LINE
  5
1AA
330
20
100
AcDbEntity
  8
_0-0_LAYER001
  6
Continuous
 62
     4
100
AcDbLine
 10
1502.2512
 20
1185.5479
 30
0.0
 11
1508.099
 21
1181.6122
 31
0.0
  0
LINE
  5
1AB
330
20
100
AcDbEntity
  8
_0-0_LAYER001
  6
Continuous
 62
     4
100
AcDbLine
 10
1508.099
 20
1181.6122
 30
0.0
 11
1514.0244
 21
1177.838
 31
0.0
  0
LINE
  5
1AC
330
20
100
AcDbEntity
  8
_0-0_LAYER001
  6
Continuous
 62
     4
100
AcDbLine
 10
1514.0244
 20
1177.838
 30
0.0
 11
1520.049
 21
1174.2673
 31
0.0
  0
LINE
  5
1AD
330
20
100
AcDbEntity
  8
_0-0_LAYER001
  6
Continuous
 62
     4
100
AcDbLine
 10
1520.049
 20
1174.2673
 30
0.0
 11
1526.1942
 21
1170.9422
 31
0.0
  0
LINE
  5
1AE
330
20
100
AcDbEntity
  8
_0-0_LAYER001
  6
Continuous
 62
     4
100
AcDbLine
 10
1526.1942
 20
1170.9422
 30
0.0
 11
1532.4815
 21
1167.9049
 31
0.0
  0
LINE
  5
1AF
330
20
100
AcDbEntity
  8
_0-0_LAYER001
  6
Continuous
 62
     4
100
AcDbLine
 10
1532.4815
 20
1167.9049
 30
0.0
 11
1536.2017
 21
1166.2917
 31
0.0
  0
LINE
  5
1B0
330
20
100
AcDbEntity
  8
_0-0_LAYER001
  6
Continuous
 62
     4
100
AcDbLine
 10
1536.2017
 20
1166.2917
 30
0.0
 11
1539.2784
 21
1165.0634
 31
0.0
  0
LINE
  5
1B1
330
20
100
AcDbEntity
  8
_0-0_LAYER001
  6
Continuous
 62
     4
100
AcDbLine
 10
1539.2784
 20
1165.0634
 30
0.0
 11
1544.6664
 21
1163.1363
 31
0.0
  0
LINE
  5
1B2
330
20
100
AcDbEntity
  8
_0-0_LAYER001
  6
Continuous
 62
     4
100
AcDbLine
 10
1544.6664
 20
1163.1363
 30
0.0
 11
1550.146
 21
1161.4572
 31
0.0
  0
LINE
  5
1B3
330
20
100
AcDbEntity
  8
_0-0_LAYER001
  6
Continuous
 62
     4
100
AcDbLine
 10
1550.146
 20
1161.4572
 30
0.0
 11
1555.7014
 21
1160.0338
 31
0.0
  0
LINE
  5
1B4
330
20
100
AcDbEntity
  8
_0-0_LAYER001
  6
Continuous
 62
     4
100
AcDbLine
 10
1555.7014
 20
1160.0338
 30
0.0
 11
1561.3165
 21
1158.8741
 31
0.0
  0
LINE
  5
1B5
330
20
100
AcDbEntity
  8
_0-0_LAYER001
  6
Continuous
 62
     4
100
AcDbLine
 10
1561.3165
 20
1158.8741
 30
0.0
 11
1566.9752
 21
1157.9858
 31
0.0
  0
LINE
  5
1B6
330
20
100
AcDbEntity
  8
_0-0_LAYER001
  6
Continuous
 62
     4
100
AcDbLine
 10
1566.9752
 20
1157.9858
 30
0.0
 11
1570.2709
 21
1157.5981
 31
0.0
  0
LINE
  5
1B7
330
20
100
AcDbEntity
  8
_0-0_LAYER001
  6
Continuous
 62
     4
100
AcDbLine
 10
1570.2709
 20
1157.5981
 30
0.0
 11
1572.7936
 21
1157.3654
 31
0.0
  0
LINE
  5
1B8
330
20
100
AcDbEntity
  8
_0-0_LAYER001
  6
Continuous
 62
     4
100
AcDbLine
 10
1572.7936
 20
1157.3654
 30
0.0
 11
1577.1501
 21
1157.0862
 31
0.0
  0
LINE
  5
1B9
330
20
100
AcDbEntity
  8
_0-0_LAYER001
  6
Continuous
 62
     4
100
AcDbLine
 10
1577.1501
 20
1157.0862
 30
0.0
 11
1581.5126
 21
1156.9476
 31
0.0
  0
LINE
  5
1BA
330
20
100
AcDbEntity
  8
_0-0_LAYER001
  6
Continuous
 62
     4
100
AcDbLine
 10
1581.5126
 20
1156.9476
 30
0.0
 11
1585.8785
 21
1156.934
 31
0.0
  0
LINE
  5
1BB
330
20
100
AcDbEntity
  8
_0-0_LAYER001
  6
Continuous
 62
     4
100
AcDbLine
 10
1585.8785
 20
1156.934
 30
0.0
 11
1590.2447
 21
1157.0293
 31
0.0
  0
LINE
  5
1BC
330
20
100
AcDbEntity
  8
_0-0_LAYER001
  6
Continuous
 62
     4
100
AcDbLine
 10
1590.2447
 20
1157.0293
 30
0.0
 11
1594.6084
 21
1157.2178
 31
0.0
  0
LINE
  5
1BD
330
20
100
AcDbEntity
  8
_0-0_LAYER001
  6
Continuous
 62
     4
100
AcDbLine
 10
1594.6084
 20
1157.2178
 30
0.0
 11
1597.137
 21
1157.3636
 31
0.0
  0
LINE
  5
1BE
330
20
100
AcDbEntity
  8
_0-0_LAYER001
  6
Continuous
 62
     4
100
AcDbLine
 10
1597.137
 20
1157.3636
 30
0.0
 11
1601.8619
 21
1157.6978
 31
0.0
  0
LINE
  5
1BF
330
20
100
AcDbEntity
  8
_0-0_LAYER001
  6
Continuous
 62
     4
100
AcDbLine
 10
1601.8619
 20
1157.6978
 30
0.0
 11
1609.9905
 21
1158.4424
 31
0.0
  0
LINE
  5
1C0
330
20
100
AcDbEntity
  8
_0-0_LAYER001
  6
Continuous
 62
     4
100
AcDbLine
 10
1609.9905
 20
1158.4424
 30
0.0
 11
1618.0991
 21
1159.3695
 31
0.0
  0
LINE
  5
1C1
330
20
100
AcDbEntity
  8
_0-0_LAYER001
  6
Continuous
 62
     4
100
AcDbLine
 10
1618.0991
 20
1159.3695
 30
0.0
 11
1626.1907
 21
1160.4439
 31
0.0
  0
LINE
  5
1C2
330
20
100
AcDbEntity
  8
_0-0_LAYER001
  6
Continuous
 62
     4
100
AcDbLine
 10
1626.1907
 20
1160.4439
 30
0.0
 11
1634.2684
 21
1161.63
 31
0.0
  0
LINE
  5
1C3
330
20
100
AcDbEntity
  8
_0-0_LAYER001
  6
Continuous
 62
     4
100
AcDbLine
 10
1634.2684
 20
1161.63
 30
0.0
 11
1642.335099999999
 21
1162.8923
 31
0.0
  0
LINE
  5
1C4
330
20
100
AcDbEntity
  8
_0-0_LAYER001
  6
Continuous
 62
     4
100
AcDbLine
 10
1642.335099999999
 20
1162.8923
 30
0.0
 11
1647.01
 21
1163.6454
 31
0.0
  0
LINE
  5
1C5
330
20
100
AcDbEntity
  8
_0-0_LAYER001
  6
Continuous
 62
     4
100
AcDbLine
 10
1647.01
 20
1163.6454
 30
0.0
 11
1649.4396
 21
1164.0403
 31
0.0
  0
LINE
  5
1C6
330
20
100
AcDbEntity
  8
_0-0_LAYER001
  6
Continuous
 62
     4
100
AcDbLine
 10
1649.4396
 20
1164.0403
 30
0.0
 11
1653.6274
 21
1164.7248
 31
0.0
  0
LINE
  5
1C7
330
20
100
AcDbEntity
  8
_0-0_LAYER001
  6
Continuous
 62
     4
100
AcDbLine
 10
1653.6274
 20
1164.7248
 30
0.0
 11
1657.814
 21
1165.4134
 31
0.0
  0
LINE
  5
1C8
330
20
100
AcDbEntity
  8
_0-0_LAYER001
  6
Continuous
 62
     4
100
AcDbLine
 10
1657.814
 20
1165.4134
 30
0.0
 11
1661.9995
 21
1166.1052
 31
0.0
  0
LINE
  5
1C9
330
20
100
AcDbEntity
  8
_0-0_LAYER001
  6
Continuous
 62
     4
100
AcDbLine
 10
1661.9995
 20
1166.1052
 30
0.0
 11
1666.1844
 21
1166.7993
 31
0.0
  0
LINE
  5
1CA
330
20
100
AcDbEntity
  8
_0-0_LAYER001
  6
Continuous
 62
     4
100
AcDbLine
 10
1666.1844
 20
1166.7993
 30
0.0
 11
1670.3689
 21
1167.4948
 31
0.0
  0
LINE
  5
1CB
330
20
100
AcDbEntity
  8
_0-0_LAYER001
  6
Continuous
 62
     4
100
AcDbLine
 10
1670.3689
 20
1167.4948
 30
0.0
 11
1672.7958
 21
1167.8984
 31
0.0
  0
LINE
  5
1CC
330
20
100
AcDbEntity
  8
_0-0_LAYER001
  6
Continuous
 62
     4
100
AcDbLine
 10
1427.6726
 20
1172.3728
 30
0.0
 11
1429.7234
 21
1173.1784
 31
0.0
  0
LINE
  5
1CD
330
20
100
AcDbEntity
  8
_0-0_LAYER001
  6
Continuous
 62
     4
100
AcDbLine
 10
1429.7234
 20
1173.1784
 30
0.0
 11
1433.2718
 21
1174.5746
 31
0.0
  0
LINE
  5
1CE
330
20
100
AcDbEntity
  8
_0-0_LAYER001
  6
Continuous
 62
     4
100
AcDbLine
 10
1433.2718
 20
1174.5746
 30
0.0
 11
1436.8444
 21
1175.9868
 31
0.0
  0
LINE
  5
1CF
330
20
100
AcDbEntity
  8
_0-0_LAYER001
  6
Continuous
 62
     4
100
AcDbLine
 10
1436.8444
 20
1175.9868
 30
0.0
 11
1440.4451
 21
1177.4211
 31
0.0
  0
LINE
  5
1D0
330
20
100
AcDbEntity
  8
_0-0_LAYER001
  6
Continuous
 62
     4
100
AcDbLine
 10
1440.4451
 20
1177.4211
 30
0.0
 11
1444.078
 21
1178.8831
 31
0.0
  0
LINE
  5
1D1
330
20
100
AcDbEntity
  8
_0-0_LAYER001
  6
Continuous
 62
     4
100
AcDbLine
 10
1444.078
 20
1178.8831
 30
0.0
 11
1447.7367
 21
1180.3747
 31
0.0
  0
LINE
  5
1D2
330
20
100
AcDbEntity
  8
_0-0_LAYER001
  6
Continuous
 62
     4
100
AcDbLine
 10
1447.7367
 20
1180.3747
 30
0.0
 11
1449.8798
 21
1181.2588
 31
0.0
  0
LINE
  5
1D3
330
20
100
AcDbEntity
  8
_0-0_LAYER001
  6
Continuous
 62
     4
100
AcDbLine
 10
1449.8798
 20
1181.2588
 30
0.0
 11
1451.8919
 21
1182.0936
 31
0.0
  0
LINE
  5
1D4
330
20
100
AcDbEntity
  8
_0-0_LAYER001
  6
Continuous
 62
     4
100
AcDbLine
 10
1451.8919
 20
1182.0936
 30
0.0
 11
1455.1457
 21
1183.4106
 31
0.0
  0
LINE
  5
1D5
330
20
100
AcDbEntity
  8
_0-0_LAYER001
  6
Continuous
 62
     4
100
AcDbLine
 10
1455.1457
 20
1183.4106
 30
0.0
 11
1458.0263
 21
1184.4732
 31
0.0
  0
LINE
  5
1D6
330
20
100
AcDbEntity
  8
_0-0_LAYER001
  6
Continuous
 62
     4
100
AcDbLine
 10
1458.0263
 20
1184.4732
 30
0.0
 11
1460.4841
 21
1185.2272
 31
0.0
  0
LINE
  5
1D7
330
20
100
AcDbEntity
  8
_0-0_LAYER001
  6
Continuous
 62
     4
100
AcDbLine
 10
1460.4841
 20
1185.2272
 30
0.0
 11
1462.4699
 21
1185.6624
 31
0.0
  0
LINE
  5
1D8
330
20
100
AcDbEntity
  8
_0-0_LAYER001
  6
Continuous
 62
     4
100
AcDbLine
 10
1462.4699
 20
1185.6624
 30
0.0
 11
1464.2468
 21
1185.8517
 31
0.0
  0
LINE
  5
1D9
330
20
100
AcDbEntity
  8
_0-0_LAYER001
  6
Continuous
 62
     4
100
AcDbLine
 10
1464.2468
 20
1185.8517
 30
0.0
 11
1464.926399999999
 21
1185.8525
 31
0.0
  0
LINE
  5
1DA
330
20
100
AcDbEntity
  8
_0-0_LAYER001
  6
Continuous
 62
     4
100
AcDbLine
 10
1464.926399999999
 20
1185.8525
 30
0.0
 11
1464.8502
 21
1185.8569
 31
0.0
  0
LINE
  5
1DB
330
20
100
AcDbEntity
  8
_0-0_LAYER001
  6
Continuous
 62
     4
100
AcDbLine
 10
1464.8502
 20
1185.8569
 30
0.0
 11
1465.4648
 21
1185.794
 31
0.0
  0
LINE
  5
1DC
330
20
100
AcDbEntity
  8
_0-0_LAYER001
  6
Continuous
 62
     4
100
AcDbLine
 10
1465.4648
 20
1185.794
 30
0.0
 11
1466.0565
 21
1185.7025
 31
0.0
  0
LINE
  5
1DD
330
20
100
AcDbEntity
  8
_0-0_LAYER001
  6
Continuous
 62
     4
100
AcDbLine
 10
1466.0565
 20
1185.7025
 30
0.0
 11
1466.7259
 21
1185.5668
 31
0.0
  0
LINE
  5
1DE
330
20
100
AcDbEntity
  8
_0-0_LAYER001
  6
Continuous
 62
     4
100
AcDbLine
 10
1466.7259
 20
1185.5668
 30
0.0
 11
1467.4621
 21
1185.3845
 31
0.0
  0
LINE
  5
1DF
330
20
100
AcDbEntity
  8
_0-0_LAYER001
  6
Continuous
 62
     4
100
AcDbLine
 10
1467.4621
 20
1185.3845
 30
0.0
 11
1468.3148
 21
1185.1379
 31
0.0
  0
LINE
  5
1E0
330
20
100
AcDbEntity
  8
_0-0_LAYER001
  6
Continuous
 62
     4
100
AcDbLine
 10
1468.3148
 20
1185.1379
 30
0.0
 11
1468.56
 21
1185.0595
 31
0.0
  0
LINE
  5
1E1
330
20
100
AcDbEntity
  8
_0-0_LAYER001
  6
Continuous
 62
     4
100
AcDbLine
 10
1468.56
 20
1185.0595
 30
0.0
 11
1470.128
 21
1184.4892
 31
0.0
  0
LINE
  5
1E2
330
20
100
AcDbEntity
  8
_0-0_LAYER001
  6
Continuous
 62
     4
100
AcDbLine
 10
1470.128
 20
1184.4892
 30
0.0
 11
1473.0946
 21
1183.1601
 31
0.0
  0
LINE
  5
1E3
330
20
100
AcDbEntity
  8
_0-0_LAYER001
  6
Continuous
 62
     4
100
AcDbLine
 10
1473.0946
 20
1183.1601
 30
0.0
 11
1476.0785
 21
1181.541
 31
0.0
  0
LINE
  5
1E4
330
20
100
AcDbEntity
  8
_0-0_LAYER001
  6
Continuous
 62
     4
100
AcDbLine
 10
1476.0785
 20
1181.541
 30
0.0
 11
1479.2741
 21
1179.564
 31
0.0
  0
LINE
  5
1E5
330
20
100
AcDbEntity
  8
_0-0_LAYER001
  6
Continuous
 62
     4
100
AcDbLine
 10
1479.2741
 20
1179.564
 30
0.0
 11
1482.6913
 21
1177.2666
 31
0.0
  0
LINE
  5
1E6
330
20
100
AcDbEntity
  8
_0-0_LAYER001
  6
Continuous
 62
     4
100
AcDbLine
 10
1482.6913
 20
1177.2666
 30
0.0
 11
1486.333
 21
1174.7147
 31
0.0
  0
LINE
  5
1E7
330
20
100
AcDbEntity
  8
_0-0_LAYER001
  6
Continuous
 62
     4
100
AcDbLine
 10
1486.333
 20
1174.7147
 30
0.0
 11
1488.5621
 21
1173.1433
 31
0.0
  0
LINE
  5
1E8
330
20
100
AcDbEntity
  8
_0-0_LAYER001
  6
Continuous
 62
     4
100
AcDbLine
 10
1488.5621
 20
1173.1433
 30
0.0
 11
1492.0866
 21
1170.6919
 31
0.0
  0
LINE
  5
1E9
330
20
100
AcDbEntity
  8
_0-0_LAYER001
  6
Continuous
 62
     4
100
AcDbLine
 10
1492.0866
 20
1170.6919
 30
0.0
 11
1498.2372
 21
1166.5525
 31
0.0
  0
LINE
  5
1EA
330
20
100
AcDbEntity
  8
_0-0_LAYER001
  6
Continuous
 62
     4
100
AcDbLine
 10
1498.2372
 20
1166.5525
 30
0.0
 11
1504.5981
 21
1162.5008
 31
0.0
  0
LINE
  5
1EB
330
20
100
AcDbEntity
  8
_0-0_LAYER001
  6
Continuous
 62
     4
100
AcDbLine
 10
1504.5981
 20
1162.5008
 30
0.0
 11
1511.1739
 21
1158.6035
 31
0.0
  0
LINE
  5
1EC
330
20
100
AcDbEntity
  8
_0-0_LAYER001
  6
Continuous
 62
     4
100
AcDbLine
 10
1511.1739
 20
1158.6035
 30
0.0
 11
1517.992
 21
1154.9143
 31
0.0
  0
LINE
  5
1ED
330
20
100
AcDbEntity
  8
_0-0_LAYER001
  6
Continuous
 62
     4
100
AcDbLine
 10
1517.992
 20
1154.9143
 30
0.0
 11
1524.9829
 21
1151.5371
 31
0.0
  0
LINE
  5
1EE
330
20
100
AcDbEntity
  8
_0-0_LAYER001
  6
Continuous
 62
     4
100
AcDbLine
 10
1524.9829
 20
1151.5371
 30
0.0
 11
1529.2828
 21
1149.6725
 31
0.0
  0
LINE
  5
1EF
330
20
100
AcDbEntity
  8
_0-0_LAYER001
  6
Continuous
 62
     4
100
AcDbLine
 10
1529.2828
 20
1149.6725
 30
0.0
 11
1532.9084
 21
1148.2251
 31
0.0
  0
LINE
  5
1F0
330
20
100
AcDbEntity
  8
_0-0_LAYER001
  6
Continuous
 62
     4
100
AcDbLine
 10
1532.9084
 20
1148.2251
 30
0.0
 11
1538.9955
 21
1146.0479
 31
0.0
  0
LINE
  5
1F1
330
20
100
AcDbEntity
  8
_0-0_LAYER001
  6
Continuous
 62
     4
100
AcDbLine
 10
1538.9955
 20
1146.0479
 30
0.0
 11
1545.2728
 21
1144.1244
 31
0.0
  0
LINE
  5
1F2
330
20
100
AcDbEntity
  8
_0-0_LAYER001
  6
Continuous
 62
     4
100
AcDbLine
 10
1545.2728
 20
1144.1244
 30
0.0
 11
1551.645
 21
1142.4917
 31
0.0
  0
LINE
  5
1F3
330
20
100
AcDbEntity
  8
_0-0_LAYER001
  6
Continuous
 62
     4
100
AcDbLine
 10
1551.645
 20
1142.4917
 30
0.0
 11
1558.0985
 21
1141.1588
 31
0.0
  0
LINE
  5
1F4
330
20
100
AcDbEntity
  8
_0-0_LAYER001
  6
Continuous
 62
     4
100
AcDbLine
 10
1558.0985
 20
1141.1588
 30
0.0
 11
1564.526899999999
 21
1140.1497
 31
0.0
  0
LINE
  5
1F5
330
20
100
AcDbEntity
  8
_0-0_LAYER001
  6
Continuous
 62
     4
100
AcDbLine
 10
1564.526899999999
 20
1140.1497
 30
0.0
 11
1568.3924
 21
1139.6949
 31
0.0
  0
LINE
  5
1F6
330
20
100
AcDbEntity
  8
_0-0_LAYER001
  6
Continuous
 62
     4
100
AcDbLine
 10
1568.3924
 20
1139.6949
 30
0.0
 11
1571.3912
 21
1139.4184
 31
0.0
  0
LINE
  5
1F7
330
20
100
AcDbEntity
  8
_0-0_LAYER001
  6
Continuous
 62
     4
100
AcDbLine
 10
1571.3912
 20
1139.4184
 30
0.0
 11
1576.2885
 21
1139.1045
 31
0.0
  0
LINE
  5
1F8
330
20
100
AcDbEntity
  8
_0-0_LAYER001
  6
Continuous
 62
     4
100
AcDbLine
 10
1576.2885
 20
1139.1045
 30
0.0
 11
1581.1987
 21
1138.9485
 31
0.0
  0
LINE
  5
1F9
330
20
100
AcDbEntity
  8
_0-0_LAYER001
  6
Continuous
 62
     4
100
AcDbLine
 10
1581.1987
 20
1138.9485
 30
0.0
 11
1586.0467
 21
1138.9333
 31
0.0
  0
LINE
  5
1FA
330
20
100
AcDbEntity
  8
_0-0_LAYER001
  6
Continuous
 62
     4
100
AcDbLine
 10
1586.0467
 20
1138.9333
 30
0.0
 11
1590.8296
 21
1139.0378
 31
0.0
  0
LINE
  5
1FB
330
20
100
AcDbEntity
  8
_0-0_LAYER001
  6
Continuous
 62
     4
100
AcDbLine
 10
1590.8296
 20
1139.0378
 30
0.0
 11
1595.5149
 21
1139.2402
 31
0.0
  0
LINE
  5
1FC
330
20
100
AcDbEntity
  8
_0-0_LAYER001
  6
Continuous
 62
     4
100
AcDbLine
 10
1595.5149
 20
1139.2402
 30
0.0
 11
1598.2901
 21
1139.4002
 31
0.0
  0
LINE
  5
1FD
330
20
100
AcDbEntity
  8
_0-0_LAYER001
  6
Continuous
 62
     4
100
AcDbLine
 10
1598.2901
 20
1139.4002
 30
0.0
 11
1603.318
 21
1139.7558
 31
0.0
  0
LINE
  5
1FE
330
20
100
AcDbEntity
  8
_0-0_LAYER001
  6
Continuous
 62
     4
100
AcDbLine
 10
1603.318
 20
1139.7558
 30
0.0
 11
1611.8341
 21
1140.5359
 31
0.0
  0
LINE
  5
1FF
330
20
100
AcDbEntity
  8
_0-0_LAYER001
  6
Continuous
 62
     4
100
AcDbLine
 10
1611.8341
 20
1140.5359
 30
0.0
 11
1620.3063
 21
1141.5046
 31
0.0
  0
LINE
  5
200
330
20
100
AcDbEntity
  8
_0-0_LAYER001
  6
Continuous
 62
     4
100
AcDbLine
 10
1620.3063
 20
1141.5046
 30
0.0
 11
1628.6829
 21
1142.6168
 31
0.0
  0
LINE
  5
201
330
20
100
AcDbEntity
  8
_0-0_LAYER001
  6
Continuous
 62
     4
100
AcDbLine
 10
1628.6829
 20
1142.6168
 30
0.0
 11
1636.9674
 21
1143.8333
 31
0.0
  0
LINE
  5
202
330
20
100
AcDbEntity
  8
_0-0_LAYER001
  6
Continuous
 62
     4
100
AcDbLine
 10
1636.9674
 20
1143.8333
 30
0.0
 11
1645.158
 21
1145.115
 31
0.0
  0
LINE
  5
203
330
20
100
AcDbEntity
  8
_0-0_LAYER001
  6
Continuous
 62
     4
100
AcDbLine
 10
1645.158
 20
1145.115
 30
0.0
 11
1649.885
 21
1145.8765
 31
0.0
  0
LINE
  5
204
330
20
100
AcDbEntity
  8
_0-0_LAYER001
  6
Continuous
 62
     4
100
AcDbLine
 10
1649.885
 20
1145.8765
 30
0.0
 11
1652.335
 21
1146.2747
 31
0.0
  0
LINE
  5
205
330
20
100
AcDbEntity
  8
_0-0_LAYER001
  6
Continuous
 62
     4
100
AcDbLine
 10
1652.335
 20
1146.2747
 30
0.0
 11
1656.54
 21
1146.962
 31
0.0
  0
LINE
  5
206
330
20
100
AcDbEntity
  8
_0-0_LAYER001
  6
Continuous
 62
     4
100
AcDbLine
 10
1656.54
 20
1146.962
 30
0.0
 11
1660.7423
 21
1147.6532
 31
0.0
  0
LINE
  5
207
330
20
100
AcDbEntity
  8
_0-0_LAYER001
  6
Continuous
 62
     4
100
AcDbLine
 10
1660.7423
 20
1147.6532
 30
0.0
 11
1664.9397
 21
1148.3469
 31
0.0
  0
LINE
  5
208
330
20
100
AcDbEntity
  8
_0-0_LAYER001
  6
Continuous
 62
     4
100
AcDbLine
 10
1664.9397
 20
1148.3469
 30
0.0
 11
1669.1326
 21
1149.0424
 31
0.0
  0
LINE
  5
209
330
20
100
AcDbEntity
  8
_0-0_LAYER001
  6
Continuous
 62
     4
100
AcDbLine
 10
1669.1326
 20
1149.0424
 30
0.0
 11
1673.3212
 21
1149.7385
 31
0.0
  0
LINE
  5
20A
330
20
100
AcDbEntity
  8
_0-0_LAYER001
  6
Continuous
 62
     4
100
AcDbLine
 10
1673.3212
 20
1149.7385
 30
0.0
 11
1674.9353
 21
1150.007
 31
0.0
  0
LINE
  5
20B
330
20
100
AcDbEntity
  8
_0-0_LAYER001
  6
Continuous
 62
     4
100
AcDbLine
 10
1672.9202
 20
1167.9356
 30
0.0
 11
1706.1694
 21
1175.6392
 31
0.0
  0
LINE
  5
20C
330
20
100
AcDbEntity
  8
_0-0_LAYER001
  6
Continuous
 62
     4
100
AcDbLine
 10
1286.5341
 20
1109.4163
 30
0.0
 11
1277.9986
 21
1123.9496
 31
0.0
  0
LINE
  5
20D
330
20
100
AcDbEntity
  8
_0-0_LAYER001
  6
Continuous
 62
     4
100
AcDbLine
 10
1294.702
 20
1108.766
 30
0.0
 11
1303.0082
 21
1118.8314
 31
0.0
  0
ARC
  5
20E
330
20
100
AcDbEntity
  8
_0-0_LAYER001
  6
Continuous
 62
     4
100
AcDbCircle
 10
1290.8455
 20
1111.9484
 30
0.0
 40
5.0
100
AcDbArc
 50
210.42578
 51
320.47001
  0
LINE
  5
20F
330
20
100
AcDbEntity
  8
_0-0_LAYER001
  6
Continuous
 62
     4
100
AcDbLine
 10
1370.6476
 20
1108.2961
 30
0.0
 11
1363.3222
 21
1119.6022
 31
0.0
  0
LINE
  5
210
330
20
100
AcDbEntity
  8
_0-0_LAYER001
  6
Continuous
 62
     4
100
AcDbLine
 10
1379.1571
 20
1108.486
 30
0.0
 11
1388.0956
 21
1123.7317
 31
0.0
  0
ARC
  5
211
330
20
100
AcDbEntity
  8
_0-0_LAYER001
  6
Continuous
 62
     4
100
AcDbCircle
 10
1374.8438
 20
1111.0149
 30
0.0
 40
5.0
100
AcDbArc
 50
212.93986
 51
329.61716
  0
LINE
  5
212
330
20
100
AcDbEntity
  8
_0-0_LAYER001
  6
Continuous
 62
     4
100
AcDbLine
 10
1167.118
 20
1189.8904
 30
0.0
 11
1167.9276
 21
1190.2084
 31
0.0
  0
LINE
  5
213
330
20
100
AcDbEntity
  8
_0-0_LAYER001
  6
Continuous
 62
     4
100
AcDbLine
 10
1167.9276
 20
1190.2084
 30
0.0
 11
1171.4578
 21
1191.5974
 31
0.0
  0
LINE
  5
214
330
20
100
AcDbEntity
  8
_0-0_LAYER001
  6
Continuous
 62
     4
100
AcDbLine
 10
1171.4578
 20
1191.5974
 30
0.0
 11
1174.9952
 21
1192.9958
 31
0.0
  0
LINE
  5
215
330
20
100
AcDbEntity
  8
_0-0_LAYER001
  6
Continuous
 62
     4
100
AcDbLine
 10
1174.9952
 20
1192.9958
 30
0.0
 11
1178.5445
 21
1194.4095
 31
0.0
  0
LINE
  5
216
330
20
100
AcDbEntity
  8
_0-0_LAYER001
  6
Continuous
 62
     4
100
AcDbLine
 10
1178.5445
 20
1194.4095
 30
0.0
 11
1182.1101
 21
1195.8445
 31
0.0
  0
LINE
  5
217
330
20
100
AcDbEntity
  8
_0-0_LAYER001
  6
Continuous
 62
     4
100
AcDbLine
 10
1182.1101
 20
1195.8445
 30
0.0
 11
1185.6968
 21
1197.3067
 31
0.0
  0
LINE
  5
218
330
20
100
AcDbEntity
  8
_0-0_LAYER001
  6
Continuous
 62
     4
100
AcDbLine
 10
1185.6968
 20
1197.3067
 30
0.0
 11
1187.7885
 21
1198.1696
 31
0.0
  0
LINE
  5
219
330
20
100
AcDbEntity
  8
_0-0_LAYER001
  6
Continuous
 62
     4
100
AcDbLine
 10
1187.7885
 20
1198.1696
 30
0.0
 11
1189.856
 21
1199.0274
 31
0.0
  0
LINE
  5
21A
330
20
100
AcDbEntity
  8
_0-0_LAYER001
  6
Continuous
 62
     4
100
AcDbLine
 10
1189.856
 20
1199.0274
 30
0.0
 11
1193.4426
 21
1200.4791
 31
0.0
  0
LINE
  5
21B
330
20
100
AcDbEntity
  8
_0-0_LAYER001
  6
Continuous
 62
     4
100
AcDbLine
 10
1193.4426
 20
1200.4791
 30
0.0
 11
1197.0571
 21
1201.8124
 31
0.0
  0
LINE
  5
21C
330
20
100
AcDbEntity
  8
_0-0_LAYER001
  6
Continuous
 62
     4
100
AcDbLine
 10
1197.0571
 20
1201.8124
 30
0.0
 11
1200.6998
 21
1202.93
 31
0.0
  0
LINE
  5
21D
330
20
100
AcDbEntity
  8
_0-0_LAYER001
  6
Continuous
 62
     4
100
AcDbLine
 10
1200.6998
 20
1202.93
 30
0.0
 11
1204.371
 21
1203.7346
 31
0.0
  0
LINE
  5
21E
330
20
100
AcDbEntity
  8
_0-0_LAYER001
  6
Continuous
 62
     4
100
AcDbLine
 10
1204.371
 20
1203.7346
 30
0.0
 11
1208.0712
 21
1204.1288
 31
0.0
  0
LINE
  5
21F
330
20
100
AcDbEntity
  8
_0-0_LAYER001
  6
Continuous
 62
     4
100
AcDbLine
 10
1208.0712
 20
1204.1288
 30
0.0
 11
1210.2306
 21
1204.131
 31
0.0
  0
LINE
  5
220
330
20
100
AcDbEntity
  8
_0-0_LAYER001
  6
Continuous
 62
     4
100
AcDbLine
 10
1210.2306
 20
1204.131
 30
0.0
 11
1211.0806
 21
1204.0815
 31
0.0
  0
LINE
  5
221
330
20
100
AcDbEntity
  8
_0-0_LAYER001
  6
Continuous
 62
     4
100
AcDbLine
 10
1211.0806
 20
1204.0815
 30
0.0
 11
1212.5472
 21
1203.9314
 31
0.0
  0
LINE
  5
222
330
20
100
AcDbEntity
  8
_0-0_LAYER001
  6
Continuous
 62
     4
100
AcDbLine
 10
1212.5472
 20
1203.9314
 30
0.0
 11
1214.0116
 21
1203.7051
 31
0.0
  0
LINE
  5
223
330
20
100
AcDbEntity
  8
_0-0_LAYER001
  6
Continuous
 62
     4
100
AcDbLine
 10
1214.0116
 20
1203.7051
 30
0.0
 11
1215.4695
 21
1203.4094
 31
0.0
  0
LINE
  5
224
330
20
100
AcDbEntity
  8
_0-0_LAYER001
  6
Continuous
 62
     4
100
AcDbLine
 10
1215.4695
 20
1203.4094
 30
0.0
 11
1216.9168
 21
1203.0511
 31
0.0
  0
LINE
  5
225
330
20
100
AcDbEntity
  8
_0-0_LAYER001
  6
Continuous
 62
     4
100
AcDbLine
 10
1216.9168
 20
1203.0511
 30
0.0
 11
1218.3491
 21
1202.6369
 31
0.0
  0
LINE
  5
226
330
20
100
AcDbEntity
  8
_0-0_LAYER001
  6
Continuous
 62
     4
100
AcDbLine
 10
1218.3491
 20
1202.6369
 30
0.0
 11
1219.1714
 21
1202.3738
 31
0.0
  0
LINE
  5
227
330
20
100
AcDbEntity
  8
_0-0_LAYER001
  6
Continuous
 62
     4
100
AcDbLine
 10
1219.1714
 20
1202.3738
 30
0.0
 11
1221.6826
 21
1201.4605
 31
0.0
  0
LINE
  5
228
330
20
100
AcDbEntity
  8
_0-0_LAYER001
  6
Continuous
 62
     4
100
AcDbLine
 10
1221.6826
 20
1201.4605
 30
0.0
 11
1225.8681
 21
1199.5852
 31
0.0
  0
LINE
  5
229
330
20
100
AcDbEntity
  8
_0-0_LAYER001
  6
Continuous
 62
     4
100
AcDbLine
 10
1225.8681
 20
1199.5852
 30
0.0
 11
1229.9029
 21
1197.3959
 31
0.0
  0
LINE
  5
22A
330
20
100
AcDbEntity
  8
_0-0_LAYER001
  6
Continuous
 62
     4
100
AcDbLine
 10
1229.9029
 20
1197.3959
 30
0.0
 11
1233.824
 21
1194.9702
 31
0.0
  0
LINE
  5
22B
330
20
100
AcDbEntity
  8
_0-0_LAYER001
  6
Continuous
 62
     4
100
AcDbLine
 10
1233.824
 20
1194.9702
 30
0.0
 11
1237.6685
 21
1192.3855
 31
0.0
  0
LINE
  5
22C
330
20
100
AcDbEntity
  8
_0-0_LAYER001
  6
Continuous
 62
     4
100
AcDbLine
 10
1237.6685
 20
1192.3855
 30
0.0
 11
1241.4733
 21
1189.7192
 31
0.0
  0
LINE
  5
22D
330
20
100
AcDbEntity
  8
_0-0_LAYER001
  6
Continuous
 62
     4
100
AcDbLine
 10
1241.4733
 20
1189.7192
 30
0.0
 11
1243.6766
 21
1188.166
 31
0.0
  0
LINE
  5
22E
330
20
100
AcDbEntity
  8
_0-0_LAYER001
  6
Continuous
 62
     4
100
AcDbLine
 10
1243.6766
 20
1188.166
 30
0.0
 11
1247.0411
 21
1185.826
 31
0.0
  0
LINE
  5
22F
330
20
100
AcDbEntity
  8
_0-0_LAYER001
  6
Continuous
 62
     4
100
AcDbLine
 10
1247.0411
 20
1185.826
 30
0.0
 11
1252.8889
 21
1181.8903
 31
0.0
  0
LINE
  5
230
330
20
100
AcDbEntity
  8
_0-0_LAYER001
  6
Continuous
 62
     4
100
AcDbLine
 10
1252.8889
 20
1181.8903
 30
0.0
 11
1258.8143
 21
1178.116
 31
0.0
  0
LINE
  5
231
330
20
100
AcDbEntity
  8
_0-0_LAYER001
  6
Continuous
 62
     4
100
AcDbLine
 10
1258.8143
 20
1178.116
 30
0.0
 11
1264.8389
 21
1174.5453
 31
0.0
  0
LINE
  5
232
330
20
100
AcDbEntity
  8
_0-0_LAYER001
  6
Continuous
 62
     4
100
AcDbLine
 10
1264.8389
 20
1174.5453
 30
0.0
 11
1270.9841
 21
1171.2203
 31
0.0
  0
LINE
  5
233
330
20
100
AcDbEntity
  8
_0-0_LAYER001
  6
Continuous
 62
     4
100
AcDbLine
 10
1270.9841
 20
1171.2203
 30
0.0
 11
1277.2714
 21
1168.183
 31
0.0
  0
LINE
  5
234
330
20
100
AcDbEntity
  8
_0-0_LAYER001
  6
Continuous
 62
     4
100
AcDbLine
 10
1277.2714
 20
1168.183
 30
0.0
 11
1280.9916
 21
1166.5697
 31
0.0
  0
LINE
  5
235
330
20
100
AcDbEntity
  8
_0-0_LAYER001
  6
Continuous
 62
     4
100
AcDbLine
 10
1280.9916
 20
1166.5697
 30
0.0
 11
1284.0683
 21
1165.3415
 31
0.0
  0
LINE
  5
236
330
20
100
AcDbEntity
  8
_0-0_LAYER001
  6
Continuous
 62
     4
100
AcDbLine
 10
1284.0683
 20
1165.3415
 30
0.0
 11
1289.456299999999
 21
1163.4144
 31
0.0
  0
LINE
  5
237
330
20
100
AcDbEntity
  8
_0-0_LAYER001
  6
Continuous
 62
     4
100
AcDbLine
 10
1289.456299999999
 20
1163.4144
 30
0.0
 11
1294.936
 21
1161.7352
 31
0.0
  0
LINE
  5
238
330
20
100
AcDbEntity
  8
_0-0_LAYER001
  6
Continuous
 62
     4
100
AcDbLine
 10
1294.936
 20
1161.7352
 30
0.0
 11
1300.4913
 21
1160.3119
 31
0.0
  0
LINE
  5
239
330
20
100
AcDbEntity
  8
_0-0_LAYER001
  6
Continuous
 62
     4
100
AcDbLine
 10
1300.4913
 20
1160.3119
 30
0.0
 11
1306.1064
 21
1159.1522
 31
0.0
  0
LINE
  5
23A
330
20
100
AcDbEntity
  8
_0-0_LAYER001
  6
Continuous
 62
     4
100
AcDbLine
 10
1306.1064
 20
1159.1522
 30
0.0
 11
1311.7651
 21
1158.2639
 31
0.0
  0
LINE
  5
23B
330
20
100
AcDbEntity
  8
_0-0_LAYER001
  6
Continuous
 62
     4
100
AcDbLine
 10
1311.7651
 20
1158.2639
 30
0.0
 11
1315.0608
 21
1157.8761
 31
0.0
  0
LINE
  5
23C
330
20
100
AcDbEntity
  8
_0-0_LAYER001
  6
Continuous
 62
     4
100
AcDbLine
 10
1315.0608
 20
1157.8761
 30
0.0
 11
1317.5835
 21
1157.6435
 31
0.0
  0
LINE
  5
23D
330
20
100
AcDbEntity
  8
_0-0_LAYER001
  6
Continuous
 62
     4
100
AcDbLine
 10
1317.5835
 20
1157.6435
 30
0.0
 11
1321.94
 21
1157.3642
 31
0.0
  0
LINE
  5
23E
330
20
100
AcDbEntity
  8
_0-0_LAYER001
  6
Continuous
 62
     4
100
AcDbLine
 10
1321.94
 20
1157.3642
 30
0.0
 11
1326.3025
 21
1157.2257
 31
0.0
  0
LINE
  5
23F
330
20
100
AcDbEntity
  8
_0-0_LAYER001
  6
Continuous
 62
     4
100
AcDbLine
 10
1326.3025
 20
1157.2257
 30
0.0
 11
1330.6684
 21
1157.212
 31
0.0
  0
LINE
  5
240
330
20
100
AcDbEntity
  8
_0-0_LAYER001
  6
Continuous
 62
     4
100
AcDbLine
 10
1330.6684
 20
1157.212
 30
0.0
 11
1335.0346
 21
1157.3073
 31
0.0
  0
LINE
  5
241
330
20
100
AcDbEntity
  8
_0-0_LAYER001
  6
Continuous
 62
     4
100
AcDbLine
 10
1335.0346
 20
1157.3073
 30
0.0
 11
1339.3983
 21
1157.4959
 31
0.0
  0
LINE
  5
242
330
20
100
AcDbEntity
  8
_0-0_LAYER001
  6
Continuous
 62
     4
100
AcDbLine
 10
1339.3983
 20
1157.4959
 30
0.0
 11
1341.9269
 21
1157.6417
 31
0.0
  0
LINE
  5
243
330
20
100
AcDbEntity
  8
_0-0_LAYER001
  6
Continuous
 62
     4
100
AcDbLine
 10
1341.9269
 20
1157.6417
 30
0.0
 11
1346.6518
 21
1157.9759
 31
0.0
  0
LINE
  5
244
330
20
100
AcDbEntity
  8
_0-0_LAYER001
  6
Continuous
 62
     4
100
AcDbLine
 10
1346.6518
 20
1157.9759
 30
0.0
 11
1354.7804
 21
1158.7204
 31
0.0
  0
LINE
  5
245
330
20
100
AcDbEntity
  8
_0-0_LAYER001
  6
Continuous
 62
     4
100
AcDbLine
 10
1354.7804
 20
1158.7204
 30
0.0
 11
1362.889
 21
1159.6476
 31
0.0
  0
LINE
  5
246
330
20
100
AcDbEntity
  8
_0-0_LAYER001
  6
Continuous
 62
     4
100
AcDbLine
 10
1362.889
 20
1159.6476
 30
0.0
 11
1370.9806
 21
1160.7219
 31
0.0
  0
LINE
  5
247
330
20
100
AcDbEntity
  8
_0-0_LAYER001
  6
Continuous
 62
     4
100
AcDbLine
 10
1370.9806
 20
1160.7219
 30
0.0
 11
1379.058299999999
 21
1161.908
 31
0.0
  0
LINE
  5
248
330
20
100
AcDbEntity
  8
_0-0_LAYER001
  6
Continuous
 62
     4
100
AcDbLine
 10
1379.058299999999
 20
1161.908
 30
0.0
 11
1387.125
 21
1163.1703
 31
0.0
  0
LINE
  5
249
330
20
100
AcDbEntity
  8
_0-0_LAYER001
  6
Continuous
 62
     4
100
AcDbLine
 10
1387.125
 20
1163.1703
 30
0.0
 11
1391.7999
 21
1163.9235
 31
0.0
  0
LINE
  5
24A
330
20
100
AcDbEntity
  8
_0-0_LAYER001
  6
Continuous
 62
     4
100
AcDbLine
 10
1391.7999
 20
1163.9235
 30
0.0
 11
1394.2295
 21
1164.3183
 31
0.0
  0
LINE
  5
24B
330
20
100
AcDbEntity
  8
_0-0_LAYER001
  6
Continuous
 62
     4
100
AcDbLine
 10
1394.2295
 20
1164.3183
 30
0.0
 11
1398.4173
 21
1165.0028
 31
0.0
  0
LINE
  5
24C
330
20
100
AcDbEntity
  8
_0-0_LAYER001
  6
Continuous
 62
     4
100
AcDbLine
 10
1398.4173
 20
1165.0028
 30
0.0
 11
1402.6039
 21
1165.6914
 31
0.0
  0
LINE
  5
24D
330
20
100
AcDbEntity
  8
_0-0_LAYER001
  6
Continuous
 62
     4
100
AcDbLine
 10
1402.6039
 20
1165.6914
 30
0.0
 11
1406.7895
 21
1166.3832
 31
0.0
  0
LINE
  5
24E
330
20
100
AcDbEntity
  8
_0-0_LAYER001
  6
Continuous
 62
     4
100
AcDbLine
 10
1406.7895
 20
1166.3832
 30
0.0
 11
1410.9743
 21
1167.0773
 31
0.0
  0
LINE
  5
24F
330
20
100
AcDbEntity
  8
_0-0_LAYER001
  6
Continuous
 62
     4
100
AcDbLine
 10
1410.9743
 20
1167.0773
 30
0.0
 11
1415.158799999999
 21
1167.7728
 31
0.0
  0
LINE
  5
250
330
20
100
AcDbEntity
  8
_0-0_LAYER001
  6
Continuous
 62
     4
100
AcDbLine
 10
1415.158799999999
 20
1167.7728
 30
0.0
 11
1417.5857
 21
1168.1765
 31
0.0
  0
LINE
  5
251
330
20
100
AcDbEntity
  8
_0-0_LAYER001
  6
Continuous
 62
     4
100
AcDbLine
 10
1172.4625
 20
1172.6509
 30
0.0
 11
1174.5133
 21
1173.4564
 31
0.0
  0
LINE
  5
252
330
20
100
AcDbEntity
  8
_0-0_LAYER001
  6
Continuous
 62
     4
100
AcDbLine
 10
1174.5133
 20
1173.4564
 30
0.0
 11
1178.0617
 21
1174.8526
 31
0.0
  0
LINE
  5
253
330
20
100
AcDbEntity
  8
_0-0_LAYER001
  6
Continuous
 62
     4
100
AcDbLine
 10
1178.0617
 20
1174.8526
 30
0.0
 11
1181.6343
 21
1176.2649
 31
0.0
  0
LINE
  5
254
330
20
100
AcDbEntity
  8
_0-0_LAYER001
  6
Continuous
 62
     4
100
AcDbLine
 10
1181.6343
 20
1176.2649
 30
0.0
 11
1185.235
 21
1177.6991
 31
0.0
  0
LINE
  5
255
330
20
100
AcDbEntity
  8
_0-0_LAYER001
  6
Continuous
 62
     4
100
AcDbLine
 10
1185.235
 20
1177.6991
 30
0.0
 11
1188.8679
 21
1179.1612
 31
0.0
  0
LINE
  5
256
330
20
100
AcDbEntity
  8
_0-0_LAYER001
  6
Continuous
 62
     4
100
AcDbLine
 10
1188.8679
 20
1179.1612
 30
0.0
 11
1192.5266
 21
1180.6527
 31
0.0
  0
LINE
  5
257
330
20
100
AcDbEntity
  8
_0-0_LAYER001
  6
Continuous
 62
     4
100
AcDbLine
 10
1192.5266
 20
1180.6527
 30
0.0
 11
1194.6697
 21
1181.5368
 31
0.0
  0
LINE
  5
258
330
20
100
AcDbEntity
  8
_0-0_LAYER001
  6
Continuous
 62
     4
100
AcDbLine
 10
1194.6697
 20
1181.5368
 30
0.0
 11
1196.6818
 21
1182.3716
 31
0.0
  0
LINE
  5
259
330
20
100
AcDbEntity
  8
_0-0_LAYER001
  6
Continuous
 62
     4
100
AcDbLine
 10
1196.6818
 20
1182.3716
 30
0.0
 11
1199.9356
 21
1183.6886
 31
0.0
  0
LINE
  5
25A
330
20
100
AcDbEntity
  8
_0-0_LAYER001
  6
Continuous
 62
     4
100
AcDbLine
 10
1199.9356
 20
1183.6886
 30
0.0
 11
1202.8162
 21
1184.7512
 31
0.0
  0
LINE
  5
25B
330
20
100
AcDbEntity
  8
_0-0_LAYER001
  6
Continuous
 62
     4
100
AcDbLine
 10
1202.8162
 20
1184.7512
 30
0.0
 11
1205.274
 21
1185.5053
 31
0.0
  0
LINE
  5
25C
330
20
100
AcDbEntity
  8
_0-0_LAYER001
  6
Continuous
 62
     4
100
AcDbLine
 10
1205.274
 20
1185.5053
 30
0.0
 11
1207.2598
 21
1185.9405
 31
0.0
  0
LINE
  5
25D
330
20
100
AcDbEntity
  8
_0-0_LAYER001
  6
Continuous
 62
     4
100
AcDbLine
 10
1207.2598
 20
1185.9405
 30
0.0
 11
1209.0367
 21
1186.1298
 31
0.0
  0
LINE
  5
25E
330
20
100
AcDbEntity
  8
_0-0_LAYER001
  6
Continuous
 62
     4
100
AcDbLine
 10
1209.0367
 20
1186.1298
 30
0.0
 11
1209.7163
 21
1186.1305
 31
0.0
  0
LINE
  5
25F
330
20
100
AcDbEntity
  8
_0-0_LAYER001
  6
Continuous
 62
     4
100
AcDbLine
 10
1209.7163
 20
1186.1305
 30
0.0
 11
1209.6401
 21
1186.1349
 31
0.0
  0
LINE
  5
260
330
20
100
AcDbEntity
  8
_0-0_LAYER001
  6
Continuous
 62
     4
100
AcDbLine
 10
1209.6401
 20
1186.1349
 30
0.0
 11
1210.2547
 21
1186.072
 31
0.0
  0
LINE
  5
261
330
20
100
AcDbEntity
  8
_0-0_LAYER001
  6
Continuous
 62
     4
100
AcDbLine
 10
1210.2547
 20
1186.072
 30
0.0
 11
1210.8464
 21
1185.9806
 31
0.0
  0
LINE
  5
262
330
20
100
AcDbEntity
  8
_0-0_LAYER001
  6
Continuous
 62
     4
100
AcDbLine
 10
1210.8464
 20
1185.9806
 30
0.0
 11
1211.5158
 21
1185.8448
 31
0.0
  0
LINE
  5
263
330
20
100
AcDbEntity
  8
_0-0_LAYER001
  6
Continuous
 62
     4
100
AcDbLine
 10
1211.5158
 20
1185.8448
 30
0.0
 11
1212.252
 21
1185.6625
 31
0.0
  0
LINE
  5
264
330
20
100
AcDbEntity
  8
_0-0_LAYER001
  6
Continuous
 62
     4
100
AcDbLine
 10
1212.252
 20
1185.6625
 30
0.0
 11
1213.1047
 21
1185.416
 31
0.0
  0
LINE
  5
265
330
20
100
AcDbEntity
  8
_0-0_LAYER001
  6
Continuous
 62
     4
100
AcDbLine
 10
1213.1047
 20
1185.416
 30
0.0
 11
1213.3499
 21
1185.3375
 31
0.0
  0
LINE
  5
266
330
20
100
AcDbEntity
  8
_0-0_LAYER001
  6
Continuous
 62
     4
100
AcDbLine
 10
1213.3499
 20
1185.3375
 30
0.0
 11
1214.9179
 21
1184.7673
 31
0.0
  0
LINE
  5
267
330
20
100
AcDbEntity
  8
_0-0_LAYER001
  6
Continuous
 62
     4
100
AcDbLine
 10
1214.9179
 20
1184.7673
 30
0.0
 11
1217.8845
 21
1183.4381
 31
0.0
  0
LINE
  5
268
330
20
100
AcDbEntity
  8
_0-0_LAYER001
  6
Continuous
 62
     4
100
AcDbLine
 10
1217.8845
 20
1183.4381
 30
0.0
 11
1220.8684
 21
1181.819
 31
0.0
  0
LINE
  5
269
330
20
100
AcDbEntity
  8
_0-0_LAYER001
  6
Continuous
 62
     4
100
AcDbLine
 10
1220.8684
 20
1181.819
 30
0.0
 11
1224.064
 21
1179.8421
 31
0.0
  0
LINE
  5
26A
330
20
100
AcDbEntity
  8
_0-0_LAYER001
  6
Continuous
 62
     4
100
AcDbLine
 10
1224.064
 20
1179.8421
 30
0.0
 11
1227.4812
 21
1177.5447
 31
0.0
  0
LINE
  5
26B
330
20
100
AcDbEntity
  8
_0-0_LAYER001
  6
Continuous
 62
     4
100
AcDbLine
 10
1227.4812
 20
1177.5447
 30
0.0
 11
1231.1229
 21
1174.9928
 31
0.0
  0
LINE
  5
26C
330
20
100
AcDbEntity
  8
_0-0_LAYER001
  6
Continuous
 62
     4
100
AcDbLine
 10
1231.1229
 20
1174.9928
 30
0.0
 11
1233.352
 21
1173.4213
 31
0.0
  0
LINE
  5
26D
330
20
100
AcDbEntity
  8
_0-0_LAYER001
  6
Continuous
 62
     4
100
AcDbLine
 10
1233.352
 20
1173.4213
 30
0.0
 11
1236.8765
 21
1170.97
 31
0.0
  0
LINE
  5
26E
330
20
100
AcDbEntity
  8
_0-0_LAYER001
  6
Continuous
 62
     4
100
AcDbLine
 10
1236.8765
 20
1170.97
 30
0.0
 11
1243.0271
 21
1166.8305
 31
0.0
  0
LINE
  5
26F
330
20
100
AcDbEntity
  8
_0-0_LAYER001
  6
Continuous
 62
     4
100
AcDbLine
 10
1243.0271
 20
1166.8305
 30
0.0
 11
1249.3881
 21
1162.7789
 31
0.0
  0
LINE
  5
270
330
20
100
AcDbEntity
  8
_0-0_LAYER001
  6
Continuous
 62
     4
100
AcDbLine
 10
1249.3881
 20
1162.7789
 30
0.0
 11
1255.9638
 21
1158.8815
 31
0.0
  0
LINE
  5
271
330
20
100
AcDbEntity
  8
_0-0_LAYER001
  6
Continuous
 62
     4
100
AcDbLine
 10
1255.9638
 20
1158.8815
 30
0.0
 11
1262.7819
 21
1155.1923
 31
0.0
  0
LINE
  5
272
330
20
100
AcDbEntity
  8
_0-0_LAYER001
  6
Continuous
 62
     4
100
AcDbLine
 10
1262.7819
 20
1155.1923
 30
0.0
 11
1269.7728
 21
1151.8151
 31
0.0
  0
LINE
  5
273
330
20
100
AcDbEntity
  8
_0-0_LAYER001
  6
Continuous
 62
     4
100
AcDbLine
 10
1269.7728
 20
1151.8151
 30
0.0
 11
1274.0727
 21
1149.9505
 31
0.0
  0
LINE
  5
274
330
20
100
AcDbEntity
  8
_0-0_LAYER001
  6
Continuous
 62
     4
100
AcDbLine
 10
1274.0727
 20
1149.9505
 30
0.0
 11
1277.6983
 21
1148.5031
 31
0.0
  0
LINE
  5
275
330
20
100
AcDbEntity
  8
_0-0_LAYER001
  6
Continuous
 62
     4
100
AcDbLine
 10
1277.6983
 20
1148.5031
 30
0.0
 11
1283.7854
 21
1146.3259
 31
0.0
  0
LINE
  5
276
330
20
100
AcDbEntity
  8
_0-0_LAYER001
  6
Continuous
 62
     4
100
AcDbLine
 10
1283.7854
 20
1146.3259
 30
0.0
 11
1290.0627
 21
1144.4024
 31
0.0
  0
LINE
  5
277
330
20
100
AcDbEntity
  8
_0-0_LAYER001
  6
Continuous
 62
     4
100
AcDbLine
 10
1290.0627
 20
1144.4024
 30
0.0
 11
1296.434899999999
 21
1142.7698
 31
0.0
  0
LINE
  5
278
330
20
100
AcDbEntity
  8
_0-0_LAYER001
  6
Continuous
 62
     4
100
AcDbLine
 10
1296.434899999999
 20
1142.7698
 30
0.0
 11
1302.888399999999
 21
1141.4369
 31
0.0
  0
LINE
  5
279
330
20
100
AcDbEntity
  8
_0-0_LAYER001
  6
Continuous
 62
     4
100
AcDbLine
 10
1302.888399999999
 20
1141.4369
 30
0.0
 11
1309.3168
 21
1140.4278
 31
0.0
  0
LINE
  5
27A
330
20
100
AcDbEntity
  8
_0-0_LAYER001
  6
Continuous
 62
     4
100
AcDbLine
 10
1309.3168
 20
1140.4278
 30
0.0
 11
1313.1823
 21
1139.973
 31
0.0
  0
LINE
  5
27B
330
20
100
AcDbEntity
  8
_0-0_LAYER001
  6
Continuous
 62
     4
100
AcDbLine
 10
1313.1823
 20
1139.973
 30
0.0
 11
1316.1811
 21
1139.6964
 31
0.0
  0
LINE
  5
27C
330
20
100
AcDbEntity
  8
_0-0_LAYER001
  6
Continuous
 62
     4
100
AcDbLine
 10
1316.1811
 20
1139.6964
 30
0.0
 11
1321.0784
 21
1139.3825
 31
0.0
  0
LINE
  5
27D
330
20
100
AcDbEntity
  8
_0-0_LAYER001
  6
Continuous
 62
     4
100
AcDbLine
 10
1321.0784
 20
1139.3825
 30
0.0
 11
1325.9886
 21
1139.2266
 31
0.0
  0
LINE
  5
27E
330
20
100
AcDbEntity
  8
_0-0_LAYER001
  6
Continuous
 62
     4
100
AcDbLine
 10
1325.9886
 20
1139.2266
 30
0.0
 11
1330.8366
 21
1139.2114
 31
0.0
  0
LINE
  5
27F
330
20
100
AcDbEntity
  8
_0-0_LAYER001
  6
Continuous
 62
     4
100
AcDbLine
 10
1330.8366
 20
1139.2114
 30
0.0
 11
1335.6195
 21
1139.3158
 31
0.0
  0
LINE
  5
280
330
20
100
AcDbEntity
  8
_0-0_LAYER001
  6
Continuous
 62
     4
100
AcDbLine
 10
1335.6195
 20
1139.3158
 30
0.0
 11
1340.3048
 21
1139.5182
 31
0.0
  0
LINE
  5
281
330
20
100
AcDbEntity
  8
_0-0_LAYER001
  6
Continuous
 62
     4
100
AcDbLine
 10
1340.3048
 20
1139.5182
 30
0.0
 11
1343.08
 21
1139.6782
 31
0.0
  0
LINE
  5
282
330
20
100
AcDbEntity
  8
_0-0_LAYER001
  6
Continuous
 62
     4
100
AcDbLine
 10
1343.08
 20
1139.6782
 30
0.0
 11
1348.1079
 21
1140.0339
 31
0.0
  0
LINE
  5
283
330
20
100
AcDbEntity
  8
_0-0_LAYER001
  6
Continuous
 62
     4
100
AcDbLine
 10
1348.1079
 20
1140.0339
 30
0.0
 11
1356.624
 21
1140.8139
 31
0.0
  0
LINE
  5
284
330
20
100
AcDbEntity
  8
_0-0_LAYER001
  6
Continuous
 62
     4
100
AcDbLine
 10
1356.624
 20
1140.8139
 30
0.0
 11
1365.0962
 21
1141.7827
 31
0.0
  0
LINE
  5
285
330
20
100
AcDbEntity
  8
_0-0_LAYER001
  6
Continuous
 62
     4
100
AcDbLine
 10
1365.0962
 20
1141.7827
 30
0.0
 11
1373.4728
 21
1142.8949
 31
0.0
  0
LINE
  5
286
330
20
100
AcDbEntity
  8
_0-0_LAYER001
  6
Continuous
 62
     4
100
AcDbLine
 10
1373.4728
 20
1142.8949
 30
0.0
 11
1381.7573
 21
1144.1113
 31
0.0
  0
LINE
  5
287
330
20
100
AcDbEntity
  8
_0-0_LAYER001
  6
Continuous
 62
     4
100
AcDbLine
 10
1381.7573
 20
1144.1113
 30
0.0
 11
1389.9479
 21
1145.393
 31
0.0
  0
LINE
  5
288
330
20
100
AcDbEntity
  8
_0-0_LAYER001
  6
Continuous
 62
     4
100
AcDbLine
 10
1389.9479
 20
1145.393
 30
0.0
 11
1394.6749
 21
1146.1546
 31
0.0
  0
LINE
  5
289
330
20
100
AcDbEntity
  8
_0-0_LAYER001
  6
Continuous
 62
     4
100
AcDbLine
 10
1394.6749
 20
1146.1546
 30
0.0
 11
1397.1249
 21
1146.5527
 31
0.0
  0
LINE
  5
28A
330
20
100
AcDbEntity
  8
_0-0_LAYER001
  6
Continuous
 62
     4
100
AcDbLine
 10
1397.1249
 20
1146.5527
 30
0.0
 11
1401.3299
 21
1147.24
 31
0.0
  0
LINE
  5
28B
330
20
100
AcDbEntity
  8
_0-0_LAYER001
  6
Continuous
 62
     4
100
AcDbLine
 10
1401.3299
 20
1147.24
 30
0.0
 11
1405.5322
 21
1147.9312
 31
0.0
  0
LINE
  5
28C
330
20
100
AcDbEntity
  8
_0-0_LAYER001
  6
Continuous
 62
     4
100
AcDbLine
 10
1405.5322
 20
1147.9312
 30
0.0
 11
1409.7296
 21
1148.625
 31
0.0
  0
LINE
  5
28D
330
20
100
AcDbEntity
  8
_0-0_LAYER001
  6
Continuous
 62
     4
100
AcDbLine
 10
1409.7296
 20
1148.625
 30
0.0
 11
1413.9225
 21
1149.3204
 31
0.0
  0
LINE
  5
28E
330
20
100
AcDbEntity
  8
_0-0_LAYER001
  6
Continuous
 62
     4
100
AcDbLine
 10
1413.9225
 20
1149.3204
 30
0.0
 11
1418.1111
 21
1150.0166
 31
0.0
  0
LINE
  5
28F
330
20
100
AcDbEntity
  8
_0-0_LAYER001
  6
Continuous
 62
     4
100
AcDbLine
 10
1418.1111
 20
1150.0166
 30
0.0
 11
1419.7252
 21
1150.2851
 31
0.0
  0
ARC
  5
290
330
20
100
AcDbEntity
  8
_0-0_LAYER001
  6
Continuous
 62
     4
100
AcDbCircle
 10
1453.960799999999
 20
1176.0822
 30
0.0
 40
3.0
100
AcDbArc
 50
103.0288
 51
179.4999999999999
  0
LINE
  5
291
330
20
100
AcDbEntity
  8
_0-0_LAYER001
  6
Continuous
 62
     4
100
AcDbLine
 10
1166.0345
 20
1170.1076
 30
0.0
 11
1172.4268
 21
1172.6297
 31
0.0
  0
ARC
  5
292
330
20
100
AcDbEntity
  8
_0-0_LAYER001
  6
Continuous
 62
     4
100
AcDbCircle
 10
1165.6675
 20
1171.0378
 30
0.0
 40
1.0
100
AcDbArc
 50
179.5
 51
291.53166
  0
LINE
  5
293
330
20
100
AcDbEntity
  8
_0-0_LAYER001
  6
Continuous
 62
     4
100
AcDbLine
 10
1458.5248
 20
1180.2176
 30
0.0
 11
1453.2845
 21
1179.005
 31
0.0
  0
ARC
  5
294
330
20
100
AcDbEntity
  8
_0-0_LAYER001
  6
Continuous
 62
     4
100
AcDbCircle
 10
1458.7503
 20
1179.2433
 30
0.0
 40
1.0
100
AcDbArc
 50
359.5000000000001
 51
103.0288
  0
LINE
  5
295
330
20
100
AcDbEntity
  8
_0-0_LAYER001
  6
Continuous
 62
     4
100
AcDbLine
 10
1420.9099
 20
1148.5472
 30
0.0
 11
1451.2236
 21
1155.6412
 31
0.0
  0
ARC
  5
296
330
20
100
AcDbEntity
  8
_0-0_LAYER001
  6
Continuous
 62
     4
100
AcDbCircle
 10
1458.5644
 20
1157.9505
 30
0.0
 40
1.0
100
AcDbArc
 50
359.5000000000001
 51
103.08296
  0
LINE
  5
297
330
20
100
AcDbEntity
  8
_0-0_LAYER001
  6
Continuous
 62
     4
100
AcDbLine
 10
1452.0046
 20
1157.4526
 30
0.0
 11
1458.3381
 21
1158.9245
 31
0.0
  0
LINE
  5
298
330
20
100
AcDbEntity
  8
_0-0_LAYER001
  6
Continuous
 62
     4
100
AcDbLine
 10
1451.231
 20
1156.4873
 30
0.0
 11
1451.2236
 21
1155.6412
 31
0.0
  0
ARC
  5
299
330
20
100
AcDbEntity
  8
_0-0_LAYER001
  6
Continuous
 62
     4
100
AcDbCircle
 10
1452.231
 20
1156.4786
 30
0.0
 40
1.0
100
AcDbArc
 50
103.08296
 51
179.5
  0
ARC
  5
29A
330
20
100
AcDbEntity
  8
_0-0_LAYER001
  6
Continuous
 62
     4
100
AcDbCircle
 10
1458.5844
 20
1160.2336
 30
0.0
 40
1.0
100
AcDbArc
 50
283.04497
 51
359.5000000000001
  0
LINE
  5
29B
330
20
100
AcDbEntity
  8
_0-0_LAYER001
  6
Continuous
 62
     4
100
AcDbLine
 10
1418.4392
 20
1148.0437
 30
0.0
 11
1420.8673
 21
1148.4475
 31
0.0
  0
LINE
  5
29C
330
20
100
AcDbEntity
  8
_0-0_LAYER001
  6
Continuous
 62
     4
100
AcDbLine
 10
1414.250099999999
 20
1147.3474
 30
0.0
 11
1418.4392
 21
1148.0437
 31
0.0
  0
LINE
  5
29D
330
20
100
AcDbEntity
  8
_0-0_LAYER001
  6
Continuous
 62
     4
100
AcDbLine
 10
1410.0563
 20
1146.6518
 30
0.0
 11
1414.250099999999
 21
1147.3474
 31
0.0
  0
LINE
  5
29E
330
20
100
AcDbEntity
  8
_0-0_LAYER001
  6
Continuous
 62
     4
100
AcDbLine
 10
1405.8575
 20
1145.9579
 30
0.0
 11
1410.0563
 21
1146.6518
 31
0.0
  0
LINE
  5
29F
330
20
100
AcDbEntity
  8
_0-0_LAYER001
  6
Continuous
 62
     4
100
AcDbLine
 10
1401.6535
 20
1145.2664
 30
0.0
 11
1405.8575
 21
1145.9579
 31
0.0
  0
LINE
  5
2A0
330
20
100
AcDbEntity
  8
_0-0_LAYER001
  6
Continuous
 62
     4
100
AcDbLine
 10
1397.4467
 20
1144.5787
 30
0.0
 11
1401.6535
 21
1145.2664
 31
0.0
  0
LINE
  5
2A1
330
20
100
AcDbEntity
  8
_0-0_LAYER001
  6
Continuous
 62
     4
100
AcDbLine
 10
1394.9944
 20
1144.1802
 30
0.0
 11
1397.4467
 21
1144.5787
 31
0.0
  0
LINE
  5
2A2
330
20
100
AcDbEntity
  8
_0-0_LAYER001
  6
Continuous
 62
     4
100
AcDbLine
 10
1390.2616
 20
1143.4178
 30
0.0
 11
1394.9944
 21
1144.1802
 31
0.0
  0
LINE
  5
2A3
330
20
100
AcDbEntity
  8
_0-0_LAYER001
  6
Continuous
 62
     4
100
AcDbLine
 10
1382.057199999999
 20
1142.1339
 30
0.0
 11
1390.2616
 21
1143.4178
 31
0.0
  0
LINE
  5
2A4
330
20
100
AcDbEntity
  8
_0-0_LAYER001
  6
Continuous
 62
     4
100
AcDbLine
 10
1373.7497
 20
1140.9141
 30
0.0
 11
1382.057199999999
 21
1142.1339
 31
0.0
  0
LINE
  5
2A5
330
20
100
AcDbEntity
  8
_0-0_LAYER001
  6
Continuous
 62
     4
100
AcDbLine
 10
1365.3414
 20
1139.7977
 30
0.0
 11
1373.7497
 21
1140.9141
 31
0.0
  0
LINE
  5
2A6
330
20
100
AcDbEntity
  8
_0-0_LAYER001
  6
Continuous
 62
     4
100
AcDbLine
 10
1356.8288
 20
1138.8243
 30
0.0
 11
1365.3414
 21
1139.7977
 31
0.0
  0
LINE
  5
2A7
330
20
100
AcDbEntity
  8
_0-0_LAYER001
  6
Continuous
 62
     4
100
AcDbLine
 10
1348.2697
 20
1138.0403
 30
0.0
 11
1356.8288
 21
1138.8243
 31
0.0
  0
LINE
  5
2A8
330
20
100
AcDbEntity
  8
_0-0_LAYER001
  6
Continuous
 62
     4
100
AcDbLine
 10
1343.2082
 20
1137.6823
 30
0.0
 11
1348.2697
 21
1138.0403
 31
0.0
  0
LINE
  5
2A9
330
20
100
AcDbEntity
  8
_0-0_LAYER001
  6
Continuous
 62
     4
100
AcDbLine
 10
1340.4056
 20
1137.5207
 30
0.0
 11
1343.2082
 21
1137.6823
 31
0.0
  0
LINE
  5
2AA
330
20
100
AcDbEntity
  8
_0-0_LAYER001
  6
Continuous
 62
     4
100
AcDbLine
 10
1335.6845
 20
1137.3168
 30
0.0
 11
1340.4056
 21
1137.5207
 31
0.0
  0
LINE
  5
2AB
330
20
100
AcDbEntity
  8
_0-0_LAYER001
  6
Continuous
 62
     4
100
AcDbLine
 10
1330.8553
 20
1137.2113
 30
0.0
 11
1335.6845
 21
1137.3168
 31
0.0
  0
LINE
  5
2AC
330
20
100
AcDbEntity
  8
_0-0_LAYER001
  6
Continuous
 62
     4
100
AcDbLine
 10
1325.9537
 20
1137.2267
 30
0.0
 11
1330.8553
 21
1137.2113
 31
0.0
  0
LINE
  5
2AD
330
20
100
AcDbEntity
  8
_0-0_LAYER001
  6
Continuous
 62
     4
100
AcDbLine
 10
1320.9827
 20
1137.3845
 30
0.0
 11
1325.9537
 21
1137.2267
 31
0.0
  0
LINE
  5
2AE
330
20
100
AcDbEntity
  8
_0-0_LAYER001
  6
Continuous
 62
     4
100
AcDbLine
 10
1316.0253
 20
1137.7023
 30
0.0
 11
1320.9827
 21
1137.3845
 31
0.0
  0
LINE
  5
2AF
330
20
100
AcDbEntity
  8
_0-0_LAYER001
  6
Continuous
 62
     4
100
AcDbLine
 10
1312.9736
 20
1137.9837
 30
0.0
 11
1316.0253
 21
1137.7023
 31
0.0
  0
LINE
  5
2B0
330
20
100
AcDbEntity
  8
_0-0_LAYER001
  6
Continuous
 62
     4
100
AcDbLine
 10
1309.044799999999
 20
1138.446
 30
0.0
 11
1312.9736
 21
1137.9837
 31
0.0
  0
LINE
  5
2B1
330
20
100
AcDbEntity
  8
_0-0_LAYER001
  6
Continuous
 62
     4
100
AcDbLine
 10
1302.5308
 20
1139.4685
 30
0.0
 11
1309.044799999999
 21
1138.446
 31
0.0
  0
LINE
  5
2B2
330
20
100
AcDbEntity
  8
_0-0_LAYER001
  6
Continuous
 62
     4
100
AcDbLine
 10
1295.9842
 20
1140.8207
 30
0.0
 11
1302.5308
 21
1139.4685
 31
0.0
  0
LINE
  5
2B3
330
20
100
AcDbEntity
  8
_0-0_LAYER001
  6
Continuous
 62
     4
100
AcDbLine
 10
1289.5213
 20
1142.4765
 30
0.0
 11
1295.9842
 21
1140.8207
 31
0.0
  0
LINE
  5
2B4
330
20
100
AcDbEntity
  8
_0-0_LAYER001
  6
Continuous
 62
     4
100
AcDbLine
 10
1283.1553
 20
1144.4272
 30
0.0
 11
1289.5213
 21
1142.4765
 31
0.0
  0
LINE
  5
2B5
330
20
100
AcDbEntity
  8
_0-0_LAYER001
  6
Continuous
 62
     4
100
AcDbLine
 10
1276.9906
 20
1146.6322
 30
0.0
 11
1283.1553
 21
1144.4272
 31
0.0
  0
LINE
  5
2B6
330
20
100
AcDbEntity
  8
_0-0_LAYER001
  6
Continuous
 62
     4
100
AcDbLine
 10
1273.3039
 20
1148.104
 30
0.0
 11
1276.9906
 21
1146.6322
 31
0.0
  0
LINE
  5
2B7
330
20
100
AcDbEntity
  8
_0-0_LAYER001
  6
Continuous
 62
     4
100
AcDbLine
 10
1268.9396
 20
1149.9965
 30
0.0
 11
1273.3039
 21
1148.104
 31
0.0
  0
LINE
  5
2B8
330
20
100
AcDbEntity
  8
_0-0_LAYER001
  6
Continuous
 62
     4
100
AcDbLine
 10
1261.8706
 20
1153.4115
 30
0.0
 11
1268.9396
 21
1149.9965
 31
0.0
  0
LINE
  5
2B9
330
20
100
AcDbEntity
  8
_0-0_LAYER001
  6
Continuous
 62
     4
100
AcDbLine
 10
1254.9777
 20
1157.1411
 30
0.0
 11
1261.8706
 21
1153.4115
 31
0.0
  0
LINE
  5
2BA
330
20
100
AcDbEntity
  8
_0-0_LAYER001
  6
Continuous
 62
     4
100
AcDbLine
 10
1248.3407
 20
1161.0747
 30
0.0
 11
1254.9777
 21
1157.1411
 31
0.0
  0
LINE
  5
2BB
330
20
100
AcDbEntity
  8
_0-0_LAYER001
  6
Continuous
 62
     4
100
AcDbLine
 10
1241.9314
 20
1165.1572
 30
0.0
 11
1248.3407
 21
1161.0747
 31
0.0
  0
LINE
  5
2BC
330
20
100
AcDbEntity
  8
_0-0_LAYER001
  6
Continuous
 62
     4
100
AcDbLine
 10
1235.7471
 20
1169.3193
 30
0.0
 11
1241.9314
 21
1165.1572
 31
0.0
  0
LINE
  5
2BD
330
20
100
AcDbEntity
  8
_0-0_LAYER001
  6
Continuous
 62
     4
100
AcDbLine
 10
1232.2048
 20
1171.783
 30
0.0
 11
1235.7471
 21
1169.3193
 31
0.0
  0
LINE
  5
2BE
330
20
100
AcDbEntity
  8
_0-0_LAYER001
  6
Continuous
 62
     4
100
AcDbLine
 10
1229.9728
 20
1173.3565
 30
0.0
 11
1232.2048
 21
1171.783
 31
0.0
  0
LINE
  5
2BF
330
20
100
AcDbEntity
  8
_0-0_LAYER001
  6
Continuous
 62
     4
100
AcDbLine
 10
1226.3492
 20
1175.8957
 30
0.0
 11
1229.9728
 21
1173.3565
 31
0.0
  0
LINE
  5
2C0
330
20
100
AcDbEntity
  8
_0-0_LAYER001
  6
Continuous
 62
     4
100
AcDbLine
 10
1222.9796
 20
1178.1612
 30
0.0
 11
1226.3492
 21
1175.8957
 31
0.0
  0
LINE
  5
2C1
330
20
100
AcDbEntity
  8
_0-0_LAYER001
  6
Continuous
 62
     4
100
AcDbLine
 10
1219.8646
 20
1180.0883
 30
0.0
 11
1222.9796
 21
1178.1612
 31
0.0
  0
LINE
  5
2C2
330
20
100
AcDbEntity
  8
_0-0_LAYER001
  6
Continuous
 62
     4
100
AcDbLine
 10
1216.9974
 20
1181.644
 30
0.0
 11
1219.8646
 21
1180.0883
 31
0.0
  0
LINE
  5
2C3
330
20
100
AcDbEntity
  8
_0-0_LAYER001
  6
Continuous
 62
     4
100
AcDbLine
 10
1214.1663
 20
1182.9125
 30
0.0
 11
1216.9974
 21
1181.644
 31
0.0
  0
LINE
  5
2C4
330
20
100
AcDbEntity
  8
_0-0_LAYER001
  6
Continuous
 62
     4
100
AcDbLine
 10
1212.7031
 20
1183.4446
 30
0.0
 11
1214.1663
 21
1182.9125
 31
0.0
  0
LINE
  5
2C5
330
20
100
AcDbEntity
  8
_0-0_LAYER001
  6
Continuous
 62
     4
100
AcDbLine
 10
1212.522
 20
1183.5025
 30
0.0
 11
1212.7031
 21
1183.4446
 31
0.0
  0
LINE
  5
2C6
330
20
100
AcDbEntity
  8
_0-0_LAYER001
  6
Continuous
 62
     4
100
AcDbLine
 10
1211.7337
 20
1183.7305
 30
0.0
 11
1212.522
 21
1183.5025
 31
0.0
  0
LINE
  5
2C7
330
20
100
AcDbEntity
  8
_0-0_LAYER001
  6
Continuous
 62
     4
100
AcDbLine
 10
1211.0765
 20
1183.8932
 30
0.0
 11
1211.7337
 21
1183.7305
 31
0.0
  0
LINE
  5
2C8
330
20
100
AcDbEntity
  8
_0-0_LAYER001
  6
Continuous
 62
     4
100
AcDbLine
 10
1210.4947
 20
1184.0112
 30
0.0
 11
1211.0765
 21
1183.8932
 31
0.0
  0
LINE
  5
2C9
330
20
100
AcDbEntity
  8
_0-0_LAYER001
  6
Continuous
 62
     4
100
AcDbLine
 10
1210.4547
 20
1184.0174
 30
0.0
 11
1210.4947
 21
1184.0112
 31
0.0
  0
LINE
  5
2CA
330
20
100
AcDbEntity
  8
_0-0_LAYER001
  6
Continuous
 62
     4
100
AcDbLine
 10
1414.4285
 20
1128.8562
 30
0.0
 11
1416.0426
 21
1129.1247
 31
0.0
  0
LINE
  5
2CB
330
20
100
AcDbEntity
  8
_0-0_LAYER001
  6
Continuous
 62
     4
100
AcDbLine
 10
1410.24
 20
1128.16
 30
0.0
 11
1414.4285
 21
1128.8562
 31
0.0
  0
LINE
  5
2CC
330
20
100
AcDbEntity
  8
_0-0_LAYER001
  6
Continuous
 62
     4
100
AcDbLine
 10
1406.047
 20
1127.4646
 30
0.0
 11
1410.24
 21
1128.16
 31
0.0
  0
LINE
  5
2CD
330
20
100
AcDbEntity
  8
_0-0_LAYER001
  6
Continuous
 62
     4
100
AcDbLine
 10
1401.8496
 20
1126.7708
 30
0.0
 11
1406.047
 21
1127.4646
 31
0.0
  0
LINE
  5
2CE
330
20
100
AcDbEntity
  8
_0-0_LAYER001
  6
Continuous
 62
     4
100
AcDbLine
 10
1397.6473
 20
1126.0796
 30
0.0
 11
1401.8496
 21
1126.7708
 31
0.0
  0
LINE
  5
2CF
330
20
100
AcDbEntity
  8
_0-0_LAYER001
  6
Continuous
 62
     4
100
AcDbLine
 10
1393.4424
 20
1125.3923
 30
0.0
 11
1397.6473
 21
1126.0796
 31
0.0
  0
LINE
  5
2D0
330
20
100
AcDbEntity
  8
_0-0_LAYER001
  6
Continuous
 62
     4
100
AcDbLine
 10
1390.9923
 20
1124.9942
 30
0.0
 11
1393.4424
 21
1125.3923
 31
0.0
  0
LINE
  5
2D1
330
20
100
AcDbEntity
  8
_0-0_LAYER001
  6
Continuous
 62
     4
100
AcDbLine
 10
1386.2654
 20
1124.2326
 30
0.0
 11
1390.9923
 21
1124.9942
 31
0.0
  0
LINE
  5
2D2
330
20
100
AcDbEntity
  8
_0-0_LAYER001
  6
Continuous
 62
     4
100
AcDbLine
 10
1378.0747
 20
1122.9509
 30
0.0
 11
1386.2654
 21
1124.2326
 31
0.0
  0
LINE
  5
2D3
330
20
100
AcDbEntity
  8
_0-0_LAYER001
  6
Continuous
 62
     4
100
AcDbLine
 10
1369.7902
 20
1121.7345
 30
0.0
 11
1378.0747
 21
1122.9509
 31
0.0
  0
LINE
  5
2D4
330
20
100
AcDbEntity
  8
_0-0_LAYER001
  6
Continuous
 62
     4
100
AcDbLine
 10
1361.4136
 20
1120.6223
 30
0.0
 11
1369.7902
 21
1121.7345
 31
0.0
  0
LINE
  5
2D5
330
20
100
AcDbEntity
  8
_0-0_LAYER001
  6
Continuous
 62
     4
100
AcDbLine
 10
1352.9414
 20
1119.6535
 30
0.0
 11
1361.4136
 21
1120.6223
 31
0.0
  0
LINE
  5
2D6
330
20
100
AcDbEntity
  8
_0-0_LAYER001
  6
Continuous
 62
     4
100
AcDbLine
 10
1344.4253
 20
1118.8735
 30
0.0
 11
1352.9414
 21
1119.6535
 31
0.0
  0
LINE
  5
2D7
330
20
100
AcDbEntity
  8
_0-0_LAYER001
  6
Continuous
 62
     4
100
AcDbLine
 10
1339.3975
 20
1118.5179
 30
0.0
 11
1344.4253
 21
1118.8735
 31
0.0
  0
LINE
  5
2D8
330
20
100
AcDbEntity
  8
_0-0_LAYER001
  6
Continuous
 62
     4
100
AcDbLine
 10
1336.6223
 20
1118.3578
 30
0.0
 11
1339.3975
 21
1118.5179
 31
0.0
  0
LINE
  5
2D9
330
20
100
AcDbEntity
  8
_0-0_LAYER001
  6
Continuous
 62
     4
100
AcDbLine
 10
1331.937
 20
1118.1554
 30
0.0
 11
1336.6223
 21
1118.3578
 31
0.0
  0
LINE
  5
2DA
330
20
100
AcDbEntity
  8
_0-0_LAYER001
  6
Continuous
 62
     4
100
AcDbLine
 10
1327.154
 20
1118.051
 30
0.0
 11
1331.937
 21
1118.1554
 31
0.0
  0
LINE
  5
2DB
330
20
100
AcDbEntity
  8
_0-0_LAYER001
  6
Continuous
 62
     4
100
AcDbLine
 10
1322.306
 20
1118.0662
 30
0.0
 11
1327.154
 21
1118.051
 31
0.0
  0
LINE
  5
2DC
330
20
100
AcDbEntity
  8
_0-0_LAYER001
  6
Continuous
 62
     4
100
AcDbLine
 10
1317.3958
 20
1118.2221
 30
0.0
 11
1322.306
 21
1118.0662
 31
0.0
  0
LINE
  5
2DD
330
20
100
AcDbEntity
  8
_0-0_LAYER001
  6
Continuous
 62
     4
100
AcDbLine
 10
1312.498499999999
 20
1118.536
 30
0.0
 11
1317.3958
 21
1118.2221
 31
0.0
  0
LINE
  5
2DE
330
20
100
AcDbEntity
  8
_0-0_LAYER001
  6
Continuous
 62
     4
100
AcDbLine
 10
1309.4998
 20
1118.8126
 30
0.0
 11
1312.498499999999
 21
1118.536
 31
0.0
  0
LINE
  5
2DF
330
20
100
AcDbEntity
  8
_0-0_LAYER001
  6
Continuous
 62
     4
100
AcDbLine
 10
1305.6342
 20
1119.2674
 30
0.0
 11
1309.4998
 21
1118.8126
 31
0.0
  0
LINE
  5
2E0
330
20
100
AcDbEntity
  8
_0-0_LAYER001
  6
Continuous
 62
     4
100
AcDbLine
 10
1299.2058
 20
1120.2765
 30
0.0
 11
1305.6342
 21
1119.2674
 31
0.0
  0
LINE
  5
2E1
330
20
100
AcDbEntity
  8
_0-0_LAYER001
  6
Continuous
 62
     4
100
AcDbLine
 10
1292.7523
 20
1121.6094
 30
0.0
 11
1299.2058
 21
1120.2765
 31
0.0
  0
LINE
  5
2E2
330
20
100
AcDbEntity
  8
_0-0_LAYER001
  6
Continuous
 62
     4
100
AcDbLine
 10
1286.3802
 20
1123.242
 30
0.0
 11
1292.7523
 21
1121.6094
 31
0.0
  0
LINE
  5
2E3
330
20
100
AcDbEntity
  8
_0-0_LAYER001
  6
Continuous
 62
     4
100
AcDbLine
 10
1280.1028
 20
1125.1656
 30
0.0
 11
1286.3802
 21
1123.242
 31
0.0
  0
LINE
  5
2E4
330
20
100
AcDbEntity
  8
_0-0_LAYER001
  6
Continuous
 62
     4
100
AcDbLine
 10
1274.0158
 20
1127.3427
 30
0.0
 11
1280.1028
 21
1125.1656
 31
0.0
  0
LINE
  5
2E5
330
20
100
AcDbEntity
  8
_0-0_LAYER001
  6
Continuous
 62
     4
100
AcDbLine
 10
1270.3901
 20
1128.7901
 30
0.0
 11
1274.0158
 21
1127.3427
 31
0.0
  0
LINE
  5
2E6
330
20
100
AcDbEntity
  8
_0-0_LAYER001
  6
Continuous
 62
     4
100
AcDbLine
 10
1266.0902
 20
1130.6547
 30
0.0
 11
1270.3901
 21
1128.7901
 31
0.0
  0
LINE
  5
2E7
330
20
100
AcDbEntity
  8
_0-0_LAYER001
  6
Continuous
 62
     4
100
AcDbLine
 10
1259.0994
 20
1134.0319
 30
0.0
 11
1266.0902
 21
1130.6547
 31
0.0
  0
LINE
  5
2E8
330
20
100
AcDbEntity
  8
_0-0_LAYER001
  6
Continuous
 62
     4
100
AcDbLine
 10
1252.2812
 20
1137.7211
 30
0.0
 11
1259.0994
 21
1134.0319
 31
0.0
  0
LINE
  5
2E9
330
20
100
AcDbEntity
  8
_0-0_LAYER001
  6
Continuous
 62
     4
100
AcDbLine
 10
1245.7055
 20
1141.6185
 30
0.0
 11
1252.2812
 21
1137.7211
 31
0.0
  0
LINE
  5
2EA
330
20
100
AcDbEntity
  8
_0-0_LAYER001
  6
Continuous
 62
     4
100
AcDbLine
 10
1239.3445
 20
1145.6701
 30
0.0
 11
1245.7055
 21
1141.6185
 31
0.0
  0
LINE
  5
2EB
330
20
100
AcDbEntity
  8
_0-0_LAYER001
  6
Continuous
 62
     4
100
AcDbLine
 10
1233.194
 20
1149.8096
 30
0.0
 11
1239.3445
 21
1145.6701
 31
0.0
  0
LINE
  5
2EC
330
20
100
AcDbEntity
  8
_0-0_LAYER001
  6
Continuous
 62
     4
100
AcDbLine
 10
1229.6694
 20
1152.2609
 30
0.0
 11
1233.194
 21
1149.8096
 31
0.0
  0
LINE
  5
2ED
330
20
100
AcDbEntity
  8
_0-0_LAYER001
  6
Continuous
 62
     4
100
AcDbLine
 10
1227.4403
 20
1153.8324
 30
0.0
 11
1229.6694
 21
1152.2609
 31
0.0
  0
LINE
  5
2EE
330
20
100
AcDbEntity
  8
_0-0_LAYER001
  6
Continuous
 62
     4
100
AcDbLine
 10
1223.7986
 20
1156.3843
 30
0.0
 11
1227.4403
 21
1153.8324
 31
0.0
  0
LINE
  5
2EF
330
20
100
AcDbEntity
  8
_0-0_LAYER001
  6
Continuous
 62
     4
100
AcDbLine
 10
1220.3815
 20
1158.6817
 30
0.0
 11
1223.7986
 21
1156.3843
 31
0.0
  0
LINE
  5
2F0
330
20
100
AcDbEntity
  8
_0-0_LAYER001
  6
Continuous
 62
     4
100
AcDbLine
 10
1217.1858
 20
1160.6586
 30
0.0
 11
1220.3815
 21
1158.6817
 31
0.0
  0
LINE
  5
2F1
330
20
100
AcDbEntity
  8
_0-0_LAYER001
  6
Continuous
 62
     4
100
AcDbLine
 10
1214.2019
 20
1162.2777
 30
0.0
 11
1217.1858
 21
1160.6586
 31
0.0
  0
LINE
  5
2F2
330
20
100
AcDbEntity
  8
_0-0_LAYER001
  6
Continuous
 62
     4
100
AcDbLine
 10
1211.2353
 20
1163.6069
 30
0.0
 11
1214.2019
 21
1162.2777
 31
0.0
  0
LINE
  5
2F3
330
20
100
AcDbEntity
  8
_0-0_LAYER001
  6
Continuous
 62
     4
100
AcDbLine
 10
1210.4854
 20
1163.8796
 30
0.0
 11
1211.2353
 21
1163.6069
 31
0.0
  0
LINE
  5
2F4
330
20
100
AcDbEntity
  8
_0-0_LAYER001
  6
Continuous
 62
     4
100
AcDbLine
 10
1210.8184
 20
1183.9227
 30
0.0
 11
1210.6424
 21
1163.7493
 31
0.0
  0
LINE
  5
2F5
330
20
100
AcDbEntity
  8
_0-0_LAYER001
  6
Continuous
 62
     4
100
AcDbLine
 10
1458.6325
 20
1138.9111
 30
0.0
 11
1415.8123
 21
1128.9899
 31
0.0
  0
ARC
  5
2F6
330
20
100
AcDbEntity
  8
_0-0_LAYER001
  6
Continuous
 62
     4
100
AcDbCircle
 10
1458.4068
 20
1139.8853
 30
0.0
 40
1.0
100
AcDbArc
 50
283.04497
 51
359.5000000000001
  0
LINE
  5
2F7
330
20
100
AcDbEntity
  8
_0-0_LAYER001
  6
Continuous
 62
     4
100
AcDbLine
 10
1411.321399999999
 20
1118.6764
 30
0.0
 11
1409.076
 21
1127.2498
 31
0.0
  0
ARC
  5
2F8
330
20
100
AcDbEntity
  8
_0-0_LAYER001
  6
Continuous
 62
     4
100
AcDbCircle
 10
1414.2235
 20
1119.4365
 30
0.0
 40
3.0
100
AcDbArc
 50
194.67639
 51
270.0000000000001
  0
LINE
  5
2F9
330
20
100
AcDbEntity
  8
_0-0_LAYER001
  6
Continuous
 62
     4
100
AcDbLine
 10
1417.6414
 20
1116.4365
 30
0.0
 11
1414.2235
 21
1116.4365
 31
0.0
  0
LINE
  5
2FA
330
20
100
AcDbEntity
  8
_0-0_LAYER001
  6
Continuous
 62
     4
100
AcDbLine
 10
1420.6005
 20
1118.9433
 30
0.0
 11
1422.5346
 21
1130.5474
 31
0.0
  0
ARC
  5
2FB
330
20
100
AcDbEntity
  8
_0-0_LAYER001
  6
Continuous
 62
     4
100
AcDbCircle
 10
1417.6414
 20
1119.4365
 30
0.0
 40
3.0
100
AcDbArc
 50
270.0
 51
350.53767
  0
LINE
  5
2FC
330
20
100
AcDbEntity
  8
_0-0_LAYER001
  6
Continuous
 62
     4
100
AcDbLine
 10
1164.7344
 20
1187.5847
 30
0.0
 11
1164.7344
 21
1171.0522
 31
0.0
  0
LINE
  5
2FD
330
20
100
AcDbEntity
  8
_0-0_LAYER001
  6
Continuous
 62
     4
100
AcDbLine
 10
1165.9933
 20
1189.4423
 30
0.0
 11
1167.1184
 21
1189.8911
 31
0.0
  0
ARC
  5
2FE
330
20
100
AcDbEntity
  8
_0-0_LAYER001
  6
Continuous
 62
     4
100
AcDbCircle
 10
1166.7344
 20
1187.5847
 30
0.0
 40
2.0
100
AcDbArc
 50
111.74902
 51
180.0
  0
LINE
  5
2FF
330
20
100
AcDbEntity
  8
_0-0_LAYER001
  6
Continuous
 62
     4
100
AcDbLine
 10
1458.8101
 20
1159.2594
 30
0.0
 11
1419.7344
 21
1150.2058
 31
0.0
  0
LINE
  5
300
330
20
100
AcDbEntity
  8
_0-0_LAYER001
  6
Continuous
 62
     4
100
AcDbLine
 10
1419.7344
 20
1168.6826
 30
0.0
 11
1419.7344
 21
1150.2058
 31
0.0
  0
LINE
  5
301
330
20
100
AcDbEntity
  8
_0-0_LAYER001
  6
Continuous
 62
     4
100
AcDbLine
 10
1417.7101
 20
1168.2136
 30
0.0
 11
1450.9593
 21
1175.9173
 31
0.0
  0
LINE
  5
302
330
20
100
AcDbEntity
  8
_0-0_LAYER001
  6
Continuous
 62
     4
100
AcDbLine
 10
1459.6708
 20
1179.2914
 30
0.0
 11
1459.6708
 21
1160.2113
 31
0.0
  0
LINE
  5
303
330
20
100
AcDbEntity
  8
_0-0_LAYER001
  6
Continuous
 62
     4
100
AcDbLine
 10
1459.7782
 20
1158.2244
 30
0.0
 11
1459.7782
 21
1140.0533
 31
0.0
  0
LINE
  5
304
330
20
100
AcDbEntity
  8
_0-0_LAYER001
  6
Continuous
 62
     4
100
AcDbLine
 10
1541.7442
 20
1109.1382
 30
0.0
 11
1533.2087
 21
1123.6716
 31
0.0
  0
LINE
  5
305
330
20
100
AcDbEntity
  8
_0-0_LAYER001
  6
Continuous
 62
     4
100
AcDbLine
 10
1549.9121
 20
1108.4879
 30
0.0
 11
1558.2183
 21
1118.5534
 31
0.0
  0
ARC
  5
306
330
20
100
AcDbEntity
  8
_0-0_LAYER001
  6
Continuous
 62
     4
100
AcDbCircle
 10
1546.0556
 20
1111.6703
 30
0.0
 40
5.0
100
AcDbArc
 50
210.42578
 51
320.47001
  0
LINE
  5
307
330
20
100
AcDbEntity
  8
_0-0_LAYER001
  6
Continuous
 62
     4
100
AcDbLine
 10
1625.8577
 20
1108.0181
 30
0.0
 11
1618.5323
 21
1119.3241
 31
0.0
  0
LINE
  5
308
330
20
100
AcDbEntity
  8
_0-0_LAYER001
  6
Continuous
 62
     4
100
AcDbLine
 10
1634.367199999999
 20
1108.208
 30
0.0
 11
1643.3056
 21
1123.4537
 31
0.0
  0
ARC
  5
309
330
20
100
AcDbEntity
  8
_0-0_LAYER001
  6
Continuous
 62
     4
100
AcDbCircle
 10
1630.0539
 20
1110.7369
 30
0.0
 40
5.0
100
AcDbArc
 50
212.93986
 51
329.61716
  0
ARC
  5
30A
330
20
100
AcDbEntity
  8
_0-0_LAYER001
  6
Continuous
 62
     4
100
AcDbCircle
 10
1709.1709
 20
1175.8042
 30
0.0
 40
3.0
100
AcDbArc
 50
103.0288
 51
179.4999999999999
  0
LINE
  5
30B
330
20
100
AcDbEntity
  8
_0-0_LAYER001
  6
Continuous
 62
     4
100
AcDbLine
 10
1421.2446
 20
1169.8296
 30
0.0
 11
1427.6369
 21
1172.3516
 31
0.0
  0
ARC
  5
30C
330
20
100
AcDbEntity
  8
_0-0_LAYER001
  6
Continuous
 62
     4
100
AcDbCircle
 10
1420.8776
 20
1170.7598
 30
0.0
 40
1.0
100
AcDbArc
 50
179.5
 51
291.53166
  0
LINE
  5
30D
330
20
100
AcDbEntity
  8
_0-0_LAYER001
  6
Continuous
 62
     4
100
AcDbLine
 10
1713.7349
 20
1179.9395
 30
0.0
 11
1708.4946
 21
1178.727
 31
0.0
  0
ARC
  5
30E
330
20
100
AcDbEntity
  8
_0-0_LAYER001
  6
Continuous
 62
     4
100
AcDbCircle
 10
1713.9603
 20
1178.9653
 30
0.0
 40
1.0
100
AcDbArc
 50
359.5000000000001
 51
103.0288
  0
LINE
  5
30F
330
20
100
AcDbEntity
  8
_0-0_LAYER001
  6
Continuous
 62
     4
100
AcDbLine
 10
1676.12
 20
1148.2691
 30
0.0
 11
1706.4337
 21
1155.3631
 31
0.0
  0
ARC
  5
310
330
20
100
AcDbEntity
  8
_0-0_LAYER001
  6
Continuous
 62
     4
100
AcDbCircle
 10
1713.7745
 20
1157.6724
 30
0.0
 40
1.0
100
AcDbArc
 50
359.5000000000001
 51
103.08296
  0
LINE
  5
311
330
20
100
AcDbEntity
  8
_0-0_LAYER001
  6
Continuous
 62
     4
100
AcDbLine
 10
1707.2147
 20
1157.1746
 30
0.0
 11
1713.5482
 21
1158.6465
 31
0.0
  0
LINE
  5
312
330
20
100
AcDbEntity
  8
_0-0_LAYER001
  6
Continuous
 62
     4
100
AcDbLine
 10
1706.4411
 20
1156.2093
 30
0.0
 11
1706.4337
 21
1155.3631
 31
0.0
  0
ARC
  5
313
330
20
100
AcDbEntity
  8
_0-0_LAYER001
  6
Continuous
 62
     4
100
AcDbCircle
 10
1707.441
 20
1156.2006
 30
0.0
 40
1.0
100
AcDbArc
 50
103.08296
 51
179.5
  0
ARC
  5
314
330
20
100
AcDbEntity
  8
_0-0_LAYER001
  6
Continuous
 62
     4
100
AcDbCircle
 10
1713.7944
 20
1159.9556
 30
0.0
 40
1.0
100
AcDbArc
 50
283.04497
 51
359.5000000000001
  0
LINE
  5
315
330
20
100
AcDbEntity
  8
_0-0_LAYER001
  6
Continuous
 62
     4
100
AcDbLine
 10
1673.6493
 20
1147.7656
 30
0.0
 11
1676.0774
 21
1148.1695
 31
0.0
  0
LINE
  5
316
330
20
100
AcDbEntity
  8
_0-0_LAYER001
  6
Continuous
 62
     4
100
AcDbLine
 10
1669.4602
 20
1147.0694
 30
0.0
 11
1673.6493
 21
1147.7656
 31
0.0
  0
LINE
  5
317
330
20
100
AcDbEntity
  8
_0-0_LAYER001
  6
Continuous
 62
     4
100
AcDbLine
 10
1665.2664
 20
1146.3738
 30
0.0
 11
1669.4602
 21
1147.0694
 31
0.0
  0
LINE
  5
318
330
20
100
AcDbEntity
  8
_0-0_LAYER001
  6
Continuous
 62
     4
100
AcDbLine
 10
1661.0676
 20
1145.6798
 30
0.0
 11
1665.2664
 21
1146.3738
 31
0.0
  0
LINE
  5
319
330
20
100
AcDbEntity
  8
_0-0_LAYER001
  6
Continuous
 62
     4
100
AcDbLine
 10
1656.8636
 20
1144.9883
 30
0.0
 11
1661.0676
 21
1145.6798
 31
0.0
  0
LINE
  5
31A
330
20
100
AcDbEntity
  8
_0-0_LAYER001
  6
Continuous
 62
     4
100
AcDbLine
 10
1652.6567
 20
1144.3007
 30
0.0
 11
1656.8636
 21
1144.9883
 31
0.0
  0
LINE
  5
31B
330
20
100
AcDbEntity
  8
_0-0_LAYER001
  6
Continuous
 62
     4
100
AcDbLine
 10
1650.204499999999
 20
1143.9022
 30
0.0
 11
1652.6567
 21
1144.3007
 31
0.0
  0
LINE
  5
31C
330
20
100
AcDbEntity
  8
_0-0_LAYER001
  6
Continuous
 62
     4
100
AcDbLine
 10
1645.4717
 20
1143.1397
 30
0.0
 11
1650.204499999999
 21
1143.9022
 31
0.0
  0
LINE
  5
31D
330
20
100
AcDbEntity
  8
_0-0_LAYER001
  6
Continuous
 62
     4
100
AcDbLine
 10
1637.2673
 20
1141.8559
 30
0.0
 11
1645.4717
 21
1143.1397
 31
0.0
  0
LINE
  5
31E
330
20
100
AcDbEntity
  8
_0-0_LAYER001
  6
Continuous
 62
     4
100
AcDbLine
 10
1628.9598
 20
1140.636
 30
0.0
 11
1637.2673
 21
1141.8559
 31
0.0
  0
LINE
  5
31F
330
20
100
AcDbEntity
  8
_0-0_LAYER001
  6
Continuous
 62
     4
100
AcDbLine
 10
1620.5515
 20
1139.5196
 30
0.0
 11
1628.9598
 21
1140.636
 31
0.0
  0
LINE
  5
320
330
20
100
AcDbEntity
  8
_0-0_LAYER001
  6
Continuous
 62
     4
100
AcDbLine
 10
1612.0389
 20
1138.5463
 30
0.0
 11
1620.5515
 21
1139.5196
 31
0.0
  0
LINE
  5
321
330
20
100
AcDbEntity
  8
_0-0_LAYER001
  6
Continuous
 62
     4
100
AcDbLine
 10
1603.4798
 20
1137.7623
 30
0.0
 11
1612.0389
 21
1138.5463
 31
0.0
  0
LINE
  5
322
330
20
100
AcDbEntity
  8
_0-0_LAYER001
  6
Continuous
 62
     4
100
AcDbLine
 10
1598.418299999999
 20
1137.4043
 30
0.0
 11
1603.4798
 21
1137.7623
 31
0.0
  0
LINE
  5
323
330
20
100
AcDbEntity
  8
_0-0_LAYER001
  6
Continuous
 62
     4
100
AcDbLine
 10
1595.615699999999
 20
1137.2427
 30
0.0
 11
1598.418299999999
 21
1137.4043
 31
0.0
  0
LINE
  5
324
330
20
100
AcDbEntity
  8
_0-0_LAYER001
  6
Continuous
 62
     4
100
AcDbLine
 10
1590.8946
 20
1137.0387
 30
0.0
 11
1595.615699999999
 21
1137.2427
 31
0.0
  0
LINE
  5
325
330
20
100
AcDbEntity
  8
_0-0_LAYER001
  6
Continuous
 62
     4
100
AcDbLine
 10
1586.0654
 20
1136.9333
 30
0.0
 11
1590.8946
 21
1137.0387
 31
0.0
  0
LINE
  5
326
330
20
100
AcDbEntity
  8
_0-0_LAYER001
  6
Continuous
 62
     4
100
AcDbLine
 10
1581.163799999999
 20
1136.9486
 30
0.0
 11
1586.0654
 21
1136.9333
 31
0.0
  0
LINE
  5
327
330
20
100
AcDbEntity
  8
_0-0_LAYER001
  6
Continuous
 62
     4
100
AcDbLine
 10
1576.1928
 20
1137.1065
 30
0.0
 11
1581.163799999999
 21
1136.9486
 31
0.0
  0
LINE
  5
328
330
20
100
AcDbEntity
  8
_0-0_LAYER001
  6
Continuous
 62
     4
100
AcDbLine
 10
1571.2354
 20
1137.4243
 30
0.0
 11
1576.1928
 21
1137.1065
 31
0.0
  0
LINE
  5
329
330
20
100
AcDbEntity
  8
_0-0_LAYER001
  6
Continuous
 62
     4
100
AcDbLine
 10
1568.1837
 20
1137.7057
 30
0.0
 11
1571.2354
 21
1137.4243
 31
0.0
  0
LINE
  5
32A
330
20
100
AcDbEntity
  8
_0-0_LAYER001
  6
Continuous
 62
     4
100
AcDbLine
 10
1564.2549
 20
1138.1679
 30
0.0
 11
1568.1837
 21
1137.7057
 31
0.0
  0
LINE
  5
32B
330
20
100
AcDbEntity
  8
_0-0_LAYER001
  6
Continuous
 62
     4
100
AcDbLine
 10
1557.740899999999
 20
1139.1905
 30
0.0
 11
1564.2549
 21
1138.1679
 31
0.0
  0
LINE
  5
32C
330
20
100
AcDbEntity
  8
_0-0_LAYER001
  6
Continuous
 62
     4
100
AcDbLine
 10
1551.1943
 20
1140.5426
 30
0.0
 11
1557.740899999999
 21
1139.1905
 31
0.0
  0
LINE
  5
32D
330
20
100
AcDbEntity
  8
_0-0_LAYER001
  6
Continuous
 62
     4
100
AcDbLine
 10
1544.7314
 20
1142.1985
 30
0.0
 11
1551.1943
 21
1140.5426
 31
0.0
  0
LINE
  5
32E
330
20
100
AcDbEntity
  8
_0-0_LAYER001
  6
Continuous
 62
     4
100
AcDbLine
 10
1538.3654
 20
1144.1492
 30
0.0
 11
1544.7314
 21
1142.1985
 31
0.0
  0
LINE
  5
32F
330
20
100
AcDbEntity
  8
_0-0_LAYER001
  6
Continuous
 62
     4
100
AcDbLine
 10
1532.2007
 20
1146.3541
 30
0.0
 11
1538.3654
 21
1144.1492
 31
0.0
  0
LINE
  5
330
330
20
100
AcDbEntity
  8
_0-0_LAYER001
  6
Continuous
 62
     4
100
AcDbLine
 10
1528.514
 20
1147.8259
 30
0.0
 11
1532.2007
 21
1146.3541
 31
0.0
  0
LINE
  5
331
330
20
100
AcDbEntity
  8
_0-0_LAYER001
  6
Continuous
 62
     4
100
AcDbLine
 10
1524.1497
 20
1149.7184
 30
0.0
 11
1528.514
 21
1147.8259
 31
0.0
  0
LINE
  5
332
330
20
100
AcDbEntity
  8
_0-0_LAYER001
  6
Continuous
 62
     4
100
AcDbLine
 10
1517.0807
 20
1153.1334
 30
0.0
 11
1524.1497
 21
1149.7184
 31
0.0
  0
LINE
  5
333
330
20
100
AcDbEntity
  8
_0-0_LAYER001
  6
Continuous
 62
     4
100
AcDbLine
 10
1510.1878
 20
1156.863
 30
0.0
 11
1517.0807
 21
1153.1334
 31
0.0
  0
LINE
  5
334
330
20
100
AcDbEntity
  8
_0-0_LAYER001
  6
Continuous
 62
     4
100
AcDbLine
 10
1503.5508
 20
1160.7967
 30
0.0
 11
1510.1878
 21
1156.863
 31
0.0
  0
LINE
  5
335
330
20
100
AcDbEntity
  8
_0-0_LAYER001
  6
Continuous
 62
     4
100
AcDbLine
 10
1497.1415
 20
1164.8791
 30
0.0
 11
1503.5508
 21
1160.7967
 31
0.0
  0
LINE
  5
336
330
20
100
AcDbEntity
  8
_0-0_LAYER001
  6
Continuous
 62
     4
100
AcDbLine
 10
1490.957199999999
 20
1169.0413
 30
0.0
 11
1497.1415
 21
1164.8791
 31
0.0
  0
LINE
  5
337
330
20
100
AcDbEntity
  8
_0-0_LAYER001
  6
Continuous
 62
     4
100
AcDbLine
 10
1487.4149
 20
1171.505
 30
0.0
 11
1490.957199999999
 21
1169.0413
 31
0.0
  0
LINE
  5
338
330
20
100
AcDbEntity
  8
_0-0_LAYER001
  6
Continuous
 62
     4
100
AcDbLine
 10
1485.1829
 20
1173.0785
 30
0.0
 11
1487.4149
 21
1171.505
 31
0.0
  0
LINE
  5
339
330
20
100
AcDbEntity
  8
_0-0_LAYER001
  6
Continuous
 62
     4
100
AcDbLine
 10
1481.5593
 20
1175.6177
 30
0.0
 11
1485.1829
 21
1173.0785
 31
0.0
  0
LINE
  5
33A
330
20
100
AcDbEntity
  8
_0-0_LAYER001
  6
Continuous
 62
     4
100
AcDbLine
 10
1478.1897
 20
1177.8831
 30
0.0
 11
1481.5593
 21
1175.6177
 31
0.0
  0
LINE
  5
33B
330
20
100
AcDbEntity
  8
_0-0_LAYER001
  6
Continuous
 62
     4
100
AcDbLine
 10
1475.0747
 20
1179.8102
 30
0.0
 11
1478.1897
 21
1177.8831
 31
0.0
  0
LINE
  5
33C
330
20
100
AcDbEntity
  8
_0-0_LAYER001
  6
Continuous
 62
     4
100
AcDbLine
 10
1472.2075
 20
1181.366
 30
0.0
 11
1475.0747
 21
1179.8102
 31
0.0
  0
LINE
  5
33D
330
20
100
AcDbEntity
  8
_0-0_LAYER001
  6
Continuous
 62
     4
100
AcDbLine
 10
1469.3764
 20
1182.6344
 30
0.0
 11
1472.2075
 21
1181.366
 31
0.0
  0
LINE
  5
33E
330
20
100
AcDbEntity
  8
_0-0_LAYER001
  6
Continuous
 62
     4
100
AcDbLine
 10
1467.9132
 20
1183.1665
 30
0.0
 11
1469.3764
 21
1182.6344
 31
0.0
  0
LINE
  5
33F
330
20
100
AcDbEntity
  8
_0-0_LAYER001
  6
Continuous
 62
     4
100
AcDbLine
 10
1467.7321
 20
1183.2245
 30
0.0
 11
1467.9132
 21
1183.1665
 31
0.0
  0
LINE
  5
340
330
20
100
AcDbEntity
  8
_0-0_LAYER001
  6
Continuous
 62
     4
100
AcDbLine
 10
1466.9438
 20
1183.4524
 30
0.0
 11
1467.7321
 21
1183.2245
 31
0.0
  0
LINE
  5
341
330
20
100
AcDbEntity
  8
_0-0_LAYER001
  6
Continuous
 62
     4
100
AcDbLine
 10
1466.2866
 20
1183.6152
 30
0.0
 11
1466.9438
 21
1183.4524
 31
0.0
  0
LINE
  5
342
330
20
100
AcDbEntity
  8
_0-0_LAYER001
  6
Continuous
 62
     4
100
AcDbLine
 10
1465.7048
 20
1183.7331
 30
0.0
 11
1466.2866
 21
1183.6152
 31
0.0
  0
LINE
  5
343
330
20
100
AcDbEntity
  8
_0-0_LAYER001
  6
Continuous
 62
     4
100
AcDbLine
 10
1465.6648
 20
1183.7393
 30
0.0
 11
1465.7048
 21
1183.7331
 31
0.0
  0
LINE
  5
344
330
20
100
AcDbEntity
  8
_0-0_LAYER001
  6
Continuous
 62
     4
100
AcDbLine
 10
1669.6386
 20
1128.5781
 30
0.0
 11
1671.2527
 21
1128.8466
 31
0.0
  0
LINE
  5
345
330
20
100
AcDbEntity
  8
_0-0_LAYER001
  6
Continuous
 62
     4
100
AcDbLine
 10
1665.449999999999
 20
1127.882
 30
0.0
 11
1669.6386
 21
1128.5781
 31
0.0
  0
LINE
  5
346
330
20
100
AcDbEntity
  8
_0-0_LAYER001
  6
Continuous
 62
     4
100
AcDbLine
 10
1661.257099999999
 20
1127.1865
 30
0.0
 11
1665.449999999999
 21
1127.882
 31
0.0
  0
LINE
  5
347
330
20
100
AcDbEntity
  8
_0-0_LAYER001
  6
Continuous
 62
     4
100
AcDbLine
 10
1657.0597
 20
1126.4928
 30
0.0
 11
1661.257099999999
 21
1127.1865
 31
0.0
  0
LINE
  5
348
330
20
100
AcDbEntity
  8
_0-0_LAYER001
  6
Continuous
 62
     4
100
AcDbLine
 10
1652.8574
 20
1125.8016
 30
0.0
 11
1657.0597
 21
1126.4928
 31
0.0
  0
LINE
  5
349
330
20
100
AcDbEntity
  8
_0-0_LAYER001
  6
Continuous
 62
     4
100
AcDbLine
 10
1648.6524
 20
1125.1143
 30
0.0
 11
1652.8574
 21
1125.8016
 31
0.0
  0
LINE
  5
34A
330
20
100
AcDbEntity
  8
_0-0_LAYER001
  6
Continuous
 62
     4
100
AcDbLine
 10
1646.2024
 20
1124.7161
 30
0.0
 11
1648.6524
 21
1125.1143
 31
0.0
  0
LINE
  5
34B
330
20
100
AcDbEntity
  8
_0-0_LAYER001
  6
Continuous
 62
     4
100
AcDbLine
 10
1641.475399999999
 20
1123.9546
 30
0.0
 11
1646.2024
 21
1124.7161
 31
0.0
  0
LINE
  5
34C
330
20
100
AcDbEntity
  8
_0-0_LAYER001
  6
Continuous
 62
     4
100
AcDbLine
 10
1633.2848
 20
1122.6729
 30
0.0
 11
1641.475399999999
 21
1123.9546
 31
0.0
  0
LINE
  5
34D
330
20
100
AcDbEntity
  8
_0-0_LAYER001
  6
Continuous
 62
     4
100
AcDbLine
 10
1625.0003
 20
1121.4564
 30
0.0
 11
1633.2848
 21
1122.6729
 31
0.0
  0
LINE
  5
34E
330
20
100
AcDbEntity
  8
_0-0_LAYER001
  6
Continuous
 62
     4
100
AcDbLine
 10
1616.6237
 20
1120.3442
 30
0.0
 11
1625.0003
 21
1121.4564
 31
0.0
  0
LINE
  5
34F
330
20
100
AcDbEntity
  8
_0-0_LAYER001
  6
Continuous
 62
     4
100
AcDbLine
 10
1608.1515
 20
1119.3755
 30
0.0
 11
1616.6237
 21
1120.3442
 31
0.0
  0
LINE
  5
350
330
20
100
AcDbEntity
  8
_0-0_LAYER001
  6
Continuous
 62
     4
100
AcDbLine
 10
1599.6354
 20
1118.5954
 30
0.0
 11
1608.1515
 21
1119.3755
 31
0.0
  0
LINE
  5
351
330
20
100
AcDbEntity
  8
_0-0_LAYER001
  6
Continuous
 62
     4
100
AcDbLine
 10
1594.607599999999
 20
1118.2398
 30
0.0
 11
1599.6354
 21
1118.5954
 31
0.0
  0
LINE
  5
352
330
20
100
AcDbEntity
  8
_0-0_LAYER001
  6
Continuous
 62
     4
100
AcDbLine
 10
1591.8324
 20
1118.0798
 30
0.0
 11
1594.607599999999
 21
1118.2398
 31
0.0
  0
LINE
  5
353
330
20
100
AcDbEntity
  8
_0-0_LAYER001
  6
Continuous
 62
     4
100
AcDbLine
 10
1587.1471
 20
1117.8774
 30
0.0
 11
1591.8324
 21
1118.0798
 31
0.0
  0
LINE
  5
354
330
20
100
AcDbEntity
  8
_0-0_LAYER001
  6
Continuous
 62
     4
100
AcDbLine
 10
1582.3641
 20
1117.7729
 30
0.0
 11
1587.1471
 21
1117.8774
 31
0.0
  0
LINE
  5
355
330
20
100
AcDbEntity
  8
_0-0_LAYER001
  6
Continuous
 62
     4
100
AcDbLine
 10
1577.516099999999
 20
1117.7881
 30
0.0
 11
1582.3641
 21
1117.7729
 31
0.0
  0
LINE
  5
356
330
20
100
AcDbEntity
  8
_0-0_LAYER001
  6
Continuous
 62
     4
100
AcDbLine
 10
1572.6059
 20
1117.9441
 30
0.0
 11
1577.516099999999
 21
1117.7881
 31
0.0
  0
LINE
  5
357
330
20
100
AcDbEntity
  8
_0-0_LAYER001
  6
Continuous
 62
     4
100
AcDbLine
 10
1567.7086
 20
1118.258
 30
0.0
 11
1572.6059
 21
1117.9441
 31
0.0
  0
LINE
  5
358
330
20
100
AcDbEntity
  8
_0-0_LAYER001
  6
Continuous
 62
     4
100
AcDbLine
 10
1564.709899999999
 20
1118.5345
 30
0.0
 11
1567.7086
 21
1118.258
 31
0.0
  0
LINE
  5
359
330
20
100
AcDbEntity
  8
_0-0_LAYER001
  6
Continuous
 62
     4
100
AcDbLine
 10
1560.8443
 20
1118.9893
 30
0.0
 11
1564.709899999999
 21
1118.5345
 31
0.0
  0
LINE
  5
35A
330
20
100
AcDbEntity
  8
_0-0_LAYER001
  6
Continuous
 62
     4
100
AcDbLine
 10
1554.4159
 20
1119.9984
 30
0.0
 11
1560.8443
 21
1118.9893
 31
0.0
  0
LINE
  5
35B
330
20
100
AcDbEntity
  8
_0-0_LAYER001
  6
Continuous
 62
     4
100
AcDbLine
 10
1547.9624
 20
1121.3313
 30
0.0
 11
1554.4159
 21
1119.9984
 31
0.0
  0
LINE
  5
35C
330
20
100
AcDbEntity
  8
_0-0_LAYER001
  6
Continuous
 62
     4
100
AcDbLine
 10
1541.5902
 20
1122.964
 30
0.0
 11
1547.9624
 21
1121.3313
 31
0.0
  0
LINE
  5
35D
330
20
100
AcDbEntity
  8
_0-0_LAYER001
  6
Continuous
 62
     4
100
AcDbLine
 10
1535.3129
 20
1124.8875
 30
0.0
 11
1541.5902
 21
1122.964
 31
0.0
  0
LINE
  5
35E
330
20
100
AcDbEntity
  8
_0-0_LAYER001
  6
Continuous
 62
     4
100
AcDbLine
 10
1529.2258
 20
1127.0647
 30
0.0
 11
1535.3129
 21
1124.8875
 31
0.0
  0
LINE
  5
35F
330
20
100
AcDbEntity
  8
_0-0_LAYER001
  6
Continuous
 62
     4
100
AcDbLine
 10
1525.6002
 20
1128.5121
 30
0.0
 11
1529.2258
 21
1127.0647
 31
0.0
  0
LINE
  5
360
330
20
100
AcDbEntity
  8
_0-0_LAYER001
  6
Continuous
 62
     4
100
AcDbLine
 10
1521.3003
 20
1130.3767
 30
0.0
 11
1525.6002
 21
1128.5121
 31
0.0
  0
LINE
  5
361
330
20
100
AcDbEntity
  8
_0-0_LAYER001
  6
Continuous
 62
     4
100
AcDbLine
 10
1514.3094
 20
1133.7539
 30
0.0
 11
1521.3003
 21
1130.3767
 31
0.0
  0
LINE
  5
362
330
20
100
AcDbEntity
  8
_0-0_LAYER001
  6
Continuous
 62
     4
100
AcDbLine
 10
1507.4913
 20
1137.4431
 30
0.0
 11
1514.3094
 21
1133.7539
 31
0.0
  0
LINE
  5
363
330
20
100
AcDbEntity
  8
_0-0_LAYER001
  6
Continuous
 62
     4
100
AcDbLine
 10
1500.915599999999
 20
1141.3404
 30
0.0
 11
1507.4913
 21
1137.4431
 31
0.0
  0
LINE
  5
364
330
20
100
AcDbEntity
  8
_0-0_LAYER001
  6
Continuous
 62
     4
100
AcDbLine
 10
1494.5546
 20
1145.3921
 30
0.0
 11
1500.915599999999
 21
1141.3404
 31
0.0
  0
LINE
  5
365
330
20
100
AcDbEntity
  8
_0-0_LAYER001
  6
Continuous
 62
     4
100
AcDbLine
 10
1488.4041
 20
1149.5315
 30
0.0
 11
1494.5546
 21
1145.3921
 31
0.0
  0
LINE
  5
366
330
20
100
AcDbEntity
  8
_0-0_LAYER001
  6
Continuous
 62
     4
100
AcDbLine
 10
1484.8795
 20
1151.9829
 30
0.0
 11
1488.4041
 21
1149.5315
 31
0.0
  0
LINE
  5
367
330
20
100
AcDbEntity
  8
_0-0_LAYER001
  6
Continuous
 62
     4
100
AcDbLine
 10
1482.6504
 20
1153.5543
 30
0.0
 11
1484.8795
 21
1151.9829
 31
0.0
  0
LINE
  5
368
330
20
100
AcDbEntity
  8
_0-0_LAYER001
  6
Continuous
 62
     4
100
AcDbLine
 10
1479.0087
 20
1156.1062
 30
0.0
 11
1482.6504
 21
1153.5543
 31
0.0
  0
LINE
  5
369
330
20
100
AcDbEntity
  8
_0-0_LAYER001
  6
Continuous
 62
     4
100
AcDbLine
 10
1475.5916
 20
1158.4037
 30
0.0
 11
1479.0087
 21
1156.1062
 31
0.0
  0
LINE
  5
36A
330
20
100
AcDbEntity
  8
_0-0_LAYER001
  6
Continuous
 62
     4
100
AcDbLine
 10
1472.3959
 20
1160.3806
 30
0.0
 11
1475.5916
 21
1158.4037
 31
0.0
  0
LINE
  5
36B
330
20
100
AcDbEntity
  8
_0-0_LAYER001
  6
Continuous
 62
     4
100
AcDbLine
 10
1469.412
 20
1161.9997
 30
0.0
 11
1472.3959
 21
1160.3806
 31
0.0
  0
LINE
  5
36C
330
20
100
AcDbEntity
  8
_0-0_LAYER001
  6
Continuous
 62
     4
100
AcDbLine
 10
1466.4454
 20
1163.3288
 30
0.0
 11
1469.412
 21
1161.9997
 31
0.0
  0
LINE
  5
36D
330
20
100
AcDbEntity
  8
_0-0_LAYER001
  6
Continuous
 62
     4
100
AcDbLine
 10
1465.695499999999
 20
1163.6016
 30
0.0
 11
1466.4454
 21
1163.3288
 31
0.0
  0
LINE
  5
36E
330
20
100
AcDbEntity
  8
_0-0_LAYER001
  6
Continuous
 62
     4
100
AcDbLine
 10
1466.0285
 20
1183.6447
 30
0.0
 11
1465.8525
 21
1163.4713
 31
0.0
  0
LINE
  5
36F
330
20
100
AcDbEntity
  8
_0-0_LAYER001
  6
Continuous
 62
     4
100
AcDbLine
 10
1713.8426
 20
1138.6331
 30
0.0
 11
1671.0224
 21
1128.7119
 31
0.0
  0
ARC
  5
370
330
20
100
AcDbEntity
  8
_0-0_LAYER001
  6
Continuous
 62
     4
100
AcDbCircle
 10
1713.6169
 20
1139.6073
 30
0.0
 40
1.0
100
AcDbArc
 50
283.04497
 51
359.5000000000001
  0
LINE
  5
371
330
20
100
AcDbEntity
  8
_0-0_LAYER001
  6
Continuous
 62
     4
100
AcDbLine
 10
1666.5315
 20
1118.3983
 30
0.0
 11
1664.2861
 21
1126.9718
 31
0.0
  0
ARC
  5
372
330
20
100
AcDbEntity
  8
_0-0_LAYER001
  6
Continuous
 62
     4
100
AcDbCircle
 10
1669.433599999999
 20
1119.1584
 30
0.0
 40
3.0
100
AcDbArc
 50
194.67639
 51
270.0000000000001
  0
LINE
  5
373
330
20
100
AcDbEntity
  8
_0-0_LAYER001
  6
Continuous
 62
     4
100
AcDbLine
 10
1672.8515
 20
1116.1584
 30
0.0
 11
1669.433599999999
 21
1116.1584
 31
0.0
  0
LINE
  5
374
330
20
100
AcDbEntity
  8
_0-0_LAYER001
  6
Continuous
 62
     4
100
AcDbLine
 10
1675.8106
 20
1118.6652
 30
0.0
 11
1677.7447
 21
1130.2694
 31
0.0
  0
ARC
  5
375
330
20
100
AcDbEntity
  8
_0-0_LAYER001
  6
Continuous
 62
     4
100
AcDbCircle
 10
1672.8515
 20
1119.1584
 30
0.0
 40
3.0
100
AcDbArc
 50
270.0
 51
350.53767
  0
LINE
  5
376
330
20
100
AcDbEntity
  8
_0-0_LAYER001
  6
Continuous
 62
     4
100
AcDbLine
 10
1419.9445
 20
1187.3067
 30
0.0
 11
1419.9445
 21
1170.7742
 31
0.0
  0
LINE
  5
377
330
20
100
AcDbEntity
  8
_0-0_LAYER001
  6
Continuous
 62
     4
100
AcDbLine
 10
1421.2034
 20
1189.1643
 30
0.0
 11
1422.3284
 21
1189.6131
 31
0.0
  0
ARC
  5
378
330
20
100
AcDbEntity
  8
_0-0_LAYER001
  6
Continuous
 62
     4
100
AcDbCircle
 10
1421.9445
 20
1187.3067
 30
0.0
 40
2.0
100
AcDbArc
 50
111.74902
 51
180.0
  0
LINE
  5
379
330
20
100
AcDbEntity
  8
_0-0_LAYER001
  6
Continuous
 62
     4
100
AcDbLine
 10
1714.0202
 20
1158.9814
 30
0.0
 11
1674.9445
 21
1149.9278
 31
0.0
  0
LINE
  5
37A
330
20
100
AcDbEntity
  8
_0-0_LAYER001
  6
Continuous
 62
     4
100
AcDbLine
 10
1674.9445
 20
1168.4046
 30
0.0
 11
1674.9445
 21
1149.9278
 31
0.0
  0
LINE
  5
37B
330
20
100
AcDbEntity
  8
_0-0_LAYER001
  6
Continuous
 62
     4
100
AcDbLine
 10
1714.8809
 20
1179.0134
 30
0.0
 11
1714.8809
 21
1159.9332
 31
0.0
  0
LINE
  5
37C
330
20
100
AcDbEntity
  8
_0-0_LAYER001
  6
Continuous
 62
     4
100
AcDbLine
 10
1714.9883
 20
1157.9463
 30
0.0
 11
1714.9883
 21
1139.7752
 31
0.0
  0
LINE
  5
37D
330
20
100
AcDbEntity
  8
_0-0_LAYER001
  6
Continuous
 62
     4
100
AcDbLine
 10
1676.8943
 20
1189.5059
 30
0.0
 11
1677.6982
 21
1189.8379
 31
0.0
  0
LINE
  5
37E
330
20
100
AcDbEntity
  8
_0-0_LAYER001
  6
Continuous
 62
     4
100
AcDbLine
 10
1677.6982
 20
1189.8379
 30
0.0
 11
1681.203599999999
 21
1191.2884
 31
0.0
  0
LINE
  5
37F
330
20
100
AcDbEntity
  8
_0-0_LAYER001
  6
Continuous
 62
     4
100
AcDbLine
 10
1681.203599999999
 20
1191.2884
 30
0.0
 11
1684.7161
 21
1192.7483
 31
0.0
  0
LINE
  5
380
330
20
100
AcDbEntity
  8
_0-0_LAYER001
  6
Continuous
 62
     4
100
AcDbLine
 10
1684.7161
 20
1192.7483
 30
0.0
 11
1688.2401
 21
1194.2237
 31
0.0
  0
LINE
  5
381
330
20
100
AcDbEntity
  8
_0-0_LAYER001
  6
Continuous
 62
     4
100
AcDbLine
 10
1688.2401
 20
1194.2237
 30
0.0
 11
1691.7802
 21
1195.7207
 31
0.0
  0
LINE
  5
382
330
20
100
AcDbEntity
  8
_0-0_LAYER001
  6
Continuous
 62
     4
100
AcDbLine
 10
1691.7802
 20
1195.7207
 30
0.0
 11
1695.3408
 21
1197.2453
 31
0.0
  0
LINE
  5
383
330
20
100
AcDbEntity
  8
_0-0_LAYER001
  6
Continuous
 62
     4
100
AcDbLine
 10
1695.3408
 20
1197.2453
 30
0.0
 11
1697.4171
 21
1198.1446
 31
0.0
  0
LINE
  5
384
330
20
100
AcDbEntity
  8
_0-0_LAYER001
  6
Continuous
 62
     4
100
AcDbLine
 10
1697.4171
 20
1198.1446
 30
0.0
 11
1699.4694
 21
1199.0384
 31
0.0
  0
LINE
  5
385
330
20
100
AcDbEntity
  8
_0-0_LAYER001
  6
Continuous
 62
     4
100
AcDbLine
 10
1699.4694
 20
1199.0384
 30
0.0
 11
1703.0301
 21
1200.5524
 31
0.0
  0
LINE
  5
386
330
20
100
AcDbEntity
  8
_0-0_LAYER001
  6
Continuous
 62
     4
100
AcDbLine
 10
1703.0301
 20
1200.5524
 30
0.0
 11
1706.6208
 21
1201.9486
 31
0.0
  0
LINE
  5
387
330
20
100
AcDbEntity
  8
_0-0_LAYER001
  6
Continuous
 62
     4
100
AcDbLine
 10
1706.6208
 20
1201.9486
 30
0.0
 11
1710.243399999999
 21
1203.1296
 31
0.0
  0
LINE
  5
388
330
20
100
AcDbEntity
  8
_0-0_LAYER001
  6
Continuous
 62
     4
100
AcDbLine
 10
1710.243399999999
 20
1203.1296
 30
0.0
 11
1713.9
 21
1203.9981
 31
0.0
  0
LINE
  5
389
330
20
100
AcDbEntity
  8
_0-0_LAYER001
  6
Continuous
 62
     4
100
AcDbLine
 10
1713.9
 20
1203.9981
 30
0.0
 11
1717.5927
 21
1204.4568
 31
0.0
  0
LINE
  5
38A
330
20
100
AcDbEntity
  8
_0-0_LAYER001
  6
Continuous
 62
     4
100
AcDbLine
 10
1717.5927
 20
1204.4568
 30
0.0
 11
1719.7518
 21
1204.4968
 31
0.0
  0
LINE
  5
38B
330
20
100
AcDbEntity
  8
_0-0_LAYER001
  6
Continuous
 62
     4
100
AcDbLine
 10
1719.7518
 20
1204.4968
 30
0.0
 11
1720.6025
 21
1204.4621
 31
0.0
  0
LINE
  5
38C
330
20
100
AcDbEntity
  8
_0-0_LAYER001
  6
Continuous
 62
     4
100
AcDbLine
 10
1720.6025
 20
1204.4621
 30
0.0
 11
1722.0715
 21
1204.3376
 31
0.0
  0
LINE
  5
38D
330
20
100
AcDbEntity
  8
_0-0_LAYER001
  6
Continuous
 62
     4
100
AcDbLine
 10
1722.0715
 20
1204.3376
 30
0.0
 11
1723.5396
 21
1204.1369
 31
0.0
  0
LINE
  5
38E
330
20
100
AcDbEntity
  8
_0-0_LAYER001
  6
Continuous
 62
     4
100
AcDbLine
 10
1723.5396
 20
1204.1369
 30
0.0
 11
1725.0025
 21
1203.8667
 31
0.0
  0
LINE
  5
38F
330
20
100
AcDbEntity
  8
_0-0_LAYER001
  6
Continuous
 62
     4
100
AcDbLine
 10
1725.0025
 20
1203.8667
 30
0.0
 11
1726.4558
 21
1203.5337
 31
0.0
  0
LINE
  5
390
330
20
100
AcDbEntity
  8
_0-0_LAYER001
  6
Continuous
 62
     4
100
AcDbLine
 10
1726.4558
 20
1203.5337
 30
0.0
 11
1727.8952
 21
1203.1446
 31
0.0
  0
LINE
  5
391
330
20
100
AcDbEntity
  8
_0-0_LAYER001
  6
Continuous
 62
     4
100
AcDbLine
 10
1727.8952
 20
1203.1446
 30
0.0
 11
1728.7219
 21
1202.8958
 31
0.0
  0
LINE
  5
392
330
20
100
AcDbEntity
  8
_0-0_LAYER001
  6
Continuous
 62
     4
100
AcDbLine
 10
1728.7219
 20
1202.8958
 30
0.0
 11
1731.2487
 21
1202.0265
 31
0.0
  0
LINE
  5
393
330
20
100
AcDbEntity
  8
_0-0_LAYER001
  6
Continuous
 62
     4
100
AcDbLine
 10
1731.2487
 20
1202.0265
 30
0.0
 11
1735.4663
 21
1200.2245
 31
0.0
  0
LINE
  5
394
330
20
100
AcDbEntity
  8
_0-0_LAYER001
  6
Continuous
 62
     4
100
AcDbLine
 10
1735.4663
 20
1200.2245
 30
0.0
 11
1739.5386
 21
1198.106
 31
0.0
  0
LINE
  5
395
330
20
100
AcDbEntity
  8
_0-0_LAYER001
  6
Continuous
 62
     4
100
AcDbLine
 10
1739.5386
 20
1198.106
 30
0.0
 11
1743.5015
 21
1195.7491
 31
0.0
  0
LINE
  5
396
330
20
100
AcDbEntity
  8
_0-0_LAYER001
  6
Continuous
 62
     4
100
AcDbLine
 10
1743.5015
 20
1195.7491
 30
0.0
 11
1747.3905
 21
1193.2318
 31
0.0
  0
LINE
  5
397
330
20
100
AcDbEntity
  8
_0-0_LAYER001
  6
Continuous
 62
     4
100
AcDbLine
 10
1747.3905
 20
1193.2318
 30
0.0
 11
1751.2413
 21
1190.6324
 31
0.0
  0
LINE
  5
398
330
20
100
AcDbEntity
  8
_0-0_LAYER001
  6
Continuous
 62
     4
100
AcDbLine
 10
1751.2413
 20
1190.6324
 30
0.0
 11
1753.4713
 21
1189.1179
 31
0.0
  0
LINE
  5
399
330
20
100
AcDbEntity
  8
_0-0_LAYER001
  6
Continuous
 62
     4
100
AcDbLine
 10
1753.4713
 20
1189.1179
 30
0.0
 11
1756.8762
 21
1186.8369
 31
0.0
  0
LINE
  5
39A
330
20
100
AcDbEntity
  8
_0-0_LAYER001
  6
Continuous
 62
     4
100
AcDbLine
 10
1756.8762
 20
1186.8369
 30
0.0
 11
1762.7917
 21
1183.0039
 31
0.0
  0
LINE
  5
39B
330
20
100
AcDbEntity
  8
_0-0_LAYER001
  6
Continuous
 62
     4
100
AcDbLine
 10
1762.7917
 20
1183.0039
 30
0.0
 11
1768.7821
 21
1179.3336
 31
0.0
  0
LINE
  5
39C
330
20
100
AcDbEntity
  8
_0-0_LAYER001
  6
Continuous
 62
     4
100
AcDbLine
 10
1768.7821
 20
1179.3336
 30
0.0
 11
1774.8681
 21
1175.8686
 31
0.0
  0
LINE
  5
39D
330
20
100
AcDbEntity
  8
_0-0_LAYER001
  6
Continuous
 62
     4
100
AcDbLine
 10
1774.8681
 20
1175.8686
 30
0.0
 11
1781.0704
 21
1172.6513
 31
0.0
  0
LINE
  5
39E
330
20
100
AcDbEntity
  8
_0-0_LAYER001
  6
Continuous
 62
     4
100
AcDbLine
 10
1781.0704
 20
1172.6513
 30
0.0
 11
1787.4098
 21
1169.7242
 31
0.0
  0
LINE
  5
39F
330
20
100
AcDbEntity
  8
_0-0_LAYER001
  6
Continuous
 62
     4
100
AcDbLine
 10
1787.4098
 20
1169.7242
 30
0.0
 11
1791.1576
 21
1168.1761
 31
0.0
  0
LINE
  5
3A0
330
20
100
AcDbEntity
  8
_0-0_LAYER001
  6
Continuous
 62
     4
100
AcDbLine
 10
1791.1576
 20
1168.1761
 30
0.0
 11
1794.2552
 21
1167.0018
 31
0.0
  0
LINE
  5
3A1
330
20
100
AcDbEntity
  8
_0-0_LAYER001
  6
Continuous
 62
     4
100
AcDbLine
 10
1794.2552
 20
1167.0018
 30
0.0
 11
1799.676
 21
1165.169
 31
0.0
  0
LINE
  5
3A2
330
20
100
AcDbEntity
  8
_0-0_LAYER001
  6
Continuous
 62
     4
100
AcDbLine
 10
1799.676
 20
1165.169
 30
0.0
 11
1805.1841
 21
1163.5857
 31
0.0
  0
LINE
  5
3A3
330
20
100
AcDbEntity
  8
_0-0_LAYER001
  6
Continuous
 62
     4
100
AcDbLine
 10
1805.1841
 20
1163.5857
 30
0.0
 11
1810.7635
 21
1162.2596
 31
0.0
  0
LINE
  5
3A4
330
20
100
AcDbEntity
  8
_0-0_LAYER001
  6
Continuous
 62
     4
100
AcDbLine
 10
1810.7635
 20
1162.2596
 30
0.0
 11
1816.3979
 21
1161.198
 31
0.0
  0
LINE
  5
3A5
330
20
100
AcDbEntity
  8
_0-0_LAYER001
  6
Continuous
 62
     4
100
AcDbLine
 10
1816.3979
 20
1161.198
 30
0.0
 11
1822.0713
 21
1160.4086
 31
0.0
  0
LINE
  5
3A6
330
20
100
AcDbEntity
  8
_0-0_LAYER001
  6
Continuous
 62
     4
100
AcDbLine
 10
1822.0713
 20
1160.4086
 30
0.0
 11
1825.3732
 21
1160.0784
 31
0.0
  0
LINE
  5
3A7
330
20
100
AcDbEntity
  8
_0-0_LAYER001
  6
Continuous
 62
     4
100
AcDbLine
 10
1825.3732
 20
1160.0784
 30
0.0
 11
1827.8997
 21
1159.8898
 31
0.0
  0
LINE
  5
3A8
330
20
100
AcDbEntity
  8
_0-0_LAYER001
  6
Continuous
 62
     4
100
AcDbLine
 10
1827.8997
 20
1159.8898
 30
0.0
 11
1832.2603
 21
1159.6867
 31
0.0
  0
LINE
  5
3A9
330
20
100
AcDbEntity
  8
_0-0_LAYER001
  6
Continuous
 62
     4
100
AcDbLine
 10
1832.2603
 20
1159.6867
 30
0.0
 11
1836.6247
 21
1159.6243
 31
0.0
  0
LINE
  5
3AA
330
20
100
AcDbEntity
  8
_0-0_LAYER001
  6
Continuous
 62
     4
100
AcDbLine
 10
1836.6247
 20
1159.6243
 30
0.0
 11
1840.99
 21
1159.6868
 31
0.0
  0
LINE
  5
3AB
330
20
100
AcDbEntity
  8
_0-0_LAYER001
  6
Continuous
 62
     4
100
AcDbLine
 10
1840.99
 20
1159.6868
 30
0.0
 11
1845.3539
 21
1159.8583
 31
0.0
  0
LINE
  5
3AC
330
20
100
AcDbEntity
  8
_0-0_LAYER001
  6
Continuous
 62
     4
100
AcDbLine
 10
1845.3539
 20
1159.8583
 30
0.0
 11
1849.7137
 21
1160.123
 31
0.0
  0
LINE
  5
3AD
330
20
100
AcDbEntity
  8
_0-0_LAYER001
  6
Continuous
 62
     4
100
AcDbLine
 10
1849.7137
 20
1160.123
 30
0.0
 11
1852.2394
 21
1160.3129
 31
0.0
  0
LINE
  5
3AE
330
20
100
AcDbEntity
  8
_0-0_LAYER001
  6
Continuous
 62
     4
100
AcDbLine
 10
1852.2394
 20
1160.3129
 30
0.0
 11
1856.9577
 21
1160.7295
 31
0.0
  0
LINE
  5
3AF
330
20
100
AcDbEntity
  8
_0-0_LAYER001
  6
Continuous
 62
     4
100
AcDbLine
 10
1856.9577
 20
1160.7295
 30
0.0
 11
1865.072
 21
1161.6158
 31
0.0
  0
LINE
  5
3B0
330
20
100
AcDbEntity
  8
_0-0_LAYER001
  6
Continuous
 62
     4
100
AcDbLine
 10
1865.072
 20
1161.6158
 30
0.0
 11
1873.1632
 21
1162.6844
 31
0.0
  0
LINE
  5
3B1
330
20
100
AcDbEntity
  8
_0-0_LAYER001
  6
Continuous
 62
     4
100
AcDbLine
 10
1873.1632
 20
1162.6844
 30
0.0
 11
1881.2348
 21
1163.8998
 31
0.0
  0
LINE
  5
3B2
330
20
100
AcDbEntity
  8
_0-0_LAYER001
  6
Continuous
 62
     4
100
AcDbLine
 10
1881.2348
 20
1163.8998
 30
0.0
 11
1889.2906
 21
1165.2266
 31
0.0
  0
LINE
  5
3B3
330
20
100
AcDbEntity
  8
_0-0_LAYER001
  6
Continuous
 62
     4
100
AcDbLine
 10
1889.2906
 20
1165.2266
 30
0.0
 11
1897.334
 21
1166.6295
 31
0.0
  0
LINE
  5
3B4
330
20
100
AcDbEntity
  8
_0-0_LAYER001
  6
Continuous
 62
     4
100
AcDbLine
 10
1897.334
 20
1166.6295
 30
0.0
 11
1901.995
 21
1167.4641
 31
0.0
  0
LINE
  5
3B5
330
20
100
AcDbEntity
  8
_0-0_LAYER001
  6
Continuous
 62
     4
100
AcDbLine
 10
1901.995
 20
1167.4641
 30
0.0
 11
1904.4174
 21
1167.9013
 31
0.0
  0
LINE
  5
3B6
330
20
100
AcDbEntity
  8
_0-0_LAYER001
  6
Continuous
 62
     4
100
AcDbLine
 10
1904.4174
 20
1167.9013
 30
0.0
 11
1908.5926
 21
1168.6588
 31
0.0
  0
LINE
  5
3B7
330
20
100
AcDbEntity
  8
_0-0_LAYER001
  6
Continuous
 62
     4
100
AcDbLine
 10
1908.5926
 20
1168.6588
 30
0.0
 11
1912.7665
 21
1169.4204
 31
0.0
  0
LINE
  5
3B8
330
20
100
AcDbEntity
  8
_0-0_LAYER001
  6
Continuous
 62
     4
100
AcDbLine
 10
1912.7665
 20
1169.4204
 30
0.0
 11
1916.9394
 21
1170.1851
 31
0.0
  0
LINE
  5
3B9
330
20
100
AcDbEntity
  8
_0-0_LAYER001
  6
Continuous
 62
     4
100
AcDbLine
 10
1916.9394
 20
1170.1851
 30
0.0
 11
1921.1115
 21
1170.9522
 31
0.0
  0
LINE
  5
3BA
330
20
100
AcDbEntity
  8
_0-0_LAYER001
  6
Continuous
 62
     4
100
AcDbLine
 10
1921.1115
 20
1170.9522
 30
0.0
 11
1925.2832
 21
1171.7206
 31
0.0
  0
LINE
  5
3BB
330
20
100
AcDbEntity
  8
_0-0_LAYER001
  6
Continuous
 62
     4
100
AcDbLine
 10
1925.2832
 20
1171.7206
 30
0.0
 11
1927.7027
 21
1172.1665
 31
0.0
  0
LINE
  5
3BC
330
20
100
AcDbEntity
  8
_0-0_LAYER001
  6
Continuous
 62
     4
100
AcDbLine
 10
1682.538799999999
 20
1172.3622
 30
0.0
 11
1684.5753
 21
1173.2035
 31
0.0
  0
LINE
  5
3BD
330
20
100
AcDbEntity
  8
_0-0_LAYER001
  6
Continuous
 62
     4
100
AcDbLine
 10
1684.5753
 20
1173.2035
 30
0.0
 11
1688.0988
 21
1174.6614
 31
0.0
  0
LINE
  5
3BE
330
20
100
AcDbEntity
  8
_0-0_LAYER001
  6
Continuous
 62
     4
100
AcDbLine
 10
1688.0988
 20
1174.6614
 30
0.0
 11
1691.646099999999
 21
1176.1358
 31
0.0
  0
LINE
  5
3BF
330
20
100
AcDbEntity
  8
_0-0_LAYER001
  6
Continuous
 62
     4
100
AcDbLine
 10
1691.646099999999
 20
1176.1358
 30
0.0
 11
1695.2213
 21
1177.6326
 31
0.0
  0
LINE
  5
3C0
330
20
100
AcDbEntity
  8
_0-0_LAYER001
  6
Continuous
 62
     4
100
AcDbLine
 10
1695.2213
 20
1177.6326
 30
0.0
 11
1698.8281
 21
1179.1579
 31
0.0
  0
LINE
  5
3C1
330
20
100
AcDbEntity
  8
_0-0_LAYER001
  6
Continuous
 62
     4
100
AcDbLine
 10
1698.8281
 20
1179.1579
 30
0.0
 11
1702.4602
 21
1180.7131
 31
0.0
  0
LINE
  5
3C2
330
20
100
AcDbEntity
  8
_0-0_LAYER001
  6
Continuous
 62
     4
100
AcDbLine
 10
1702.4602
 20
1180.7131
 30
0.0
 11
1704.5875
 21
1181.6344
 31
0.0
  0
LINE
  5
3C3
330
20
100
AcDbEntity
  8
_0-0_LAYER001
  6
Continuous
 62
     4
100
AcDbLine
 10
1704.5875
 20
1181.6344
 30
0.0
 11
1706.5848
 21
1182.5042
 31
0.0
  0
LINE
  5
3C4
330
20
100
AcDbEntity
  8
_0-0_LAYER001
  6
Continuous
 62
     4
100
AcDbLine
 10
1706.5848
 20
1182.5042
 30
0.0
 11
1709.8151
 21
1183.8778
 31
0.0
  0
LINE
  5
3C5
330
20
100
AcDbEntity
  8
_0-0_LAYER001
  6
Continuous
 62
     4
100
AcDbLine
 10
1709.8151
 20
1183.8778
 30
0.0
 11
1712.6767
 21
1184.9905
 31
0.0
  0
LINE
  5
3C6
330
20
100
AcDbEntity
  8
_0-0_LAYER001
  6
Continuous
 62
     4
100
AcDbLine
 10
1712.6767
 20
1184.9905
 30
0.0
 11
1715.121
 21
1185.7873
 31
0.0
  0
LINE
  5
3C7
330
20
100
AcDbEntity
  8
_0-0_LAYER001
  6
Continuous
 62
     4
100
AcDbLine
 10
1715.121
 20
1185.7873
 30
0.0
 11
1717.0989
 21
1186.2571
 31
0.0
  0
LINE
  5
3C8
330
20
100
AcDbEntity
  8
_0-0_LAYER001
  6
Continuous
 62
     4
100
AcDbLine
 10
1717.0989
 20
1186.2571
 30
0.0
 11
1718.8722
 21
1186.4774
 31
0.0
  0
LINE
  5
3C9
330
20
100
AcDbEntity
  8
_0-0_LAYER001
  6
Continuous
 62
     4
100
AcDbLine
 10
1718.8722
 20
1186.4774
 30
0.0
 11
1719.5517
 21
1186.49
 31
0.0
  0
LINE
  5
3CA
330
20
100
AcDbEntity
  8
_0-0_LAYER001
  6
Continuous
 62
     4
100
AcDbLine
 10
1719.5517
 20
1186.49
 30
0.0
 11
1719.4755
 21
1186.4931
 31
0.0
  0
LINE
  5
3CB
330
20
100
AcDbEntity
  8
_0-0_LAYER001
  6
Continuous
 62
     4
100
AcDbLine
 10
1719.4755
 20
1186.4931
 30
0.0
 11
1720.091
 21
1186.4409
 31
0.0
  0
LINE
  5
3CC
330
20
100
AcDbEntity
  8
_0-0_LAYER001
  6
Continuous
 62
     4
100
AcDbLine
 10
1720.091
 20
1186.4409
 30
0.0
 11
1720.6843
 21
1186.3598
 31
0.0
  0
LINE
  5
3CD
330
20
100
AcDbEntity
  8
_0-0_LAYER001
  6
Continuous
 62
     4
100
AcDbLine
 10
1720.6843
 20
1186.3598
 30
0.0
 11
1721.356
 21
1186.2358
 31
0.0
  0
LINE
  5
3CE
330
20
100
AcDbEntity
  8
_0-0_LAYER001
  6
Continuous
 62
     4
100
AcDbLine
 10
1721.356
 20
1186.2358
 30
0.0
 11
1722.0952
 21
1186.0664
 31
0.0
  0
LINE
  5
3CF
330
20
100
AcDbEntity
  8
_0-0_LAYER001
  6
Continuous
 62
     4
100
AcDbLine
 10
1722.0952
 20
1186.0664
 30
0.0
 11
1722.9521
 21
1185.8347
 31
0.0
  0
LINE
  5
3D0
330
20
100
AcDbEntity
  8
_0-0_LAYER001
  6
Continuous
 62
     4
100
AcDbLine
 10
1722.9521
 20
1185.8347
 30
0.0
 11
1723.1986
 21
1185.7605
 31
0.0
  0
LINE
  5
3D1
330
20
100
AcDbEntity
  8
_0-0_LAYER001
  6
Continuous
 62
     4
100
AcDbLine
 10
1723.1986
 20
1185.7605
 30
0.0
 11
1724.7763
 21
1185.2177
 31
0.0
  0
LINE
  5
3D2
330
20
100
AcDbEntity
  8
_0-0_LAYER001
  6
Continuous
 62
     4
100
AcDbLine
 10
1724.7763
 20
1185.2177
 30
0.0
 11
1727.7656
 21
1183.9406
 31
0.0
  0
LINE
  5
3D3
330
20
100
AcDbEntity
  8
_0-0_LAYER001
  6
Continuous
 62
     4
100
AcDbLine
 10
1727.7656
 20
1183.9406
 30
0.0
 11
1730.7774
 21
1182.3738
 31
0.0
  0
LINE
  5
3D4
330
20
100
AcDbEntity
  8
_0-0_LAYER001
  6
Continuous
 62
     4
100
AcDbLine
 10
1730.7774
 20
1182.3738
 30
0.0
 11
1734.007
 21
1180.4529
 31
0.0
  0
LINE
  5
3D5
330
20
100
AcDbEntity
  8
_0-0_LAYER001
  6
Continuous
 62
     4
100
AcDbLine
 10
1734.007
 20
1180.4529
 30
0.0
 11
1737.4637
 21
1178.2155
 31
0.0
  0
LINE
  5
3D6
330
20
100
AcDbEntity
  8
_0-0_LAYER001
  6
Continuous
 62
     4
100
AcDbLine
 10
1737.4637
 20
1178.2155
 30
0.0
 11
1741.1494
 21
1175.7276
 31
0.0
  0
LINE
  5
3D7
330
20
100
AcDbEntity
  8
_0-0_LAYER001
  6
Continuous
 62
     4
100
AcDbLine
 10
1741.1494
 20
1175.7276
 30
0.0
 11
1743.4056
 21
1174.1953
 31
0.0
  0
LINE
  5
3D8
330
20
100
AcDbEntity
  8
_0-0_LAYER001
  6
Continuous
 62
     4
100
AcDbLine
 10
1743.4056
 20
1174.1953
 30
0.0
 11
1746.9724
 21
1171.8058
 31
0.0
  0
LINE
  5
3D9
330
20
100
AcDbEntity
  8
_0-0_LAYER001
  6
Continuous
 62
     4
100
AcDbLine
 10
1746.9724
 20
1171.8058
 30
0.0
 11
1753.1943
 21
1167.7743
 31
0.0
  0
LINE
  5
3DA
330
20
100
AcDbEntity
  8
_0-0_LAYER001
  6
Continuous
 62
     4
100
AcDbLine
 10
1753.1943
 20
1167.7743
 30
0.0
 11
1759.625
 21
1163.8343
 31
0.0
  0
LINE
  5
3DB
330
20
100
AcDbEntity
  8
_0-0_LAYER001
  6
Continuous
 62
     4
100
AcDbLine
 10
1759.625
 20
1163.8343
 30
0.0
 11
1766.2677
 21
1160.0523
 31
0.0
  0
LINE
  5
3DC
330
20
100
AcDbEntity
  8
_0-0_LAYER001
  6
Continuous
 62
     4
100
AcDbLine
 10
1766.2677
 20
1160.0523
 30
0.0
 11
1773.149199999999
 21
1156.4827
 31
0.0
  0
LINE
  5
3DD
330
20
100
AcDbEntity
  8
_0-0_LAYER001
  6
Continuous
 62
     4
100
AcDbLine
 10
1773.149199999999
 20
1156.4827
 30
0.0
 11
1780.198
 21
1153.228
 31
0.0
  0
LINE
  5
3DE
330
20
100
AcDbEntity
  8
_0-0_LAYER001
  6
Continuous
 62
     4
100
AcDbLine
 10
1780.198
 20
1153.228
 30
0.0
 11
1784.5297
 21
1151.4387
 31
0.0
  0
LINE
  5
3DF
330
20
100
AcDbEntity
  8
_0-0_LAYER001
  6
Continuous
 62
     4
100
AcDbLine
 10
1784.5297
 20
1151.4387
 30
0.0
 11
1788.1801
 21
1150.0548
 31
0.0
  0
LINE
  5
3E0
330
20
100
AcDbEntity
  8
_0-0_LAYER001
  6
Continuous
 62
     4
100
AcDbLine
 10
1788.1801
 20
1150.0548
 30
0.0
 11
1794.3042
 21
1147.9842
 31
0.0
  0
LINE
  5
3E1
330
20
100
AcDbEntity
  8
_0-0_LAYER001
  6
Continuous
 62
     4
100
AcDbLine
 10
1794.3042
 20
1147.9842
 30
0.0
 11
1800.6142
 21
1146.1705
 31
0.0
  0
LINE
  5
3E2
330
20
100
AcDbEntity
  8
_0-0_LAYER001
  6
Continuous
 62
     4
100
AcDbLine
 10
1800.6142
 20
1146.1705
 30
0.0
 11
1807.0139
 21
1144.6493
 31
0.0
  0
LINE
  5
3E3
330
20
100
AcDbEntity
  8
_0-0_LAYER001
  6
Continuous
 62
     4
100
AcDbLine
 10
1807.0139
 20
1144.6493
 30
0.0
 11
1813.4896
 21
1143.4293
 31
0.0
  0
LINE
  5
3E4
330
20
100
AcDbEntity
  8
_0-0_LAYER001
  6
Continuous
 62
     4
100
AcDbLine
 10
1813.4896
 20
1143.4293
 30
0.0
 11
1819.9347
 21
1142.5325
 31
0.0
  0
LINE
  5
3E5
330
20
100
AcDbEntity
  8
_0-0_LAYER001
  6
Continuous
 62
     4
100
AcDbLine
 10
1819.9347
 20
1142.5325
 30
0.0
 11
1823.8076
 21
1142.1452
 31
0.0
  0
LINE
  5
3E6
330
20
100
AcDbEntity
  8
_0-0_LAYER001
  6
Continuous
 62
     4
100
AcDbLine
 10
1823.8076
 20
1142.1452
 30
0.0
 11
1826.8107
 21
1141.9211
 31
0.0
  0
LINE
  5
3E7
330
20
100
AcDbEntity
  8
_0-0_LAYER001
  6
Continuous
 62
     4
100
AcDbLine
 10
1826.8107
 20
1141.9211
 30
0.0
 11
1831.7127
 21
1141.6927
 31
0.0
  0
LINE
  5
3E8
330
20
100
AcDbEntity
  8
_0-0_LAYER001
  6
Continuous
 62
     4
100
AcDbLine
 10
1831.7127
 20
1141.6927
 30
0.0
 11
1836.6249
 21
1141.6225
 31
0.0
  0
LINE
  5
3E9
330
20
100
AcDbEntity
  8
_0-0_LAYER001
  6
Continuous
 62
     4
100
AcDbLine
 10
1836.6249
 20
1141.6225
 30
0.0
 11
1841.4724
 21
1141.6919
 31
0.0
  0
LINE
  5
3EA
330
20
100
AcDbEntity
  8
_0-0_LAYER001
  6
Continuous
 62
     4
100
AcDbLine
 10
1841.4724
 20
1141.6919
 30
0.0
 11
1846.2528
 21
1141.8798
 31
0.0
  0
LINE
  5
3EB
330
20
100
AcDbEntity
  8
_0-0_LAYER001
  6
Continuous
 62
     4
100
AcDbLine
 10
1846.2528
 20
1141.8798
 30
0.0
 11
1850.9339
 21
1142.1639
 31
0.0
  0
LINE
  5
3EC
330
20
100
AcDbEntity
  8
_0-0_LAYER001
  6
Continuous
 62
     4
100
AcDbLine
 10
1850.9339
 20
1142.1639
 30
0.0
 11
1853.7058
 21
1142.3723
 31
0.0
  0
LINE
  5
3ED
330
20
100
AcDbEntity
  8
_0-0_LAYER001
  6
Continuous
 62
     4
100
AcDbLine
 10
1853.7058
 20
1142.3723
 30
0.0
 11
1858.7267
 21
1142.8157
 31
0.0
  0
LINE
  5
3EE
330
20
100
AcDbEntity
  8
_0-0_LAYER001
  6
Continuous
 62
     4
100
AcDbLine
 10
1858.7267
 20
1142.8157
 30
0.0
 11
1867.2278
 21
1143.7442
 31
0.0
  0
LINE
  5
3EF
330
20
100
AcDbEntity
  8
_0-0_LAYER001
  6
Continuous
 62
     4
100
AcDbLine
 10
1867.2278
 20
1143.7442
 30
0.0
 11
1875.6818
 21
1144.8607
 31
0.0
  0
LINE
  5
3F0
330
20
100
AcDbEntity
  8
_0-0_LAYER001
  6
Continuous
 62
     4
100
AcDbLine
 10
1875.6818
 20
1144.8607
 30
0.0
 11
1884.0377
 21
1146.1189
 31
0.0
  0
LINE
  5
3F1
330
20
100
AcDbEntity
  8
_0-0_LAYER001
  6
Continuous
 62
     4
100
AcDbLine
 10
1884.0377
 20
1146.1189
 30
0.0
 11
1892.2998
 21
1147.4797
 31
0.0
  0
LINE
  5
3F2
330
20
100
AcDbEntity
  8
_0-0_LAYER001
  6
Continuous
 62
     4
100
AcDbLine
 10
1892.2998
 20
1147.4797
 30
0.0
 11
1900.4668
 21
1148.9042
 31
0.0
  0
LINE
  5
3F3
330
20
100
AcDbEntity
  8
_0-0_LAYER001
  6
Continuous
 62
     4
100
AcDbLine
 10
1900.4668
 20
1148.9042
 30
0.0
 11
1905.1798
 21
1149.7481
 31
0.0
  0
LINE
  5
3F4
330
20
100
AcDbEntity
  8
_0-0_LAYER001
  6
Continuous
 62
     4
100
AcDbLine
 10
1905.1798
 20
1149.7481
 30
0.0
 11
1907.6225
 21
1150.189
 31
0.0
  0
LINE
  5
3F5
330
20
100
AcDbEntity
  8
_0-0_LAYER001
  6
Continuous
 62
     4
100
AcDbLine
 10
1907.6225
 20
1150.189
 30
0.0
 11
1911.8148
 21
1150.9496
 31
0.0
  0
LINE
  5
3F6
330
20
100
AcDbEntity
  8
_0-0_LAYER001
  6
Continuous
 62
     4
100
AcDbLine
 10
1911.8148
 20
1150.9496
 30
0.0
 11
1916.0044
 21
1151.714
 31
0.0
  0
LINE
  5
3F7
330
20
100
AcDbEntity
  8
_0-0_LAYER001
  6
Continuous
 62
     4
100
AcDbLine
 10
1912.1728
 20
1148.9819
 30
0.0
 11
1916.3641
 21
1149.7466
 31
0.0
  0
LINE
  5
3F8
330
20
100
AcDbEntity
  8
_0-0_LAYER001
  6
Continuous
 62
     4
100
AcDbLine
 10
1907.9786
 20
1148.2209
 30
0.0
 11
1912.1728
 21
1148.9819
 31
0.0
  0
LINE
  5
3F9
330
20
100
AcDbEntity
  8
_0-0_LAYER001
  6
Continuous
 62
     4
100
AcDbLine
 10
1905.5336
 20
1147.7797
 30
0.0
 11
1907.9786
 21
1148.2209
 31
0.0
  0
LINE
  5
3FA
330
20
100
AcDbEntity
  8
_0-0_LAYER001
  6
Continuous
 62
     4
100
AcDbLine
 10
1900.8149
 20
1146.9347
 30
0.0
 11
1905.5336
 21
1147.7797
 31
0.0
  0
LINE
  5
3FB
330
20
100
AcDbEntity
  8
_0-0_LAYER001
  6
Continuous
 62
     4
100
AcDbLine
 10
1892.6341
 20
1145.5079
 30
0.0
 11
1900.8149
 21
1146.9347
 31
0.0
  0
LINE
  5
3FC
330
20
100
AcDbEntity
  8
_0-0_LAYER001
  6
Continuous
 62
     4
100
AcDbLine
 10
1884.3492
 20
1144.1432
 30
0.0
 11
1892.6341
 21
1145.5079
 31
0.0
  0
LINE
  5
3FD
330
20
100
AcDbEntity
  8
_0-0_LAYER001
  6
Continuous
 62
     4
100
AcDbLine
 10
1875.9617
 20
1142.8803
 30
0.0
 11
1884.3492
 21
1144.1432
 31
0.0
  0
LINE
  5
3FE
330
20
100
AcDbEntity
  8
_0-0_LAYER001
  6
Continuous
 62
     4
100
AcDbLine
 10
1867.4674
 20
1141.7585
 30
0.0
 11
1875.9617
 21
1142.8803
 31
0.0
  0
LINE
  5
3FF
330
20
100
AcDbEntity
  8
_0-0_LAYER001
  6
Continuous
 62
     4
100
AcDbLine
 10
1858.9233
 20
1140.8252
 30
0.0
 11
1867.4674
 21
1141.7585
 31
0.0
  0
LINE
  5
400
330
20
100
AcDbEntity
  8
_0-0_LAYER001
  6
Continuous
 62
     4
100
AcDbLine
 10
1853.8688
 20
1140.3789
 30
0.0
 11
1858.9233
 21
1140.8252
 31
0.0
  0
LINE
  5
401
330
20
100
AcDbEntity
  8
_0-0_LAYER001
  6
Continuous
 62
     4
100
AcDbLine
 10
1851.0694
 20
1140.1685
 30
0.0
 11
1853.8688
 21
1140.3789
 31
0.0
  0
LINE
  5
402
330
20
100
AcDbEntity
  8
_0-0_LAYER001
  6
Continuous
 62
     4
100
AcDbLine
 10
1846.3527
 20
1139.8821
 30
0.0
 11
1851.0694
 21
1140.1685
 31
0.0
  0
LINE
  5
403
330
20
100
AcDbEntity
  8
_0-0_LAYER001
  6
Continuous
 62
     4
100
AcDbLine
 10
1841.526
 20
1139.6924
 30
0.0
 11
1846.3527
 21
1139.8821
 31
0.0
  0
LINE
  5
404
330
20
100
AcDbEntity
  8
_0-0_LAYER001
  6
Continuous
 62
     4
100
AcDbLine
 10
1836.6249
 20
1139.6222
 30
0.0
 11
1841.526
 21
1139.6924
 31
0.0
  0
LINE
  5
405
330
20
100
AcDbEntity
  8
_0-0_LAYER001
  6
Continuous
 62
     4
100
AcDbLine
 10
1831.6519
 20
1139.6933
 30
0.0
 11
1836.6249
 21
1139.6222
 31
0.0
  0
LINE
  5
406
330
20
100
AcDbEntity
  8
_0-0_LAYER001
  6
Continuous
 62
     4
100
AcDbLine
 10
1826.6897
 20
1139.9245
 30
0.0
 11
1831.6519
 21
1139.6933
 31
0.0
  0
LINE
  5
407
330
20
100
AcDbEntity
  8
_0-0_LAYER001
  6
Continuous
 62
     4
100
AcDbLine
 10
1823.6336
 20
1140.1526
 30
0.0
 11
1826.6897
 21
1139.9245
 31
0.0
  0
LINE
  5
408
330
20
100
AcDbEntity
  8
_0-0_LAYER001
  6
Continuous
 62
     4
100
AcDbLine
 10
1819.6973
 20
1140.5463
 30
0.0
 11
1823.6336
 21
1140.1526
 31
0.0
  0
LINE
  5
409
330
20
100
AcDbEntity
  8
_0-0_LAYER001
  6
Continuous
 62
     4
100
AcDbLine
 10
1813.1665
 20
1141.455
 30
0.0
 11
1819.6973
 21
1140.5463
 31
0.0
  0
LINE
  5
40A
330
20
100
AcDbEntity
  8
_0-0_LAYER001
  6
Continuous
 62
     4
100
AcDbLine
 10
1806.5972
 20
1142.6926
 30
0.0
 11
1813.1665
 21
1141.455
 31
0.0
  0
LINE
  5
40B
330
20
100
AcDbEntity
  8
_0-0_LAYER001
  6
Continuous
 62
     4
100
AcDbLine
 10
1800.1064
 20
1144.2355
 30
0.0
 11
1806.5972
 21
1142.6926
 31
0.0
  0
LINE
  5
40C
330
20
100
AcDbEntity
  8
_0-0_LAYER001
  6
Continuous
 62
     4
100
AcDbLine
 10
1793.7074
 20
1146.0748
 30
0.0
 11
1800.1064
 21
1144.2355
 31
0.0
  0
LINE
  5
40D
330
20
100
AcDbEntity
  8
_0-0_LAYER001
  6
Continuous
 62
     4
100
AcDbLine
 10
1787.5051
 20
1148.1718
 30
0.0
 11
1793.7074
 21
1146.0748
 31
0.0
  0
LINE
  5
40E
330
20
100
AcDbEntity
  8
_0-0_LAYER001
  6
Continuous
 62
     4
100
AcDbLine
 10
1783.793299999999
 20
1149.579
 30
0.0
 11
1787.5051
 21
1148.1718
 31
0.0
  0
LINE
  5
40F
330
20
100
AcDbEntity
  8
_0-0_LAYER001
  6
Continuous
 62
     4
100
AcDbLine
 10
1779.3967
 20
1151.3951
 30
0.0
 11
1783.793299999999
 21
1149.579
 31
0.0
  0
LINE
  5
410
330
20
100
AcDbEntity
  8
_0-0_LAYER001
  6
Continuous
 62
     4
100
AcDbLine
 10
1772.2691
 20
1154.6862
 30
0.0
 11
1779.3967
 21
1151.3951
 31
0.0
  0
LINE
  5
411
330
20
100
AcDbEntity
  8
_0-0_LAYER001
  6
Continuous
 62
     4
100
AcDbLine
 10
1765.3121
 20
1158.2949
 30
0.0
 11
1772.2691
 21
1154.6862
 31
0.0
  0
LINE
  5
412
330
20
100
AcDbEntity
  8
_0-0_LAYER001
  6
Continuous
 62
     4
100
AcDbLine
 10
1758.6075
 20
1162.1121
 30
0.0
 11
1765.3121
 21
1158.2949
 31
0.0
  0
LINE
  5
413
330
20
100
AcDbEntity
  8
_0-0_LAYER001
  6
Continuous
 62
     4
100
AcDbLine
 10
1752.1279
 20
1166.0821
 30
0.0
 11
1758.6075
 21
1162.1121
 31
0.0
  0
LINE
  5
414
330
20
100
AcDbEntity
  8
_0-0_LAYER001
  6
Continuous
 62
     4
100
AcDbLine
 10
1745.871999999999
 20
1170.1357
 30
0.0
 11
1752.1279
 21
1166.0821
 31
0.0
  0
LINE
  5
415
330
20
100
AcDbEntity
  8
_0-0_LAYER001
  6
Continuous
 62
     4
100
AcDbLine
 10
1742.2872
 20
1172.5372
 30
0.0
 11
1745.871999999999
 21
1170.1357
 31
0.0
  0
LINE
  5
416
330
20
100
AcDbEntity
  8
_0-0_LAYER001
  6
Continuous
 62
     4
100
AcDbLine
 10
1740.0281
 20
1174.0715
 30
0.0
 11
1742.2872
 21
1172.5372
 31
0.0
  0
LINE
  5
417
330
20
100
AcDbEntity
  8
_0-0_LAYER001
  6
Continuous
 62
     4
100
AcDbLine
 10
1736.3607
 20
1176.547
 30
0.0
 11
1740.0281
 21
1174.0715
 31
0.0
  0
LINE
  5
418
330
20
100
AcDbEntity
  8
_0-0_LAYER001
  6
Continuous
 62
     4
100
AcDbLine
 10
1732.9521
 20
1178.7534
 30
0.0
 11
1736.3607
 21
1176.547
 31
0.0
  0
LINE
  5
419
330
20
100
AcDbEntity
  8
_0-0_LAYER001
  6
Continuous
 62
     4
100
AcDbLine
 10
1729.8039
 20
1180.6258
 30
0.0
 11
1732.9521
 21
1178.7534
 31
0.0
  0
LINE
  5
41A
330
20
100
AcDbEntity
  8
_0-0_LAYER001
  6
Continuous
 62
     4
100
AcDbLine
 10
1726.91
 20
1182.1313
 30
0.0
 11
1729.8039
 21
1180.6258
 31
0.0
  0
LINE
  5
41B
330
20
100
AcDbEntity
  8
_0-0_LAYER001
  6
Continuous
 62
     4
100
AcDbLine
 10
1724.0572
 20
1183.3501
 30
0.0
 11
1726.91
 21
1182.1313
 31
0.0
  0
LINE
  5
41C
330
20
100
AcDbEntity
  8
_0-0_LAYER001
  6
Continuous
 62
     4
100
AcDbLine
 10
1722.5849
 20
1183.8566
 30
0.0
 11
1724.0572
 21
1183.3501
 31
0.0
  0
LINE
  5
41D
330
20
100
AcDbEntity
  8
_0-0_LAYER001
  6
Continuous
 62
     4
100
AcDbLine
 10
1722.4028
 20
1183.9114
 30
0.0
 11
1722.5849
 21
1183.8566
 31
0.0
  0
LINE
  5
41E
330
20
100
AcDbEntity
  8
_0-0_LAYER001
  6
Continuous
 62
     4
100
AcDbLine
 10
1721.6107
 20
1184.1256
 30
0.0
 11
1722.4028
 21
1183.9114
 31
0.0
  0
LINE
  5
41F
330
20
100
AcDbEntity
  8
_0-0_LAYER001
  6
Continuous
 62
     4
100
AcDbLine
 10
1720.9508
 20
1184.2768
 30
0.0
 11
1721.6107
 21
1184.1256
 31
0.0
  0
LINE
  5
420
330
20
100
AcDbEntity
  8
_0-0_LAYER001
  6
Continuous
 62
     4
100
AcDbLine
 10
1720.367
 20
1184.3846
 30
0.0
 11
1720.9508
 21
1184.2768
 31
0.0
  0
LINE
  5
421
330
20
100
AcDbEntity
  8
_0-0_LAYER001
  6
Continuous
 62
     4
100
AcDbLine
 10
1720.3269
 20
1184.3901
 30
0.0
 11
1720.367
 21
1184.3846
 31
0.0
  0
LINE
  5
422
330
20
100
AcDbEntity
  8
_0-0_LAYER001
  6
Continuous
 62
     4
100
AcDbLine
 10
1912.6916
 20
1130.4926
 30
0.0
 11
1916.8764
 21
1131.2595
 31
0.0
  0
LINE
  5
423
330
20
100
AcDbEntity
  8
_0-0_LAYER001
  6
Continuous
 62
     4
100
AcDbLine
 10
1908.502
 20
1129.7281
 30
0.0
 11
1912.6916
 21
1130.4926
 31
0.0
  0
LINE
  5
424
330
20
100
AcDbEntity
  8
_0-0_LAYER001
  6
Continuous
 62
     4
100
AcDbLine
 10
1904.3097
 20
1128.9675
 30
0.0
 11
1908.502
 21
1129.7281
 31
0.0
  0
LINE
  5
425
330
20
100
AcDbEntity
  8
_0-0_LAYER001
  6
Continuous
 62
     4
100
AcDbLine
 10
1901.867
 20
1128.5267
 30
0.0
 11
1904.3097
 21
1128.9675
 31
0.0
  0
LINE
  5
426
330
20
100
AcDbEntity
  8
_0-0_LAYER001
  6
Continuous
 62
     4
100
AcDbLine
 10
1897.1541
 20
1127.6828
 30
0.0
 11
1901.867
 21
1128.5267
 31
0.0
  0
LINE
  5
427
330
20
100
AcDbEntity
  8
_0-0_LAYER001
  6
Continuous
 62
     4
100
AcDbLine
 10
1888.987
 20
1126.2583
 30
0.0
 11
1897.1541
 21
1127.6828
 31
0.0
  0
LINE
  5
428
330
20
100
AcDbEntity
  8
_0-0_LAYER001
  6
Continuous
 62
     4
100
AcDbLine
 10
1880.725
 20
1124.8975
 30
0.0
 11
1888.987
 21
1126.2583
 31
0.0
  0
LINE
  5
429
330
20
100
AcDbEntity
  8
_0-0_LAYER001
  6
Continuous
 62
     4
100
AcDbLine
 10
1872.3691
 20
1123.6392
 30
0.0
 11
1880.725
 21
1124.8975
 31
0.0
  0
LINE
  5
42A
330
20
100
AcDbEntity
  8
_0-0_LAYER001
  6
Continuous
 62
     4
100
AcDbLine
 10
1863.9152
 20
1122.5228
 30
0.0
 11
1872.3691
 21
1123.6392
 31
0.0
  0
LINE
  5
42B
330
20
100
AcDbEntity
  8
_0-0_LAYER001
  6
Continuous
 62
     4
100
AcDbLine
 10
1855.414
 20
1121.5942
 30
0.0
 11
1863.9152
 21
1122.5228
 31
0.0
  0
LINE
  5
42C
330
20
100
AcDbEntity
  8
_0-0_LAYER001
  6
Continuous
 62
     4
100
AcDbLine
 10
1850.3931
 20
1121.1509
 30
0.0
 11
1855.414
 21
1121.5942
 31
0.0
  0
LINE
  5
42D
330
20
100
AcDbEntity
  8
_0-0_LAYER001
  6
Continuous
 62
     4
100
AcDbLine
 10
1847.6211
 20
1120.9425
 30
0.0
 11
1850.3931
 21
1121.1509
 31
0.0
  0
LINE
  5
42E
330
20
100
AcDbEntity
  8
_0-0_LAYER001
  6
Continuous
 62
     4
100
AcDbLine
 10
1842.9401
 20
1120.6583
 30
0.0
 11
1847.6211
 21
1120.9425
 31
0.0
  0
LINE
  5
42F
330
20
100
AcDbEntity
  8
_0-0_LAYER001
  6
Continuous
 62
     4
100
AcDbLine
 10
1838.1597
 20
1120.4704
 30
0.0
 11
1842.9401
 21
1120.6583
 31
0.0
  0
LINE
  5
430
330
20
100
AcDbEntity
  8
_0-0_LAYER001
  6
Continuous
 62
     4
100
AcDbLine
 10
1833.3121
 20
1120.401
 30
0.0
 11
1838.1597
 21
1120.4704
 31
0.0
  0
LINE
  5
431
330
20
100
AcDbEntity
  8
_0-0_LAYER001
  6
Continuous
 62
     4
100
AcDbLine
 10
1828.4
 20
1120.4712
 30
0.0
 11
1833.3121
 21
1120.401
 31
0.0
  0
LINE
  5
432
330
20
100
AcDbEntity
  8
_0-0_LAYER001
  6
Continuous
 62
     4
100
AcDbLine
 10
1823.498
 20
1120.6996
 30
0.0
 11
1828.4
 21
1120.4712
 31
0.0
  0
LINE
  5
433
330
20
100
AcDbEntity
  8
_0-0_LAYER001
  6
Continuous
 62
     4
100
AcDbLine
 10
1820.4948
 20
1120.9238
 30
0.0
 11
1823.498
 21
1120.6996
 31
0.0
  0
LINE
  5
434
330
20
100
AcDbEntity
  8
_0-0_LAYER001
  6
Continuous
 62
     4
100
AcDbLine
 10
1816.6219
 20
1121.311
 30
0.0
 11
1820.4948
 21
1120.9238
 31
0.0
  0
LINE
  5
435
330
20
100
AcDbEntity
  8
_0-0_LAYER001
  6
Continuous
 62
     4
100
AcDbLine
 10
1810.1769
 20
1122.2078
 30
0.0
 11
1816.6219
 21
1121.311
 31
0.0
  0
LINE
  5
436
330
20
100
AcDbEntity
  8
_0-0_LAYER001
  6
Continuous
 62
     4
100
AcDbLine
 10
1803.7011
 20
1123.4279
 30
0.0
 11
1810.1769
 21
1122.2078
 31
0.0
  0
LINE
  5
437
330
20
100
AcDbEntity
  8
_0-0_LAYER001
  6
Continuous
 62
     4
100
AcDbLine
 10
1797.301399999999
 20
1124.949
 30
0.0
 11
1803.7011
 21
1123.4279
 31
0.0
  0
LINE
  5
438
330
20
100
AcDbEntity
  8
_0-0_LAYER001
  6
Continuous
 62
     4
100
AcDbLine
 10
1790.9915
 20
1126.7628
 30
0.0
 11
1797.301399999999
 21
1124.949
 31
0.0
  0
LINE
  5
439
330
20
100
AcDbEntity
  8
_0-0_LAYER001
  6
Continuous
 62
     4
100
AcDbLine
 10
1784.8674
 20
1128.8334
 30
0.0
 11
1790.9915
 21
1126.7628
 31
0.0
  0
LINE
  5
43A
330
20
100
AcDbEntity
  8
_0-0_LAYER001
  6
Continuous
 62
     4
100
AcDbLine
 10
1781.217
 20
1130.2173
 30
0.0
 11
1784.8674
 21
1128.8334
 31
0.0
  0
LINE
  5
43B
330
20
100
AcDbEntity
  8
_0-0_LAYER001
  6
Continuous
 62
     4
100
AcDbLine
 10
1776.8853
 20
1132.0065
 30
0.0
 11
1781.217
 21
1130.2173
 31
0.0
  0
LINE
  5
43C
330
20
100
AcDbEntity
  8
_0-0_LAYER001
  6
Continuous
 62
     4
100
AcDbLine
 10
1769.8365
 20
1135.2612
 30
0.0
 11
1776.8853
 21
1132.0065
 31
0.0
  0
LINE
  5
43D
330
20
100
AcDbEntity
  8
_0-0_LAYER001
  6
Continuous
 62
     4
100
AcDbLine
 10
1762.955
 20
1138.8308
 30
0.0
 11
1769.8365
 21
1135.2612
 31
0.0
  0
LINE
  5
43E
330
20
100
AcDbEntity
  8
_0-0_LAYER001
  6
Continuous
 62
     4
100
AcDbLine
 10
1756.312199999999
 20
1142.6128
 30
0.0
 11
1762.955
 21
1138.8308
 31
0.0
  0
LINE
  5
43F
330
20
100
AcDbEntity
  8
_0-0_LAYER001
  6
Continuous
 62
     4
100
AcDbLine
 10
1749.8816
 20
1146.5528
 30
0.0
 11
1756.312199999999
 21
1142.6128
 31
0.0
  0
LINE
  5
440
330
20
100
AcDbEntity
  8
_0-0_LAYER001
  6
Continuous
 62
     4
100
AcDbLine
 10
1743.6597
 20
1150.5844
 30
0.0
 11
1749.8816
 21
1146.5528
 31
0.0
  0
LINE
  5
441
330
20
100
AcDbEntity
  8
_0-0_LAYER001
  6
Continuous
 62
     4
100
AcDbLine
 10
1740.0929
 20
1152.9738
 30
0.0
 11
1743.6597
 21
1150.5844
 31
0.0
  0
LINE
  5
442
330
20
100
AcDbEntity
  8
_0-0_LAYER001
  6
Continuous
 62
     4
100
AcDbLine
 10
1737.8367
 20
1154.5061
 30
0.0
 11
1740.0929
 21
1152.9738
 31
0.0
  0
LINE
  5
443
330
20
100
AcDbEntity
  8
_0-0_LAYER001
  6
Continuous
 62
     4
100
AcDbLine
 10
1734.150999999999
 20
1156.9941
 30
0.0
 11
1737.8367
 21
1154.5061
 31
0.0
  0
LINE
  5
444
330
20
100
AcDbEntity
  8
_0-0_LAYER001
  6
Continuous
 62
     4
100
AcDbLine
 10
1730.6943
 20
1159.2315
 30
0.0
 11
1734.150999999999
 21
1156.9941
 31
0.0
  0
LINE
  5
445
330
20
100
AcDbEntity
  8
_0-0_LAYER001
  6
Continuous
 62
     4
100
AcDbLine
 10
1727.4647
 20
1161.1524
 30
0.0
 11
1730.6943
 21
1159.2315
 31
0.0
  0
LINE
  5
446
330
20
100
AcDbEntity
  8
_0-0_LAYER001
  6
Continuous
 62
     4
100
AcDbLine
 10
1724.4529
 20
1162.7191
 30
0.0
 11
1727.4647
 21
1161.1524
 31
0.0
  0
LINE
  5
447
330
20
100
AcDbEntity
  8
_0-0_LAYER001
  6
Continuous
 62
     4
100
AcDbLine
 10
1721.4636
 20
1163.9963
 30
0.0
 11
1724.4529
 21
1162.7191
 31
0.0
  0
LINE
  5
448
330
20
100
AcDbEntity
  8
_0-0_LAYER001
  6
Continuous
 62
     4
100
AcDbLine
 10
1720.709
 20
1164.2559
 30
0.0
 11
1721.4636
 21
1163.9963
 31
0.0
  0
LINE
  5
449
330
20
100
AcDbEntity
  8
_0-0_LAYER001
  6
Continuous
 62
     4
100
AcDbLine
 10
1720.6922
 20
1184.3018
 30
0.0
 11
1720.8683
 21
1164.1284
 31
0.0
  0
LINE
  5
44A
330
20
100
AcDbEntity
  8
_0-0_LAYER001
  6
Continuous
 62
     4
100
AcDbLine
 10
1675.7776
 20
1189.0382
 30
0.0
 11
1676.8946
 21
1189.5066
 31
0.0
  0
ARC
  5
44B
330
20
100
AcDbEntity
  8
_0-0_LAYER001
  6
Continuous
 62
     4
100
AcDbCircle
 10
1676.551
 20
1187.1938
 30
0.0
 40
2.0
100
AcDbArc
 50
112.74902
 51
181.0
  0
LINE
  5
44C
330
20
100
AcDbEntity
  8
_0-0_LAYER001
  6
Continuous
 62
     4
100
AcDbLine
 10
1927.8264
 20
1172.2058
 30
0.0
 11
1969.6111
 21
1182.6588
 31
0.0
  0
LINE
  5
44D
330
20
100
AcDbEntity
  8
_0-0_LAYER001
  6
Continuous
 62
     4
100
AcDbLine
 10
1674.5749
 20
1170.5487
 30
0.0
 11
1674.5749
 21
1187.3426
 31
0.0
  0
LINE
  5
44E
330
20
100
AcDbEntity
  8
_0-0_LAYER001
  6
Continuous
 62
     4
100
AcDbLine
 10
1675.9581
 20
1169.625
 30
0.0
 11
1682.5035
 21
1172.3404
 31
0.0
  0
ARC
  5
44F
330
20
100
AcDbEntity
  8
_0-0_LAYER001
  6
Continuous
 62
     4
100
AcDbCircle
 10
1675.5749
 20
1170.5487
 30
0.0
 40
1.0
100
AcDbArc
 50
180.0
 51
292.5316600000001
  0
LINE
  5
450
330
20
100
AcDbEntity
  8
_0-0_LAYER001
  6
Continuous
 62
     4
100
AcDbLine
 10
1951.4313
 20
1139.1634
 30
0.0
 11
1926.6135
 21
1132.955
 31
0.0
  0
LINE
  5
451
330
20
100
AcDbEntity
  8
_0-0_LAYER001
  6
Continuous
 62
     4
100
AcDbLine
 10
1963.9602
 20
1162.6904
 30
0.0
 11
1930.1648
 21
1154.2361
 31
0.0
  0
ARC
  5
452
330
20
100
AcDbEntity
  8
_0-0_LAYER001
  6
Continuous
 62
     4
100
AcDbCircle
 10
1965.7836
 20
1146.2323
 30
0.0
 40
16.544874
100
AcDbArc
 50
77.324888
 51
96.27450500000001
  0
LINE
  5
453
330
20
100
AcDbEntity
  8
_0-0_LAYER001
  6
Continuous
 62
     4
100
AcDbLine
 10
1972.8121
 20
1163.0629
 30
0.0
 11
1969.7652
 21
1103.4299
 31
0.0
  0
LINE
  5
454
330
20
100
AcDbEntity
  8
_0-0_LAYER001
  6
Continuous
 62
     4
100
AcDbLine
 10
1931.369
 20
1152.5982
 30
0.0
 11
1951.4313
 21
1157.6641
 31
0.0
  0
LINE
  5
455
330
20
100
AcDbEntity
  8
_0-0_LAYER001
  6
Continuous
 62
     4
100
AcDbLine
 10
1951.4313
 20
1159.309
 30
0.0
 11
1951.4313
 21
1102.8793
 31
0.0
  0
LINE
  5
456
330
20
100
AcDbEntity
  8
_0-0_LAYER001
  6
Continuous
 62
     4
100
AcDbLine
 10
1969.4313
 20
1162.2092
 30
0.0
 11
1972.8121
 21
1163.0629
 31
0.0
  0
LINE
  5
457
330
20
100
AcDbEntity
  8
_0-0_LAYER001
  6
Continuous
 62
     4
100
AcDbLine
 10
1969.4313
 20
1182.5811
 30
0.0
 11
1969.4313
 21
1102.8793
 31
0.0
  0
LINE
  5
458
330
20
100
AcDbEntity
  8
_0-0_LAYER001
  6
Continuous
 62
     4
100
AcDbLine
 10
1969.4313
 20
1102.8793
 30
0.0
 11
1951.4313
 21
1102.8793
 31
0.0
  0
LINE
  5
459
330
20
100
AcDbEntity
  8
_0-0_LAYER001
  6
DASHED1
 62
     2
100
AcDbLine
 10
1911.7141
 20
1156.7591
 30
0.0
 11
1927.7141
 21
1156.7591
 31
0.0
  0
LINE
  5
45A
330
20
100
AcDbEntity
  8
_0-0_LAYER001
  6
DASHED1
 62
     2
100
AcDbLine
 10
1927.7141
 20
1156.7591
 30
0.0
 11
1927.7141
 21
1153.7591
 31
0.0
  0
LINE
  5
45B
330
20
100
AcDbEntity
  8
_0-0_LAYER001
  6
DASHED1
 62
     2
100
AcDbLine
 10
1911.7141
 20
1156.7591
 30
0.0
 11
1911.7141
 21
1153.7591
 31
0.0
  0
LINE
  5
45C
330
20
100
AcDbEntity
  8
_0-0_LAYER001
  6
DASHED1
 62
     2
100
AcDbLine
 10
1911.7141
 20
1153.7591
 30
0.0
 11
1927.7141
 21
1153.7591
 31
0.0
  0
LINE
  5
45D
330
20
100
AcDbEntity
  8
_0-0_LAYER001
  6
DASHED1
 62
     2
100
AcDbLine
 10
1922.7141
 20
1098.8631
 30
0.0
 11
1919.6639
 21
1084.3541
 31
0.0
  0
LINE
  5
45E
330
20
100
AcDbEntity
  8
_0-0_LAYER001
  6
DASHED1
 62
     2
100
AcDbLine
 10
1922.7141
 20
1153.7591
 30
0.0
 11
1922.7141
 21
1098.8631
 31
0.0
  0
LINE
  5
45F
330
20
100
AcDbEntity
  8
_0-0_LAYER001
  6
DASHED1
 62
     2
100
AcDbLine
 10
1919.6639
 20
1084.3541
 30
0.0
 11
1916.7141
 21
1098.6117
 31
0.0
  0
LINE
  5
460
330
20
100
AcDbEntity
  8
_0-0_LAYER001
  6
DASHED1
 62
     2
100
AcDbLine
 10
1916.7141
 20
1153.7591
 30
0.0
 11
1916.7141
 21
1098.6117
 31
0.0
  0
LINE
  5
461
330
20
100
AcDbEntity
  8
_0-0_LAYER001
  6
DASHED1
 62
     2
100
AcDbLine
 10
1773.1545
 20
1153.613
 30
0.0
 11
1789.1545
 21
1153.613
 31
0.0
  0
LINE
  5
462
330
20
100
AcDbEntity
  8
_0-0_LAYER001
  6
DASHED1
 62
     2
100
AcDbLine
 10
1789.1545
 20
1153.613
 30
0.0
 11
1789.1545
 21
1150.613
 31
0.0
  0
LINE
  5
463
330
20
100
AcDbEntity
  8
_0-0_LAYER001
  6
DASHED1
 62
     2
100
AcDbLine
 10
1773.1545
 20
1153.613
 30
0.0
 11
1773.1545
 21
1150.613
 31
0.0
  0
LINE
  5
464
330
20
100
AcDbEntity
  8
_0-0_LAYER001
  6
DASHED1
 62
     2
100
AcDbLine
 10
1773.1545
 20
1150.613
 30
0.0
 11
1789.1545
 21
1150.613
 31
0.0
  0
LINE
  5
465
330
20
100
AcDbEntity
  8
_0-0_LAYER001
  6
DASHED1
 62
     2
100
AcDbLine
 10
1784.1545
 20
1095.7169
 30
0.0
 11
1781.1044
 21
1081.208
 31
0.0
  0
LINE
  5
466
330
20
100
AcDbEntity
  8
_0-0_LAYER001
  6
DASHED1
 62
     2
100
AcDbLine
 10
1784.1545
 20
1150.613
 30
0.0
 11
1784.1545
 21
1095.7169
 31
0.0
  0
LINE
  5
467
330
20
100
AcDbEntity
  8
_0-0_LAYER001
  6
DASHED1
 62
     2
100
AcDbLine
 10
1781.1044
 20
1081.208
 30
0.0
 11
1778.1545
 21
1095.4655
 31
0.0
  0
LINE
  5
468
330
20
100
AcDbEntity
  8
_0-0_LAYER001
  6
DASHED1
 62
     2
100
AcDbLine
 10
1778.1545
 20
1150.613
 30
0.0
 11
1778.1545
 21
1095.4655
 31
0.0
  0
LINE
  5
469
330
20
100
AcDbEntity
  8
_0-0_LAYER001
  6
DASHED1
 62
     2
100
AcDbLine
 10
1523.0327
 20
1155.186
 30
0.0
 11
1539.0327
 21
1155.186
 31
0.0
  0
LINE
  5
46A
330
20
100
AcDbEntity
  8
_0-0_LAYER001
  6
DASHED1
 62
     2
100
AcDbLine
 10
1539.0327
 20
1155.186
 30
0.0
 11
1539.0327
 21
1152.186
 31
0.0
  0
LINE
  5
46B
330
20
100
AcDbEntity
  8
_0-0_LAYER001
  6
DASHED1
 62
     2
100
AcDbLine
 10
1523.0327
 20
1155.186
 30
0.0
 11
1523.0327
 21
1152.186
 31
0.0
  0
LINE
  5
46C
330
20
100
AcDbEntity
  8
_0-0_LAYER001
  6
DASHED1
 62
     2
100
AcDbLine
 10
1523.0327
 20
1152.186
 30
0.0
 11
1539.0327
 21
1152.186
 31
0.0
  0
LINE
  5
46D
330
20
100
AcDbEntity
  8
_0-0_LAYER001
  6
DASHED1
 62
     2
100
AcDbLine
 10
1534.0327
 20
1097.29
 30
0.0
 11
1530.9825
 21
1082.7811
 31
0.0
  0
LINE
  5
46E
330
20
100
AcDbEntity
  8
_0-0_LAYER001
  6
DASHED1
 62
     2
100
AcDbLine
 10
1534.0327
 20
1152.186
 30
0.0
 11
1534.0327
 21
1097.29
 31
0.0
  0
LINE
  5
46F
330
20
100
AcDbEntity
  8
_0-0_LAYER001
  6
DASHED1
 62
     2
100
AcDbLine
 10
1530.9825
 20
1082.7811
 30
0.0
 11
1528.0327
 21
1097.0386
 31
0.0
  0
LINE
  5
470
330
20
100
AcDbEntity
  8
_0-0_LAYER001
  6
DASHED1
 62
     2
100
AcDbLine
 10
1528.0327
 20
1152.186
 30
0.0
 11
1528.0327
 21
1097.0386
 31
0.0
  0
LINE
  5
471
330
20
100
AcDbEntity
  8
_0-0_LAYER001
  6
DASHED1
 62
     2
100
AcDbLine
 10
1263.4723
 20
1153.613
 30
0.0
 11
1279.4723
 21
1153.613
 31
0.0
  0
LINE
  5
472
330
20
100
AcDbEntity
  8
_0-0_LAYER001
  6
DASHED1
 62
     2
100
AcDbLine
 10
1279.4723
 20
1153.613
 30
0.0
 11
1279.4723
 21
1150.613
 31
0.0
  0
LINE
  5
473
330
20
100
AcDbEntity
  8
_0-0_LAYER001
  6
DASHED1
 62
     2
100
AcDbLine
 10
1263.4723
 20
1153.613
 30
0.0
 11
1263.4723
 21
1150.613
 31
0.0
  0
LINE
  5
474
330
20
100
AcDbEntity
  8
_0-0_LAYER001
  6
DASHED1
 62
     2
100
AcDbLine
 10
1263.4723
 20
1150.613
 30
0.0
 11
1279.4723
 21
1150.613
 31
0.0
  0
LINE
  5
475
330
20
100
AcDbEntity
  8
_0-0_LAYER001
  6
DASHED1
 62
     2
100
AcDbLine
 10
1274.4723
 20
1095.7169
 30
0.0
 11
1271.4222
 21
1081.208
 31
0.0
  0
LINE
  5
476
330
20
100
AcDbEntity
  8
_0-0_LAYER001
  6
DASHED1
 62
     2
100
AcDbLine
 10
1274.4723
 20
1150.613
 30
0.0
 11
1274.4723
 21
1095.7169
 31
0.0
  0
LINE
  5
477
330
20
100
AcDbEntity
  8
_0-0_LAYER001
  6
DASHED1
 62
     2
100
AcDbLine
 10
1271.4222
 20
1081.208
 30
0.0
 11
1268.4723
 21
1095.4655
 31
0.0
  0
LINE
  5
478
330
20
100
AcDbEntity
  8
_0-0_LAYER001
  6
DASHED1
 62
     2
100
AcDbLine
 10
1268.4723
 20
1150.613
 30
0.0
 11
1268.4723
 21
1095.4655
 31
0.0
  0
LINE
  5
479
330
20
100
AcDbEntity
  8
_0-0_LAYER001
  6
Continuous
 62
     4
100
AcDbLine
 10
1930.1648
 20
1154.2361
 30
0.0
 11
1916.0044
 21
1151.714
 31
0.0
  0
LINE
  5
47A
330
20
100
AcDbEntity
  8
_0-0_LAYER001
  6
Continuous
 62
     4
100
AcDbLine
 10
1916.3641
 20
1149.7466
 30
0.0
 11
1931.369
 21
1152.5982
 31
0.0
  0
LINE
  5
47B
330
20
100
AcDbEntity
  8
_0-0_LAYER001
  6
Continuous
 62
     4
100
AcDbLine
 10
1926.6135
 20
1132.955
 30
0.0
 11
1916.8764
 21
1131.2595
 31
0.0
  0
LINE
  5
47C
330
20
100
AcDbEntity
  8
_0-0_LAYER001
  6
Continuous
 62
     2
100
AcDbLine
 10
1876.281
 20
989.4611000000001
 30
0.0
 11
1873.9815
 21
989.461
 31
0.0
  0
LINE
  5
47D
330
20
100
AcDbEntity
  8
_0-0_LAYER001
  6
Continuous
 62
     2
100
AcDbLine
 10
1876.2818
 20
1049.4613
 30
0.0
 11
1873.9813
 21
1049.4609
 31
0.0
  0
LINE
  5
47E
330
20
100
AcDbEntity
  8
_0-0_LAYER001
  6
Continuous
 62
     2
100
AcDbLine
 10
1876.2811
 20
1064.4619
 30
0.0
 11
1876.2818
 21
1049.4613
 31
0.0
  0
LINE
  5
47F
330
20
100
AcDbEntity
  8
_0-0_LAYER001
  6
Continuous
 62
     2
100
AcDbLine
 10
1918.9805
 20
1067.1629
 30
0.0
 11
1878.9815
 21
1067.1619
 31
0.0
  0
LINE
  5
480
330
20
100
AcDbEntity
  8
_0-0_LAYER001
  6
Continuous
 62
     2
100
AcDbLine
 10
1878.9806
 20
1069.4611
 30
0.0
 11
1918.9815
 21
1069.4618
 31
0.0
  0
LINE
  5
481
330
20
100
AcDbEntity
  8
_0-0_LAYER001
  6
Continuous
 62
     2
100
AcDbLine
 10
1873.981
 20
1064.4616
 30
0.0
 11
1873.9813
 21
1049.4609
 31
0.0
  0
LINE
  5
482
330
20
100
AcDbEntity
  8
_0-0_LAYER001
  6
Continuous
 62
     2
100
AcDbLine
 10
1923.9832
 20
974.4609999999999
 30
0.0
 11
1923.9811
 21
1064.4619
 31
0.0
  0
LINE
  5
483
330
20
100
AcDbEntity
  8
_0-0_LAYER001
  6
Continuous
 62
     2
100
AcDbLine
 10
1878.9815
 20
969.4605000000001
 30
0.0
 11
1918.9836
 21
969.4613999999999
 31
0.0
  0
LINE
  5
484
330
20
100
AcDbEntity
  8
_0-0_LAYER001
  6
Continuous
 62
     2
100
AcDbLine
 10
1873.9819
 20
974.4602
 30
0.0
 11
1873.9815
 21
989.461
 31
0.0
  0
LINE
  5
485
330
20
100
AcDbEntity
  8
_0-0_LAYER001
  6
Continuous
 62
     2
100
AcDbLine
 10
1876.2812
 20
974.4602999999999
 30
0.0
 11
1876.281
 21
989.4611000000001
 31
0.0
  0
LINE
  5
486
330
20
100
AcDbEntity
  8
_0-0_LAYER001
  6
Continuous
 62
     2
100
AcDbLine
 10
1918.9823
 20
971.7605000000002
 30
0.0
 11
1878.9814
 21
971.7598999999999
 31
0.0
  0
LINE
  5
487
330
20
100
AcDbEntity
  8
_0-0_LAYER001
  6
Continuous
 62
     2
100
AcDbLine
 10
1921.6827
 20
974.4606
 30
0.0
 11
1921.6803
 21
1064.4624
 31
0.0
  0
LINE
  5
488
330
20
100
AcDbEntity
  8
_0-0_LAYER001
  6
Continuous
 62
     2
100
AcDbLine
 10
1848.9801
 20
1010.4615
 30
0.0
 11
1856.7745
 21
1014.9613
 31
0.0
  0
LINE
  5
489
330
20
100
AcDbEntity
  8
_0-0_LAYER001
  6
Continuous
 62
     2
100
AcDbLine
 10
1856.7745
 20
1014.9613
 30
0.0
 11
1856.7749
 21
1023.9612
 31
0.0
  0
LINE
  5
48A
330
20
100
AcDbEntity
  8
_0-0_LAYER001
  6
Continuous
 62
     2
100
AcDbLine
 10
1856.7749
 20
1023.9612
 30
0.0
 11
1848.981
 21
1028.4615
 31
0.0
  0
LINE
  5
48B
330
20
100
AcDbEntity
  8
_0-0_LAYER001
  6
Continuous
 62
     2
100
AcDbLine
 10
1848.981
 20
1028.4615
 30
0.0
 11
1841.1866
 21
1023.9617
 31
0.0
  0
LINE
  5
48C
330
20
100
AcDbEntity
  8
_0-0_LAYER001
  6
Continuous
 62
     2
100
AcDbLine
 10
1841.1866
 20
1023.9617
 30
0.0
 11
1841.1862
 21
1014.9618
 31
0.0
  0
LINE
  5
48D
330
20
100
AcDbEntity
  8
_0-0_LAYER001
  6
Continuous
 62
     2
100
AcDbLine
 10
1841.1862
 20
1014.9618
 30
0.0
 11
1848.9801
 21
1010.4615
 31
0.0
  0
LINE
  5
48E
330
20
100
AcDbEntity
  8
_0-0_LAYER001
  6
Continuous
 62
     2
100
AcDbLine
 10
1843.981
 20
1009.4614
 30
0.0
 11
1843.9805
 21
1013.3481
 31
0.0
  0
LINE
  5
48F
330
20
100
AcDbEntity
  8
_0-0_LAYER001
  6
Continuous
 62
     2
100
AcDbLine
 10
1853.9804
 20
1009.4612
 30
0.0
 11
1853.9807
 21
1013.3483
 31
0.0
  0
LINE
  5
490
330
20
100
AcDbEntity
  8
_0-0_LAYER001
  6
Continuous
 62
     2
100
AcDbLine
 10
1853.9801
 20
1029.4617
 30
0.0
 11
1853.9806
 21
1025.5749
 31
0.0
  0
LINE
  5
491
330
20
100
AcDbEntity
  8
_0-0_LAYER001
  6
Continuous
 62
     2
100
AcDbLine
 10
1843.9807
 20
1029.4619
 30
0.0
 11
1843.9804
 21
1025.5747
 31
0.0
  0
LINE
  5
492
330
20
100
AcDbEntity
  8
_0-0_LAYER001
  6
Continuous
 62
     2
100
AcDbLine
 10
918.9227999999999
 20
969.4613
 30
0.0
 11
1868.981
 21
969.4613
 31
0.0
  0
LINE
  5
493
330
20
100
AcDbEntity
  8
_0-0_LAYER001
  6
Continuous
 62
     2
100
AcDbLine
 10
1873.981
 20
1059.4615
 30
0.0
 11
1873.981
 21
979.4615
 31
0.0
  0
LINE
  5
494
330
20
100
AcDbEntity
  8
_0-0_LAYER001
  6
Continuous
 62
     2
100
AcDbLine
 10
1868.981
 20
971.7602000000001
 30
0.0
 11
918.9227999999999
 21
971.7602000000001
 31
0.0
  0
LINE
  5
495
330
20
100
AcDbEntity
  8
_0-0_LAYER001
  6
Continuous
 62
     2
100
AcDbLine
 10
1868.981
 20
1067.1617
 30
0.0
 11
918.9227999999999
 21
1067.1617
 31
0.0
  0
LINE
  5
496
330
20
100
AcDbEntity
  8
_0-0_LAYER001
  6
Continuous
 62
     2
100
AcDbLine
 10
1823.981
 20
1059.4615
 30
0.0
 11
1823.981
 21
1049.4609
 31
0.0
  0
LINE
  5
497
330
20
100
AcDbEntity
  8
_0-0_LAYER001
  6
Continuous
 62
     2
100
AcDbLine
 10
1870.781
 20
1059.4615
 30
0.0
 11
1870.781
 21
979.4615
 31
0.0
  0
LINE
  5
498
330
20
100
AcDbEntity
  8
_0-0_LAYER001
  6
Continuous
 62
     2
100
AcDbLine
 10
1873.981
 20
1059.4615
 30
0.0
 11
1868.981
 21
1059.4615
 31
0.0
  0
LINE
  5
499
330
20
100
AcDbEntity
  8
_0-0_LAYER001
  6
Continuous
 62
     2
100
AcDbLine
 10
1868.981
 20
1059.4615
 30
0.0
 11
1823.981
 21
1059.4615
 31
0.0
  0
LINE
  5
49A
330
20
100
AcDbEntity
  8
_0-0_LAYER001
  6
Continuous
 62
     2
100
AcDbLine
 10
1823.981
 20
1049.4609
 30
0.0
 11
1823.981
 21
989.461
 31
0.0
  0
LINE
  5
49B
330
20
100
AcDbEntity
  8
_0-0_LAYER001
  6
Continuous
 62
     2
100
AcDbLine
 10
1823.981
 20
989.461
 30
0.0
 11
1823.981
 21
979.4615
 31
0.0
  0
LINE
  5
49C
330
20
100
AcDbEntity
  8
_0-0_LAYER001
  6
Continuous
 62
     2
100
AcDbLine
 10
1873.981
 20
979.4615
 30
0.0
 11
1868.981
 21
979.4615
 31
0.0
  0
LINE
  5
49D
330
20
100
AcDbEntity
  8
_0-0_LAYER001
  6
Continuous
 62
     2
100
AcDbLine
 10
1868.981
 20
979.4615
 30
0.0
 11
1823.981
 21
979.4615
 31
0.0
  0
LINE
  5
49E
330
20
100
AcDbEntity
  8
_0-0_LAYER001
  6
Continuous
 62
     2
100
AcDbLine
 10
1868.981
 20
1069.4612
 30
0.0
 11
1868.981
 21
1049.4609
 31
0.0
  0
LINE
  5
49F
330
20
100
AcDbEntity
  8
_0-0_LAYER001
  6
Continuous
 62
     2
100
AcDbLine
 10
1868.981
 20
1049.4609
 30
0.0
 11
1868.981
 21
979.4615
 31
0.0
  0
LINE
  5
4A0
330
20
100
AcDbEntity
  8
_0-0_LAYER001
  6
Continuous
 62
     2
100
AcDbLine
 10
1868.981
 20
979.4615
 30
0.0
 11
1868.981
 21
969.4613
 31
0.0
  0
LINE
  5
4A1
330
20
100
AcDbEntity
  8
_0-0_LAYER001
  6
DASHED1
 62
     2
100
AcDbLine
 10
1868.981
 20
1049.4609
 30
0.0
 11
918.9227999999999
 21
1049.4609
 31
0.0
  0
LINE
  5
4A2
330
20
100
AcDbEntity
  8
_0-0_LAYER001
  6
DASHED1
 62
     2
100
AcDbLine
 10
1868.981
 20
989.461
 30
0.0
 11
918.9227999999999
 21
989.461
 31
0.0
  0
LINE
  5
4A3
330
20
100
AcDbEntity
  8
_0-0_LAYER001
  6
Continuous
 62
     2
100
AcDbLine
 10
1923.9819
 20
1130.4612
 30
0.0
 11
1923.9819
 21
934.2045999999999
 31
0.0
  0
LINE
  5
4A4
330
20
100
AcDbEntity
  8
_0-0_LAYER001
  6
Continuous
 62
     2
100
AcDbLine
 10
918.9227999999999
 20
1069.4612
 30
0.0
 11
1923.9819
 21
1069.4612
 31
0.0
  0
ARC
  5
4A5
330
20
100
AcDbEntity
  8
_0-0_LAYER001
  6
Continuous
 62
     2
100
AcDbCircle
 10
1878.9814
 20
1064.4617
 30
0.0
 40
2.7
100
AcDbArc
 50
89.99690200000001
 51
179.98901
  0
ARC
  5
4A6
330
20
100
AcDbEntity
  8
_0-0_LAYER001
  6
Continuous
 62
     2
100
AcDbCircle
 10
1918.9802
 20
1064.4627
 30
0.0
 40
2.7
100
AcDbArc
 50
0.016586
 51
89.99690200000001
  0
ARC
  5
4A7
330
20
100
AcDbEntity
  8
_0-0_LAYER001
  6
Continuous
 62
     2
100
AcDbCircle
 10
1918.9824
 20
1064.4626
 30
0.0
 40
4.998999999999999
100
AcDbArc
 50
359.9980300000001
 51
90.00868199999999
  0
ARC
  5
4A8
330
20
100
AcDbEntity
  8
_0-0_LAYER001
  6
Continuous
 62
     2
100
AcDbCircle
 10
1878.98
 20
1064.4624
 30
0.0
 40
4.998999999999999
100
AcDbArc
 50
89.98741099999998
 51
180.00442
  0
ARC
  5
4A9
330
20
100
AcDbEntity
  8
_0-0_LAYER001
  6
Continuous
 62
     2
100
AcDbCircle
 10
1918.984
 20
974.4602
 30
0.0
 40
4.998999999999999
100
AcDbArc
 50
269.99377
 51
0.0193180000000246
  0
ARC
  5
4AA
330
20
100
AcDbEntity
  8
_0-0_LAYER001
  6
Continuous
 62
     2
100
AcDbCircle
 10
1878.9808
 20
974.4597
 30
0.0
 40
4.998999999999999
100
AcDbArc
 50
179.98313
 51
270.01506
  0
ARC
  5
4AB
330
20
100
AcDbEntity
  8
_0-0_LAYER001
  6
Continuous
 62
     2
100
AcDbCircle
 10
1878.9817
 20
974.4602
 30
0.0
 40
2.7
100
AcDbArc
 50
179.98901
 51
270.0087100000001
  0
ARC
  5
4AC
330
20
100
AcDbEntity
  8
_0-0_LAYER001
  6
Continuous
 62
     2
100
AcDbCircle
 10
1918.9828
 20
974.4607000000002
 30
0.0
 40
2.7
100
AcDbArc
 50
270.0087100000001
 51
0.0165860000000489
  0
ARC
  5
4AD
330
20
100
AcDbEntity
  8
_0-0_LAYER001
  6
Continuous
 62
     2
100
AcDbCircle
 10
1848.9807
 20
1009.4612
 30
0.0
 40
5.0
100
AcDbArc
 50
179.98814
 51
0.0030209999999897
  0
ARC
  5
4AE
330
20
100
AcDbEntity
  8
_0-0_LAYER001
  6
Continuous
 62
     2
100
AcDbCircle
 10
1848.9804
 20
1029.4618
 30
0.0
 40
5.0
100
AcDbArc
 50
0.0030209999999999
 51
179.98814
  0
LINE
  5
4AF
330
20
100
AcDbEntity
  8
_0-1_LAYER003
  6
Continuous
 62
     2
100
AcDbLine
 10
1948.9819
 20
1130.4612
 30
0.0
 11
1948.9819
 21
934.2045999999999
 31
0.0
  0
LINE
  5
4B0
330
20
100
AcDbEntity
  8
_0-0_LAYER001
  6
Continuous
 62
     2
100
AcDbLine
 10
1923.9819
 20
1130.4612
 30
0.0
 11
1948.9819
 21
1130.4612
 31
0.0
  0
LINE
  5
4B1
330
20
100
AcDbEntity
  8
_0-1_LAYER003
  6
Continuous
 62
     2
100
AcDbLine
 10
1934.8397
 20
934.2045999999999
 30
0.0
 11
1948.9819
 21
948.3467
 31
0.0
  0
LINE
  5
4B2
330
20
100
AcDbEntity
  8
_0-1_LAYER003
  6
Continuous
 62
     2
100
AcDbLine
 10
1923.9819
 20
937.4888
 30
0.0
 11
1948.9819
 21
962.4888
 31
0.0
  0
LINE
  5
4B3
330
20
100
AcDbEntity
  8
_0-1_LAYER003
  6
Continuous
 62
     2
100
AcDbLine
 10
1923.9819
 20
951.6310000000002
 30
0.0
 11
1948.9819
 21
976.6310000000002
 31
0.0
  0
LINE
  5
4B4
330
20
100
AcDbEntity
  8
_0-1_LAYER003
  6
Continuous
 62
     2
100
AcDbLine
 10
1923.9819
 20
965.7731
 30
0.0
 11
1948.9819
 21
990.7731
 31
0.0
  0
LINE
  5
4B5
330
20
100
AcDbEntity
  8
_0-1_LAYER003
  6
Continuous
 62
     2
100
AcDbLine
 10
1923.9819
 20
979.9152000000001
 30
0.0
 11
1948.9819
 21
1004.9152
 31
0.0
  0
LINE
  5
4B6
330
20
100
AcDbEntity
  8
_0-1_LAYER003
  6
Continuous
 62
     2
100
AcDbLine
 10
1923.9819
 20
994.0573999999999
 30
0.0
 11
1948.9819
 21
1019.0574
 31
0.0
  0
LINE
  5
4B7
330
20
100
AcDbEntity
  8
_0-1_LAYER003
  6
Continuous
 62
     2
100
AcDbLine
 10
1923.9819
 20
1008.1995
 30
0.0
 11
1948.9819
 21
1033.1995
 31
0.0
  0
LINE
  5
4B8
330
20
100
AcDbEntity
  8
_0-1_LAYER003
  6
Continuous
 62
     2
100
AcDbLine
 10
1923.9819
 20
1022.3416
 30
0.0
 11
1948.9819
 21
1047.3416
 31
0.0
  0
LINE
  5
4B9
330
20
100
AcDbEntity
  8
_0-1_LAYER003
  6
Continuous
 62
     2
100
AcDbLine
 10
1923.9819
 20
1036.4838
 30
0.0
 11
1948.9819
 21
1061.4838
 31
0.0
  0
LINE
  5
4BA
330
20
100
AcDbEntity
  8
_0-1_LAYER003
  6
Continuous
 62
     2
100
AcDbLine
 10
1923.9819
 20
1050.6259
 30
0.0
 11
1948.9819
 21
1075.6259
 31
0.0
  0
LINE
  5
4BB
330
20
100
AcDbEntity
  8
_0-1_LAYER003
  6
Continuous
 62
     2
100
AcDbLine
 10
1923.9819
 20
1064.768
 30
0.0
 11
1948.9819
 21
1089.768
 31
0.0
  0
LINE
  5
4BC
330
20
100
AcDbEntity
  8
_0-1_LAYER003
  6
Continuous
 62
     2
100
AcDbLine
 10
1923.9819
 20
1078.9102
 30
0.0
 11
1948.9819
 21
1103.9102
 31
0.0
  0
LINE
  5
4BD
330
20
100
AcDbEntity
  8
_0-1_LAYER003
  6
Continuous
 62
     2
100
AcDbLine
 10
1923.9819
 20
1093.0523
 30
0.0
 11
1948.9819
 21
1118.0523
 31
0.0
  0
LINE
  5
4BE
330
20
100
AcDbEntity
  8
_0-1_LAYER003
  6
Continuous
 62
     2
100
AcDbLine
 10
1923.9819
 20
1107.1945
 30
0.0
 11
1947.2487
 21
1130.4612
 31
0.0
  0
LINE
  5
4BF
330
20
100
AcDbEntity
  8
_0-1_LAYER003
  6
Continuous
 62
     2
100
AcDbLine
 10
1924.7419
 20
1121.3366
 30
0.0
 11
1933.8666
 21
1130.4612
 31
0.0
  0
LINE
  5
4C0
330
20
100
AcDbEntity
  8
_0-0_LAYER001
  6
Continuous
 62
     2
100
AcDbLine
 10
2037.4659
 20
1069.4612
 30
0.0
 11
1999.8061
 21
1069.4612
 31
0.0
  0
CIRCLE
  5
4C1
330
20
100
AcDbEntity
  8
_0-0_LAYER001
  6
Continuous
 62
     2
100
AcDbCircle
 10
2034.9659
 20
1069.4612
 30
0.0
 40
1.699999999999999
  0
LINE
  5
4C2
330
20
100
AcDbEntity
  8
_0-0_LAYER001
  6
Continuous
 62
     2
100
AcDbLine
 10
2034.9659
 20
1069.4612
 30
0.0
 11
2034.9659
 21
1094.4612
 31
0.0
  0
CIRCLE
  5
4C3
330
20
100
AcDbEntity
  8
_0-0_LAYER001
  6
Continuous
 62
     2
100
AcDbCircle
 10
2034.9659
 20
1094.4612
 30
0.0
 40
1.699999999999999
  0
LINE
  5
4C4
330
20
100
AcDbEntity
  8
_0-0_LAYER001
  6
Continuous
 62
     2
100
AcDbLine
 10
2037.4659
 20
1094.4612
 30
0.0
 11
1999.8061
 21
1094.4612
 31
0.0
  0
LINE
  5
4C5
330
20
100
AcDbEntity
  8
_0-0_LAYER001
  6
Continuous
 62
     2
100
AcDbLine
 10
2037.4659
 20
1094.4612
 30
0.0
 11
1994.9659
 21
1094.4612
 31
0.0
  0
CIRCLE
  5
4C6
330
20
100
AcDbEntity
  8
_0-0_LAYER001
  6
Continuous
 62
     2
100
AcDbCircle
 10
2034.9659
 20
1094.4612
 30
0.0
 40
1.699999999999999
  0
LINE
  5
4C7
330
20
100
AcDbEntity
  8
_0-0_LAYER001
  6
Continuous
 62
     2
100
AcDbLine
 10
2034.9659
 20
1094.4612
 30
0.0
 11
2034.9659
 21
1130.4612
 31
0.0
  0
CIRCLE
  5
4C8
330
20
100
AcDbEntity
  8
_0-0_LAYER001
  6
Continuous
 62
     2
100
AcDbCircle
 10
2034.9659
 20
1130.4612
 30
0.0
 40
1.699999999999999
  0
LINE
  5
4C9
330
20
100
AcDbEntity
  8
_0-0_LAYER001
  6
Continuous
 62
     2
100
AcDbLine
 10
2037.4659
 20
1130.4612
 30
0.0
 11
1994.9659
 21
1130.4612
 31
0.0
  0
LINE
  5
4CA
330
20
100
AcDbEntity
  8
_0-1_LAYER003
  6
Continuous
 62
     7
100
AcDbLine
 10
918.9227999999999
 20
1114.9402
 30
0.0
 11
1923.9819
 21
1114.9402
 31
0.0
  0
LINE
  5
4CB
330
20
100
AcDbEntity
  8
_0-1_LAYER003
  6
Continuous
 62
     7
100
AcDbLine
 10
1923.9819
 20
1114.9402
 30
0.0
 11
1923.9819
 21
1130.4612
 31
0.0
  0
LINE
  5
4CC
330
20
100
AcDbEntity
  8
_0-1_LAYER003
  6
Continuous
 62
     7
100
AcDbLine
 10
1923.9819
 20
1130.4612
 30
0.0
 11
1948.9819
 21
1130.4612
 31
0.0
  0
LINE
  5
4CD
330
20
100
AcDbEntity
  8
_0-1_LAYER003
  6
Continuous
 62
     7
100
AcDbLine
 10
1948.9819
 20
1130.4612
 30
0.0
 11
1948.9819
 21
934.2045999999999
 31
0.0
  0
LINE
  5
4CE
330
20
100
AcDbEntity
  8
_0-1_LAYER003
  6
Continuous
 62
     7
100
AcDbLine
 10
1941.8719
 20
934.2045999999999
 30
0.0
 11
1972.2701
 21
934.2045999999999
 31
0.0
  0
LINE
  5
4CF
330
20
100
AcDbEntity
  8
_0-1_LAYER003
  6
Continuous
 62
     7
100
AcDbLine
 10
1931.9811
 20
934.2045999999999
 30
0.0
 11
1901.3689
 21
934.2045999999999
 31
0.0
  0
LINE
  5
4D0
330
20
100
AcDbEntity
  8
_0-1_LAYER003
  6
Continuous
 62
     7
100
AcDbLine
 10
1923.9819
 20
934.2045999999999
 30
0.0
 11
1923.9819
 21
1114.9402
 31
0.0
  0
LINE
  5
4D1
330
20
100
AcDbEntity
  8
_0-1_LAYER003
  6
Continuous
 62
     7
100
AcDbLine
 10
1923.9819
 20
1099.9402
 30
0.0
 11
918.9227999999999
 21
1099.9402
 31
0.0
  0
LINE
  5
4D2
330
20
100
AcDbEntity
  8
_0-1_LAYER003
  6
Continuous
 62
     7
100
AcDbLine
 10
918.9227999999999
 20
1095.2402
 30
0.0
 11
1919.4972
 21
1095.2402
 31
0.0
  0
LINE
  5
4D3
330
20
100
AcDbEntity
  8
_0-1_LAYER003
  6
Continuous
 62
     7
100
AcDbLine
 10
1923.9819
 20
1094.4612
 30
0.0
 11
918.9227999999999
 21
1094.4612
 31
0.0
  0
LINE
  5
4D4
330
20
100
AcDbEntity
  8
_0-1_LAYER003
  6
Continuous
 62
     7
100
AcDbLine
 10
918.9227999999999
 20
1069.4612
 30
0.0
 11
1923.9819
 21
1069.4612
 31
0.0
  0
LINE
  5
4D5
330
20
100
AcDbEntity
  8
_0-1_LAYER003
  6
Continuous
 62
     7
100
AcDbLine
 10
1868.981
 20
1067.1617
 30
0.0
 11
918.9227999999999
 21
1067.1617
 31
0.0
  0
LINE
  5
4D6
330
20
100
AcDbEntity
  8
_0-1_LAYER003
  6
Continuous
 62
     7
100
AcDbLine
 10
918.9227999999999
 20
1049.4609
 30
0.0
 11
1868.981
 21
1049.4609
 31
0.0
  0
LINE
  5
4D7
330
20
100
AcDbEntity
  8
_0-1_LAYER003
  6
Continuous
 62
     7
100
AcDbLine
 10
1873.981
 20
1059.4615
 30
0.0
 11
1823.981
 21
1059.4615
 31
0.0
  0
LINE
  5
4D8
330
20
100
AcDbEntity
  8
_0-1_LAYER003
  6
Continuous
 62
     7
100
AcDbLine
 10
1823.981
 20
1059.4615
 30
0.0
 11
1823.981
 21
979.4615
 31
0.0
  0
LINE
  5
4D9
330
20
100
AcDbEntity
  8
_0-1_LAYER003
  6
Continuous
 62
     7
100
AcDbLine
 10
1823.981
 20
979.4615
 30
0.0
 11
1873.981
 21
979.4615
 31
0.0
  0
LINE
  5
4DA
330
20
100
AcDbEntity
  8
_0-1_LAYER003
  6
Continuous
 62
     7
100
AcDbLine
 10
1873.981
 20
979.4615
 30
0.0
 11
1873.981
 21
1059.4615
 31
0.0
  0
LINE
  5
4DB
330
20
100
AcDbEntity
  8
_0-1_LAYER003
  6
Continuous
 62
     7
100
AcDbLine
 10
1870.781
 20
1059.4615
 30
0.0
 11
1870.781
 21
979.4615
 31
0.0
  0
LINE
  5
4DC
330
20
100
AcDbEntity
  8
_0-1_LAYER003
  6
Continuous
 62
     7
100
AcDbLine
 10
1868.981
 20
969.4613
 30
0.0
 11
1868.981
 21
1069.4612
 31
0.0
  0
LINE
  5
4DD
330
20
100
AcDbEntity
  8
_0-1_LAYER003
  6
Continuous
 62
     7
100
AcDbLine
 10
1868.981
 20
971.7602000000001
 30
0.0
 11
918.9227999999999
 21
971.7602000000001
 31
0.0
  0
LINE
  5
4DE
330
20
100
AcDbEntity
  8
_0-1_LAYER003
  6
Continuous
 62
     7
100
AcDbLine
 10
918.9227999999999
 20
989.461
 30
0.0
 11
1868.981
 21
989.461
 31
0.0
  0
LINE
  5
4DF
330
20
100
AcDbEntity
  8
_0-1_LAYER003
  6
Continuous
 62
     7
100
AcDbLine
 10
1868.981
 20
969.4613
 30
0.0
 11
918.9227999999999
 21
969.4613
 31
0.0
  0
LINE
  5
4E0
330
20
100
AcDbEntity
  8
_0-1_LAYER003
  6
Continuous
 62
     7
100
AcDbLine
 10
1165.0917
 20
1323.3405
 30
0.0
 11
1165.0917
 21
1270.8405
 31
0.0
  0
LINE
  5
4E1
330
20
100
AcDbEntity
  8
_0-1_LAYER003
  6
Continuous
 62
     7
100
AcDbLine
 10
1166.7917
 20
1320.8405
 30
0.0
 11
1973.0917
 21
1320.8405
 31
0.0
  0
LINE
  5
4E2
330
20
100
AcDbEntity
  8
_0-1_LAYER003
  6
Continuous
 62
     7
100
AcDbLine
 10
1973.0917
 20
1270.8405
 30
0.0
 11
1973.0917
 21
1322.5405
 31
0.0
  0
LINE
  5
4E3
330
20
100
AcDbEntity
  8
_0-1_LAYER003
  6
Continuous
 62
     7
100
AcDbLine
 10
1675.0917
 20
1270.8405
 30
0.0
 11
1675.0917
 21
1320.8405
 31
0.0
  0
LINE
  5
4E4
330
20
100
AcDbEntity
  8
_0-1_LAYER003
  6
Continuous
 62
     7
100
AcDbLine
 10
1675.0917
 20
1319.1405
 30
0.0
 11
1675.0917
 21
1323.3405
 31
0.0
  0
LINE
  5
4E5
330
20
100
AcDbEntity
  8
_0-1_LAYER003
  6
Continuous
 62
     7
100
AcDbLine
 10
1419.5244
 20
1270.8405
 30
0.0
 11
1419.5244
 21
1323.3405
 31
0.0
  0
LINE
  5
4E6
330
20
100
AcDbEntity
  8
_0-1_LAYER003
  6
Continuous
 62
     7
100
AcDbLine
 10
1361.3981
 20
1237.3768
 30
0.0
 11
1401.8981
 21
1237.3768
 31
0.0
  0
LINE
  5
4E7
330
20
100
AcDbEntity
  8
_0-1_LAYER003
  6
Continuous
 62
     7
100
AcDbLine
 10
1813.2697
 20
1235.7208
 30
0.0
 11
1861.2697
 21
1235.7208
 31
0.0
  0
LINE
  5
4E8
330
20
100
AcDbEntity
  8
_0-1_LAYER003
  6
Continuous
 62
     7
100
AcDbLine
 10
1994.9659
 20
1130.4612
 30
0.0
 11
2036.6659
 21
1130.4612
 31
0.0
  0
LINE
  5
4E9
330
20
100
AcDbEntity
  8
_0-1_LAYER003
  6
Continuous
 62
     7
100
AcDbLine
 10
2034.9659
 20
1130.4612
 30
0.0
 11
2034.9659
 21
1069.4612
 31
0.0
  0
LINE
  5
4EA
330
20
100
AcDbEntity
  8
_0-1_LAYER003
  6
Continuous
 62
     7
100
AcDbLine
 10
1999.8061
 20
1069.4612
 30
0.0
 11
2034.9659
 21
1069.4612
 31
0.0
  0
LINE
  5
4EB
330
20
100
AcDbEntity
  8
_0-1_LAYER003
  6
Continuous
 62
     7
100
AcDbLine
 10
1994.9659
 20
1094.4612
 30
0.0
 11
2037.4659
 21
1094.4612
 31
0.0
  0
LINE
  5
4EC
330
20
100
AcDbEntity
  8
_0-1_LAYER003
  6
Continuous
 62
     7
100
AcDbLine
 10
2034.9659
 20
1069.4612
 30
0.0
 11
2037.4659
 21
1069.4612
 31
0.0
  0
LINE
  5
4ED
330
20
100
AcDbEntity
  8
_0-1_LAYER003
  6
Continuous
 62
     7
100
AcDbLine
 10
1948.9819
 20
912.9182
 30
0.0
 11
1948.9819
 21
866.6907999999999
 31
0.0
  0
LINE
  5
4EE
330
20
100
AcDbEntity
  8
_0-1_LAYER003
  6
Continuous
 62
     7
100
AcDbLine
 10
1948.9819
 20
864.9907999999999
 30
0.0
 11
1948.9819
 21
866.6907999999999
 31
0.0
  0
LINE
  5
4EF
330
20
100
AcDbEntity
  8
_0-1_LAYER003
  6
Continuous
 62
     7
100
AcDbLine
 10
1948.9819
 20
866.6907999999999
 30
0.0
 11
1968.9819
 21
866.6907999999999
 31
0.0
  0
LINE
  5
4F0
330
20
100
AcDbEntity
  8
_0-1_LAYER003
  6
Continuous
 62
     7
100
AcDbLine
 10
1968.9819
 20
864.9907999999999
 30
0.0
 11
1968.9819
 21
912.9182
 31
0.0
  0
LINE
  5
4F1
330
20
100
AcDbEntity
  8
_0-1_LAYER003
  6
Continuous
 62
     7
100
AcDbLine
 10
2012.1223
 20
895.5526999999998
 30
0.0
 11
2060.1223
 21
895.5526999999998
 31
0.0
  0
LINE
  5
4F2
330
20
100
AcDbEntity
  8
_0-1_LAYER003
  6
Continuous
 62
     7
100
AcDbLine
 10
2012.1223
 20
895.5526999999998
 30
0.0
 11
1948.9819
 21
1004.9152
 31
0.0
  0
LINE
  5
4F3
330
20
100
AcDbEntity
  8
_0-1_LAYER003
  6
Continuous
 62
     7
100
AcDbLine
 10
1948.9819
 20
1004.9152
 30
0.0
 11
1954.2852
 21
999.6119
 31
0.0
  0
LINE
  5
4F4
330
20
100
AcDbEntity
  8
_0-1_LAYER003
  6
Continuous
 62
     7
100
AcDbLine
 10
1950.923
 20
997.6708
 30
0.0
 11
1948.9819
 21
1004.9152
 31
0.0
  0
LINE
  5
4F5
330
20
100
AcDbEntity
  8
_0-1_LAYER003
  6
Continuous
 62
     7
100
AcDbLine
 10
1941.8719
 20
934.2045999999999
 30
0.0
 11
1938.9457
 21
938.1062
 31
0.0
  0
LINE
  5
4F6
330
20
100
AcDbEntity
  8
_0-1_LAYER003
  6
Continuous
 62
     7
100
AcDbLine
 10
1938.9457
 20
938.1062
 30
0.0
 11
1934.2869
 21
928.9342000000001
 31
0.0
  0
LINE
  5
4F7
330
20
100
AcDbEntity
  8
_0-1_LAYER003
  6
Continuous
 62
     7
100
AcDbLine
 10
1934.2869
 20
928.9342000000001
 30
0.0
 11
1931.9811
 21
934.2045999999999
 31
0.0
  0
LINE
  5
4F8
330
20
100
AcDbEntity
  8
_0-1_LAYER003
  6
Continuous
 62
     7
100
AcDbLine
 10
1361.3981
 20
1237.3768
 30
0.0
 11
1301.2929
 21
1133.2715
 31
0.0
  0
LINE
  5
4F9
330
20
100
AcDbEntity
  8
_0-1_LAYER003
  6
Continuous
 62
     7
100
AcDbLine
 10
1301.2929
 20
1133.2715
 30
0.0
 11
1306.5962
 21
1138.5748
 31
0.0
  0
LINE
  5
4FA
330
20
100
AcDbEntity
  8
_0-1_LAYER003
  6
Continuous
 62
     7
100
AcDbLine
 10
1301.2929
 20
1133.2715
 30
0.0
 11
1303.234
 21
1140.5159
 31
0.0
  0
LINE
  5
4FB
330
20
100
AcDbEntity
  8
_0-1_LAYER003
  6
Continuous
 62
     7
100
AcDbLine
 10
1212.8614
 20
1105.6107
 30
0.0
 11
1212.8614
 21
1098.1107
 31
0.0
  0
LINE
  5
4FC
330
20
100
AcDbEntity
  8
_0-1_LAYER003
  6
Continuous
 62
     7
100
AcDbLine
 10
1212.8614
 20
1105.6107
 30
0.0
 11
1216.6114
 21
1099.1155
 31
0.0
  0
LINE
  5
4FD
330
20
100
AcDbEntity
  8
_0-1_LAYER003
  6
Continuous
 62
     7
100
AcDbLine
 10
1212.8614
 20
1105.6107
 30
0.0
 11
1304.487
 21
763.6594
 31
0.0
  0
LINE
  5
4FE
330
20
100
AcDbEntity
  8
_0-1_LAYER003
  6
Continuous
 62
     7
100
AcDbLine
 10
1764.0569
 20
1150.4817
 30
0.0
 11
1813.2697
 21
1235.7208
 31
0.0
  0
LINE
  5
4FF
330
20
100
AcDbEntity
  8
_0-1_LAYER003
  6
Continuous
 62
     7
100
AcDbLine
 10
1769.3602
 20
1155.785
 30
0.0
 11
1764.0569
 21
1150.4817
 31
0.0
  0
LINE
  5
500
330
20
100
AcDbEntity
  8
_0-1_LAYER003
  6
Continuous
 62
     7
100
AcDbLine
 10
1764.0569
 20
1150.4817
 30
0.0
 11
1765.3121
 21
1158.2949
 31
0.0
  0
LINE
  5
501
330
20
100
AcDbEntity
  8
_0-1_LAYER003
  6
Continuous
 62
     7
100
AcDbLine
 10
1878.981545989811
 20
1067.161699996053
 30
0.0
 11
1918.98034598981
 21
1067.162699996053
 31
0.0
  0
LINE
  5
502
330
20
100
AcDbEntity
  8
_0-1_LAYER003
  6
Continuous
 62
     7
100
AcDbLine
 10
1921.6803
 20
1064.4624
 30
0.0
 11
1921.682799886872
 21
974.4614815968256
 31
0.0
  0
LINE
  5
503
330
20
100
AcDbEntity
  8
_0-1_LAYER003
  6
Continuous
 62
     7
100
AcDbLine
 10
1918.983210449079
 20
971.7607000311978
 30
0.0
 11
1878.982110449078
 21
971.7602000311977
 31
0.0
  0
LINE
  5
504
330
20
100
AcDbEntity
  8
_0-1_LAYER003
  6
Continuous
 62
     7
100
AcDbLine
 10
1876.281700049669
 20
974.4607178915455
 30
0.0
 11
1876.281
 21
989.4611000000001
 31
0.0
  0
LINE
  5
505
330
20
100
AcDbEntity
  8
_0-1_LAYER003
  6
Continuous
 62
     7
100
AcDbLine
 10
1876.281
 20
989.4611000000001
 30
0.0
 11
1873.9815
 21
989.461
 31
0.0
  0
LINE
  5
506
330
20
100
AcDbEntity
  8
_0-1_LAYER003
  6
Continuous
 62
     7
100
AcDbLine
 10
1873.981
 20
979.4615
 30
0.0
 11
1873.9819
 21
974.4602
 31
0.0
  0
LINE
  5
507
330
20
100
AcDbEntity
  8
_0-1_LAYER003
  6
Continuous
 62
     7
100
AcDbLine
 10
1878.9815
 20
969.4605000000001
 30
0.0
 11
1918.983456438673
 21
969.4612000295519
 31
0.0
  0
LINE
  5
508
330
20
100
AcDbEntity
  8
_0-1_LAYER003
  6
Continuous
 62
     7
100
AcDbLine
 10
1876.2811
 20
1064.4619
 30
0.0
 11
1876.2818
 21
1049.4613
 31
0.0
  0
LINE
  5
509
330
20
100
AcDbEntity
  8
_0-1_LAYER003
  6
Continuous
 62
     7
100
AcDbLine
 10
1876.2818
 20
1049.4613
 30
0.0
 11
1873.9813
 21
1049.4609
 31
0.0
  0
LINE
  5
50A
330
20
100
AcDbEntity
  8
_0-1_LAYER003
  6
Continuous
 62
     7
100
AcDbLine
 10
1873.981
 20
1059.4615
 30
0.0
 11
1873.981000014875
 21
1064.462014359379
 31
0.0
  0
ARC
  5
50B
330
20
100
AcDbEntity
  8
_0-1_LAYER003
  6
Continuous
 62
     7
100
AcDbCircle
 10
1878.990344616783
 20
1064.452654043274
 30
0.0
 40
2.709260393775842
100
AcDbArc
 50
90.18704740023686
 51
179.8044649648679
  0
ARC
  5
50C
330
20
100
AcDbEntity
  8
_0-1_LAYER003
  6
Continuous
 62
     7
100
AcDbCircle
 10
1878.837602820165
 20
1064.604817483695
 30
0.0
 40
4.858701836979153
100
AcDbArc
 50
88.30759618711118
 51
181.6842348128889
  0
ARC
  5
50D
330
20
100
AcDbEntity
  8
_0-1_LAYER003
  6
Continuous
 62
     7
100
AcDbCircle
 10
1918.978070193387
 20
1064.460670732496
 30
0.0
 40
2.702230359927764
100
AcDbArc
 50
0.0366659104461728
 51
89.94848045347795
  0
ARC
  5
50E
330
20
100
AcDbEntity
  8
_0-1_LAYER003
  6
Continuous
 62
     7
100
AcDbCircle
 10
1918.999675728965
 20
1064.470301210271
 30
0.0
 40
4.991110423172535
100
AcDbArc
 50
3.419482370353726
 51
89.47236605839474
  0
ARC
  5
50F
330
20
100
AcDbEntity
  8
_0-1_LAYER003
  6
Continuous
 62
     7
100
AcDbCircle
 10
1919.018753670545
 20
974.4246517948512
 30
0.0
 40
2.664188867115752
100
AcDbArc
 50
269.2355883545828
 51
0.7731219680549031
  0
ARC
  5
510
330
20
100
AcDbEntity
  8
_0-1_LAYER003
  6
Continuous
 62
     7
100
AcDbCircle
 10
1919.035927524795
 20
974.4073693785306
 30
0.0
 40
4.946246178994313
100
AcDbArc
 50
269.3938428976159
 51
359.3972431227449
  0
ARC
  5
511
330
20
100
AcDbEntity
  8
_0-1_LAYER003
  6
Continuous
 62
     7
100
AcDbCircle
 10
1879.003567488319
 20
974.4822658539327
 30
0.0
 40
2.72245610436557
100
AcDbArc
 50
180.4622900538968
 51
269.5334662858136
  0
ARC
  5
512
330
20
100
AcDbEntity
  8
_0-1_LAYER003
  6
Continuous
 62
     7
100
AcDbCircle
 10
1878.956019780633
 20
974.4347246116673
 30
0.0
 40
4.974289871820592
100
AcDbArc
 50
179.6953686555604
 51
270.2934922276008
  0
TEXT
  5
513
330
20
100
AcDbEntity
  8
_0-1_LAYER003
 62
     7
100
AcDbText
 10
1813.2697
 20
1238.220799999999
 30
0.0
 40
20.0
  1
右袖瓦
100
AcDbText
  0
TEXT
  5
514
330
20
100
AcDbEntity
  8
_0-1_LAYER003
 62
     7
100
AcDbText
 10
1282.313684070642
 20
1334.048632202015
 30
0.0
 40
20.0
  1
255
100
AcDbText
  0
TEXT
  5
515
330
20
100
AcDbEntity
  8
_0-1_LAYER003
 62
     7
100
AcDbText
 10
1538.339802492241
 20
1335.368354461919
 30
0.0
 40
20.0
  1
255
100
AcDbText
  0
TEXT
  5
516
330
20
100
AcDbEntity
  8
_0-1_LAYER003
 62
     7
100
AcDbText
 10
1814.161754812418
 20
1336.688076721826
 30
0.0
 40
20.0
  1
298
100
AcDbText
  0
TEXT
  5
517
330
20
100
AcDbEntity
  8
_0-1_LAYER003
 62
     7
100
AcDbText
 10
1357.38272169527
 20
1244.861345764004
 30
0.0
 40
20.0
  1
桟　瓦
100
AcDbText
  0
TEXT
  5
518
330
20
100
AcDbEntity
  8
_0-0_LAYER001
 62
     7
100
AcDbText
 10
2061.82651141
 20
1072.960416929894
 30
0.0
 40
20.0
  1
25
 50
90.0
100
AcDbText
  0
TEXT
  5
519
330
20
100
AcDbEntity
  8
_0-0_LAYER001
 62
     7
100
AcDbText
 10
2059.594894375449
 20
1107.550480965442
 30
0.0
 40
20.0
  1
36
 50
90.0
100
AcDbText
  0
TEXT
  5
51A
330
20
100
AcDbEntity
  8
_0-1_LAYER003
 62
     7
100
AcDbText
 10
2012.176353249913
 20
901.1923224430782
 30
0.0
 40
20.0
  1
破風板
100
AcDbText
  0
TEXT
  5
51B
330
20
100
AcDbEntity
  8
_0-1_LAYER003
 62
     7
100
AcDbText
 10
1950.093147582648
 20
839.1527847375837
 30
0.0
 40
20.0
  1
20
100
AcDbText
  0
TEXT
  5
51C
330
20
100
AcDbEntity
  8
_0-0_LAYER001
 62
     7
100
AcDbText
 10
1281.879678692945
 20
864.7425775454046
 30
0.0
 40
20.0
  1
瓦桟：１５ｘ３０以上
100
AcDbText
  0
TEXT
  5
51D
330
20
100
AcDbEntity
  8
_0-0_LAYER001
 62
     7
100
AcDbText
 10
1294.897444727829
 20
828.2928326477305
 30
0.0
 40
20.0
  1
下葺材：ルーフィング
100
AcDbText
  0
TEXT
  5
51E
330
20
100
AcDbEntity
  8
_0-0_LAYER001
 62
     7
100
AcDbText
 10
1298.802774538294
 20
798.3519707674985
 30
0.0
 40
20.0
  1
野地板：硬質木片セメントパネルt＝25
100
AcDbText
  0
TEXT
  5
51F
330
20
100
AcDbEntity
  8
_0-0_LAYER001
 62
     7
100
AcDbText
 10
1311.820540573178
 20
767.1093322837779
 30
0.0
 40
20.0
  1
鋼製：C－100x50x⑳x2.3　@606
100
AcDbText
  0
LINE
  5
520
330
20
100
AcDbEntity
  8
_0-0_LAYER001
  6
Continuous
 62
     2
100
AcDbLine
 10
1304.487
 20
763.6594
 30
0.0
 11
1606.022052961546
 21
763.6594
 31
0.0
  0
LINE
  5
521
330
20
100
AcDbEntity
  8
_0-1_LAYER003
  6
Continuous
 62
     7
100
AcDbLine
 10
1304.487
 20
763.6594
 30
0.0
 11
1599.513169944105
 21
763.6594
 31
0.0
  0
LINE
  5
522
330
20
100
AcDbEntity
  8
_0-0_LAYER001
  6
Continuous
 62
     2
100
AcDbLine
 10
1297.3138
 20
793.5259000000002
 30
0.0
 11
1665.903776722011
 21
793.5259000000002
 31
0.0
  0
LINE
  5
523
330
20
100
AcDbEntity
  8
_0-1_LAYER003
  6
Continuous
 62
     7
100
AcDbLine
 10
1297.3138
 20
793.5259000000002
 30
0.0
 11
1673.71443634294
 21
793.5259000000002
 31
0.0
  0
LINE
  5
524
330
20
100
AcDbEntity
  8
_0-0_LAYER001
  6
Continuous
 62
     2
100
AcDbLine
 10
1287.7707
 20
823.6213000000001
 30
0.0
 11
1504.483477889454
 21
823.6213000000001
 31
0.0
  0
LINE
  5
525
330
20
100
AcDbEntity
  8
_0-1_LAYER003
  6
Continuous
 62
     7
100
AcDbLine
 10
1287.7707
 20
823.6213000000001
 30
0.0
 11
1504.483477889454
 21
823.6213000000001
 31
0.0
  0
LINE
  5
526
330
20
100
AcDbEntity
  8
_0-0_LAYER001
  6
Continuous
 62
     2
100
AcDbLine
 10
1279.1413
 20
853.7165999999999
 30
0.0
 11
1496.672818268524
 21
853.7165999999999
 31
0.0
  0
LINE
  5
527
330
20
100
AcDbEntity
  8
_0-1_LAYER003
  6
Continuous
 62
     7
100
AcDbLine
 10
1280.35623932057
 20
853.7165999999999
 30
0.0
 11
1488.862158647594
 21
853.7165999999999
 31
0.0
  0
ENDSEC
  0
SECTION
  2
OBJECTS
  0
DICTIONARY
  5
C
330
0
100
AcDbDictionary
281
     1
  3
ACAD_COLOR
350
1B
  3
ACAD_GROUP
350
D
  3
ACAD_LAYOUT
350
19
  3
ACAD_MATERIAL
350
1A
  3
ACAD_MLINESTYLE
350
16
  3
ACAD_PLOTSETTINGS
350
18
  3
ACAD_PLOTSTYLENAME
350
E
  0
DICTIONARY
  5
1B
102
{ACAD_REACTORS
330
C
102
}
330
C
100
AcDbDictionary
281
     1
  0
DICTIONARY
  5
D
102
{ACAD_REACTORS
330
C
102
}
330
C
100
AcDbDictionary
281
     1
  0
DICTIONARY
  5
19
102
{ACAD_REACTORS
330
C
102
}
330
C
100
AcDbDictionary
281
     1
  3
Model
350
23
  3
レイアウト1
350
1F
  0
DICTIONARY
  5
1A
102
{ACAD_REACTORS
330
C
102
}
330
C
100
AcDbDictionary
281
     1
  0
DICTIONARY
  5
16
102
{ACAD_REACTORS
330
C
102
}
330
C
100
AcDbDictionary
281
     1
  3
Standard
350
17
  0
DICTIONARY
  5
18
102
{ACAD_REACTORS
330
C
102
}
330
C
100
AcDbDictionary
281
     1
  0
ACDBDICTIONARYWDFLT
  5
E
102
{ACAD_REACTORS
330
C
102
}
330
C
100
AcDbDictionary
281
     1
  3
Normal
350
F
100
AcDbDictionaryWithDefault
340
F
  0
LAYOUT
  5
23
102
{ACAD_REACTORS
330
19
102
}
330
19
100
AcDbPlotSettings
  1

  2
Microsoft Office Document Image Writer
  4

  6

 40
0.0
 41
0.0
 42
0.0
 43
0.0
 44
0.0
 45
0.0
 46
0.0
 47
0.0
 48
0.0
 49
0.0
140
0.0
141
0.0
142
1.0
143
1.0
 70
  1712
 72
     0
 73
     0
 74
     0
  7

 75
     0
147
1.0
 76
     0
 77
     2
 78
   300
148
0.0
149
0.0
100
AcDbLayout
  1
Model
 70
     1
 71
     0
 10
0.0
 20
0.0
 11
12.0
 21
9.0
 12
0.0
 22
0.0
 32
0.0
 14
0.0
 24
0.0
 34
0.0
 15
0.0
 25
0.0
 35
0.0
146
0.0
 13
0.0
 23
0.0
 33
0.0
 16
1.0
 26
0.0
 36
0.0
 17
0.0
 27
1.0
 37
0.0
 76
     0
330
20
  0
LAYOUT
  5
1F
102
{ACAD_REACTORS
330
19
102
}
330
19
100
AcDbPlotSettings
  1

  2
Microsoft Office Document Image Writer
  4

  6

 40
0.0
 41
0.0
 42
0.0
 43
0.0
 44
0.0
 45
0.0
 46
0.0
 47
0.0
 48
0.0
 49
0.0
140
0.0
141
0.0
142
1.0
143
1.0
 70
   688
 72
     0
 73
     0
 74
     5
  7

 75
    16
147
1.0
 76
     0
 77
     2
 78
   300
148
0.0
149
0.0
100
AcDbLayout
  1
レイアウト1
 70
     1
 71
     1
 10
0.0
 20
0.0
 11
12.0
 21
9.0
 12
0.0
 22
0.0
 32
0.0
 14
1.000000000000000E+20
 24
1.000000000000000E+20
 34
1.000000000000000E+20
 15
-1.000000000000000E+20
 25
-1.000000000000000E+20
 35
-1.000000000000000E+20
146
0.0
 13
0.0
 23
0.0
 33
0.0
 16
1.0
 26
0.0
 36
0.0
 17
0.0
 27
1.0
 37
0.0
 76
     0
330
1C
  0
MLINESTYLE
  5
17
102
{ACAD_REACTORS
330
16
102
}
330
16
100
AcDbMlineStyle
  2
STANDARD
 70
     0
  3

 62
   256
 51
90.0
 52
90.0
 71
     2
 49
0.5
 62
   256
  6
BYLAYER
 49
-0.5
 62
   256
  6
BYLAYER
  0
ACDBPLACEHOLDER
  5
F
102
{ACAD_REACTORS
330
E
102
}
330
E
  0
ENDSEC
  0
EOF
