  0
SECTION
  2
HEADER
  9
$ACADVER
  1
AC1009
  9
$INSBASE
 10
0
 20
0
 30
0
  9
$EXTMIN
 10
0
 20
0
  9
$EXTMAX
 10
2970
 20
2100
  9
$LIMMIN
 10
0
 20
0
  9
$LIMMAX
 10
2970
 20
2100
  9
$LTSCALE
 40
10
  0
ENDSEC
  0
SECTION
  2
TABLES
  0
TABLE
  2
LTYPE
 70
     9
  0
LTYPE
  2
CONTINUOUS
 70
    64
  3
実線
 72
    65
 73
     0
 40
0.0
  0
LTYPE
  2
DASHED1
 70
    64
  3
--  --  --  --  --  --  --  --  
 72
    65
 73
     2
 40
2.5
 49
1.25
 49
-1.25
  0
LTYPE
  2
DASHED2
 70
    64
  3
----    ----    ----    ----    
 72
    65
 73
     2
 40
5.0
 49
2.5
 49
-2.5
  0
LTYPE
  2
DASHED3
 70
    64
  3
------  ------  ------  ------  
 72
    65
 73
     2
 40
5.0
 49
3.75
 49
-1.25
  0
LTYPE
  2
CENTER1
 70
    64
  3
----- - ----- - ----- - ----- - 
 72
    65
 73
     4
 40
10.0
 49
6.25
 49
-1.25
 49
1.25
 49
-1.25
  0
LTYPE
  2
CENTER2
 70
    64
  3
----------  --  ----------  --  
 72
    65
 73
     4
 40
20.0
 49
12.5
 49
-2.5
 49
2.5
 49
-2.5
  0
LTYPE
  2
PHANTOM1
 70
    64
  3
--- - - --- - - --- - - --- - - 
 72
    65
 73
     6
 40
10.0
 49
3.25
 49
-1.25
 49
1.25
 49
-1.25
 49
1.25
 49
-1.25
  0
LTYPE
  2
PHANTOM2
 70
    64
  3
--------  -  -  --------  -  -  
 72
    65
 73
     6
 40
20.0
 49
10.0
 49
-2.5
 49
1.25
 49
-2.5
 49
1.25
 49
-2.5
  0
LTYPE
  2
DOT
 70
    64
  3
-   -   -   -   -   -   -   -   
 72
    65
 73
     2
 40
2.5
 49
0.625
 49
-1.875
  0
LTYPE
  2
DUMMY
 70
    64
  3
ダミー
 72
    65
 73
     0
 40
0.0
  0
LTYPE
  2
RAND1
 70
    64
  3
ランダム線1
 72
    65
 73
     4
 40
10.0
 49
1.0
 49
-2.0
 49
3.0
 49
-4.0
  0
LTYPE
  2
RAND2
 70
    64
  3
ランダム線2
 72
    65
 73
     4
 40
14.0
 49
2.0
 49
-3.0
 49
4.0
 49
-5.0
  0
LTYPE
  2
RAND3
 70
    64
  3
ランダム線3
 72
    65
 73
     4
 40
18.0
 49
3.0
 49
-4.0
 49
5.0
 49
-6.0
  0
LTYPE
  2
RAND4
 70
    64
  3
ランダム線4
 72
    65
 73
     4
 40
22.0
 49
4.0
 49
-5.0
 49
6.0
 49
-7.0
  0
LTYPE
  2
RAND5
 70
    64
  3
ランダム線5
 72
    65
 73
     4
 40
26.0
 49
5.0
 49
-6.0
 49
7.0
 49
-8.0
  0
LTYPE
  2
LONG1
 70
    64
  3
----------  --  ----------  --  
 72
    65
 73
     4
 40
40.0
 49
32.5
 49
-2.5
 49
2.5
 49
-2.5
  0
LTYPE
  2
LONG2
 70
    64
  3
--------  -  -  --------  -  -  
 72
    65
 73
     6
 40
40.0
 49
30.0
 49
-2.5
 49
1.25
 49
-2.5
 49
1.25
 49
-2.5
  0
LTYPE
  2
LONG3
 70
    64
  3
+++++++++++++++..+++++++++++++++
 72
    65
 73
     2
 40
40.0
 49
37.5
 49
-2.5
  0
LTYPE
  2
LONG4
 70
    64
  3
+++++++++++++++..+++++++++++++++
 72
    65
 73
     2
 40
80.0
 49
75.0
 49
-5.0
  0
LTYPE
  2
LONG5
 70
    64
  3
----------  --  ----------  --  
 72
    65
 73
     4
 40
60.0
 49
37.5
 49
-7.5
 49
7.5
 49
-7.5
  0
LTYPE
  2
dashed
 70
   64
  3
-------   -------------   ------
 72
   65
 73
    2
 40
7.5
 49
6
 49
-1.5
  0
LTYPE
  2
dashed_spaced
 70
   64
  3
----        --------        ----
 72
   65
 73
    2
 40
12
 49
6
 49
-6
  0
LTYPE
  2
long_dashed_dotted
 70
   64
  3
------------- --- --------------
 72
   65
 73
    4
 40
15.25
 49
12
 49
-1.5
 49
0.25
 49
-1.5
  0
LTYPE
  2
long_dashed_double-dotted
 70
   64
  3
----------- --- --- ------------
 72
   65
 73
    6
 40
17
 49
12
 49
-1.5
 49
0.25
 49
-1.5
 49
0.25
 49
-1.5
  0
LTYPE
  2
long_dashed_triplicate-dotted
 70
   64
  3
--------- --- --- --- ----------
 72
   65
 73
    8
 40
18.75
 49
12
 49
-1.5
 49
0.25
 49
-1.5
 49
0.25
 49
-1.5
 49
0.25
 49
-1.5
  0
LTYPE
  2
dotted
 70
   64
  3
   -       -       -       -    
 72
   65
 73
    2
 40
1.75
 49
0.25
 49
-1.5
  0
LTYPE
  2
chain
 70
   64
  3
-------------- -- --------------
 72
   65
 73
    4
 40
18.5
 49
12
 49
-1.5
 49
3.5
 49
-1.5
  0
LTYPE
  2
chain_double_dash
 70
   64
  3
------------ -- -- -------------
 72
   65
 73
    6
 40
23.5
 49
12
 49
-1.5
 49
3.5
 49
-1.5
 49
3.5
 49
-1.5
  0
LTYPE
  2
dashed_dotted
 70
   64
  3
-----------     -     ----------
 72
   65
 73
    4
 40
9.25
 49
6
 49
-1.5
 49
0.25
 49
-1.5
  0
LTYPE
  2
double-dashed_dotted
 70
   64
  3
------   -----------   -   -----
 72
   65
 73
    6
 40
16.75
 49
6
 49
-1.5
 49
6
 49
-1.5
 49
0.25
 49
-1.5
  0
LTYPE
  2
dashed_double-dotted
 70
   64
  3
---------    -    -    ---------
 72
   65
 73
    6
 40
11
 49
6
 49
-1.5
 49
0.25
 49
-1.5
 49
0.25
 49
-1.5
  0
LTYPE
  2
double-dashed_double-dotted
 70
   64
  3
-----   ---------   -   -   ----
 72
   65
 73
    8
 40
18.5
 49
6
 49
-1.5
 49
6
 49
-1.5
 49
0.25
 49
-1.5
 49
0.25
 49
-1.5
  0
LTYPE
  2
dashed_triplicate-dotted
 70
   64
  3
-------    -    -    -    ------
 72
   65
 73
    8
 40
12.75
 49
6
 49
-1.5
 49
0.25
 49
-1.5
 49
0.25
 49
-1.5
 49
0.25
 49
-1.5
  0
LTYPE
  2
double-dashed_triplicate-dotted
 70
   64
  3
-----  ---------  -  -  -  -----
 72
   65
 73
   10
 40
20.25
 49
6
 49
-1.5
 49
6
 49
-1.5
 49
0.25
 49
-1.5
 49
0.25
 49
-1.5
 49
0.25
 49
-1.5
  0
LTYPE
  2
undefined
 70
   64
  3
--------------------------------
 72
   65
 73
    0
 40
0
  0
ENDTAB
  0
TABLE
  2
STYLE
  5
3
100
AcDbSymbolTable
 70
     1
  0
STYLE
  5
10
100
AcDbSymbolTableRecord
100
AcDbTextStyleTableRecord
  2
STANDARD
 70
     0
 40
0.0
 41
1.0
 50
0.0
 71
     0
 42
0.2
  3
txt
  4
bigfont.shx
  0
STYLE
  5
26
100
AcDbSymbolTableRecord
100
AcDbTextStyleTableRecord
  2
TATEGAKI
 70
    68
 40
0.0
 41
1.0
 50
0.0
 71
     0
 42
1.0
  3
txt
  4
bigfont.shx
  0
ENDTAB
  0
TABLE
  2
LAYER
 70
    4
  0
LAYER
  2
_0-0_1
 70
   64
 62
    7
  6
CONTINUOUS
  0
LAYER
  2
_0-1_2
 70
   64
 62
    7
  6
CONTINUOUS
  0
LAYER
  2
_0-2_3
 70
   64
 62
    7
  6
CONTINUOUS
  0
LAYER
  2
ADD_LINE
 70
   64
 62
    7
  6
CONTINUOUS
  0
ENDTAB
  0
ENDSEC
  0
SECTION
  2
BLOCKS
  0
ENDSEC
  0
SECTION
  2
ENTITIES
  0
LINE
  8
_0-0_1
  6
CONTINUOUS
 62
    2
 10
1240.9717000000001
 20
780.40280000000007
 11
1249.9996000000001
 21
778.07940000000008
  0
LINE
  8
_0-0_1
  6
CONTINUOUS
 62
    2
 10
1241.8593000000001
 20
775.2527
 11
1240.9717000000001
 21
780.40280000000007
  0
LINE
  8
_0-0_1
  6
CONTINUOUS
 62
    2
 10
1249.9996000000001
 20
778.07940000000008
 11
1249.4437
 21
782.94959999999992
  0
LINE
  8
_0-0_1
  6
CONTINUOUS
 62
    2
 10
1220.2032999999999
 20
753.27549999999997
 11
1241.8593000000001
 21
775.2527
  0
LINE
  8
_0-0_1
  6
CONTINUOUS
 62
    2
 10
1249.4437
 20
782.94959999999992
 11
1273.9063000000001
 21
807.77500000000009
  0
LINE
  8
_0-1_2
  6
CONTINUOUS
 62
    2
 10
1167.9570000000001
 20
893.96910000000003
 11
1157.6978999999999
 21
916.7672
  0
LINE
  8
_0-0_1
  6
CONTINUOUS
 62
    2
 10
1230.3065999999999
 20
949.44090000000006
 11
1221.1863000000001
 21
945.33690000000001
  0
LINE
  8
_0-0_1
  6
CONTINUOUS
 62
    2
 10
1231.5364999999999
 20
946.70440000000008
 11
1222.4181000000001
 21
942.60179999999991
  0
LINE
  8
_0-0_1
  6
CONTINUOUS
 62
    2
 10
1221.1863000000001
 20
945.33690000000001
 11
1222.4181000000001
 21
942.60179999999991
  0
LINE
  8
_0-0_1
  6
CONTINUOUS
 62
    2
 10
1230.3065999999999
 20
949.44090000000006
 11
1231.5364999999999
 21
946.70440000000008
  0
LINE
  8
_0-0_1
  6
CONTINUOUS
 62
    2
 10
1225.7465
 20
947.3889999999999
 11
1226.9773
 21
944.65249999999992
  0
LINE
  8
_0-0_1
  6
CONTINUOUS
 62
    2
 10
1244.1484
 20
906.49669999999992
 11
1240.0261
 21
910.78289999999993
  0
LINE
  8
_0-0_1
  6
CONTINUOUS
 62
    2
 10
1244.1484
 20
906.49669999999992
 11
1243.6739
 21
912.42370000000005
  0
LINE
  8
_0-0_1
  6
CONTINUOUS
 62
    2
 10
1230.5686000000001
 20
928.78559999999993
 11
1236.1962000000001
 21
932.47720000000004
  0
LINE
  8
_0-0_1
  6
CONTINUOUS
 62
    2
 10
1232.6204
 20
924.22540000000004
 11
1238.2492999999999
 21
927.91720000000009
  0
LINE
  8
_0-0_1
  6
CONTINUOUS
 62
    2
 10
1234.6732
 20
919.66630000000009
 11
1240.3000999999999
 21
923.35680000000002
  0
LINE
  8
_0-0_1
  6
CONTINUOUS
 62
    2
 10
1236.7243000000001
 20
915.10599999999999
 11
1242.3520000000001
 21
918.79770000000008
  0
LINE
  8
_0-0_1
  6
CONTINUOUS
 62
    2
 10
1238.2601999999999
 20
911.69389999999999
 11
1243.8876
 21
915.38560000000007
  0
LINE
  8
_0-0_1
  6
CONTINUOUS
 62
    2
 10
1230.0323000000001
 20
942.74019999999996
 11
1243.6739
 21
912.42370000000005
  0
LINE
  8
_0-0_1
  6
CONTINUOUS
 62
    2
 10
1231.5364999999999
 20
946.70440000000008
 11
1230.0323000000001
 21
942.74019999999996
  0
LINE
  8
_0-0_1
  6
CONTINUOUS
 62
    2
 10
1226.3857
 20
941.09619999999995
 11
1240.0261
 21
910.78289999999993
  0
LINE
  8
_0-0_1
  6
CONTINUOUS
 62
    2
 10
1222.4181000000001
 20
942.60179999999991
 11
1226.3857
 21
941.09619999999995
  0
LINE
  8
_0-1_2
  6
CONTINUOUS
 62
    2
 10
1157.6978999999999
 20
916.7672
 11
1912.9533999999999
 21
1256.6314
  0
LINE
  8
_0-2_3
  6
CONTINUOUS
 62
    2
 10
1201.3172999999999
 20
1023.115
 11
1203.2584999999999
 21
1015.8706
  0
LINE
  8
_0-2_3
  6
CONTINUOUS
 62
    2
 10
1203.2584999999999
 20
1015.8706
 11
1197.9552000000001
 21
1021.1739
  0
LINE
  8
_0-2_3
  6
CONTINUOUS
 62
    2
 10
1203.2584999999999
 20
1015.8706
 11
1154.8741
 21
1099.6748
  0
LINE
  8
_0-2_3
  6
CONTINUOUS
 62
    2
 10
1154.8741
 20
1099.6748
 11
1090.3741
 21
1099.6748
  0
LINE
  8
_0-1_2
  6
CONTINUOUS
 62
    2
 10
1197.816
 20
644.86030000000005
 11
1176.2719
 21
692.73630000000003
  0
CIRCLE
  8
_0-1_2
  6
CONTINUOUS
 62
    2
 10
1196.7900999999999
 20
647.14020000000005
 40
1.6999999999999997
  0
LINE
  8
_0-1_2
  6
CONTINUOUS
 62
    2
 10
1196.7900999999999
 20
647.14020000000005
 11
1265.1804999999999
 21
677.91560000000004
  0
CIRCLE
  8
_0-1_2
  6
CONTINUOUS
 62
    2
 10
1265.1804999999999
 20
677.91560000000004
 40
1.6999999999999997
  0
LINE
  8
_0-1_2
  6
CONTINUOUS
 62
    2
 10
1266.2064
 20
675.63580000000002
 11
1244.6623
 21
723.51179999999999
  0
LINE
  8
_0-0_1
  6
CONTINUOUS
 62
    1
 10
1165.9051999999999
 20
898.52870000000007
 11
1921.1606000000002
 21
1238.3929000000001
  0
LINE
  8
_0-0_1
  6
CONTINUOUS
 62
    1
 10
1163.8534
 20
903.08829999999989
 11
1919.1088
 21
1242.9525000000001
  0
LINE
  8
_0-0_1
  6
CONTINUOUS
 62
    1
 10
1161.8016
 20
907.64789999999994
 11
1917.0569999999998
 21
1247.5120999999999
  0
LINE
  8
_0-0_1
  6
CONTINUOUS
 62
    1
 10
1159.7497000000001
 20
912.20749999999998
 11
1915.0052000000001
 21
1252.0717999999999
  0
LINE
  8
_0-0_1
  6
CONTINUOUS
 62
    2
 10
1736.4872999999998
 20
1181.7669000000001
 11
1763.8449000000001
 21
1194.0778
  0
LINE
  8
_0-0_1
  6
CONTINUOUS
 62
    2
 10
1757.6894000000002
 20
1207.7565999999999
 11
1730.3317999999999
 21
1195.4457
  0
LINE
  8
_0-0_1
  6
CONTINUOUS
 62
    2
 10
1763.8449000000001
 20
1194.0778
 11
1757.6894000000002
 21
1207.7565999999999
  0
LINE
  8
_0-0_1
  6
CONTINUOUS
 62
    2
 10
1730.3317999999999
 20
1195.4457
 11
1736.4872999999998
 21
1181.7669000000001
  0
LINE
  8
_0-0_1
  6
CONTINUOUS
 62
    2
 10
1757.6894000000002
 20
1207.7565999999999
 11
1736.4872999999998
 21
1181.7669000000001
  0
LINE
  8
_0-0_1
  6
CONTINUOUS
 62
    2
 10
1530.7197999999999
 20
1089.1713999999999
 11
1558.0774000000001
 21
1101.4822999999999
  0
LINE
  8
_0-0_1
  6
CONTINUOUS
 62
    2
 10
1551.9218999999998
 20
1115.1611
 11
1524.5643
 21
1102.8502000000001
  0
LINE
  8
_0-0_1
  6
CONTINUOUS
 62
    2
 10
1558.0774000000001
 20
1101.4822999999999
 11
1551.9218999999998
 21
1115.1611
  0
LINE
  8
_0-0_1
  6
CONTINUOUS
 62
    2
 10
1524.5643
 20
1102.8502000000001
 11
1530.7197999999999
 21
1089.1713999999999
  0
LINE
  8
_0-0_1
  6
CONTINUOUS
 62
    2
 10
1551.9218999999998
 20
1115.1611
 11
1530.7197999999999
 21
1089.1713999999999
  0
LINE
  8
_0-0_1
  6
CONTINUOUS
 62
    2
 10
1324.9521999999999
 20
996.57590000000005
 11
1352.3091999999999
 21
1008.8883000000001
  0
LINE
  8
_0-0_1
  6
CONTINUOUS
 62
    2
 10
1346.1529999999998
 20
1022.5668000000001
 11
1318.796
 21
1010.2544
  0
LINE
  8
_0-0_1
  6
CONTINUOUS
 62
    2
 10
1352.3091999999999
 20
1008.8883000000001
 11
1346.1529999999998
 21
1022.5668000000001
  0
LINE
  8
_0-0_1
  6
CONTINUOUS
 62
    2
 10
1318.796
 20
1010.2544
 11
1324.9521999999999
 21
996.57590000000005
  0
LINE
  8
_0-0_1
  6
CONTINUOUS
 62
    2
 10
1346.1529999999998
 20
1022.5668000000001
 11
1324.9521999999999
 21
996.57590000000005
  0
LINE
  8
_0-0_1
  6
CONTINUOUS
 62
    4
 10
1111.1937
 20
937.66609999999991
 11
1347.4905000000001
 21
1023.3952999999999
  0
LINE
  8
_0-0_1
  6
CONTINUOUS
 62
    4
 10
1360.0434999999998
 20
1015.1841999999999
 11
1351.5831000000001
 21
1012.1148000000001
  0
LINE
  8
_0-0_1
  6
CONTINUOUS
 62
    4
 10
1350.153
 20
1042.4455
 11
1360.0434999999998
 21
1015.1841999999999
  0
LINE
  8
_0-0_1
  6
CONTINUOUS
 62
    4
 10
1347.4905000000001
 20
1023.3952999999999
 11
1351.5831000000001
 21
1012.1148000000001
  0
ARC
  8
_0-0_1
  6
CONTINUOUS
 62
    4
 10
1497.0752000000002
 20
1121.28
 40
10
 50
109.94091000000002
 51
199.94091
  0
ARC
  8
_0-0_1
  6
CONTINUOUS
 62
    4
 10
1702.7874000000002
 20
1213.9972
 40
10
 50
109.94091000000002
 51
199.94091
  0
ARC
  8
_0-0_1
  6
CONTINUOUS
 62
    4
 10
1291.3629000000001
 20
1028.5627999999999
 40
10
 50
109.94091000000002
 51
199.94091
  0
ARC
  8
_0-0_1
  6
CONTINUOUS
 62
    4
 10
1047.6382000000001
 20
1095.6505
 40
104.21281
 50
268.69240000000002
 51
288.42793999999998
  0
LINE
  8
_0-0_1
  6
CONTINUOUS
 62
    4
 10
1098.5835999999999
 20
914.12879999999996
 11
1103.8662999999999
 21
892.45659999999998
  0
ARC
  8
_0-0_1
  6
CONTINUOUS
 62
    4
 10
1118.0146999999999
 20
918.86519999999996
 40
20
 50
109.94091000000002
 51
193.69899000000001
  0
LINE
  8
_0-0_1
  6
CONTINUOUS
 62
    4
 10
1268.7193
 20
1061.6548
 11
1284.3498999999999
 21
1018.5718999999999
  0
ARC
  8
_0-0_1
  6
CONTINUOUS
 62
    4
 10
1287.5201999999999
 20
1068.4757999999999
 40
20
 50
109.94091000000002
 51
199.94091
  0
LINE
  8
_0-0_1
  6
CONTINUOUS
 62
    4
 10
1705.1747
 20
1207.4168999999999
 11
1899.2752
 21
1277.8371
  0
LINE
  8
_0-0_1
  6
CONTINUOUS
 62
    4
 10
1771.4679000000001
 20
1200.6187
 11
1763.0075000000002
 21
1197.5491999999999
  0
LINE
  8
_0-0_1
  6
CONTINUOUS
 62
    4
 10
1553.2026999999998
 20
1116.1125
 11
1557.2953000000002
 21
1104.8320000000001
  0
LINE
  8
_0-0_1
  6
CONTINUOUS
 62
    4
 10
1565.7557000000002
 20
1107.9014
 11
1557.2953000000002
 21
1104.8320000000001
  0
LINE
  8
_0-0_1
  6
CONTINUOUS
 62
    4
 10
1081.4636
 20
996.89949999999999
 11
1267.6992
 21
1064.4663
  0
LINE
  8
_0-0_1
  6
CONTINUOUS
 62
    4
 10
1280.6990999999998
 20
1087.2766999999999
 11
1473.4083000000001
 21
1157.1922
  0
ARC
  8
_0-0_1
  6
CONTINUOUS
 62
    4
 10
1480.4214000000002
 20
1167.183
 40
10
 50
109.94091000000002
 51
199.94091
  0
LINE
  8
_0-0_1
  6
CONTINUOUS
 62
    4
 10
1471.0210000000002
 20
1163.7725
 11
1490.0621000000001
 21
1111.2891999999999
  0
LINE
  8
_0-0_1
  6
CONTINUOUS
 62
    4
 10
1480.2293
 20
1138.3913
 11
1490.0621000000001
 21
1111.2891999999999
  0
LINE
  8
_0-0_1
  6
CONTINUOUS
 62
    4
 10
1555.8652000000002
 20
1135.1627000000001
 11
1565.7557000000002
 21
1107.9014
  0
LINE
  8
_0-0_1
  6
CONTINUOUS
 62
    4
 10
1287.9523999999997
 20
1037.9631999999999
 11
1758.9149000000002
 21
1208.8297
  0
LINE
  8
_0-0_1
  6
CONTINUOUS
 62
    4
 10
1758.9149000000002
 20
1208.8297
 11
1763.0075000000002
 21
1197.5491999999999
  0
LINE
  8
_0-0_1
  6
CONTINUOUS
 62
    4
 10
1477.0109000000002
 20
1176.5835
 11
1679.1205
 21
1249.9094
  0
ARC
  8
_0-0_1
  6
CONTINUOUS
 62
    4
 10
1686.1336000000001
 20
1259.9002
 40
10
 50
109.94091000000002
 51
199.94091
  0
LINE
  8
_0-0_1
  6
CONTINUOUS
 62
    4
 10
1676.7332000000001
 20
1256.4897000000001
 11
1695.7743
 21
1204.0064
  0
LINE
  8
_0-0_1
  6
CONTINUOUS
 62
    4
 10
1676.7332000000001
 20
1256.4897000000001
 11
1695.7743
 21
1204.0064
  0
LINE
  8
_0-0_1
  6
CONTINUOUS
 62
    4
 10
1493.6646999999998
 20
1130.6804
 11
1761.5774000000001
 21
1227.8800000000001
  0
LINE
  8
_0-0_1
  6
CONTINUOUS
 62
    4
 10
1761.5774000000001
 20
1227.8800000000001
 11
1771.4679000000001
 21
1200.6187
  0
LINE
  8
_0-0_1
  6
CONTINUOUS
 62
    4
 10
1682.7231000000002
 20
1269.3007
 11
1872.6925000000001
 21
1338.2221
  0
LINE
  8
_0-0_1
  6
CONTINUOUS
 62
    4
 10
1699.3769000000002
 20
1223.3977
 11
1892.4105
 21
1293.4308000000001
  0
LINE
  8
_0-0_1
  6
CONTINUOUS
 62
    4
 10
1045.4383
 20
991.29310000000009
 11
1074.3524
 21
898.58919999999989
  0
ARC
  8
_0-0_1
  6
CONTINUOUS
 62
    4
 10
1225.9002
 20
997.46499999999992
 40
181.02933999999999
 50
181.81043
 51
212.85045999999997
  0
LINE
  8
_0-0_1
  6
CONTINUOUS
 62
    4
 10
1072.9822999999999
 20
941.94969999999989
 11
1072.9069999999999
 21
941.30189999999993
  0
LINE
  8
_0-0_1
  6
CONTINUOUS
 62
    4
 10
1553.2026999999998
 20
1116.1125
 11
1072.7763
 21
941.8125
  0
LINE
  8
_0-0_1
  6
CONTINUOUS
 62
    4
 10
1074.3524
 20
898.58919999999989
 11
1084.3857
 21
902.22929999999997
  0
LINE
  8
_0-0_1
  6
CONTINUOUS
 62
    4
 10
1072.7763
 20
941.8125
 11
1088.8498
 21
887.00859999999989
  0
LINE
  8
_0-0_1
  6
CONTINUOUS
 62
    4
 10
1103.8662999999999
 20
892.45659999999998
 11
1088.8498
 21
887.00859999999989
  0
CIRCLE
  8
_0-0_1
  6
CONTINUOUS
 62
    2
 10
988.65159999999992
 20
1172.3814
 40
1.6999999999999997
  0
LINE
  8
_0-0_1
  6
CONTINUOUS
 62
    2
 10
988.65159999999992
 20
1172.3814
 11
1200.001
 21
1249.5591999999999
  0
CIRCLE
  8
_0-0_1
  6
CONTINUOUS
 62
    2
 10
1200.001
 20
1249.5591999999999
 40
1.6999999999999997
  0
LINE
  8
_0-0_1
  6
CONTINUOUS
 62
    2
 10
987.7940000000001
 20
1174.7297000000001
 11
1005.8022000000001
 21
1125.4148
  0
LINE
  8
_0-0_1
  6
CONTINUOUS
 62
    2
 10
1199.1434999999999
 20
1251.9075
 11
1217.1515999999999
 21
1202.5925999999999
  0
CIRCLE
  8
_0-0_1
  6
CONTINUOUS
 62
    2
 10
1190.7608
 20
1274.8634
 40
1.6999999999999997
  0
LINE
  8
_0-0_1
  6
CONTINUOUS
 62
    2
 10
1190.7608
 20
1274.8634
 11
1402.1102000000001
 21
1352.0411999999999
  0
CIRCLE
  8
_0-0_1
  6
CONTINUOUS
 62
    2
 10
1402.1102000000001
 20
1352.0411999999999
 40
1.6999999999999997
  0
LINE
  8
_0-0_1
  6
CONTINUOUS
 62
    2
 10
1189.9032
 20
1277.2118
 11
1207.9114
 21
1227.8969
  0
LINE
  8
_0-0_1
  6
CONTINUOUS
 62
    2
 10
1401.2527
 20
1354.3895
 11
1419.2608
 21
1305.0746999999999
  0
CIRCLE
  8
_0-0_1
  6
CONTINUOUS
 62
    2
 10
1393.5024000000001
 20
1375.6134999999999
 40
1.6999999999999997
  0
LINE
  8
_0-0_1
  6
CONTINUOUS
 62
    2
 10
1393.5024000000001
 20
1375.6134999999999
 11
1604.8519000000001
 21
1452.7911999999997
  0
CIRCLE
  8
_0-0_1
  6
CONTINUOUS
 62
    2
 10
1604.8519000000001
 20
1452.7911999999997
 40
1.6999999999999997
  0
LINE
  8
_0-0_1
  6
CONTINUOUS
 62
    2
 10
1392.6449
 20
1377.9618
 11
1410.653
 21
1328.6469
  0
LINE
  8
_0-0_1
  6
CONTINUOUS
 62
    2
 10
1603.9942999999998
 20
1455.1396
 11
1622.0025000000001
 21
1405.8247000000001
  0
LINE
  8
_0-1_2
  6
CONTINUOUS
 62
    2
 10
1179.9358999999999
 20
929.17190000000005
 11
1167.4466
 21
956.92599999999993
  0
LINE
  8
_0-1_2
  6
CONTINUOUS
 62
    2
 10
1167.4466
 20
956.92599999999993
 11
1209.8672999999999
 21
972.31629999999996
  0
LINE
  8
_0-0_1
  6
CONTINUOUS
 62
    2
 10
1220.9724000000001
 20
947.6382000000001
 11
1209.8672999999999
 21
972.31629999999996
  0
LINE
  8
_0-0_1
  6
CONTINUOUS
 62
    2
 10
1209.8672999999999
 20
972.31629999999996
 11
1179.9358999999999
 21
929.17190000000005
  0
LINE
  8
_0-0_1
  6
CONTINUOUS
 62
    2
 10
1167.4466
 20
956.92599999999993
 11
1220.9724000000001
 21
947.6382000000001
  0
LINE
  8
_0-0_1
  6
CONTINUOUS
 62
    2
 10
1249.7132999999999
 20
712.28719999999998
 11
1228.1693
 21
760.16309999999999
  0
CIRCLE
  8
_0-0_1
  6
CONTINUOUS
 62
    2
 10
1248.6874
 20
714.56700000000001
 40
1.6999999999999997
  0
LINE
  8
_0-0_1
  6
CONTINUOUS
 62
    2
 10
1248.6874
 20
714.56700000000001
 11
1450.2222999999999
 21
805.25710000000004
  0
CIRCLE
  8
_0-0_1
  6
CONTINUOUS
 62
    2
 10
1450.2222999999999
 20
805.25710000000004
 40
1.6999999999999997
  0
LINE
  8
_0-0_1
  6
CONTINUOUS
 62
    2
 10
1451.2482
 20
802.97730000000001
 11
1429.7041999999999
 21
850.85329999999999
  0
CIRCLE
  8
_0-0_1
  6
CONTINUOUS
 62
    2
 10
1450.2222999999999
 20
805.25710000000004
 40
1.6999999999999997
  0
LINE
  8
_0-0_1
  6
CONTINUOUS
 62
    2
 10
1450.2222999999999
 20
805.25710000000004
 11
1656.3168000000001
 21
897.9991
  0
CIRCLE
  8
_0-0_1
  6
CONTINUOUS
 62
    2
 10
1656.3168000000001
 20
897.9991
 40
1.6999999999999997
  0
LINE
  8
_0-0_1
  6
CONTINUOUS
 62
    2
 10
1657.3427000000001
 20
895.7192
 11
1635.7986999999998
 21
943.59519999999998
  0
CIRCLE
  8
_0-0_1
  6
CONTINUOUS
 62
    2
 10
1656.3168000000001
 20
897.9991
 40
1.6999999999999997
  0
LINE
  8
_0-0_1
  6
CONTINUOUS
 62
    2
 10
1656.3168000000001
 20
897.9991
 11
1862.4113000000002
 21
990.74099999999999
  0
CIRCLE
  8
_0-0_1
  6
CONTINUOUS
 62
    2
 10
1862.4113000000002
 20
990.74099999999999
 40
1.6999999999999997
  0
LINE
  8
_0-0_1
  6
CONTINUOUS
 62
    2
 10
1863.4371999999998
 20
988.46119999999996
 11
1841.8930999999998
 21
1036.3371
  0
LINE
  8
_0-1_2
  6
CONTINUOUS
 62
    2
 10
1653.6012999999998
 20
1188.8037999999999
 11
1655.5425
 21
1181.5594000000001
  0
LINE
  8
_0-1_2
  6
CONTINUOUS
 62
    2
 10
1655.5425
 20
1181.5594000000001
 11
1650.2392
 21
1186.8626999999999
  0
LINE
  8
_0-1_2
  6
CONTINUOUS
 62
    2
 10
1655.5425
 20
1181.5594000000001
 11
1590.9542000000001
 21
1293.4295
  0
LINE
  8
_0-1_2
  6
CONTINUOUS
 62
    2
 10
1590.9542000000001
 20
1293.4295
 11
1550.4542000000001
 21
1293.4295
  0
LINE
  8
_0-0_1
  6
DASHED3
 62
    2
 10
1161.008
 20
921.69959999999992
 11
1912.4162999999999
 21
1259.8329000000001
  0
LINE
  8
_0-0_1
  6
CONTINUOUS
 62
    2
 10
1265.2591
 20
915.82330000000002
 11
1267.3566000000001
 21
916.76700000000005
  0
LINE
  8
_0-0_1
  6
CONTINUOUS
 62
    2
 10
1289.8807999999999
 20
861.10789999999997
 11
1291.9783000000002
 21
862.05160000000001
  0
LINE
  8
_0-0_1
  6
CONTINUOUS
 62
    2
 10
1218.4182000000001
 20
914.15460000000007
 11
1256.1719000000001
 21
931.1434999999999
  0
LINE
  8
_0-0_1
  6
CONTINUOUS
 62
    2
 10
1265.2591
 20
915.82330000000002
 11
1258.8164999999999
 21
930.1404
  0
LINE
  8
_0-0_1
  6
CONTINUOUS
 62
    2
 10
1296.3234
 20
846.79070000000002
 11
1289.8807999999999
 21
861.10789999999997
  0
LINE
  8
_0-0_1
  6
CONTINUOUS
 62
    2
 10
1257.5668000000001
 20
827.15699999999993
 11
1295.3203000000003
 21
844.14589999999998
  0
LINE
  8
_0-0_1
  6
CONTINUOUS
 62
    2
 10
1267.3566000000001
 20
916.76700000000005
 11
1260.9139
 21
931.08410000000003
  0
LINE
  8
_0-0_1
  6
CONTINUOUS
 62
    2
 10
1217.4743000000001
 20
916.25189999999998
 11
1255.2280000000001
 21
933.24080000000004
  0
LINE
  8
_0-0_1
  6
CONTINUOUS
 62
    2
 10
1298.4210000000003
 20
847.73450000000003
 11
1291.9783000000002
 21
862.05160000000001
  0
LINE
  8
_0-0_1
  6
CONTINUOUS
 62
    2
 10
1258.5107
 20
825.05960000000005
 11
1296.2641000000003
 21
842.04860000000008
  0
LINE
  8
_0-0_1
  6
CONTINUOUS
 62
    2
 10
1254.9222
 20
828.16030000000001
 11
1217.4150999999999
 21
911.51009999999997
  0
LINE
  8
_0-0_1
  6
CONTINUOUS
 62
    2
 10
1215.3179
 20
910.56610000000001
 11
1252.8249000000001
 21
827.21630000000005
  0
LINE
  8
_0-0_1
  6
CONTINUOUS
 62
    2
 10
1260.9139
 20
931.08420000000001
 11
1298.4211
 21
847.73450000000003
  0
LINE
  8
_0-0_1
  6
CONTINUOUS
 62
    2
 10
1265.0174999999999
 20
932.93080000000009
 11
1302.5247999999999
 21
849.58120000000008
  0
LINE
  8
_0-0_1
  6
CONTINUOUS
 62
    2
 10
1260.9139
 20
931.08410000000003
 11
1265.0174999999999
 21
932.93080000000009
  0
LINE
  8
_0-0_1
  6
CONTINUOUS
 62
    2
 10
1302.5247999999999
 20
849.58120000000008
 11
1298.4208000000001
 21
847.73440000000005
  0
LINE
  8
_0-0_1
  6
CONTINUOUS
 62
    2
 10
1308.3929000000001
 20
836.54079999999999
 11
1271.4612
 21
918.61460000000011
  0
LINE
  8
_0-0_1
  6
CONTINUOUS
 62
    2
 10
1279.8961999999999
 20
916.92720000000008
 11
1307.7999
 21
854.91630000000009
  0
LINE
  8
_0-0_1
  6
CONTINUOUS
 62
    2
 10
1273.2844
 20
919.43579999999997
 11
1271.4612
 21
918.61460000000011
  0
LINE
  8
_0-0_1
  6
CONTINUOUS
 62
    2
 10
1383.0346
 20
877.80510000000004
 11
1321.0229999999999
 21
849.90059999999994
  0
LINE
  8
_0-0_1
  6
CONTINUOUS
 62
    2
 10
1279.6670999999999
 20
889.40990000000011
 11
1276.9311
 21
888.17820000000006
  0
LINE
  8
_0-0_1
  6
CONTINUOUS
 62
    2
 10
1273.1016
 20
904.00019999999995
 11
1270.3658
 21
902.76870000000008
  0
LINE
  8
_0-0_1
  6
CONTINUOUS
 62
    2
 10
1283.4958000000001
 20
873.58889999999997
 11
1270.3658
 21
902.76870000000008
  0
LINE
  8
_0-0_1
  6
CONTINUOUS
 62
    2
 10
1286.2326000000003
 20
874.81970000000001
 11
1283.4958000000001
 21
873.58889999999997
  0
LINE
  8
_0-0_1
  6
CONTINUOUS
 62
    2
 10
1271.6313
 20
878.19839999999999
 11
1279.7723000000001
 21
881.8623
  0
LINE
  8
_0-0_1
  6
CONTINUOUS
 62
    2
 10
1265.9462000000001
 20
890.83330000000001
 11
1274.087
 21
894.49589999999989
  0
LINE
  8
_0-0_1
  6
CONTINUOUS
 62
    2
 10
1263.1021000000001
 20
897.15069999999992
 11
1271.2445
 21
900.8146999999999
  0
LINE
  8
_0-0_1
  6
CONTINUOUS
 62
    2
 10
1262.8867
 20
895.02029999999991
 11
1263.1021000000001
 21
897.15069999999992
  0
LINE
  8
_0-0_1
  6
CONTINUOUS
 62
    2
 10
1272.7349999999999
 20
873.13329999999996
 11
1262.8867
 21
895.02029999999991
  0
LINE
  8
_0-0_1
  6
CONTINUOUS
 62
    2
 10
1274.4748
 20
871.88000000000011
 11
1282.6161999999999
 21
875.54340000000002
  0
LINE
  8
_0-0_1
  6
CONTINUOUS
 62
    2
 10
1272.7349999999999
 20
873.13329999999996
 11
1274.4748
 21
871.88000000000011
  0
LINE
  8
_0-0_1
  6
CONTINUOUS
 62
    2
 10
1255.8666000000001
 20
887.47219999999993
 11
1265.0056
 21
874.03999999999996
  0
LINE
  8
_0-0_1
  6
CONTINUOUS
 62
    2
 10
1261.4232
 20
889.9722999999999
 11
1270.5612000000001
 21
876.53919999999994
  0
LINE
  8
_0-0_1
  6
CONTINUOUS
 62
    2
 10
1295.4545000000003
 20
904.11030000000005
 11
1287.3136999999999
 21
900.44650000000001
  0
LINE
  8
_0-0_1
  6
CONTINUOUS
 62
    2
 10
1301.1400000000001
 20
891.47540000000004
 11
1292.9982
 21
887.8121000000001
  0
LINE
  8
_0-0_1
  6
CONTINUOUS
 62
    2
 10
1303.9837
 20
885.15789999999993
 11
1295.8416999999999
 21
881.49399999999991
  0
LINE
  8
_0-0_1
  6
CONTINUOUS
 62
    2
 10
1304.1994
 20
887.28839999999991
 11
1303.9837
 21
885.15789999999993
  0
LINE
  8
_0-0_1
  6
CONTINUOUS
 62
    2
 10
1294.3507999999999
 20
909.17540000000008
 11
1304.1994
 21
887.28839999999991
  0
LINE
  8
_0-0_1
  6
CONTINUOUS
 62
    2
 10
1292.6114000000002
 20
910.42859999999996
 11
1284.4697999999999
 21
906.7654
  0
LINE
  8
_0-0_1
  6
CONTINUOUS
 62
    2
 10
1294.3507999999999
 20
909.17540000000008
 11
1292.6114000000002
 21
910.42859999999996
  0
LINE
  8
_0-0_1
  6
CONTINUOUS
 62
    2
 10
1389.6455000000001
 20
875.2971
 11
1390.4661000000001
 21
873.47309999999993
  0
LINE
  8
_0-0_1
  6
CONTINUOUS
 62
    2
 10
1390.4661000000001
 20
873.47309999999993
 11
1308.3931000000002
 21
836.54040000000009
  0
LINE
  8
_0-0_1
  6
CONTINUOUS
 62
    2
 10
1264.5292999999999
 20
891.36959999999999
 11
1255.8666000000001
 21
887.47219999999993
  0
LINE
  8
_0-0_1
  6
CONTINUOUS
 62
    2
 10
1255.8666000000001
 20
887.47219999999993
 11
1254.8634
 21
884.8275000000001
  0
LINE
  8
_0-0_1
  6
CONTINUOUS
 62
    2
 10
1271.0942
 20
876.77999999999997
 11
1262.4322999999999
 21
872.88190000000009
  0
LINE
  8
_0-0_1
  6
CONTINUOUS
 62
    2
 10
1255.8666000000001
 20
887.47219999999993
 11
1262.4322999999999
 21
872.88190000000009
  0
LINE
  8
_0-0_1
  6
CONTINUOUS
 62
    2
 10
1259.7869000000001
 20
873.88470000000007
 11
1262.4322999999999
 21
872.88190000000009
  0
LINE
  8
_0-0_1
  6
CONTINUOUS
 62
    2
 10
1254.8634
 20
884.8275000000001
 11
1259.7869000000001
 21
873.88470000000007
  0
LINE
  8
_0-0_1
  6
CONTINUOUS
 62
    2
 10
1186.423
 20
852.93299999999999
 11
1190.5272
 21
843.81279999999992
  0
LINE
  8
_0-0_1
  6
CONTINUOUS
 62
    2
 10
1189.1595
 20
854.16309999999999
 11
1193.2623000000001
 21
845.04469999999992
  0
LINE
  8
_0-0_1
  6
CONTINUOUS
 62
    2
 10
1190.5272
 20
843.81279999999992
 11
1193.2623000000001
 21
845.04469999999992
  0
LINE
  8
_0-0_1
  6
CONTINUOUS
 62
    2
 10
1186.423
 20
852.93299999999999
 11
1189.1595
 21
854.16309999999999
  0
LINE
  8
_0-0_1
  6
CONTINUOUS
 62
    2
 10
1188.4751000000001
 20
848.37310000000002
 11
1191.2114999999999
 21
849.60390000000007
  0
LINE
  8
_0-0_1
  6
CONTINUOUS
 62
    2
 10
1247.7493999999999
 20
875.0476000000001
 11
1243.4632999999999
 21
870.9251999999999
  0
LINE
  8
_0-0_1
  6
CONTINUOUS
 62
    2
 10
1247.7493999999999
 20
875.0476000000001
 11
1241.8224
 21
874.57300000000009
  0
LINE
  8
_0-0_1
  6
CONTINUOUS
 62
    2
 10
1207.2229
 20
853.25939999999991
 11
1203.5313000000001
 21
858.88709999999992
  0
LINE
  8
_0-0_1
  6
CONTINUOUS
 62
    2
 10
1211.7820999999999
 20
855.31140000000005
 11
1208.0915
 21
860.9402
  0
LINE
  8
_0-0_1
  6
CONTINUOUS
 62
    2
 10
1216.3424
 20
857.36439999999993
 11
1212.6505999999999
 21
862.99189999999999
  0
LINE
  8
_0-0_1
  6
CONTINUOUS
 62
    2
 10
1220.9024999999999
 20
859.41529999999989
 11
1217.2099000000001
 21
865.04299999999989
  0
LINE
  8
_0-0_1
  6
CONTINUOUS
 62
    2
 10
1225.4607000000001
 20
861.4674
 11
1221.7691
 21
867.09490000000005
  0
LINE
  8
_0-0_1
  6
CONTINUOUS
 62
    2
 10
1230.021
 20
863.51929999999993
 11
1226.329
 21
869.14799999999991
  0
LINE
  8
_0-0_1
  6
CONTINUOUS
 62
    2
 10
1234.5799999999999
 20
865.57220000000007
 11
1230.8894
 21
871.19900000000007
  0
LINE
  8
_0-0_1
  6
CONTINUOUS
 62
    2
 10
1239.1403
 20
867.62329999999997
 11
1235.4485
 21
873.2509
  0
LINE
  8
_0-0_1
  6
CONTINUOUS
 62
    2
 10
1242.5522000000001
 20
869.15930000000003
 11
1238.8606
 21
874.78659999999991
  0
LINE
  8
_0-0_1
  6
CONTINUOUS
 62
    2
 10
1193.1238000000001
 20
852.65879999999993
 11
1241.8224
 21
874.57300000000009
  0
LINE
  8
_0-0_1
  6
CONTINUOUS
 62
    2
 10
1189.1595
 20
854.16309999999999
 11
1193.1238000000001
 21
852.65879999999993
  0
LINE
  8
_0-0_1
  6
CONTINUOUS
 62
    2
 10
1194.7677000000001
 20
849.01219999999989
 11
1243.4632999999999
 21
870.9251999999999
  0
LINE
  8
_0-0_1
  6
CONTINUOUS
 62
    2
 10
1193.2623000000001
 20
845.04469999999992
 11
1194.7677000000001
 21
849.01219999999989
  0
LINE
  8
_0-0_1
  6
CONTINUOUS
 62
    2
 10
1258.693
 20
814.17579999999998
 11
1968.3525
 21
1133.5219
  0
LINE
  8
_0-0_1
  6
CONTINUOUS
 62
    2
 10
1213.5532000000001
 20
914.48720000000003
 11
1265.4398000000001
 21
799.18290000000002
  0
LINE
  8
_0-0_1
  6
CONTINUOUS
 62
    2
 10
1167.9570000000001
 20
893.96910000000003
 11
1227.7997
 21
760.9846
  0
LINE
  8
_0-0_1
  6
CONTINUOUS
 62
    2
 10
1241.0568000000001
 20
853.36779999999999
 11
1174.9423999999999
 21
878.44569999999999
  0
LINE
  8
_0-0_1
  6
CONTINUOUS
 62
    2
 10
1242.7979
 20
849.49890000000005
 11
1176.6835000000001
 21
874.57670000000007
  0
LINE
  8
_0-0_1
  6
CONTINUOUS
 62
    2
 10
1167.9570000000001
 20
893.96910000000003
 11
1923.2125000000001
 21
1233.8333
  0
ARC
  8
_0-0_1
  6
CONTINUOUS
 62
    2
 10
1256.9926
 20
929.31960000000004
 40
2.000003
 50
24.227606000000002
 51
114.22759000000003
  0
ARC
  8
_0-0_1
  6
CONTINUOUS
 62
    2
 10
1294.4994999999999
 20
845.96990000000005
 40
2.000003
 50
294.2276
 51
24.227605999999994
  0
ARC
  8
_0-0_1
  6
CONTINUOUS
 62
    2
 10
1294.4994999999999
 20
845.96990000000005
 40
4.2999999999999998
 50
294.2276
 51
24.227605999999994
  0
ARC
  8
_0-0_1
  6
CONTINUOUS
 62
    2
 10
1256.9926
 20
929.31960000000004
 40
4.2999999999999998
 50
24.227606000000002
 51
114.22759000000003
  0
ARC
  8
_0-0_1
  6
CONTINUOUS
 62
    2
 10
1219.2392
 20
912.33069999999998
 40
2.000003
 50
114.22759000000001
 51
204.2276
  0
ARC
  8
_0-0_1
  6
CONTINUOUS
 62
    2
 10
1256.7461000000001
 20
828.98090000000002
 40
2.000003
 50
204.22760000000002
 51
294.22760000000005
  0
ARC
  8
_0-0_1
  6
CONTINUOUS
 62
    2
 10
1256.7461000000001
 20
828.98090000000002
 40
4.2999999999999998
 50
204.22760000000002
 51
294.22760000000005
  0
ARC
  8
_0-0_1
  6
CONTINUOUS
 62
    2
 10
1219.2392
 20
912.33069999999998
 40
4.2999999999999998
 50
114.22759000000001
 51
204.2276
  0
ARC
  8
_0-0_1
  6
CONTINUOUS
 62
    2
 10
1316.9200000000001
 20
859.02209999999991
 40
10.001999
 50
204.23162000000002
 51
294.21884999999997
  0
ARC
  8
_0-0_1
  6
CONTINUOUS
 62
    2
 10
1275.3373999999999
 20
914.87660000000005
 40
4.9989999999999997
 50
24.224675999999999
 51
114.23530999999998
  0
ARC
  8
_0-0_1
  6
CONTINUOUS
 62
    2
 10
1385.0869
 20
873.24639999999999
 40
4.9989999999999997
 50
24.224675999999999
 51
114.23530999999998
  0
ARC
  8
_0-0_1
  6
CONTINUOUS
 62
    2
 10
1269.1498999999999
 20
896.08240000000001
 40
6.1470010000000013
 50
204.58582999999999
 51
238.59309999999999
  0
ARC
  8
_0-0_1
  6
CONTINUOUS
 62
    2
 10
1277.6954000000001
 20
877.11830000000009
 40
6.1580000000000004
 50
169.89975999999999
 51
203.85441
  0
ARC
  8
_0-0_1
  6
CONTINUOUS
 62
    2
 10
1288.6925000000001
 20
893.47360000000003
 40
22.898997999999999
 50
186.62326999999999
 51
221.83878999999999
  0
ARC
  8
_0-0_1
  6
CONTINUOUS
 62
    2
 10
1297.9333999999999
 20
886.22739999999999
 40
6.1479999999999997
 50
24.562656
 51
58.577396
  0
ARC
  8
_0-0_1
  6
CONTINUOUS
 62
    2
 10
1289.4013
 20
905.1898000000001
 40
6.1479999999999997
 50
349.89938000000006
 51
23.901646000000021
  0
ARC
  8
_0-0_1
  6
CONTINUOUS
 62
    2
 10
1278.3569
 20
888.82009999999991
 40
22.936000999999997
 50
6.6513660000000003
 51
41.808135999999998
  0
LINE
  8
_0-0_1
  6
CONTINUOUS
 62
    2
 10
1935.6588000000002
 20
1126.4865
 11
1873.6473999999998
 21
1098.5817
  0
LINE
  8
_0-0_1
  6
CONTINUOUS
 62
    2
 10
1942.2696999999998
 20
1123.9784999999999
 11
1943.0904
 21
1122.1545000000001
  0
LINE
  8
_0-0_1
  6
CONTINUOUS
 62
    2
 10
1943.0904
 20
1122.1545000000001
 11
1861.0176000000001
 21
1085.2212999999999
  0
ARC
  8
_0-0_1
  6
CONTINUOUS
 62
    2
 10
1869.5443
 20
1107.7030999999999
 40
10.001999
 50
204.2319
 51
294.21913000000001
  0
ARC
  8
_0-0_1
  6
CONTINUOUS
 62
    2
 10
1937.7112000000002
 20
1121.9277
 40
4.9989999999999997
 50
24.224954
 51
114.23559000000002
  0
LINE
  8
_0-0_1
  6
CONTINUOUS
 62
    2
 10
1826.5717
 20
1122.3593000000001
 11
1828.3114999999998
 21
1121.1061
  0
LINE
  8
_0-0_1
  6
CONTINUOUS
 62
    2
 10
1809.7031999999999
 20
1136.6981000000001
 11
1818.8422999999998
 21
1123.2660000000001
  0
LINE
  8
_0-0_1
  6
CONTINUOUS
 62
    2
 10
1815.2597999999998
 20
1139.1983
 11
1824.3978000000002
 21
1125.7653
  0
LINE
  8
_0-0_1
  6
CONTINUOUS
 62
    2
 10
1809.7031999999999
 20
1136.6981000000001
 11
1808.7001
 21
1134.0535
  0
LINE
  8
_0-0_1
  6
CONTINUOUS
 62
    2
 10
1824.9308000000001
 20
1126.0060000000001
 11
1816.2689999999998
 21
1122.1079
  0
LINE
  8
_0-0_1
  6
CONTINUOUS
 62
    2
 10
1809.7031999999999
 20
1136.6981000000001
 11
1816.2689999999998
 21
1122.1079
  0
LINE
  8
_0-0_1
  6
CONTINUOUS
 62
    2
 10
1813.6235999999999
 20
1123.1107
 11
1816.2689999999998
 21
1122.1079
  0
LINE
  8
_0-0_1
  6
CONTINUOUS
 62
    2
 10
1808.7001
 20
1134.0535
 11
1813.6235999999999
 21
1123.1107
  0
ARC
  8
_0-0_1
  6
CONTINUOUS
 62
    2
 10
1831.5320000000002
 20
1126.3444
 40
6.1580000000000004
 50
169.90002999999999
 51
203.85469000000001
  0
LINE
  8
_0-0_1
  6
CONTINUOUS
 62
    2
 10
1825.9085
 20
1168.1166000000001
 11
1824.0852
 21
1167.2954
  0
LINE
  8
_0-0_1
  6
CONTINUOUS
 62
    2
 10
1861.0174000000002
 20
1085.2217000000001
 11
1824.0852
 21
1167.2954
  0
LINE
  8
_0-0_1
  6
CONTINUOUS
 62
    2
 10
1832.5203000000001
 20
1165.6079999999999
 11
1860.4243000000001
 21
1103.5972999999999
  0
LINE
  8
_0-0_1
  6
CONTINUOUS
 62
    2
 10
1833.5037000000002
 20
1138.6359
 11
1830.7676999999999
 21
1137.4042999999999
  0
LINE
  8
_0-0_1
  6
CONTINUOUS
 62
    2
 10
1826.9382000000001
 20
1153.2262000000001
 11
1824.2022999999999
 21
1151.9947
  0
LINE
  8
_0-0_1
  6
CONTINUOUS
 62
    2
 10
1837.3325
 20
1122.8150000000001
 11
1824.2022999999999
 21
1151.9947
  0
LINE
  8
_0-0_1
  6
CONTINUOUS
 62
    2
 10
1840.0693000000001
 20
1124.0459000000001
 11
1837.3325
 21
1122.8150000000001
  0
LINE
  8
_0-0_1
  6
CONTINUOUS
 62
    2
 10
1825.4679999999998
 20
1127.4244000000001
 11
1833.6089000000002
 21
1131.0884000000001
  0
LINE
  8
_0-0_1
  6
CONTINUOUS
 62
    2
 10
1819.7828
 20
1140.0592999999999
 11
1827.9236000000001
 21
1143.7219
  0
LINE
  8
_0-0_1
  6
CONTINUOUS
 62
    2
 10
1816.9387000000002
 20
1146.3767
 11
1825.0810999999999
 21
1150.0407
  0
LINE
  8
_0-0_1
  6
CONTINUOUS
 62
    2
 10
1816.7231999999999
 20
1144.2463
 11
1816.9387000000002
 21
1146.3767
  0
LINE
  8
_0-0_1
  6
CONTINUOUS
 62
    2
 10
1826.5717
 20
1122.3593000000001
 11
1816.7231999999999
 21
1144.2463
  0
LINE
  8
_0-0_1
  6
CONTINUOUS
 62
    2
 10
1828.3114999999998
 20
1121.1061
 11
1836.4529000000002
 21
1124.7695000000001
  0
LINE
  8
_0-0_1
  6
CONTINUOUS
 62
    2
 10
1848.0785999999998
 20
1152.7911999999999
 11
1839.9378000000002
 21
1149.1274000000001
  0
LINE
  8
_0-0_1
  6
CONTINUOUS
 62
    2
 10
1853.7642000000001
 20
1140.1564000000001
 11
1845.6224000000002
 21
1136.4929999999999
  0
LINE
  8
_0-0_1
  6
CONTINUOUS
 62
    2
 10
1856.6079
 20
1133.8389
 11
1848.4659000000001
 21
1130.1749
  0
LINE
  8
_0-0_1
  6
CONTINUOUS
 62
    2
 10
1856.8236000000002
 20
1135.9693
 11
1856.6079
 21
1133.8389
  0
LINE
  8
_0-0_1
  6
CONTINUOUS
 62
    2
 10
1846.9749999999999
 20
1157.8562999999999
 11
1856.8236000000002
 21
1135.9693
  0
LINE
  8
_0-0_1
  6
CONTINUOUS
 62
    2
 10
1845.2354999999998
 20
1159.1094000000001
 11
1837.0940000000001
 21
1155.4462000000001
  0
LINE
  8
_0-0_1
  6
CONTINUOUS
 62
    2
 10
1846.9749999999999
 20
1157.8562999999999
 11
1845.2354999999998
 21
1159.1094000000001
  0
LINE
  8
_0-0_1
  6
CONTINUOUS
 62
    2
 10
1818.3658999999998
 20
1140.5957000000001
 11
1809.7031999999999
 21
1136.6981000000001
  0
ARC
  8
_0-0_1
  6
CONTINUOUS
 62
    2
 10
1827.9614999999999
 20
1163.5573999999999
 40
4.9989999999999997
 50
24.224954
 51
114.23559000000002
  0
ARC
  8
_0-0_1
  6
CONTINUOUS
 62
    2
 10
1822.9863999999998
 20
1145.3083999999999
 40
6.1470010000000013
 50
204.58611000000002
 51
238.59338000000002
  0
ARC
  8
_0-0_1
  6
CONTINUOUS
 62
    2
 10
1842.5291000000002
 20
1142.6996999999999
 40
22.898997999999999
 50
186.62354999999999
 51
221.83906999999999
  0
ARC
  8
_0-0_1
  6
CONTINUOUS
 62
    2
 10
1850.5576000000001
 20
1134.9083000000001
 40
6.1479999999999997
 50
24.562933999999998
 51
58.577674000000009
  0
ARC
  8
_0-0_1
  6
CONTINUOUS
 62
    2
 10
1842.0254
 20
1153.8706999999999
 40
6.1479999999999997
 50
349.89965999999998
 51
23.901924000000019
  0
ARC
  8
_0-0_1
  6
CONTINUOUS
 62
    2
 10
1830.9811
 20
1137.5009
 40
22.936000999999997
 50
6.651644000000001
 51
41.808413999999999
  0
LINE
  8
_0-0_1
  6
CONTINUOUS
 62
    2
 10
1778.201
 20
1195.9931999999999
 11
1787.3213000000001
 21
1200.0975000000001
  0
LINE
  8
_0-0_1
  6
CONTINUOUS
 62
    2
 10
1779.4333999999999
 20
1193.2579000000001
 11
1788.5513999999998
 21
1197.3615
  0
LINE
  8
_0-0_1
  6
CONTINUOUS
 62
    2
 10
1787.3213000000001
 20
1200.0975000000001
 11
1788.5513999999998
 21
1197.3615
  0
LINE
  8
_0-0_1
  6
CONTINUOUS
 62
    2
 10
1778.201
 20
1195.9931999999999
 11
1779.4333999999999
 21
1193.2579000000001
  0
LINE
  8
_0-0_1
  6
CONTINUOUS
 62
    2
 10
1782.761
 20
1198.0453
 11
1783.9928
 21
1195.3092999999999
  0
LINE
  8
_0-0_1
  6
CONTINUOUS
 62
    2
 10
1801.1622000000002
 20
1157.1528000000001
 11
1800.6882000000001
 21
1163.0806
  0
LINE
  8
_0-0_1
  6
CONTINUOUS
 62
    2
 10
1801.1622000000002
 20
1157.1528000000001
 11
1797.0409
 21
1161.4386999999999
  0
LINE
  8
_0-0_1
  6
CONTINUOUS
 62
    2
 10
1793.4865
 20
1182.0985000000001
 11
1786.9913000000001
 21
1180.3348000000001
  0
LINE
  8
_0-0_1
  6
CONTINUOUS
 62
    2
 10
1795.5387999999998
 20
1177.5383999999999
 11
1789.0426000000002
 21
1175.7739999999999
  0
LINE
  8
_0-0_1
  6
CONTINUOUS
 62
    2
 10
1797.5895999999998
 20
1172.9784
 11
1791.0956999999999
 21
1171.2146
  0
LINE
  8
_0-0_1
  6
CONTINUOUS
 62
    2
 10
1799.6424000000002
 20
1168.4190000000001
 11
1793.1471000000001
 21
1166.6552999999999
  0
LINE
  8
_0-0_1
  6
CONTINUOUS
 62
    2
 10
1801.1774999999998
 20
1165.0065
 11
1794.6824000000001
 21
1163.2430999999999
  0
LINE
  8
_0-0_1
  6
CONTINUOUS
 62
    2
 10
1783.3980999999999
 20
1191.7546
 11
1797.0409
 21
1161.4386999999999
  0
LINE
  8
_0-0_1
  6
CONTINUOUS
 62
    2
 10
1779.4333999999999
 20
1193.2579000000001
 11
1783.3980999999999
 21
1191.7546
  0
LINE
  8
_0-0_1
  6
CONTINUOUS
 62
    2
 10
1787.0468999999998
 20
1193.3934999999999
 11
1800.6882000000001
 21
1163.0806
  0
LINE
  8
_0-0_1
  6
CONTINUOUS
 62
    2
 10
1788.5513999999998
 20
1197.3615
 11
1787.0468999999998
 21
1193.3934999999999
  0
LINE
  8
_0-0_1
  6
CONTINUOUS
 62
    2
 10
1780.1812
 20
1147.5381
 11
1778.0837999999999
 21
1146.5941
  0
LINE
  8
_0-0_1
  6
CONTINUOUS
 62
    2
 10
1804.8031999999998
 20
1092.8227999999999
 11
1802.7057
 21
1091.8788
  0
LINE
  8
_0-0_1
  6
CONTINUOUS
 62
    2
 10
1812.4951000000001
 20
1181.489
 11
1774.7415000000001
 21
1164.4997000000001
  0
LINE
  8
_0-0_1
  6
CONTINUOUS
 62
    2
 10
1780.1812
 20
1147.5381
 11
1773.7384000000002
 21
1161.8551
  0
LINE
  8
_0-0_1
  6
CONTINUOUS
 62
    2
 10
1811.2458999999999
 20
1078.5056999999999
 11
1804.8031999999998
 21
1092.8227999999999
  0
LINE
  8
_0-0_1
  6
CONTINUOUS
 62
    2
 10
1851.6441
 20
1094.4916000000001
 11
1813.8906999999999
 21
1077.5025000000001
  0
LINE
  8
_0-0_1
  6
CONTINUOUS
 62
    2
 10
1778.0837999999999
 20
1146.5941
 11
1771.6410999999998
 21
1160.9113
  0
LINE
  8
_0-0_1
  6
CONTINUOUS
 62
    2
 10
1811.5513999999998
 20
1183.5862999999999
 11
1773.7977999999998
 21
1166.5971
  0
LINE
  8
_0-0_1
  6
CONTINUOUS
 62
    2
 10
1809.1484
 20
1077.5617
 11
1802.7057
 21
1091.8788
  0
LINE
  8
_0-0_1
  6
CONTINUOUS
 62
    2
 10
1852.5877999999998
 20
1092.3941
 11
1814.8344000000002
 21
1075.4050999999999
  0
LINE
  8
_0-0_1
  6
CONTINUOUS
 62
    2
 10
1852.6471000000001
 20
1097.1362999999999
 11
1815.1396
 21
1180.4858999999999
  0
LINE
  8
_0-0_1
  6
CONTINUOUS
 62
    2
 10
1817.2370000000001
 20
1181.4295
 11
1854.7444999999998
 21
1098.0799
  0
ARC
  8
_0-0_1
  6
CONTINUOUS
 62
    2
 10
1775.5623000000001
 20
1162.6759
 40
2.000003
 50
114.22777000000002
 51
204.22776000000002
  0
ARC
  8
_0-0_1
  6
CONTINUOUS
 62
    2
 10
1813.0699
 20
1079.3263999999999
 40
2.000003
 50
204.22776000000002
 51
294.22775999999999
  0
ARC
  8
_0-0_1
  6
CONTINUOUS
 62
    2
 10
1813.0699
 20
1079.3263999999999
 40
4.2999999999999998
 50
204.22776000000002
 51
294.22775999999999
  0
ARC
  8
_0-0_1
  6
CONTINUOUS
 62
    2
 10
1775.5623000000001
 20
1162.6759
 40
4.2999999999999998
 50
114.22777000000002
 51
204.22776000000002
  0
ARC
  8
_0-0_1
  6
CONTINUOUS
 62
    2
 10
1813.3157000000001
 20
1179.6649
 40
2.000003
 50
24.227764000000004
 51
114.22777000000002
  0
ARC
  8
_0-0_1
  6
CONTINUOUS
 62
    2
 10
1850.8233
 20
1096.3154
 40
2.000003
 50
294.22775999999999
 51
24.227764000000008
  0
ARC
  8
_0-0_1
  6
CONTINUOUS
 62
    2
 10
1850.8233
 20
1096.3154
 40
4.2999999999999998
 50
294.22775999999999
 51
24.227764000000008
  0
ARC
  8
_0-0_1
  6
CONTINUOUS
 62
    2
 10
1813.3157000000001
 20
1179.6649
 40
4.2999999999999998
 50
24.227764000000004
 51
114.22777000000002
  0
LINE
  8
_0-2_3
  6
CONTINUOUS
 62
    2
 10
1210.3140000000001
 20
808.13930000000005
 11
1215.6172999999999
 21
813.44260000000008
  0
LINE
  8
_0-2_3
  6
CONTINUOUS
 62
    2
 10
1215.6172999999999
 20
813.44260000000008
 11
1213.6762000000001
 21
806.19820000000004
  0
LINE
  8
_0-2_3
  6
CONTINUOUS
 62
    2
 10
1215.6172999999999
 20
813.44260000000008
 11
1145.1085
 21
691.31780000000003
  0
LINE
  8
_0-2_3
  6
CONTINUOUS
 62
    2
 10
1145.1085
 20
691.31780000000003
 11
936.39499999999998
 21
691.31780000000003
  0
LINE
  8
_0-2_3
  6
CONTINUOUS
 62
    2
 10
1180.9570000000001
 20
960.8873000000001
 11
1182.8981000000001
 21
953.64290000000005
  0
LINE
  8
_0-2_3
  6
CONTINUOUS
 62
    2
 10
1182.8981000000001
 20
953.64290000000005
 11
1177.5948000000001
 21
958.94620000000009
  0
LINE
  8
_0-2_3
  6
CONTINUOUS
 62
    2
 10
1182.8981000000001
 20
953.64290000000005
 11
1122.9223999999999
 21
1057.5237999999999
  0
LINE
  8
_0-2_3
  6
CONTINUOUS
 62
    2
 10
1122.9223999999999
 20
1057.5237999999999
 11
1054.3420000000001
 21
1057.5237999999999
  0
LINE
  8
_0-0_1
  6
CONTINUOUS
 62
    2
 10
1549.6242000000002
 20
1093.2526
 11
1549.6242000000002
 21
1100.7526
  0
LINE
  8
_0-0_1
  6
CONTINUOUS
 62
    2
 10
1549.6242000000002
 20
1100.7526
 11
1553.3742000000002
 21
1094.2574
  0
LINE
  8
_0-0_1
  6
CONTINUOUS
 62
    2
 10
1549.6242000000002
 20
1100.7526
 11
1641.2498000000001
 21
758.80130000000008
  0
LINE
  8
_0-0_1
  6
CONTINUOUS
 62
    7
 10
936.39499999999998
 20
691.31780000000003
 11
1145.1085
 21
691.31780000000003
  0
LINE
  8
_0-0_1
  6
CONTINUOUS
 62
    7
 10
1054.3420000000001
 20
1057.5237999999999
 11
1122.9223999999999
 21
1057.5237999999999
  0
LINE
  8
_0-0_1
  6
CONTINUOUS
 62
    7
 10
1090.3741
 20
1099.6748
 11
1154.8741
 21
1099.6748
  0
LINE
  8
_0-0_1
  6
CONTINUOUS
 62
    7
 10
1550.4542000000001
 20
1293.4295
 11
1590.9542000000001
 21
1293.4295
  0
LINE
  8
_0-0_1
  6
CONTINUOUS
 62
    7
 10
1641.2498000000001
 20
758.80130000000008
 11
1549.6242000000002
 21
1100.7526
  0
LINE
  8
_0-0_1
  6
CONTINUOUS
 62
    7
 10
1549.6242000000002
 20
1100.7526
 11
1549.6242000000002
 21
1093.2526
  0
LINE
  8
_0-0_1
  6
CONTINUOUS
 62
    7
 10
1549.6242000000002
 20
1100.7526
 11
1553.1158519403537
 21
1094.7048726178714
  0
LINE
  8
_0-0_1
  6
CONTINUOUS
 62
    7
 10
1524.5643
 20
1102.8502000000001
 11
1530.7197999999999
 21
1089.1713999999999
  0
LINE
  8
_0-0_1
  6
CONTINUOUS
 62
    7
 10
1530.7197999999999
 20
1089.1713999999999
 11
1551.9218999999998
 21
1115.1611
  0
LINE
  8
_0-0_1
  6
CONTINUOUS
 62
    7
 10
1551.9218999999998
 20
1115.1611
 11
1558.0774000000001
 21
1101.4822999999999
  0
LINE
  8
_0-0_1
  6
CONTINUOUS
 62
    7
 10
1558.0774000000001
 20
1101.4822999999999
 11
1530.7197999999999
 21
1089.1713999999999
  0
LINE
  8
_0-0_1
  6
CONTINUOUS
 62
    7
 10
1524.5643
 20
1102.8502000000001
 11
1551.9218999999998
 21
1115.1611
  0
LINE
  8
_0-0_1
  6
CONTINUOUS
 62
    7
 10
1736.4872999999998
 20
1181.7669000000001
 11
1730.3317999999999
 21
1195.4457
  0
LINE
  8
_0-0_1
  6
CONTINUOUS
 62
    7
 10
1730.3317999999999
 20
1195.4457
 11
1757.6894000000002
 21
1207.7565999999999
  0
LINE
  8
_0-0_1
  6
CONTINUOUS
 62
    7
 10
1757.6894000000002
 20
1207.7565999999999
 11
1763.8449000000001
 21
1194.0778
  0
LINE
  8
_0-0_1
  6
CONTINUOUS
 62
    7
 10
1763.8449000000001
 20
1194.0778
 11
1736.4872999999998
 21
1181.7669000000001
  0
LINE
  8
_0-0_1
  6
CONTINUOUS
 62
    7
 10
1736.4872999999998
 20
1181.7669000000001
 11
1757.6894000000002
 21
1207.7565999999999
  0
LINE
  8
_0-0_1
  6
CONTINUOUS
 62
    7
 10
1757.6894000000002
 20
1207.7565999999999
 11
1736.4872999999998
 21
1181.7669000000001
  0
LINE
  8
_0-0_1
  6
CONTINUOUS
 62
    7
 10
1912.4162999999999
 20
1259.8329000000001
 11
1161.008
 21
921.69959999999992
  0
LINE
  8
_0-0_1
  6
CONTINUOUS
 62
    7
 10
1179.9358999999999
 20
929.17190000000005
 11
1220.9724000000001
 21
947.6382000000001
  0
LINE
  8
_0-0_1
  6
CONTINUOUS
 62
    7
 10
1220.9724000000001
 20
947.6382000000001
 11
1195.7795810560579
 21
952.00965944175607
  0
LINE
  8
_0-0_1
  6
CONTINUOUS
 62
    7
 10
1195.7795810560579
 20
952.00965944175607
 11
1209.8672999999999
 21
972.31629999999996
  0
LINE
  8
_0-0_1
  6
CONTINUOUS
 62
    7
 10
1209.8672999999999
 20
972.31629999999996
 11
1220.5812117294279
 21
948.50751079053839
  0
LINE
  8
_0-0_1
  6
CONTINUOUS
 62
    7
 10
1209.8672999999999
 20
972.31629999999996
 11
1167.4466
 21
956.92599999999993
  0
LINE
  8
_0-0_1
  6
CONTINUOUS
 62
    7
 10
1167.4466
 20
956.92599999999993
 11
1179.54474947058
 21
930.04112653059633
  0
LINE
  8
_0-0_1
  6
CONTINUOUS
 62
    7
 10
1179.9358999999999
 20
929.17190000000005
 11
1195.7795810560579
 21
952.00965944175607
  0
LINE
  8
_0-0_1
  6
CONTINUOUS
 62
    7
 10
1195.7795810560579
 20
952.00965944175607
 11
1167.4466
 21
956.92599999999993
  0
LINE
  8
_0-0_1
  6
CONTINUOUS
 62
    7
 10
1177.5948000000001
 20
958.94620000000009
 11
1182.8981000000001
 21
953.64290000000005
  0
LINE
  8
_0-0_1
  6
CONTINUOUS
 62
    7
 10
1180.9570000000001
 20
960.8873000000001
 11
1182.8981000000001
 21
953.64290000000005
  0
LINE
  8
_0-0_1
  6
CONTINUOUS
 62
    7
 10
1182.8981000000001
 20
953.64290000000005
 11
1122.9223999999999
 21
1057.5237999999999
  0
LINE
  8
_0-0_1
  6
CONTINUOUS
 62
    7
 10
1197.9552000000001
 20
1021.1739
 11
1203.2584999999999
 21
1015.8706
  0
LINE
  8
_0-0_1
  6
CONTINUOUS
 62
    7
 10
1203.2584999999999
 20
1015.8706
 11
1201.3172999999999
 21
1023.115
  0
LINE
  8
_0-0_1
  6
CONTINUOUS
 62
    7
 10
1203.2584999999999
 20
1015.8706
 11
1154.8741
 21
1099.6748
  0
LINE
  8
_0-0_1
  6
CONTINUOUS
 62
    7
 10
988.06840979495905
 20
1173.9782372442878
 11
1005.8022000000001
 21
1125.4148
  0
LINE
  8
_0-0_1
  6
CONTINUOUS
 62
    7
 10
988.65159999999992
 20
1172.3814
 11
1200.001
 21
1249.5591999999999
  0
LINE
  8
_0-0_1
  6
CONTINUOUS
 62
    7
 10
1217.1515999999999
 20
1202.5925999999999
 11
1189.9032
 21
1277.2118
  0
LINE
  8
_0-0_1
  6
CONTINUOUS
 62
    7
 10
1190.7608
 20
1274.8634
 11
1402.1102000000001
 21
1352.0411999999999
  0
LINE
  8
_0-0_1
  6
CONTINUOUS
 62
    7
 10
1419.2608
 20
1305.0746999999999
 11
1392.9192966842154
 21
1377.2103689749383
  0
LINE
  8
_0-0_1
  6
CONTINUOUS
 62
    7
 10
1393.5024000000001
 20
1375.6134999999999
 11
1604.8519000000001
 21
1452.7911999999997
  0
LINE
  8
_0-0_1
  6
CONTINUOUS
 62
    7
 10
1604.2687420148425
 20
1454.3880490111301
 11
1622.0025000000001
 21
1405.8247000000001
  0
LINE
  8
_0-0_1
  6
CONTINUOUS
 62
    7
 10
1590.9542000000001
 20
1293.4295
 11
1655.5425
 21
1181.5594000000001
  0
LINE
  8
_0-0_1
  6
CONTINUOUS
 62
    7
 10
1655.5425
 20
1181.5594000000001
 11
1653.6252041149121
 21
1188.7145917936994
  0
LINE
  8
_0-0_1
  6
CONTINUOUS
 62
    7
 10
1655.5425
 20
1181.5594000000001
 11
1650.2392
 21
1186.8626999999999
  0
LINE
  8
_0-0_1
  6
CONTINUOUS
 62
    7
 10
1912.9533999999999
 20
1256.6314
 11
1157.6978999999999
 21
916.7672
  0
LINE
  8
_0-0_1
  6
CONTINUOUS
 62
    7
 10
1157.6978999999999
 20
916.7672
 11
1266.2064
 21
675.63580000000002
  0
LINE
  8
_0-0_1
  6
CONTINUOUS
 62
    7
 10
1265.1804956439692
 20
677.91559803980385
 11
1196.7900999999999
 21
647.14020000000005
  0
LINE
  8
_0-0_1
  6
CONTINUOUS
 62
    7
 10
1197.4876754804566
 20
645.58991343001833
 11
1176.2719
 21
692.73630000000003
  0
LINE
  8
_0-0_1
  6
CONTINUOUS
 62
    7
 10
1145.1085
 20
691.31780000000003
 11
1215.6172999999999
 21
813.44260000000008
  0
LINE
  8
_0-0_1
  6
CONTINUOUS
 62
    7
 10
1215.6172999999999
 20
813.44260000000008
 11
1210.3140000000001
 21
808.13930000000005
  0
LINE
  8
_0-0_1
  6
CONTINUOUS
 62
    7
 10
1215.6172999999999
 20
813.44260000000008
 11
1213.6762000000001
 21
806.19820000000004
  0
LINE
  8
_0-0_1
  6
CONTINUOUS
 62
    7
 10
1220.2032999999999
 20
753.27549999999997
 11
1241.8593000000001
 21
775.2527
  0
LINE
  8
_0-0_1
  6
CONTINUOUS
 62
    7
 10
1241.8593000000001
 20
775.2527
 11
1240.9717000000001
 21
780.40280000000007
  0
LINE
  8
_0-0_1
  6
CONTINUOUS
 62
    7
 10
1240.9717000000001
 20
780.40280000000007
 11
1249.9996000000001
 21
778.07940000000008
  0
LINE
  8
_0-0_1
  6
CONTINUOUS
 62
    7
 10
1249.9996000000001
 20
778.07940000000008
 11
1249.4437
 21
782.94959999999992
  0
LINE
  8
_0-0_1
  6
CONTINUOUS
 62
    7
 10
1249.4437
 20
782.94959999999992
 11
1273.9063000000001
 21
807.77500000000009
  0
LINE
  8
_0-0_1
  6
CONTINUOUS
 62
    7
 10
1265.4397891856102
 20
799.18292403213263
 11
1213.5532000000001
 21
914.48720000000003
  0
LINE
  8
_0-0_1
  6
CONTINUOUS
 62
    7
 10
1258.6930320663307
 20
814.17581442981827
 11
1968.3525
 21
1133.5219
  0
LINE
  8
_0-0_1
  6
CONTINUOUS
 62
    7
 10
1248.6874
 20
714.56700000000001
 11
1862.4113000000002
 21
990.74099999999999
  0
LINE
  8
_0-0_1
  6
CONTINUOUS
 62
    7
 10
1863.4371999999998
 20
988.46119999999996
 11
1841.8930999999998
 21
1036.3371
  0
LINE
  8
_0-0_1
  6
CONTINUOUS
 62
    7
 10
1657.0143767478055
 20
896.44881400028214
 11
1635.7986999999998
 21
943.59519999999998
  0
LINE
  8
_0-0_1
  6
CONTINUOUS
 62
    7
 10
1451.2482
 20
802.97730000000001
 11
1429.7041999999999
 21
850.85329999999999
  0
LINE
  8
_0-0_1
  6
CONTINUOUS
 62
    7
 10
1174.9425110107627
 20
878.44565789242881
 11
1241.0568000000001
 21
853.36779999999999
  0
LINE
  8
_0-0_1
  6
CONTINUOUS
 62
    7
 10
1242.7979
 20
849.49890000000005
 11
1176.6835000000001
 21
874.57670000000007
  0
LINE
  8
_0-0_1
  6
CONTINUOUS
 62
    7
 10
1324.9521999999999
 20
996.57590000000005
 11
1318.796
 21
1010.2544
  0
LINE
  8
_0-0_1
  6
CONTINUOUS
 62
    7
 10
1318.796
 20
1010.2544
 11
1346.1529999999998
 21
1022.5668000000001
  0
LINE
  8
_0-0_1
  6
CONTINUOUS
 62
    7
 10
1346.1529999999998
 20
1022.5668000000001
 11
1352.3091999999999
 21
1008.8883000000001
  0
LINE
  8
_0-0_1
  6
CONTINUOUS
 62
    7
 10
1352.3091999999999
 20
1008.8883000000001
 11
1324.9521999999999
 21
996.57590000000005
  0
LINE
  8
_0-0_1
  6
CONTINUOUS
 62
    7
 10
1324.9521999999999
 20
996.57590000000005
 11
1346.1529999999998
 21
1022.5668000000001
  0
LINE
  8
_0-0_1
  6
CONTINUOUS
 62
    7
 10
1167.9570000000001
 20
893.96910000000003
 11
1923.2125000000001
 21
1233.8333
  0
TEXT
  8
_0-0_1
 62
    7
 10
1615.9041000000002
 20
851.35850000000005
 40
20
 41
1
 50
0
  1
　瓦桟：１５ｘ３０以上
  0
TEXT
  8
_0-0_1
 62
    7
 10
1081.9802162250692
 20
1217.3415800318999
 40
20
 41
1
 50
20.060506999999973
  1
225
  0
TEXT
  8
_0-0_1
 62
    7
 10
1284.5643408795352
 20
1319.1753111416306
 40
20
 41
1
 50
20.060506999999973
  1
225
  0
TEXT
  8
_0-0_1
 62
    7
 10
1483.8984528390095
 20
1419.9257046863659
 40
20
 41
1
 50
20.06050700000003
  1
225
  0
TEXT
  8
_0-0_1
 62
    7
 10
1333.3145313044063
 20
766.67315299308768
 40
20
 41
1
 50
24.227609000000026
  1
221
  0
TEXT
  8
_0-0_1
 62
    7
 10
1534.8153183938753
 20
858.75684601784496
 40
20
 41
1
 50
24.227608999999966
  1
226
  0
TEXT
  8
_0-0_1
 62
    7
 10
1743.8994684383242
 20
946.50718878261364
 40
20
 41
1
 50
24.227608999999983
  1
226
  0
TEXT
  8
_0-2_3
 62
    7
 10
928.43736826981035
 20
699.58299183650183
 40
20
 41
1
 50
0
  1
破風板：薄型ALCパネル
  0
TEXT
  8
_0-0_1
 62
    7
 10
1628.0692337537891
 20
822.57763485537498
 40
20
 41
1
 50
0
  1
下葺材：ルーフィング
  0
TEXT
  8
_0-0_1
 62
    7
 10
1634.4585658586655
 20
792.22830735721141
 40
20
 41
1
 50
0
  1
野地板：硬質木片セメントパネルｔ＝25
  0
TEXT
  8
_0-0_1
 62
    7
 10
1644.0425640159806
 20
761.87897985904794
 40
20
 41
1
 50
0
  1
鋼製：C－100x50x⑳x2.3　@606
  0
LINE
  8
_0-0_1
  6
CONTINUOUS
 62
    2
 10
1641.2498000000001
 20
758.80130000000008
 11
1942.7438399189577
 21
758.80130000000008
  0
LINE
  8
_0-0_1
  6
CONTINUOUS
 62
    7
 10
1641.2498000000001
 20
758.80130000000008
 11
1941.1465068927384
 21
758.80130000000008
  0
LINE
  8
_0-0_1
  6
CONTINUOUS
 62
    2
 10
1634.0765999999999
 20
788.66779999999994
 11
2019.4158251774757
 21
788.66779999999994
  0
LINE
  8
_0-0_1
  6
CONTINUOUS
 62
    7
 10
1634.0765999999999
 20
788.66779999999994
 11
2027.4024903085717
 21
788.66779999999994
  0
LINE
  8
_0-0_1
  6
CONTINUOUS
 62
    2
 10
1624.5335
 20
818.7632000000001
 11
1840.5145262409335
 21
818.7632000000001
  0
LINE
  8
_0-0_1
  6
CONTINUOUS
 62
    7
 10
1625.1830528794599
 20
818.7632000000001
 11
1835.7225271622758
 21
818.7632000000001
  0
LINE
  8
_0-0_1
  6
CONTINUOUS
 62
    2
 10
1615.9041000000002
 20
848.85850000000005
 11
1843.7091922933719
 21
848.85850000000005
  0
LINE
  8
_0-0_1
  6
CONTINUOUS
 62
    7
 10
1617.11903932057
 20
848.85850000000005
 11
1843.7091922933719
 21
848.85850000000005
  0
TEXT
  8
_0-1_2
 62
    7
 10
1220.749312067911
 20
669.23366433833849
 40
20
 41
1
 50
24.227608999999983
  1
75
  0
TEXT
  8
_0-1_2
 62
    7
 10
1538.618584285518
 20
1303.3748757473331
 40
20
 41
1
 50
0
  1
桟　瓦
  0
TEXT
  8
_0-2_3
 62
    7
 10
1086.5733378655041
 20
1105.3055804961609
 40
20
 41
1
 50
0
  1
万十軒瓦
  0
TEXT
  8
_0-2_3
 62
    7
 10
1059.4186764197789
 20
1065.3722548406827
 40
20
 41
1
 50
0
  1
瓦　座　
  0
ENDSEC
  0
EOF
