  0
SECTION
  2
HEADER
  9
$ACADVER
  1
AC1009
  9
$INSBASE
 10
0
 20
0
 30
0
  9
$EXTMIN
 10
0
 20
0
  9
$EXTMAX
 10
2970
 20
2100
  9
$LIMMIN
 10
0
 20
0
  9
$LIMMAX
 10
2970
 20
2100
  9
$LTSCALE
 40
10
  0
ENDSEC
  0
SECTION
  2
TABLES
  0
TABLE
  2
LTYPE
 70
     9
  0
LTYPE
  2
CONTINUOUS
 70
    64
  3
実線
 72
    65
 73
     0
 40
0.0
  0
LTYPE
  2
DASHED1
 70
    64
  3
--  --  --  --  --  --  --  --  
 72
    65
 73
     2
 40
2.5
 49
1.25
 49
-1.25
  0
LTYPE
  2
DASHED2
 70
    64
  3
----    ----    ----    ----    
 72
    65
 73
     2
 40
5.0
 49
2.5
 49
-2.5
  0
LTYPE
  2
DASHED3
 70
    64
  3
------  ------  ------  ------  
 72
    65
 73
     2
 40
5.0
 49
3.75
 49
-1.25
  0
LTYPE
  2
CENTER1
 70
    64
  3
----- - ----- - ----- - ----- - 
 72
    65
 73
     4
 40
10.0
 49
6.25
 49
-1.25
 49
1.25
 49
-1.25
  0
LTYPE
  2
CENTER2
 70
    64
  3
----------  --  ----------  --  
 72
    65
 73
     4
 40
20.0
 49
12.5
 49
-2.5
 49
2.5
 49
-2.5
  0
LTYPE
  2
PHANTOM1
 70
    64
  3
--- - - --- - - --- - - --- - - 
 72
    65
 73
     6
 40
10.0
 49
3.25
 49
-1.25
 49
1.25
 49
-1.25
 49
1.25
 49
-1.25
  0
LTYPE
  2
PHANTOM2
 70
    64
  3
--------  -  -  --------  -  -  
 72
    65
 73
     6
 40
20.0
 49
10.0
 49
-2.5
 49
1.25
 49
-2.5
 49
1.25
 49
-2.5
  0
LTYPE
  2
DOT
 70
    64
  3
-   -   -   -   -   -   -   -   
 72
    65
 73
     2
 40
2.5
 49
0.625
 49
-1.875
  0
LTYPE
  2
DUMMY
 70
    64
  3
ダミー
 72
    65
 73
     0
 40
0.0
  0
LTYPE
  2
RAND1
 70
    64
  3
ランダム線1
 72
    65
 73
     4
 40
10.0
 49
1.0
 49
-2.0
 49
3.0
 49
-4.0
  0
LTYPE
  2
RAND2
 70
    64
  3
ランダム線2
 72
    65
 73
     4
 40
14.0
 49
2.0
 49
-3.0
 49
4.0
 49
-5.0
  0
LTYPE
  2
RAND3
 70
    64
  3
ランダム線3
 72
    65
 73
     4
 40
18.0
 49
3.0
 49
-4.0
 49
5.0
 49
-6.0
  0
LTYPE
  2
RAND4
 70
    64
  3
ランダム線4
 72
    65
 73
     4
 40
22.0
 49
4.0
 49
-5.0
 49
6.0
 49
-7.0
  0
LTYPE
  2
RAND5
 70
    64
  3
ランダム線5
 72
    65
 73
     4
 40
26.0
 49
5.0
 49
-6.0
 49
7.0
 49
-8.0
  0
LTYPE
  2
LONG1
 70
    64
  3
----------  --  ----------  --  
 72
    65
 73
     4
 40
40.0
 49
32.5
 49
-2.5
 49
2.5
 49
-2.5
  0
LTYPE
  2
LONG2
 70
    64
  3
--------  -  -  --------  -  -  
 72
    65
 73
     6
 40
40.0
 49
30.0
 49
-2.5
 49
1.25
 49
-2.5
 49
1.25
 49
-2.5
  0
LTYPE
  2
LONG3
 70
    64
  3
+++++++++++++++..+++++++++++++++
 72
    65
 73
     2
 40
40.0
 49
37.5
 49
-2.5
  0
LTYPE
  2
LONG4
 70
    64
  3
+++++++++++++++..+++++++++++++++
 72
    65
 73
     2
 40
80.0
 49
75.0
 49
-5.0
  0
LTYPE
  2
LONG5
 70
    64
  3
----------  --  ----------  --  
 72
    65
 73
     4
 40
60.0
 49
37.5
 49
-7.5
 49
7.5
 49
-7.5
  0
LTYPE
  2
dashed
 70
   64
  3
-------   -------------   ------
 72
   65
 73
    2
 40
7.5
 49
6
 49
-1.5
  0
LTYPE
  2
dashed_spaced
 70
   64
  3
----        --------        ----
 72
   65
 73
    2
 40
12
 49
6
 49
-6
  0
LTYPE
  2
long_dashed_dotted
 70
   64
  3
------------- --- --------------
 72
   65
 73
    4
 40
15.25
 49
12
 49
-1.5
 49
0.25
 49
-1.5
  0
LTYPE
  2
long_dashed_double-dotted
 70
   64
  3
----------- --- --- ------------
 72
   65
 73
    6
 40
17
 49
12
 49
-1.5
 49
0.25
 49
-1.5
 49
0.25
 49
-1.5
  0
LTYPE
  2
long_dashed_triplicate-dotted
 70
   64
  3
--------- --- --- --- ----------
 72
   65
 73
    8
 40
18.75
 49
12
 49
-1.5
 49
0.25
 49
-1.5
 49
0.25
 49
-1.5
 49
0.25
 49
-1.5
  0
LTYPE
  2
dotted
 70
   64
  3
   -       -       -       -    
 72
   65
 73
    2
 40
1.75
 49
0.25
 49
-1.5
  0
LTYPE
  2
chain
 70
   64
  3
-------------- -- --------------
 72
   65
 73
    4
 40
18.5
 49
12
 49
-1.5
 49
3.5
 49
-1.5
  0
LTYPE
  2
chain_double_dash
 70
   64
  3
------------ -- -- -------------
 72
   65
 73
    6
 40
23.5
 49
12
 49
-1.5
 49
3.5
 49
-1.5
 49
3.5
 49
-1.5
  0
LTYPE
  2
dashed_dotted
 70
   64
  3
-----------     -     ----------
 72
   65
 73
    4
 40
9.25
 49
6
 49
-1.5
 49
0.25
 49
-1.5
  0
LTYPE
  2
double-dashed_dotted
 70
   64
  3
------   -----------   -   -----
 72
   65
 73
    6
 40
16.75
 49
6
 49
-1.5
 49
6
 49
-1.5
 49
0.25
 49
-1.5
  0
LTYPE
  2
dashed_double-dotted
 70
   64
  3
---------    -    -    ---------
 72
   65
 73
    6
 40
11
 49
6
 49
-1.5
 49
0.25
 49
-1.5
 49
0.25
 49
-1.5
  0
LTYPE
  2
double-dashed_double-dotted
 70
   64
  3
-----   ---------   -   -   ----
 72
   65
 73
    8
 40
18.5
 49
6
 49
-1.5
 49
6
 49
-1.5
 49
0.25
 49
-1.5
 49
0.25
 49
-1.5
  0
LTYPE
  2
dashed_triplicate-dotted
 70
   64
  3
-------    -    -    -    ------
 72
   65
 73
    8
 40
12.75
 49
6
 49
-1.5
 49
0.25
 49
-1.5
 49
0.25
 49
-1.5
 49
0.25
 49
-1.5
  0
LTYPE
  2
double-dashed_triplicate-dotted
 70
   64
  3
-----  ---------  -  -  -  -----
 72
   65
 73
   10
 40
20.25
 49
6
 49
-1.5
 49
6
 49
-1.5
 49
0.25
 49
-1.5
 49
0.25
 49
-1.5
 49
0.25
 49
-1.5
  0
LTYPE
  2
undefined
 70
   64
  3
--------------------------------
 72
   65
 73
    0
 40
0
  0
ENDTAB
  0
TABLE
  2
STYLE
  5
3
100
AcDbSymbolTable
 70
     1
  0
STYLE
  5
10
100
AcDbSymbolTableRecord
100
AcDbTextStyleTableRecord
  2
STANDARD
 70
     0
 40
0.0
 41
1.0
 50
0.0
 71
     0
 42
0.2
  3
txt
  4
bigfont.shx
  0
STYLE
  5
26
100
AcDbSymbolTableRecord
100
AcDbTextStyleTableRecord
  2
TATEGAKI
 70
    68
 40
0.0
 41
1.0
 50
0.0
 71
     0
 42
1.0
  3
txt
  4
bigfont.shx
  0
ENDTAB
  0
TABLE
  2
LAYER
 70
    3
  0
LAYER
  2
_0-0_LAYER001
 70
   64
 62
    7
  6
CONTINUOUS
  0
LAYER
  2
_0-1_LAYER003
 70
   64
 62
    7
  6
CONTINUOUS
  0
LAYER
  2
ADD_LINE
 70
   64
 62
    7
  6
CONTINUOUS
  0
ENDTAB
  0
ENDSEC
  0
SECTION
  2
BLOCKS
  0
ENDSEC
  0
SECTION
  2
ENTITIES
  0
LINE
  8
_0-0_LAYER001
  6
CONTINUOUS
 62
    2
 10
1769.7177000000001
 20
998.12709999999993
 11
1869.7177000000001
 21
998.12709999999993
  0
LINE
  8
_0-0_LAYER001
  6
CONTINUOUS
 62
    2
 10
1884.7177000000001
 20
1369.4456
 11
1884.7177000000001
 21
699.41509999999994
  0
LINE
  8
_0-0_LAYER001
  6
CONTINUOUS
 62
    2
 10
1961.0167000000001
 20
1204.2494999999999
 11
1908.5167000000001
 21
1204.2494999999999
  0
CIRCLE
  8
_0-0_LAYER001
  6
CONTINUOUS
 62
    2
 10
1958.5167000000001
 20
1204.2494999999999
 40
1.6999999999999997
  0
LINE
  8
_0-0_LAYER001
  6
CONTINUOUS
 62
    2
 10
1958.5167000000001
 20
1204.2494999999999
 11
1958.5167000000001
 21
1054.2494999999999
  0
CIRCLE
  8
_0-0_LAYER001
  6
CONTINUOUS
 62
    2
 10
1958.5167000000001
 20
1054.2494999999999
 40
1.6999999999999997
  0
LINE
  8
_0-0_LAYER001
  6
CONTINUOUS
 62
    2
 10
1961.0167000000001
 20
1054.2494999999999
 11
1908.5167000000001
 21
1054.2494999999999
  0
LINE
  8
_0-0_LAYER001
  6
CONTINUOUS
 62
    2
 10
1676.1635000000001
 20
1427.8553999999999
 11
1676.1635000000001
 21
1400.3553999999999
  0
CIRCLE
  8
_0-0_LAYER001
  6
CONTINUOUS
 62
    2
 10
1676.1635000000001
 20
1425.3553999999999
 40
1.6999999999999997
  0
LINE
  8
_0-0_LAYER001
  6
CONTINUOUS
 62
    2
 10
1676.1635000000001
 20
1425.3553999999999
 11
1767.7177000000001
 21
1425.3553999999999
  0
CIRCLE
  8
_0-0_LAYER001
  6
CONTINUOUS
 62
    2
 10
1767.7177000000001
 20
1425.3553999999999
 40
1.6999999999999997
  0
LINE
  8
_0-0_LAYER001
  6
CONTINUOUS
 62
    2
 10
1767.7177000000001
 20
1427.8553999999999
 11
1767.7177000000001
 21
1400.3553999999999
  0
CIRCLE
  8
_0-0_LAYER001
  6
CONTINUOUS
 62
    2
 10
1726.2710000000002
 20
1118.8692000000001
 40
0.8999999999999999
  0
CIRCLE
  8
_0-0_LAYER001
  6
CONTINUOUS
 62
    2
 10
1730.6039999999998
 20
1106.5924
 40
0.8999999999999999
  0
CIRCLE
  8
_0-0_LAYER001
  6
CONTINUOUS
 62
    2
 10
1702.0785000000001
 20
1110.9254000000001
 40
0.8999999999999999
  0
LINE
  8
_0-0_LAYER001
  6
CONTINUOUS
 62
    2
 10
1681.085
 20
1121.7862
 11
1769.7177000000001
 21
1137.4145000000001
  0
LINE
  8
_0-0_LAYER001
  6
CONTINUOUS
 62
    2
 10
1678.4803999999999
 20
1136.5582999999999
 11
1767.1129999999998
 21
1152.1866
  0
LINE
  8
_0-0_LAYER001
  6
CONTINUOUS
 62
    2
 10
1678.4803999999999
 20
1136.5582999999999
 11
1681.085
 21
1121.7862
  0
LINE
  8
_0-0_LAYER001
  6
CONTINUOUS
 62
    2
 10
1767.1129999999998
 20
1152.1866
 11
1769.7177000000001
 21
1137.4145000000001
  0
LINE
  8
_0-0_LAYER001
  6
CONTINUOUS
 62
    2
 10
1769.7177000000001
 20
1137.4145000000001
 11
1678.4803999999999
 21
1136.5582999999999
  0
LINE
  8
_0-0_LAYER001
  6
CONTINUOUS
 62
    2
 10
1676.1635000000001
 20
1138.1804999999999
 11
1678.7680999999998
 21
1123.4084
  0
LINE
  8
_0-0_LAYER001
  6
CONTINUOUS
 62
    2
 10
1817.7177000000001
 20
1117.4145000000001
 11
1812.7175999999999
 21
1120.4145000000001
  0
LINE
  8
_0-0_LAYER001
  6
CONTINUOUS
 62
    2
 10
1812.7175999999999
 20
1114.4146000000001
 11
1817.7177000000001
 21
1117.4145000000001
  0
LINE
  8
_0-0_LAYER001
  6
CONTINUOUS
 62
    2
 10
1811.6426999999999
 20
1114.4146000000001
 11
1814.4917
 21
1119.3506
  0
LINE
  8
_0-0_LAYER001
  6
CONTINUOUS
 62
    2
 10
1745.7175999999999
 20
1114.4146000000001
 11
1745.7175999999999
 21
1120.4145000000001
  0
LINE
  8
_0-0_LAYER001
  6
CONTINUOUS
 62
    2
 10
1739.7177000000001
 20
1111.4145000000001
 11
1739.7177000000001
 21
1123.4146000000001
  0
LINE
  8
_0-0_LAYER001
  6
CONTINUOUS
 62
    2
 10
1748.6046000000001
 20
1114.4146000000001
 11
1752.0677000000001
 21
1120.4145000000001
  0
LINE
  8
_0-0_LAYER001
  6
CONTINUOUS
 62
    2
 10
1739.7177000000001
 20
1111.4145000000001
 11
1745.7175999999999
 21
1114.4146000000001
  0
LINE
  8
_0-0_LAYER001
  6
CONTINUOUS
 62
    2
 10
1745.7175999999999
 20
1120.4145000000001
 11
1739.7177000000001
 21
1123.4146000000001
  0
LINE
  8
_0-0_LAYER001
  6
CONTINUOUS
 62
    2
 10
1812.7175999999999
 20
1120.4145000000001
 11
1802.7026000000001
 21
1120.4145000000001
  0
LINE
  8
_0-0_LAYER001
  6
CONTINUOUS
 62
    2
 10
1794.0506999999998
 20
1115.9416000000001
 11
1795.9447
 21
1119.2226000000001
  0
LINE
  8
_0-0_LAYER001
  6
CONTINUOUS
 62
    2
 10
1802.4346999999998
 20
1114.4635000000001
 11
1805.8696
 21
1120.4145000000001
  0
LINE
  8
_0-0_LAYER001
  6
CONTINUOUS
 62
    2
 10
1812.7175999999999
 20
1114.4146000000001
 11
1802.7107000000001
 21
1114.4146000000001
  0
LINE
  8
_0-0_LAYER001
  6
CONTINUOUS
 62
    2
 10
1810.5666999999999
 20
1124.1376
 11
1810.9666999999999
 21
1121.8715
  0
LINE
  8
_0-0_LAYER001
  6
CONTINUOUS
 62
    2
 10
1810.3937000000001
 20
1110.7247
 11
1810.7916
 21
1112.9896000000001
  0
LINE
  8
_0-0_LAYER001
  6
CONTINUOUS
 62
    2
 10
1805.9735999999998
 20
1123.1235999999999
 11
1807.6477
 21
1123.4185
  0
LINE
  8
_0-0_LAYER001
  6
CONTINUOUS
 62
    2
 10
1801.6406999999999
 20
1122.3596
 11
1803.3136
 21
1122.6545000000001
  0
LINE
  8
_0-0_LAYER001
  6
CONTINUOUS
 62
    2
 10
1797.3076000000001
 20
1121.5954999999999
 11
1798.9805999999999
 21
1121.8905999999999
  0
LINE
  8
_0-0_LAYER001
  6
CONTINUOUS
 62
    2
 10
1797.0115000000001
 20
1123.2686000000001
 11
1787.9176000000002
 21
1121.6657
  0
LINE
  8
_0-0_LAYER001
  6
CONTINUOUS
 62
    2
 10
1801.3445999999999
 20
1124.0325
 11
1798.6855999999998
 21
1123.5635
  0
LINE
  8
_0-0_LAYER001
  6
CONTINUOUS
 62
    2
 10
1805.6776
 20
1124.7967000000001
 11
1803.0187000000001
 21
1124.3276000000001
  0
LINE
  8
_0-0_LAYER001
  6
CONTINUOUS
 62
    2
 10
1808.8294999999998
 20
1125.3525
 11
1807.3517000000002
 21
1125.0915
  0
LINE
  8
_0-0_LAYER001
  6
CONTINUOUS
 62
    2
 10
1807.6477
 20
1123.4185
 11
1807.3517000000002
 21
1125.0925999999999
  0
LINE
  8
_0-0_LAYER001
  6
CONTINUOUS
 62
    2
 10
1805.9735999999998
 20
1123.1235999999999
 11
1805.6776
 21
1124.7976000000001
  0
LINE
  8
_0-0_LAYER001
  6
CONTINUOUS
 62
    2
 10
1803.3146999999999
 20
1122.6545000000001
 11
1803.0187000000001
 21
1124.3286000000001
  0
LINE
  8
_0-0_LAYER001
  6
CONTINUOUS
 62
    2
 10
1801.6406999999999
 20
1122.3596
 11
1801.3445999999999
 21
1124.0335
  0
LINE
  8
_0-0_LAYER001
  6
CONTINUOUS
 62
    2
 10
1798.9816999999998
 20
1121.8905999999999
 11
1798.6855999999998
 21
1123.5645
  0
LINE
  8
_0-0_LAYER001
  6
CONTINUOUS
 62
    2
 10
1797.3076000000001
 20
1121.5954999999999
 11
1797.0115000000001
 21
1123.2695000000001
  0
LINE
  8
_0-0_LAYER001
  6
CONTINUOUS
 62
    2
 10
1805.7986999999998
 20
1111.7375
 11
1807.4726999999998
 21
1111.4425000000001
  0
LINE
  8
_0-0_LAYER001
  6
CONTINUOUS
 62
    2
 10
1801.4657000000002
 20
1112.5016000000001
 11
1803.1397000000002
 21
1112.2066
  0
LINE
  8
_0-0_LAYER001
  6
CONTINUOUS
 62
    2
 10
1797.1327000000001
 20
1113.2655999999999
 11
1798.8065999999999
 21
1112.9704999999999
  0
LINE
  8
_0-0_LAYER001
  6
CONTINUOUS
 62
    2
 10
1797.1336999999999
 20
1113.2655999999999
 11
1796.8375999999998
 21
1111.5925999999999
  0
LINE
  8
_0-0_LAYER001
  6
CONTINUOUS
 62
    2
 10
1798.8076000000001
 20
1112.9704999999999
 11
1798.5115000000001
 21
1111.2976000000001
  0
LINE
  8
_0-0_LAYER001
  6
CONTINUOUS
 62
    2
 10
1801.4666999999999
 20
1112.5016000000001
 11
1801.1707000000001
 21
1110.8285000000001
  0
LINE
  8
_0-0_LAYER001
  6
CONTINUOUS
 62
    2
 10
1803.1406999999999
 20
1112.2066
 11
1802.8445999999999
 21
1110.5336
  0
LINE
  8
_0-0_LAYER001
  6
CONTINUOUS
 62
    2
 10
1805.7995999999998
 20
1111.7375
 11
1805.5037000000002
 21
1110.0645999999999
  0
LINE
  8
_0-0_LAYER001
  6
CONTINUOUS
 62
    2
 10
1807.4737
 20
1111.4425000000001
 11
1807.1776
 21
1109.7696000000001
  0
LINE
  8
_0-0_LAYER001
  6
CONTINUOUS
 62
    2
 10
1796.8375999999998
 20
1111.5925999999999
 11
1787.9176000000002
 21
1113.1645000000001
  0
LINE
  8
_0-0_LAYER001
  6
CONTINUOUS
 62
    2
 10
1801.1707000000001
 20
1110.8285000000001
 11
1798.5115000000001
 21
1111.2976000000001
  0
LINE
  8
_0-0_LAYER001
  6
CONTINUOUS
 62
    2
 10
1805.5037000000002
 20
1110.0645999999999
 11
1802.8445999999999
 21
1110.5336
  0
LINE
  8
_0-0_LAYER001
  6
CONTINUOUS
 62
    2
 10
1808.6547
 20
1109.5085999999999
 11
1807.1776
 21
1109.7686000000001
  0
LINE
  8
_0-0_LAYER001
  6
CONTINUOUS
 62
    2
 10
1785.6936999999998
 20
1117.4156
 11
1810.9666999999999
 21
1121.8715
  0
LINE
  8
_0-0_LAYER001
  6
CONTINUOUS
 62
    2
 10
1785.6936999999998
 20
1117.4156
 11
1810.7916
 21
1112.9896000000001
  0
LINE
  8
_0-0_LAYER001
  6
CONTINUOUS
 62
    2
 10
1769.7177000000001
 20
1121.6645000000001
 11
1787.9176000000002
 21
1121.6645000000001
  0
LINE
  8
_0-0_LAYER001
  6
CONTINUOUS
 62
    2
 10
1769.7177000000001
 20
1113.1645000000001
 11
1787.9176000000002
 21
1113.1645000000001
  0
LINE
  8
_0-0_LAYER001
  6
CONTINUOUS
 62
    2
 10
1769.7177000000001
 20
1113.1645000000001
 11
1769.7177000000001
 21
1121.6645000000001
  0
LINE
  8
_0-0_LAYER001
  6
CONTINUOUS
 62
    2
 10
1739.7177000000001
 20
1097.4145000000001
 11
1769.7177000000001
 21
1097.4145000000001
  0
LINE
  8
_0-0_LAYER001
  6
CONTINUOUS
 62
    2
 10
1769.7177000000001
 20
1120.4145000000001
 11
1745.7175999999999
 21
1120.4145000000001
  0
LINE
  8
_0-0_LAYER001
  6
CONTINUOUS
 62
    2
 10
1769.7177000000001
 20
1114.4146000000001
 11
1745.7175999999999
 21
1114.4146000000001
  0
LINE
  8
_0-0_LAYER001
  6
CONTINUOUS
 62
    2
 10
1754.3278
 20
1114.4146000000001
 11
1757.7908000000002
 21
1120.4145000000001
  0
LINE
  8
_0-0_LAYER001
  6
CONTINUOUS
 62
    2
 10
1760.0509000000002
 20
1114.4146000000001
 11
1763.5140000000001
 21
1120.4145000000001
  0
LINE
  8
_0-0_LAYER001
  6
CONTINUOUS
 62
    2
 10
1765.7739999999999
 20
1114.4146000000001
 11
1769.2370999999998
 21
1120.4145000000001
  0
LINE
  8
_0-0_LAYER001
  6
CONTINUOUS
 62
    2
 10
1739.7177000000001
 20
1097.4145000000001
 11
1739.7177000000001
 21
1132.1247000000001
  0
LINE
  8
_0-0_LAYER001
  6
CONTINUOUS
 62
    2
 10
1769.7177000000001
 20
1097.4145000000001
 11
1743.2217000000001
 21
1132.7426
  0
LINE
  8
_0-0_LAYER001
  6
CONTINUOUS
 62
    2
 10
1676.1635000000001
 20
1138.1804999999999
 11
1767.7177000000001
 21
1154.3240000000001
  0
LINE
  8
_0-0_LAYER001
  6
CONTINUOUS
 62
    2
 10
1748.8957999999998
 20
1148.9744000000001
 11
1757.6653000000001
 21
1150.5207
  0
LINE
  8
_0-0_LAYER001
  6
CONTINUOUS
 62
    2
 10
1756.4214999999999
 20
1121.2625
 11
1759.8631999999998
 21
1113.0235
  0
LINE
  8
_0-0_LAYER001
  6
CONTINUOUS
 62
    2
 10
1755.3816999999999
 20
1148.4981
 11
1760.0716000000002
 21
1121.9063000000001
  0
LINE
  8
_0-0_LAYER001
  6
CONTINUOUS
 62
    2
 10
1759.8631999999998
 20
1113.0235
 11
1760.0716000000002
 21
1121.9063000000001
  0
LINE
  8
_0-0_LAYER001
  6
CONTINUOUS
 62
    2
 10
1751.7318
 20
1147.8558
 11
1748.8957999999998
 21
1148.9744000000001
  0
LINE
  8
_0-0_LAYER001
  6
CONTINUOUS
 62
    2
 10
1755.3816999999999
 20
1148.4981
 11
1757.6653000000001
 21
1150.5207
  0
LINE
  8
_0-0_LAYER001
  6
CONTINUOUS
 62
    2
 10
1751.7318
 20
1147.8558
 11
1756.4214999999999
 21
1121.2625
  0
LINE
  8
_0-0_LAYER001
  6
CONTINUOUS
 62
    2
 10
1655.1860999999999
 20
1114.8252
 11
1678.7680999999998
 21
1123.4084
  0
LINE
  8
_0-0_LAYER001
  6
CONTINUOUS
 62
    2
 10
1655.1860999999999
 20
1114.8252
 11
1661.0987
 21
1115.8454999999999
  0
ARC
  8
_0-0_LAYER001
  6
CONTINUOUS
 62
    2
 10
1809.0817000000002
 20
1123.8706
 40
1.5049999999999999
 50
10.451269999999999
 51
99.637527999999989
  0
ARC
  8
_0-0_LAYER001
  6
CONTINUOUS
 62
    2
 10
1808.9137000000001
 20
1110.9875
 40
1.4969999999999999
 50
259.83899000000008
 51
350.14733000000001
  0
LINE
  8
_0-0_LAYER001
  6
CONTINUOUS
 62
    2
 10
1718.9351000000001
 20
1036.6837
 11
1746.2927
 21
1048.9946
  0
LINE
  8
_0-0_LAYER001
  6
CONTINUOUS
 62
    2
 10
1740.1372000000001
 20
1062.6733999999999
 11
1712.7795999999998
 21
1050.3625
  0
LINE
  8
_0-0_LAYER001
  6
CONTINUOUS
 62
    2
 10
1746.2927
 20
1048.9946
 11
1740.1372000000001
 21
1062.6733999999999
  0
LINE
  8
_0-0_LAYER001
  6
CONTINUOUS
 62
    2
 10
1712.7795999999998
 20
1050.3625
 11
1718.9351000000001
 21
1036.6837
  0
LINE
  8
_0-0_LAYER001
  6
CONTINUOUS
 62
    2
 10
1740.1372000000001
 20
1062.6733999999999
 11
1718.9351000000001
 21
1036.6837
  0
LINE
  8
_0-0_LAYER001
  6
CONTINUOUS
 62
    2
 10
1513.2575000000002
 20
944.12860000000001
 11
1540.6046999999999
 21
956.46260000000007
  0
LINE
  8
_0-0_LAYER001
  6
CONTINUOUS
 62
    2
 10
1534.4376999999999
 20
970.13629999999989
 11
1507.0904999999998
 21
957.80230000000006
  0
LINE
  8
_0-0_LAYER001
  6
CONTINUOUS
 62
    2
 10
1540.6046999999999
 20
956.46260000000007
 11
1534.4376999999999
 21
970.13629999999989
  0
LINE
  8
_0-0_LAYER001
  6
CONTINUOUS
 62
    2
 10
1507.0904999999998
 20
957.80230000000006
 11
1513.2575000000002
 21
944.12860000000001
  0
LINE
  8
_0-0_LAYER001
  6
CONTINUOUS
 62
    2
 10
1534.4376999999999
 20
970.13629999999989
 11
1513.2575000000002
 21
944.12860000000001
  0
LINE
  8
_0-0_LAYER001
  6
CONTINUOUS
 62
    2
 10
1307.49
 20
851.53320000000008
 11
1334.8476000000001
 21
863.84410000000003
  0
LINE
  8
_0-0_LAYER001
  6
CONTINUOUS
 62
    2
 10
1328.6922
 20
877.52289999999994
 11
1301.3344999999999
 21
865.21199999999999
  0
LINE
  8
_0-0_LAYER001
  6
CONTINUOUS
 62
    2
 10
1334.8476000000001
 20
863.84410000000003
 11
1328.6922
 21
877.52289999999994
  0
LINE
  8
_0-0_LAYER001
  6
CONTINUOUS
 62
    2
 10
1301.3344999999999
 20
865.21199999999999
 11
1307.49
 21
851.53320000000008
  0
LINE
  8
_0-0_LAYER001
  6
CONTINUOUS
 62
    2
 10
1328.6922
 20
877.52289999999994
 11
1307.49
 21
851.53320000000008
  0
LINE
  8
_0-0_LAYER001
  6
CONTINUOUS
 62
    4
 10
1741.3420000000001
 20
1064.0305000000001
 11
1745.4346
 21
1052.75
  0
LINE
  8
_0-0_LAYER001
  6
CONTINUOUS
 62
    4
 10
1476.0918000000001
 20
985.88120000000004
 11
1744.0046000000002
 21
1083.0807
  0
LINE
  8
_0-0_LAYER001
  6
CONTINUOUS
 62
    4
 10
1459.4380999999998
 20
1031.7842000000001
 11
1727.3508000000002
 21
1128.9837
  0
ARC
  8
_0-0_LAYER001
  6
CONTINUOUS
 62
    4
 10
1273.7900999999999
 20
883.76350000000002
 40
10
 50
109.94091000000002
 51
199.94091
  0
ARC
  8
_0-0_LAYER001
  6
CONTINUOUS
 62
    4
 10
1479.5023000000001
 20
976.48070000000007
 40
10
 50
109.94091000000002
 51
199.94091
  0
LINE
  8
_0-0_LAYER001
  6
CONTINUOUS
 62
    4
 10
1745.4346
 20
1052.75
 11
1753.8951000000002
 21
1055.8194000000001
  0
LINE
  8
_0-0_LAYER001
  6
CONTINUOUS
 62
    4
 10
1727.3508000000002
 20
1128.9837
 11
1753.8951000000002
 21
1055.8194000000001
  0
LINE
  8
_0-0_LAYER001
  6
CONTINUOUS
 62
    4
 10
1276.1775
 20
877.18319999999994
 11
1535.6298000000002
 21
971.31330000000003
  0
LINE
  8
_0-0_LAYER001
  6
CONTINUOUS
 62
    4
 10
1535.6298000000002
 20
971.31330000000003
 11
1539.7224000000001
 21
960.03269999999998
  0
LINE
  8
_0-0_LAYER001
  6
CONTINUOUS
 62
    4
 10
1539.7224000000001
 20
960.03269999999998
 11
1548.1828
 21
963.10220000000004
  0
LINE
  8
_0-0_LAYER001
  6
CONTINUOUS
 62
    4
 10
1342.4706000000001
 20
870.38499999999999
 11
1334.0101999999999
 21
867.31549999999993
  0
LINE
  8
_0-0_LAYER001
  6
CONTINUOUS
 62
    4
 10
1221.6602
 20
839.31999999999994
 11
1329.9176
 21
878.596
  0
LINE
  8
_0-0_LAYER001
  6
CONTINUOUS
 62
    4
 10
1329.9176
 20
878.596
 11
1334.0101999999999
 21
867.31549999999993
  0
LINE
  8
_0-0_LAYER001
  6
CONTINUOUS
 62
    4
 10
1194.5699
 20
899.52080000000001
 11
1250.1233
 21
919.67570000000001
  0
ARC
  8
_0-0_LAYER001
  6
CONTINUOUS
 62
    4
 10
1257.1364000000001
 20
929.66650000000004
 40
10
 50
109.94091000000002
 51
199.94091
  0
LINE
  8
_0-0_LAYER001
  6
CONTINUOUS
 62
    4
 10
1247.7358999999999
 20
926.25600000000009
 11
1266.777
 21
873.77269999999999
  0
LINE
  8
_0-0_LAYER001
  6
CONTINUOUS
 62
    4
 10
1247.7358999999999
 20
926.25600000000009
 11
1266.777
 21
873.77269999999999
  0
LINE
  8
_0-0_LAYER001
  6
CONTINUOUS
 62
    4
 10
1214.6645000000001
 20
854.86609999999996
 11
1332.5802000000001
 21
897.64630000000011
  0
LINE
  8
_0-0_LAYER001
  6
CONTINUOUS
 62
    4
 10
1332.5802000000001
 20
897.64630000000011
 11
1342.4706000000001
 21
870.38499999999999
  0
LINE
  8
_0-0_LAYER001
  6
CONTINUOUS
 62
    4
 10
1253.7258999999999
 20
939.06700000000001
 11
1455.8355000000001
 21
1012.3929000000001
  0
LINE
  8
_0-0_LAYER001
  6
CONTINUOUS
 62
    4
 10
1459.2460000000001
 20
1002.9925000000001
 11
1472.4892
 21
966.48990000000003
  0
LINE
  8
_0-0_LAYER001
  6
CONTINUOUS
 62
    4
 10
1538.2923999999998
 20
990.36349999999993
 11
1548.1828
 21
963.10220000000004
  0
LINE
  8
_0-0_LAYER001
  6
CONTINUOUS
 62
    4
 10
1270.3796
 20
893.16399999999999
 11
1741.3420000000001
 21
1064.0305000000001
  0
LINE
  8
_0-0_LAYER001
  6
CONTINUOUS
 62
    4
 10
1453.4481000000001
 20
1018.9733000000001
 11
1472.4892
 21
966.48990000000003
  0
ARC
  8
_0-0_LAYER001
  6
CONTINUOUS
 62
    4
 10
1462.8485999999998
 20
1022.3838000000001
 40
10
 50
109.94091000000002
 51
199.94091
  0
ARC
  8
_0-0_LAYER001
  6
CONTINUOUS
 62
    2
 10
1511.8083999999999
 20
1111.9205999999999
 40
184.43133
 50
344.74495000000007
 51
3.8748450000000396
  0
CIRCLE
  8
_0-0_LAYER001
  6
CONTINUOUS
 62
    2
 10
1707.9484000000002
 20
1091.3427999999999
 40
0.8999999999999999
  0
CIRCLE
  8
_0-0_LAYER001
  6
CONTINUOUS
 62
    2
 10
1700.7008000000001
 20
1089.0269000000001
 40
0.8999999999999999
  0
CIRCLE
  8
_0-0_LAYER001
  6
CONTINUOUS
 62
    2
 10
1706.5306
 20
1078.5830000000001
 40
0.8999999999999999
  0
CIRCLE
  8
_0-0_LAYER001
  6
CONTINUOUS
 62
    2
 10
1699.2831000000001
 20
1076.2671
 40
0.8999999999999999
  0
CIRCLE
  8
_0-0_LAYER001
  6
CONTINUOUS
 62
    2
 10
1734.6021999999998
 20
1087.6566
 40
0.8999999999999999
  0
CIRCLE
  8
_0-0_LAYER001
  6
CONTINUOUS
 62
    2
 10
1727.3546000000001
 20
1085.3407
 40
0.8999999999999999
  0
CIRCLE
  8
_0-0_LAYER001
  6
CONTINUOUS
 62
    2
 10
1720.1410999999998
 20
1118.2800999999999
 40
0.8999999999999999
  0
CIRCLE
  8
_0-0_LAYER001
  6
CONTINUOUS
 62
    2
 10
1712.8935000000001
 20
1115.9641999999999
 40
0.8999999999999999
  0
CIRCLE
  8
_0-0_LAYER001
  6
CONTINUOUS
 62
    2
 10
1749.9139
 20
1091.3427999999999
 40
0.8999999999999999
  0
CIRCLE
  8
_0-0_LAYER001
  6
CONTINUOUS
 62
    2
 10
1742.6664000000001
 20
1089.0269000000001
 40
0.8999999999999999
  0
CIRCLE
  8
_0-0_LAYER001
  6
CONTINUOUS
 62
    2
 10
1413.8249999999998
 20
1128.1872000000001
 40
1.6999999999999997
  0
LINE
  8
_0-0_LAYER001
  6
CONTINUOUS
 62
    2
 10
1413.8249999999998
 20
1128.1872000000001
 11
1691.1381999999999
 21
1228.7972
  0
CIRCLE
  8
_0-0_LAYER001
  6
CONTINUOUS
 62
    2
 10
1691.1381999999999
 20
1228.7972
 40
1.6999999999999997
  0
LINE
  8
_0-0_LAYER001
  6
CONTINUOUS
 62
    2
 10
1690.2856000000002
 20
1231.1473000000001
 11
1708.1907999999999
 21
1181.7950000000001
  0
CIRCLE
  8
_0-0_LAYER001
  6
CONTINUOUS
 62
    2
 10
1424.3407999999999
 20
1099.2023999999999
 40
1.6999999999999997
  0
LINE
  8
_0-0_LAYER001
  6
CONTINUOUS
 62
    2
 10
1424.3407999999999
 20
1099.2023999999999
 11
1212.8307
 21
1022.4658999999999
  0
CIRCLE
  8
_0-0_LAYER001
  6
CONTINUOUS
 62
    2
 10
1212.8307
 20
1022.4658999999999
 40
1.6999999999999997
  0
LINE
  8
_0-0_LAYER001
  6
CONTINUOUS
 62
    2
 10
1413.8249999999998
 20
1128.1872000000001
 11
1441.3933000000002
 21
1052.2001
  0
LINE
  8
_0-0_LAYER001
  6
CONTINUOUS
 62
    2
 10
1211.9781
 20
1024.816
 11
1229.8832
 21
975.46370000000002
  0
LINE
  8
_0-0_LAYER001
  6
CONTINUOUS
 62
    2
 10
1701.4047999999998
 20
1095.0768
 11
1708.6491999999998
 21
1097.018
  0
LINE
  8
_0-0_LAYER001
  6
CONTINUOUS
 62
    2
 10
1708.6491999999998
 20
1097.018
 11
1703.3458999999998
 21
1091.7147
  0
LINE
  8
_0-0_LAYER001
  6
CONTINUOUS
 62
    2
 10
1708.6491999999998
 20
1097.018
 11
1661.7921999999999
 21
1069.9650999999999
  0
LINE
  8
_0-0_LAYER001
  6
CONTINUOUS
 62
    2
 10
1727.5677999999998
 20
1154.2904000000001
 11
1727.5677999999998
 21
1146.7904000000001
  0
LINE
  8
_0-0_LAYER001
  6
CONTINUOUS
 62
    2
 10
1727.5677999999998
 20
1146.7904000000001
 11
1723.8177999999998
 21
1153.2855999999999
  0
LINE
  8
_0-0_LAYER001
  6
CONTINUOUS
 62
    2
 10
1727.5677999999998
 20
1146.7904000000001
 11
1678.1030000000001
 21
1331.3957
  0
LINE
  8
_0-0_LAYER001
  6
CONTINUOUS
 62
    2
 10
1762.7955000000002
 20
1124.5299
 11
1757.4922000000001
 21
1119.2266
  0
LINE
  8
_0-0_LAYER001
  6
CONTINUOUS
 62
    2
 10
1757.4922000000001
 20
1119.2266
 11
1759.4333999999999
 21
1126.4711
  0
LINE
  8
_0-0_LAYER001
  6
CONTINUOUS
 62
    2
 10
1757.4922000000001
 20
1119.2266
 11
1900.8505
 21
1367.5302999999999
  0
LINE
  8
_0-0_LAYER001
  6
CONTINUOUS
 62
    2
 10
1900.8505
 20
1367.5302999999999
 11
2031.3505
 21
1367.5302999999999
  0
LINE
  8
_0-0_LAYER001
  6
CONTINUOUS
 62
    2
 10
1438.4366
 20
949.39149999999995
 11
1438.4366
 21
941.89149999999995
  0
LINE
  8
_0-0_LAYER001
  6
CONTINUOUS
 62
    2
 10
1438.4366
 20
941.89149999999995
 11
1434.6866
 21
948.38670000000002
  0
LINE
  8
_0-0_LAYER001
  6
CONTINUOUS
 62
    2
 10
1438.4366
 20
941.89149999999995
 11
1410.8934999999999
 21
1044.6838
  0
LINE
  8
_0-0_LAYER001
  6
CONTINUOUS
 62
    2
 10
1410.8934999999999
 20
1044.6838
 11
1370.3934999999999
 21
1044.6838
  0
LINE
  8
_0-0_LAYER001
  6
CONTINUOUS
 62
    2
 10
1780.8901999999998
 20
1257.4213
 11
1775.5868999999998
 21
1252.1179999999999
  0
LINE
  8
_0-0_LAYER001
  6
CONTINUOUS
 62
    2
 10
1775.5868999999998
 20
1252.1179999999999
 11
1777.5281
 21
1259.3625
  0
LINE
  8
_0-0_LAYER001
  6
CONTINUOUS
 62
    2
 10
1775.5868999999998
 20
1252.1179999999999
 11
1865.4906999999998
 21
1407.8359
  0
LINE
  8
_0-0_LAYER001
  6
CONTINUOUS
 62
    2
 10
1657.1079
 20
1155.3214
 11
1684.6079
 21
1155.3214
  0
CIRCLE
  8
_0-0_LAYER001
  6
CONTINUOUS
 62
    2
 10
1659.6079
 20
1155.3214
 40
1.6999999999999997
  0
LINE
  8
_0-0_LAYER001
  6
CONTINUOUS
 62
    2
 10
1659.6079
 20
1155.3214
 11
1659.6079
 21
1245.3214
  0
CIRCLE
  8
_0-0_LAYER001
  6
CONTINUOUS
 62
    2
 10
1659.6079
 20
1245.3214
 40
1.6999999999999997
  0
LINE
  8
_0-0_LAYER001
  6
CONTINUOUS
 62
    2
 10
1657.1079
 20
1245.3214
 11
1684.6079
 21
1245.3214
  0
CIRCLE
  8
_0-0_LAYER001
  6
CONTINUOUS
 62
    2
 10
1659.6079
 20
1245.3214
 40
1.6999999999999997
  0
LINE
  8
_0-0_LAYER001
  6
CONTINUOUS
 62
    2
 10
1659.6079
 20
1245.3214
 11
1659.6079
 21
1260.3214
  0
CIRCLE
  8
_0-0_LAYER001
  6
CONTINUOUS
 62
    2
 10
1659.6079
 20
1260.3214
 40
1.6999999999999997
  0
LINE
  8
_0-0_LAYER001
  6
CONTINUOUS
 62
    2
 10
1657.1079
 20
1260.3214
 11
1684.6079
 21
1260.3214
  0
LINE
  8
_0-0_LAYER001
  6
CONTINUOUS
 62
    2
 10
1748.0756000000001
 20
1149.3499999999999
 11
1748.0756000000001
 21
1141.8499999999999
  0
LINE
  8
_0-0_LAYER001
  6
CONTINUOUS
 62
    2
 10
1748.0756000000001
 20
1141.8499999999999
 11
1744.3256000000001
 21
1148.3452
  0
LINE
  8
_0-0_LAYER001
  6
CONTINUOUS
 62
    2
 10
1748.0756000000001
 20
1141.8499999999999
 11
1687.2788
 21
1368.7469000000001
  0
LINE
  8
_0-0_LAYER001
  6
CONTINUOUS
 62
    2
 10
1687.2788
 20
1368.7469000000001
 11
1540.2788
 21
1368.7469000000001
  0
LINE
  8
_0-0_LAYER001
  6
CONTINUOUS
 62
    2
 10
1855.7348000000002
 20
1159.6020000000001
 11
1850.4315000000001
 21
1154.2987000000001
  0
LINE
  8
_0-0_LAYER001
  6
CONTINUOUS
 62
    2
 10
1850.4315000000001
 20
1154.2987000000001
 11
1852.3726000000001
 21
1161.5432000000001
  0
LINE
  8
_0-0_LAYER001
  6
CONTINUOUS
 62
    2
 10
1850.4315000000001
 20
1154.2987000000001
 11
1911.5938000000001
 21
1260.2351000000001
  0
LINE
  8
_0-0_LAYER001
  6
CONTINUOUS
 62
    2
 10
1911.5938000000001
 20
1260.2351000000001
 11
2042.0938000000001
 21
1260.2351000000001
  0
LINE
  8
_0-0_LAYER001
  6
CONTINUOUS
 62
    2
 10
1661.7921999999999
 20
1069.9650999999999
 11
1613.2402000000002
 21
1251.1636000000001
  0
LINE
  8
_0-0_LAYER001
  6
CONTINUOUS
 62
    2
 10
1613.2402000000002
 20
1251.1636000000001
 11
1534.8481000000002
 21
1251.1636000000001
  0
LINE
  8
_0-0_LAYER001
  6
DASHED3
 62
    2
 10
1767.7177000000001
 20
1054.2494999999999
 11
1217.9974
 21
806.87580000000003
  0
LINE
  8
_0-0_LAYER001
  6
CONTINUOUS
 62
    2
 10
1482.3424
 20
868.80850000000009
 11
1416.2281000000003
 21
893.88640000000009
  0
LINE
  8
_0-0_LAYER001
  6
CONTINUOUS
 62
    2
 10
1486.2112999999999
 20
870.54950000000008
 11
1420.0970000000002
 21
895.62740000000008
  0
LINE
  8
_0-0_LAYER001
  6
CONTINUOUS
 62
    2
 10
1675.7903000000001
 20
955.85979999999995
 11
1609.6759000000002
 21
980.93769999999995
  0
LINE
  8
_0-0_LAYER001
  6
CONTINUOUS
 62
    2
 10
1679.6592999999998
 20
957.60079999999994
 11
1613.5448000000001
 21
982.67869999999994
  0
LINE
  8
_0-0_LAYER001
  6
CONTINUOUS
 62
    2
 10
1777.1720999999998
 20
913.75510000000008
 11
1779.2692000000002
 21
914.69879999999989
  0
LINE
  8
_0-0_LAYER001
  6
CONTINUOUS
 62
    2
 10
1752.5482999999999
 20
968.46980000000008
 11
1754.6462000000001
 21
969.41339999999991
  0
LINE
  8
_0-0_LAYER001
  6
CONTINUOUS
 62
    2
 10
1746.3928999999998
 20
982.14930000000004
 11
1752.5482999999999
 21
968.46980000000008
  0
LINE
  8
_0-0_LAYER001
  6
CONTINUOUS
 62
    2
 10
1706.3463999999999
 20
967.08919999999989
 11
1742.8220999999999
 21
983.50320000000011
  0
LINE
  8
_0-0_LAYER001
  6
CONTINUOUS
 62
    2
 10
1741.8796000000002
 20
985.60020000000009
 11
1705.4018999999998
 21
969.18509999999992
  0
LINE
  8
_0-0_LAYER001
  6
CONTINUOUS
 62
    2
 10
1748.4906000000001
 20
983.0929000000001
 11
1754.6462000000001
 21
969.41339999999991
  0
LINE
  8
_0-0_LAYER001
  6
CONTINUOUS
 62
    2
 10
1739.8276999999998
 20
880.50009999999997
 11
1702.8944999999999
 21
962.57390000000009
  0
LINE
  8
_0-0_LAYER001
  6
CONTINUOUS
 62
    2
 10
1782.9173999999998
 20
894.4081000000001
 11
1746.4387000000002
 21
877.99270000000001
  0
LINE
  8
_0-0_LAYER001
  6
CONTINUOUS
 62
    2
 10
1785.4247999999998
 20
901.01909999999998
 11
1779.2692000000002
 21
914.69879999999989
  0
LINE
  8
_0-0_LAYER001
  6
CONTINUOUS
 62
    2
 10
1783.328
 20
900.07559999999989
 11
1777.1720999999998
 21
913.75510000000008
  0
LINE
  8
_0-0_LAYER001
  6
CONTINUOUS
 62
    2
 10
1745.4962999999998
 20
880.08979999999997
 11
1781.9738000000002
 21
896.50500000000011
  0
LINE
  8
_0-0_LAYER001
  6
CONTINUOUS
 62
    2
 10
1741.9256999999998
 20
881.44380000000001
 11
1704.9926
 21
963.51860000000011
  0
LINE
  8
_0-0_LAYER001
  6
CONTINUOUS
 62
    2
 10
1745.9839000000002
 20
866.82320000000004
 11
1709.0500000000002
 21
948.89589999999998
  0
LINE
  8
_0-0_LAYER001
  6
CONTINUOUS
 62
    2
 10
1704.7186999999999
 20
941.46379999999999
 11
1732.6242000000002
 21
879.45370000000003
  0
LINE
  8
_0-0_LAYER001
  6
CONTINUOUS
 62
    2
 10
1707.2260000000001
 20
948.07590000000005
 11
1709.0500000000002
 21
948.89589999999998
  0
LINE
  8
_0-0_LAYER001
  6
CONTINUOUS
 62
    2
 10
1665.5974000000001
 20
838.32510000000002
 11
1727.6086
 21
866.23060000000009
  0
LINE
  8
_0-0_LAYER001
  6
CONTINUOUS
 62
    2
 10
1723.4582
 20
922.4822999999999
 11
1726.1945999999998
 21
923.71319999999992
  0
LINE
  8
_0-0_LAYER001
  6
CONTINUOUS
 62
    2
 10
1716.8924000000002
 20
937.07240000000002
 11
1719.6286
 21
938.30340000000001
  0
LINE
  8
_0-0_LAYER001
  6
CONTINUOUS
 62
    2
 10
1732.7600000000002
 20
909.12419999999997
 11
1719.6286
 21
938.30340000000001
  0
LINE
  8
_0-0_LAYER001
  6
CONTINUOUS
 62
    2
 10
1730.0237000000002
 20
907.8922
 11
1732.7600000000002
 21
909.12419999999997
  0
LINE
  8
_0-0_LAYER001
  6
CONTINUOUS
 62
    2
 10
1732.0311999999999
 20
935.1117999999999
 11
1742.7004000000002
 21
939.91370000000006
  0
LINE
  8
_0-0_LAYER001
  6
CONTINUOUS
 62
    2
 10
1738.5965999999999
 20
920.52260000000001
 11
1749.2658999999999
 21
925.32339999999999
  0
LINE
  8
_0-0_LAYER001
  6
CONTINUOUS
 62
    2
 10
1737.1786999999999
 20
921.0610999999999
 11
1729.0373
 21
917.39799999999991
  0
LINE
  8
_0-0_LAYER001
  6
CONTINUOUS
 62
    2
 10
1731.4926999999998
 20
933.69560000000001
 11
1723.3524000000002
 21
930.0317
  0
LINE
  8
_0-0_LAYER001
  6
CONTINUOUS
 62
    2
 10
1728.6505999999999
 20
940.0139999999999
 11
1720.5083
 21
936.34989999999993
  0
LINE
  8
_0-0_LAYER001
  6
CONTINUOUS
 62
    2
 10
1730.3879999999999
 20
938.7623000000001
 11
1728.6505999999999
 21
940.0139999999999
  0
LINE
  8
_0-0_LAYER001
  6
CONTINUOUS
 62
    2
 10
1740.2375999999999
 20
916.87580000000003
 11
1730.3879999999999
 21
938.7623000000001
  0
LINE
  8
_0-0_LAYER001
  6
CONTINUOUS
 62
    2
 10
1740.0216999999998
 20
914.74260000000004
 11
1731.8805000000002
 21
911.07870000000003
  0
LINE
  8
_0-0_LAYER001
  6
CONTINUOUS
 62
    2
 10
1740.2375999999999
 20
916.87580000000003
 11
1740.0216999999998
 21
914.74260000000004
  0
LINE
  8
_0-0_LAYER001
  6
CONTINUOUS
 62
    2
 10
1750.2698999999998
 20
927.96839999999997
 11
1749.2658999999999
 21
925.32339999999999
  0
LINE
  8
_0-0_LAYER001
  6
CONTINUOUS
 62
    2
 10
1745.3451
 20
938.91059999999993
 11
1750.2698999999998
 21
927.96839999999997
  0
LINE
  8
_0-0_LAYER001
  6
CONTINUOUS
 62
    2
 10
1742.7004000000002
 20
939.91370000000006
 11
1745.3451
 21
938.91059999999993
  0
LINE
  8
_0-0_LAYER001
  6
CONTINUOUS
 62
    2
 10
1742.7004000000002
 20
939.91370000000006
 11
1749.2658999999999
 21
925.32339999999999
  0
LINE
  8
_0-0_LAYER001
  6
CONTINUOUS
 62
    2
 10
1742.7004000000002
 20
939.91370000000006
 11
1746.6927000000001
 21
924.16560000000004
  0
LINE
  8
_0-0_LAYER001
  6
CONTINUOUS
 62
    2
 10
1737.1442000000002
 20
937.41309999999999
 11
1741.1376
 21
921.66509999999994
  0
LINE
  8
_0-0_LAYER001
  6
CONTINUOUS
 62
    2
 10
1703.9931000000001
 20
921.31909999999993
 11
1712.1342
 21
924.98219999999992
  0
LINE
  8
_0-0_LAYER001
  6
CONTINUOUS
 62
    2
 10
1709.6788000000001
 20
908.6844000000001
 11
1717.8202000000001
 21
912.34850000000006
  0
LINE
  8
_0-0_LAYER001
  6
CONTINUOUS
 62
    2
 10
1712.5212000000001
 20
902.36629999999991
 11
1720.6633000000002
 21
906.03009999999995
  0
LINE
  8
_0-0_LAYER001
  6
CONTINUOUS
 62
    2
 10
1710.7836000000002
 20
903.61770000000001
 11
1712.5212000000001
 21
902.36629999999991
  0
LINE
  8
_0-0_LAYER001
  6
CONTINUOUS
 62
    2
 10
1700.9340999999999
 20
925.50440000000003
 11
1710.7836000000002
 21
903.61770000000001
  0
LINE
  8
_0-0_LAYER001
  6
CONTINUOUS
 62
    2
 10
1701.1498000000001
 20
927.6373000000001
 11
1709.2910000000002
 21
931.30130000000008
  0
LINE
  8
_0-0_LAYER001
  6
CONTINUOUS
 62
    2
 10
1700.9340999999999
 20
925.50440000000003
 11
1701.1498000000001
 21
927.6373000000001
  0
LINE
  8
_0-0_LAYER001
  6
CONTINUOUS
 62
    2
 10
1663.0902000000001
 20
831.71389999999997
 11
1663.9110000000001
 21
829.8900000000001
  0
LINE
  8
_0-0_LAYER001
  6
CONTINUOUS
 62
    2
 10
1663.9110000000001
 20
829.8900000000001
 11
1745.9841000000001
 21
866.82279999999992
  0
LINE
  8
_0-0_LAYER001
  6
CONTINUOUS
 62
    2
 10
1707.6826000000001
 20
1025.0418
 11
1698.5623000000001
 21
1020.9376999999999
  0
LINE
  8
_0-0_LAYER001
  6
CONTINUOUS
 62
    2
 10
1708.9126000000001
 20
1022.3053
 11
1699.7941000000001
 21
1018.2026000000001
  0
LINE
  8
_0-0_LAYER001
  6
CONTINUOUS
 62
    2
 10
1698.5623000000001
 20
1020.9376999999999
 11
1699.7941000000001
 21
1018.2026000000001
  0
LINE
  8
_0-0_LAYER001
  6
CONTINUOUS
 62
    2
 10
1707.6826000000001
 20
1025.0418
 11
1708.9126000000001
 21
1022.3053
  0
LINE
  8
_0-0_LAYER001
  6
CONTINUOUS
 62
    2
 10
1703.1226000000001
 20
1022.9898000000001
 11
1704.3533000000002
 21
1020.2534000000001
  0
LINE
  8
_0-0_LAYER001
  6
CONTINUOUS
 62
    2
 10
1729.7961
 20
963.71499999999992
 11
1725.6738999999998
 21
968.00119999999993
  0
LINE
  8
_0-0_LAYER001
  6
CONTINUOUS
 62
    2
 10
1729.7961
 20
963.71499999999992
 11
1729.3216000000002
 21
969.64200000000005
  0
LINE
  8
_0-0_LAYER001
  6
CONTINUOUS
 62
    2
 10
1708.0086000000001
 20
1004.2419
 11
1713.6363999999999
 21
1007.9332999999999
  0
LINE
  8
_0-0_LAYER001
  6
CONTINUOUS
 62
    2
 10
1710.0605
 20
999.68270000000007
 11
1715.6894000000002
 21
1003.3732
  0
LINE
  8
_0-0_LAYER001
  6
CONTINUOUS
 62
    2
 10
1712.1134999999999
 20
995.12239999999997
 11
1717.7411000000002
 21
998.81400000000008
  0
LINE
  8
_0-0_LAYER001
  6
CONTINUOUS
 62
    2
 10
1714.1644000000001
 20
990.56220000000008
 11
1719.7919999999999
 21
994.25479999999993
  0
LINE
  8
_0-0_LAYER001
  6
CONTINUOUS
 62
    2
 10
1716.2161999999998
 20
986.00389999999993
 11
1721.8438999999998
 21
989.69550000000004
  0
LINE
  8
_0-0_LAYER001
  6
CONTINUOUS
 62
    2
 10
1718.2680999999998
 20
981.44370000000004
 11
1723.8969000000002
 21
985.13539999999989
  0
LINE
  8
_0-0_LAYER001
  6
CONTINUOUS
 62
    2
 10
1720.3209000000002
 20
976.88449999999989
 11
1725.9477999999999
 21
980.57510000000002
  0
LINE
  8
_0-0_LAYER001
  6
CONTINUOUS
 62
    2
 10
1722.3719999999998
 20
972.32420000000002
 11
1727.9996999999998
 21
976.01600000000008
  0
LINE
  8
_0-0_LAYER001
  6
CONTINUOUS
 62
    2
 10
1723.9079000000002
 20
968.91219999999998
 11
1729.5353
 21
972.60390000000007
  0
LINE
  8
_0-0_LAYER001
  6
CONTINUOUS
 62
    2
 10
1707.4083000000001
 20
1018.3409999999999
 11
1729.3216000000002
 21
969.64200000000005
  0
LINE
  8
_0-0_LAYER001
  6
CONTINUOUS
 62
    2
 10
1708.9126000000001
 20
1022.3053
 11
1707.4083000000001
 21
1018.3409999999999
  0
LINE
  8
_0-0_LAYER001
  6
CONTINUOUS
 62
    2
 10
1703.7615000000001
 20
1016.6971000000001
 11
1725.6738999999998
 21
968.00119999999993
  0
LINE
  8
_0-0_LAYER001
  6
CONTINUOUS
 62
    2
 10
1699.7941000000001
 20
1018.2026000000001
 11
1703.7615000000001
 21
1016.6971000000001
  0
LINE
  8
_0-0_LAYER001
  6
CONTINUOUS
 62
    2
 10
1869.7177000000001
 20
998.12709999999993
 11
1869.7177000000001
 21
1383.5920000000001
  0
LINE
  8
_0-0_LAYER001
  6
CONTINUOUS
 62
    2
 10
1882.7718
 20
928.37689999999998
 11
1284.4763
 21
659.14450000000011
  0
LINE
  8
_0-0_LAYER001
  6
CONTINUOUS
 62
    2
 10
1869.7177000000001
 20
1052.4905000000001
 11
1769.7177000000001
 21
1152.4902999999999
  0
LINE
  8
_0-0_LAYER001
  6
CONTINUOUS
 62
    2
 10
1869.7177000000001
 20
1048.2478000000001
 11
1769.7177000000001
 21
1148.2478000000001
  0
LINE
  8
_0-0_LAYER001
  6
CONTINUOUS
 62
    2
 10
1869.7177000000001
 20
1264.4905000000001
 11
1769.7177000000001
 21
1364.4902
  0
LINE
  8
_0-0_LAYER001
  6
CONTINUOUS
 62
    2
 10
1869.7177000000001
 20
1260.2479000000001
 11
1769.7177000000001
 21
1360.2478000000001
  0
LINE
  8
_0-0_LAYER001
  6
CONTINUOUS
 62
    2
 10
1769.7177000000001
 20
998.12709999999993
 11
1749.1995000000002
 21
1043.7230999999999
  0
LINE
  8
_0-0_LAYER001
  6
CONTINUOUS
 62
    2
 10
1724.1215999999999
 20
977.60889999999995
 11
1703.6034
 21
1023.2049999999999
  0
LINE
  8
_0-0_LAYER001
  6
CONTINUOUS
 62
    2
 10
1749.1995000000002
 20
1043.7230999999999
 11
1218.8181
 21
805.05199999999991
  0
LINE
  8
_0-0_LAYER001
  6
CONTINUOUS
 62
    2
 10
1769.7177000000001
 20
998.12709999999993
 11
1239.3362999999999
 21
759.45589999999993
  0
LINE
  8
_0-0_LAYER001
  6
DASHED3
 62
    2
 10
1767.7177000000001
 20
1054.2494999999999
 11
1767.7177000000001
 21
1205.7614000000001
  0
LINE
  8
_0-0_LAYER001
  6
CONTINUOUS
 62
    2
 10
1767.1176999999998
 20
1241.7864999999999
 11
1764.3382000000001
 21
1226.4362000000001
  0
LINE
  8
_0-0_LAYER001
  6
CONTINUOUS
 62
    2
 10
1785.3177000000001
 20
1241.7864999999999
 11
1785.3177000000001
 21
1262.5864999999999
  0
LINE
  8
_0-0_LAYER001
  6
CONTINUOUS
 62
    2
 10
1783.2377000000001
 20
1243.8665000000001
 11
1783.2377000000001
 21
1259.4666
  0
LINE
  8
_0-0_LAYER001
  6
CONTINUOUS
 62
    2
 10
1783.2377000000001
 20
1243.8665000000001
 11
1772.1428000000001
 21
1254.9613999999999
  0
LINE
  8
_0-0_LAYER001
  6
CONTINUOUS
 62
    2
 10
1778.8253
 20
1243.8665000000001
 11
1772.2489
 21
1250.443
  0
LINE
  8
_0-0_LAYER001
  6
CONTINUOUS
 62
    2
 10
1774.413
 20
1243.8665000000001
 11
1771.6163999999999
 21
1246.6632
  0
LINE
  8
_0-0_LAYER001
  6
CONTINUOUS
 62
    2
 10
1771.9515999999999
 20
1248.1804999999999
 11
1783.2377000000001
 21
1259.4665
  0
LINE
  8
_0-0_LAYER001
  6
CONTINUOUS
 62
    2
 10
1772.3047000000001
 20
1252.9458999999999
 11
1781.9454000000001
 21
1262.5864999999999
  0
LINE
  8
_0-0_LAYER001
  6
CONTINUOUS
 62
    2
 10
1771.8159000000001
 20
1256.8695
 11
1777.5329000000002
 21
1262.5864999999999
  0
LINE
  8
_0-0_LAYER001
  6
CONTINUOUS
 62
    2
 10
1776.4625000000001
 20
1243.8665000000001
 11
1781.5893999999998
 21
1248.9935
  0
LINE
  8
_0-0_LAYER001
  6
CONTINUOUS
 62
    2
 10
1780.8748000000001
 20
1243.8665000000001
 11
1782.9229
 21
1245.9146000000001
  0
LINE
  8
_0-0_LAYER001
  6
CONTINUOUS
 62
    2
 10
1781.3242
 20
1250.1922999999999
 11
1770.4591999999998
 21
1261.0572999999999
  0
LINE
  8
_0-0_LAYER001
  6
CONTINUOUS
 62
    2
 10
1781.3899999999999
 20
1254.5389
 11
1773.3425000000002
 21
1262.5864999999999
  0
LINE
  8
_0-0_LAYER001
  6
CONTINUOUS
 62
    2
 10
1772.0500999999999
 20
1243.8665000000001
 11
1781.1853999999998
 21
1253.0018
  0
LINE
  8
_0-0_LAYER001
  6
CONTINUOUS
 62
    2
 10
1770.7912999999999
 20
1260.2574
 11
1773.1203999999998
 21
1262.5864999999999
  0
LINE
  8
_0-0_LAYER001
  6
CONTINUOUS
 62
    2
 10
1782.5459999999998
 20
1257.7954999999999
 11
1777.7550000000001
 21
1262.5864999999999
  0
LINE
  8
_0-0_LAYER001
  6
CONTINUOUS
 62
    2
 10
1783.2377000000001
 20
1261.5161000000001
 11
1782.1673999999998
 21
1262.5864999999999
  0
LINE
  8
_0-0_LAYER001
  6
CONTINUOUS
 62
    2
 10
1783.2377000000001
 20
1259.4665
 11
1783.2377000000001
 21
1262.5864999999999
  0
LINE
  8
_0-0_LAYER001
  6
CONTINUOUS
 62
    2
 10
1785.3177000000001
 20
1241.7864999999999
 11
1769.7177000000001
 21
1241.7864999999999
  0
LINE
  8
_0-0_LAYER001
  6
CONTINUOUS
 62
    2
 10
1767.7177000000001
 20
1153.3865000000001
 11
1767.7177000000001
 21
1241.7864999999999
  0
LINE
  8
_0-0_LAYER001
  6
CONTINUOUS
 62
    2
 10
1769.7177000000001
 20
998.12709999999993
 11
1769.7177000000001
 21
1241.7864999999999
  0
LINE
  8
_0-0_LAYER001
  6
CONTINUOUS
 62
    2
 10
1785.3177000000001
 20
1262.5864999999999
 11
1769.7177000000001
 21
1262.5864999999999
  0
LINE
  8
_0-0_LAYER001
  6
CONTINUOUS
 62
    2
 10
1769.7177000000001
 20
1262.5864999999999
 11
1769.7177000000001
 21
1383.5920000000001
  0
LINE
  8
_0-0_LAYER001
  6
CONTINUOUS
 62
    2
 10
1783.2377000000001
 20
1243.8665000000001
 11
1765.3177000000001
 21
1243.8665000000001
  0
LINE
  8
_0-0_LAYER001
  6
CONTINUOUS
 62
    2
 10
1765.3177000000001
 20
1211.3865000000001
 11
1765.3177000000001
 21
1243.8665000000001
  0
CIRCLE
  8
_0-0_LAYER001
  6
CONTINUOUS
 62
    2
 10
1764.2851999999998
 20
1084.0977
 40
0.8999999999999999
  0
CIRCLE
  8
_0-0_LAYER001
  6
CONTINUOUS
 62
    2
 10
1759.5832
 20
1069.2081000000001
 40
0.8999999999999999
  0
CIRCLE
  8
_0-0_LAYER001
  6
CONTINUOUS
 62
    2
 10
1755.6649000000002
 20
1089.5834
 40
0.8999999999999999
  0
CIRCLE
  8
_0-0_LAYER001
  6
CONTINUOUS
 62
    2
 10
1720.4000000000001
 20
1095.069
 40
0.8999999999999999
  0
CIRCLE
  8
_0-0_LAYER001
  6
CONTINUOUS
 62
    2
 10
1720.4000000000001
 20
1080.9630999999999
 40
0.8999999999999999
  0
CIRCLE
  8
_0-0_LAYER001
  6
CONTINUOUS
 62
    2
 10
1706.2939999999999
 20
1073.1264000000001
 40
0.8999999999999999
  0
CIRCLE
  8
_0-0_LAYER001
  6
CONTINUOUS
 62
    2
 10
1732.9386
 20
1096.6362999999999
 40
0.8999999999999999
  0
ARC
  8
_0-0_LAYER001
  6
CONTINUOUS
 62
    2
 10
1743.9304999999999
 20
981.04089999999997
 40
2.7000000000000002
 50
24.240372000000001
 51
114.23248000000001
  0
ARC
  8
_0-0_LAYER001
  6
CONTINUOUS
 62
    2
 10
1707.4546999999998
 20
964.62689999999998
 40
2.7000000000000002
 50
114.23248000000001
 51
204.21279999999999
  0
ARC
  8
_0-0_LAYER001
  6
CONTINUOUS
 62
    2
 10
1707.4526999999998
 20
964.6259
 40
4.9989999999999997
 50
114.22009000000001
 51
204.23074000000003
  0
ARC
  8
_0-0_LAYER001
  6
CONTINUOUS
 62
    2
 10
1743.9315000000001
 20
981.04220000000009
 40
4.9989999999999997
 50
24.224352
 51
114.24136000000001
  0
ARC
  8
_0-0_LAYER001
  6
CONTINUOUS
 62
    2
 10
1744.3868000000002
 20
882.55089999999996
 40
4.9989999999999997
 50
204.20946000000004
 51
294.23500000000001
  0
ARC
  8
_0-0_LAYER001
  6
CONTINUOUS
 62
    2
 10
1780.8665000000001
 20
898.96720000000005
 40
4.9989999999999997
 50
294.21370999999999
 51
24.245641999999961
  0
ARC
  8
_0-0_LAYER001
  6
CONTINUOUS
 62
    2
 10
1780.8652999999999
 20
898.96730000000002
 40
2.7000000000000002
 50
294.22066999999998
 51
24.240371999999976
  0
ARC
  8
_0-0_LAYER001
  6
CONTINUOUS
 62
    2
 10
1744.3876
 20
882.55189999999993
 40
2.7000000000000002
 50
204.21279999999999
 51
294.22066999999998
  0
ARC
  8
_0-0_LAYER001
  6
CONTINUOUS
 62
    2
 10
1723.5028000000002
 20
875.35089999999991
 40
10.001999
 50
294.23665999999992
 51
24.223891999999939
  0
ARC
  8
_0-0_LAYER001
  6
CONTINUOUS
 62
    2
 10
1709.2768000000001
 20
943.51569999999992
 40
4.9989999999999997
 50
114.22009000000001
 51
204.23074000000003
  0
ARC
  8
_0-0_LAYER001
  6
CONTINUOUS
 62
    2
 10
1667.6482000000001
 20
833.76559999999995
 40
4.9989999999999997
 50
114.22009000000001
 51
204.23074000000003
  0
ARC
  8
_0-0_LAYER001
  6
CONTINUOUS
 62
    2
 10
1725.4393
 20
934.77909999999997
 40
6.1470010000000013
 50
349.86246
 51
23.869741999999949
  0
ARC
  8
_0-0_LAYER001
  6
CONTINUOUS
 62
    2
 10
1733.9652999999998
 20
915.80619999999999
 40
6.1580000000000004
 50
24.600922000000004
 51
58.555572000000005
  0
ARC
  8
_0-0_LAYER001
  6
CONTINUOUS
 62
    2
 10
1714.4310999999998
 20
918.42239999999993
 40
22.898997999999999
 50
6.6164920000000009
 51
41.832002000000003
  0
ARC
  8
_0-0_LAYER001
  6
CONTINUOUS
 62
    2
 10
1715.7332000000001
 20
907.60380000000009
 40
6.1479999999999997
 50
169.87799999999999
 51
203.89275000000001
  0
ARC
  8
_0-0_LAYER001
  6
CONTINUOUS
 62
    2
 10
1707.1995999999999
 20
926.56549999999993
 40
6.1479999999999997
 50
204.55376000000004
 51
238.55601999999999
  0
ARC
  8
_0-0_LAYER001
  6
CONTINUOUS
 62
    2
 10
1726.7759999999998
 20
923.97520000000009
 40
22.936000999999997
 50
186.64732000000004
 51
221.80409000000003
  0
ARC
  8
_0-0_LAYER001
  6
CONTINUOUS
 62
    2
 10
1750.2179000000001
 20
1252.1865
 40
22.099885999999998
 50
337.88465000000002
 51
28.072639999999978
  0
CIRCLE
  8
_0-0_LAYER001
  6
CONTINUOUS
 62
    2
 10
1716.4549000000002
 20
1106.3267000000001
 40
0.8999999999999999
  0
CIRCLE
  8
_0-0_LAYER001
  6
CONTINUOUS
 62
    2
 10
1708.3242
 20
1085.8231000000001
 40
0.8999999999999999
  0
CIRCLE
  8
_0-0_LAYER001
  6
CONTINUOUS
 62
    2
 10
1700.5468999999998
 20
1101.0241000000001
 40
0.8999999999999999
  0
CIRCLE
  8
_0-0_LAYER001
  6
CONTINUOUS
 62
    2
 10
1751.5120000000002
 20
1075.6062999999999
 40
0.8999999999999999
  0
CIRCLE
  8
_0-0_LAYER001
  6
CONTINUOUS
 62
    2
 10
1709.2073999999998
 20
1104.0109
 40
0.8999999999999999
  0
LINE
  8
_0-0_LAYER001
  6
CONTINUOUS
 62
    2
 10
1214.4657
 20
1252.8297
 11
1009.643
 21
1252.8297
  0
LINE
  8
_0-0_LAYER001
  6
CONTINUOUS
 62
    2
 10
1318.8521000000001
 20
870.75430000000006
 11
1318.8521000000001
 21
863.25430000000006
  0
LINE
  8
_0-0_LAYER001
  6
CONTINUOUS
 62
    2
 10
1318.8521000000001
 20
863.25430000000006
 11
1315.1021000000001
 21
869.7494999999999
  0
LINE
  8
_0-0_LAYER001
  6
CONTINUOUS
 62
    2
 10
1318.8521000000001
 20
863.25430000000006
 11
1214.4657
 21
1252.8297
  0
LINE
  8
_0-0_LAYER001
  6
CONTINUOUS
 62
    2
 10
1229.7827
 20
1192.9821999999999
 11
996.67750000000001
 21
1192.9821999999999
  0
LINE
  8
_0-1_LAYER003
  6
CONTINUOUS
 62
   18
 10
1009.643
 20
1252.8297
 11
1214.4657
 21
1252.8297
  0
LINE
  8
_0-1_LAYER003
  6
CONTINUOUS
 62
   18
 10
996.67750000000001
 20
1192.9821999999999
 11
1229.7827
 21
1192.9821999999999
  0
LINE
  8
_0-1_LAYER003
  6
CONTINUOUS
 62
   18
 10
1540.2788
 20
1368.7469000000001
 11
1687.2788
 21
1368.7469000000001
  0
LINE
  8
_0-1_LAYER003
  6
CONTINUOUS
 62
   18
 10
1534.8481000000002
 20
1251.1636000000001
 11
1613.2402000000002
 21
1251.1636000000001
  0
LINE
  8
_0-1_LAYER003
  6
CONTINUOUS
 62
   18
 10
1900.8505
 20
1367.5302999999999
 11
2031.3505
 21
1367.5302999999999
  0
LINE
  8
_0-1_LAYER003
  6
CONTINUOUS
 62
   18
 10
1911.5938000000001
 20
1260.2351000000001
 11
2097.3438931673068
 21
1260.2351000000001
  0
LINE
  8
_0-1_LAYER003
  6
CONTINUOUS
 62
   18
 10
1884.7177000000001
 20
1369.4456
 11
1884.7177000000001
 21
699.41509999999994
  0
LINE
  8
_0-1_LAYER003
  6
CONTINUOUS
 62
   18
 10
1676.1635000000001
 20
1427.0553999999997
 11
1676.1635000000001
 21
1400.3553999999999
  0
LINE
  8
_0-1_LAYER003
  6
CONTINUOUS
 62
   18
 10
1676.1635000000001
 20
1425.3553999999999
 11
1767.7177000000001
 21
1425.3553999999999
  0
LINE
  8
_0-1_LAYER003
  6
CONTINUOUS
 62
   18
 10
1767.7177000000001
 20
1427.0553999999997
 11
1767.7177000000001
 21
1400.3553999999999
  0
LINE
  8
_0-1_LAYER003
  6
CONTINUOUS
 62
   18
 10
1869.7177000000001
 20
1383.5920000000001
 11
1869.7177000000001
 21
998.12709999999993
  0
LINE
  8
_0-1_LAYER003
  6
CONTINUOUS
 62
   18
 10
1869.7177000000001
 20
998.12709999999993
 11
1769.7177000000001
 21
998.12709999999993
  0
LINE
  8
_0-1_LAYER003
  6
CONTINUOUS
 62
   18
 10
1769.7177000000001
 20
998.12709999999993
 11
1769.7177000000001
 21
1241.7864999999999
  0
LINE
  8
_0-1_LAYER003
  6
CONTINUOUS
 62
   18
 10
1769.7177000000001
 20
1241.7864999999999
 11
1785.3177000000001
 21
1241.7864999999999
  0
LINE
  8
_0-1_LAYER003
  6
CONTINUOUS
 62
   18
 10
1785.3177000000001
 20
1241.7864999999999
 11
1785.3177000000001
 21
1262.5864999999999
  0
LINE
  8
_0-1_LAYER003
  6
CONTINUOUS
 62
   18
 10
1785.3177000000001
 20
1262.5864999999999
 11
1769.7177716285159
 21
1262.5864999999999
  0
LINE
  8
_0-1_LAYER003
  6
CONTINUOUS
 62
   18
 10
1769.7177716285159
 20
1262.5864984463653
 11
1769.7177716285159
 21
1383.5920000000001
  0
LINE
  8
_0-1_LAYER003
  6
CONTINUOUS
 62
   18
 10
1783.2377000000001
 20
1262.5864999999999
 11
1783.2377000000001
 21
1243.8665000000001
  0
LINE
  8
_0-1_LAYER003
  6
CONTINUOUS
 62
   18
 10
1783.2377000000001
 20
1243.8665000000001
 11
1765.3177000000001
 21
1243.8665000000001
  0
LINE
  8
_0-1_LAYER003
  6
CONTINUOUS
 62
   18
 10
1765.3177000000001
 20
1243.8665000000001
 11
1765.3177000000001
 21
1211.3865000000001
  0
LINE
  8
_0-1_LAYER003
  6
CONTINUOUS
 62
   18
 10
1767.7177000000001
 20
1241.7864999999999
 11
1767.7177000000001
 21
1054.2494999999999
  0
LINE
  8
_0-1_LAYER003
  6
CONTINUOUS
 62
   18
 10
1908.5167000000001
 20
1204.2494999999999
 11
1958.5167000000001
 21
1204.2494999999999
  0
LINE
  8
_0-1_LAYER003
  6
CONTINUOUS
 62
   18
 10
1958.5167000000001
 20
1204.2494999999999
 11
1960.2167000000004
 21
1204.2494999999999
  0
LINE
  8
_0-1_LAYER003
  6
CONTINUOUS
 62
   18
 10
1958.5167000000001
 20
1204.2494999999999
 11
1958.5167000000001
 21
1054.2494999999999
  0
LINE
  8
_0-1_LAYER003
  6
CONTINUOUS
 62
   18
 10
1960.2167000000004
 20
1054.2494999999999
 11
1908.5167000000001
 21
1054.2494999999999
  0
LINE
  8
_0-1_LAYER003
  6
CONTINUOUS
 62
   18
 10
1657.9078999999999
 20
1260.3214
 11
1684.6079
 21
1260.3214
  0
LINE
  8
_0-1_LAYER003
  6
CONTINUOUS
 62
   18
 10
1659.6079
 20
1260.3214
 11
1659.6079
 21
1155.3214
  0
LINE
  8
_0-1_LAYER003
  6
CONTINUOUS
 62
   18
 10
1657.9078999999999
 20
1155.3214
 11
1684.6079
 21
1155.3214
  0
LINE
  8
_0-1_LAYER003
  6
CONTINUOUS
 62
   18
 10
1657.9078999999999
 20
1245.3214
 11
1684.6079
 21
1245.3214
  0
LINE
  8
_0-1_LAYER003
  6
CONTINUOUS
 62
   18
 10
1739.7177000000001
 20
1132.1247000000001
 11
1739.7177000000001
 21
1097.4145000000001
  0
LINE
  8
_0-1_LAYER003
  6
CONTINUOUS
 62
   18
 10
1739.7177000000001
 20
1097.4145000000001
 11
1769.7177000000001
 21
1097.4145000000001
  0
LINE
  8
_0-1_LAYER003
  6
CONTINUOUS
 62
   18
 10
1745.7175999999999
 20
1120.4145000000001
 11
1745.7175999999999
 21
1114.4146000000001
  0
LINE
  8
_0-1_LAYER003
  6
CONTINUOUS
 62
   18
 10
1745.7175999999999
 20
1114.4146000000001
 11
1769.7177000000001
 21
1114.4146000000001
  0
LINE
  8
_0-1_LAYER003
  6
CONTINUOUS
 62
   18
 10
1745.7175999999999
 20
1120.4145000000001
 11
1769.7177000000001
 21
1120.4145000000001
  0
LINE
  8
_0-1_LAYER003
  6
CONTINUOUS
 62
   18
 10
1769.7177000000001
 20
1121.6645000000001
 11
1787.9176000000002
 21
1121.6645000000001
  0
LINE
  8
_0-1_LAYER003
  6
CONTINUOUS
 62
   18
 10
1769.7177000000001
 20
1113.1645000000001
 11
1787.9176000000002
 21
1113.1645000000001
  0
LINE
  8
_0-1_LAYER003
  6
CONTINUOUS
 62
   18
 10
1214.4657
 20
1252.8297
 11
1318.8521000000001
 21
863.25430000000006
  0
LINE
  8
_0-1_LAYER003
  6
CONTINUOUS
 62
   18
 10
1318.8521000000001
 20
863.25430000000006
 11
1318.8521000000001
 21
870.75430000000006
  0
LINE
  8
_0-1_LAYER003
  6
CONTINUOUS
 62
   18
 10
1318.8521000000001
 20
863.25430000000006
 11
1315.1021000000001
 21
869.7494999999999
  0
LINE
  8
_0-1_LAYER003
  6
CONTINUOUS
 62
   18
 10
1301.3344999999999
 20
865.21199999999999
 11
1328.6922
 21
877.52289999999994
  0
LINE
  8
_0-1_LAYER003
  6
CONTINUOUS
 62
   18
 10
1328.6922
 20
877.52289999999994
 11
1334.8476000000001
 21
863.84410000000003
  0
LINE
  8
_0-1_LAYER003
  6
CONTINUOUS
 62
   18
 10
1334.8476000000001
 20
863.84410000000003
 11
1307.49
 21
851.53320000000008
  0
LINE
  8
_0-1_LAYER003
  6
CONTINUOUS
 62
   18
 10
1307.49
 20
851.53320000000008
 11
1301.3344999999999
 21
865.21199999999999
  0
LINE
  8
_0-1_LAYER003
  6
CONTINUOUS
 62
   18
 10
1307.49
 20
851.53320000000008
 11
1328.6922
 21
877.52289999999994
  0
LINE
  8
_0-1_LAYER003
  6
CONTINUOUS
 62
   18
 10
1438.4366
 20
949.39149999999995
 11
1438.4366
 21
941.89149999999995
  0
LINE
  8
_0-1_LAYER003
  6
CONTINUOUS
 62
   18
 10
1438.4366
 20
941.89149999999995
 11
1434.6866
 21
948.38670000000002
  0
LINE
  8
_0-1_LAYER003
  6
CONTINUOUS
 62
   18
 10
1438.4366
 20
941.89149999999995
 11
1410.8934999999999
 21
1044.6838
  0
LINE
  8
_0-1_LAYER003
  6
CONTINUOUS
 62
   18
 10
1410.8934999999999
 20
1044.6838
 11
1370.3934999999999
 21
1044.6838
  0
LINE
  8
_0-1_LAYER003
  6
CONTINUOUS
 62
   18
 10
1212.2509329676668
 20
1024.063983285758
 11
1229.8832
 21
975.46370000000002
  0
LINE
  8
_0-1_LAYER003
  6
CONTINUOUS
 62
   18
 10
1212.8307
 20
1022.4658999999999
 11
1424.3407594792179
 21
1099.2023852989385
  0
LINE
  8
_0-1_LAYER003
  6
CONTINUOUS
 62
   18
 10
1441.3933000000002
 20
1052.2001
 11
1413.8249999999998
 21
1128.1872000000001
  0
LINE
  8
_0-1_LAYER003
  6
CONTINUOUS
 62
   18
 10
1413.8249999999998
 20
1128.1872000000001
 11
1691.1381999999999
 21
1228.7972
  0
LINE
  8
_0-1_LAYER003
  6
CONTINUOUS
 62
   18
 10
1690.5584343142061
 20
1230.3952837742672
 11
1708.1907999999999
 21
1181.7950000000001
  0
LINE
  8
_0-1_LAYER003
  6
CONTINUOUS
 62
   18
 10
1744.4181542135248
 20
1148.1848911659506
 11
1748.0756000000001
 21
1141.8499999999999
  0
LINE
  8
_0-1_LAYER003
  6
CONTINUOUS
 62
   18
 10
1748.0756000000001
 20
1141.8499999999999
 11
1748.0756000000001
 21
1149.3499999999999
  0
LINE
  8
_0-1_LAYER003
  6
CONTINUOUS
 62
   18
 10
1748.0756000000001
 20
1141.8499999999999
 11
1687.2788
 21
1368.7469000000001
  0
LINE
  8
_0-1_LAYER003
  6
CONTINUOUS
 62
   18
 10
1727.5677999999998
 20
1146.7904000000001
 11
1727.5677999999998
 21
1154.2904000000001
  0
LINE
  8
_0-1_LAYER003
  6
CONTINUOUS
 62
   18
 10
1727.3298607300226
 20
1147.2025235056954
 11
1723.8177999999998
 21
1153.2855999999999
  0
LINE
  8
_0-1_LAYER003
  6
CONTINUOUS
 62
   18
 10
1727.3298607300226
 20
1147.2025235056954
 11
1727.5677999999998
 21
1146.7904000000001
  0
LINE
  8
_0-1_LAYER003
  6
CONTINUOUS
 62
   18
 10
1727.5677999999998
 20
1146.7904000000001
 11
1678.1030000000001
 21
1331.3957
  0
LINE
  8
_0-1_LAYER003
  6
CONTINUOUS
 62
   18
 10
1613.2402000000002
 20
1251.1636000000001
 11
1661.7921999999999
 21
1069.9650999999999
  0
LINE
  8
_0-1_LAYER003
  6
CONTINUOUS
 62
   18
 10
1661.7921999999999
 20
1069.9650999999999
 11
1708.6491999999998
 21
1097.018
  0
LINE
  8
_0-1_LAYER003
  6
CONTINUOUS
 62
   18
 10
1708.6491999999998
 20
1097.018
 11
1701.4047999999998
 21
1095.0768
  0
LINE
  8
_0-1_LAYER003
  6
CONTINUOUS
 62
   18
 10
1708.6491999999998
 20
1097.018
 11
1703.3458999999998
 21
1091.7147
  0
LINE
  8
_0-1_LAYER003
  6
CONTINUOUS
 62
   18
 10
1661.0987
 20
1115.8454999999999
 11
1655.1860999999999
 21
1114.8252
  0
LINE
  8
_0-1_LAYER003
  6
CONTINUOUS
 62
   18
 10
1655.1860999999999
 20
1114.8252
 11
1678.7680999999998
 21
1123.4084
  0
LINE
  8
_0-1_LAYER003
  6
CONTINUOUS
 62
   18
 10
1678.7680999999998
 20
1123.4084
 11
1676.1635000000001
 21
1138.1804999999999
  0
LINE
  8
_0-1_LAYER003
  6
CONTINUOUS
 62
   18
 10
1676.1635000000001
 20
1138.1804999999999
 11
1767.7177000000001
 21
1154.3240000000001
  0
LINE
  8
_0-1_LAYER003
  6
CONTINUOUS
 62
   18
 10
1767.1129999999998
 20
1152.1866
 11
1678.4803999999999
 21
1136.5582999999999
  0
LINE
  8
_0-1_LAYER003
  6
CONTINUOUS
 62
   18
 10
1678.4803999999999
 20
1136.5582999999999
 11
1681.085
 21
1121.7862
  0
LINE
  8
_0-1_LAYER003
  6
CONTINUOUS
 62
   18
 10
1681.085
 20
1121.7862
 11
1769.7177000000001
 21
1137.4145000000001
  0
LINE
  8
_0-1_LAYER003
  6
CONTINUOUS
 62
   18
 10
1769.7177000000001
 20
1137.4145000000001
 11
1767.1129999999998
 21
1152.1866
  0
LINE
  8
_0-1_LAYER003
  6
CONTINUOUS
 62
   18
 10
1769.7177000000001
 20
1137.4145000000001
 11
1678.4803999999999
 21
1136.5582999999999
  0
LINE
  8
_0-1_LAYER003
  6
CONTINUOUS
 62
   18
 10
1748.8957999999998
 20
1148.9744000000001
 11
1751.7318
 21
1147.8558
  0
LINE
  8
_0-1_LAYER003
  6
CONTINUOUS
 62
   18
 10
1756.7757373589027
 20
1120.4145000000001
 11
1759.8631999999998
 21
1113.0235
  0
LINE
  8
_0-1_LAYER003
  6
CONTINUOUS
 62
   18
 10
1759.8631999999998
 20
1113.0235
 11
1760.0716000000002
 21
1121.9063000000001
  0
LINE
  8
_0-1_LAYER003
  6
CONTINUOUS
 62
   18
 10
1760.0716000000002
 20
1121.9063000000001
 11
1755.3816999999999
 21
1148.4981
  0
LINE
  8
_0-1_LAYER003
  6
CONTINUOUS
 62
   18
 10
1755.3816999999999
 20
1148.4981
 11
1757.6653000000001
 21
1150.5207
  0
LINE
  8
_0-1_LAYER003
  6
CONTINUOUS
 62
   18
 10
1743.2217000000001
 20
1132.7426
 11
1769.7177000000001
 21
1097.4145000000001
  0
LINE
  8
_0-1_LAYER003
  6
CONTINUOUS
 62
   18
 10
1759.3327620003629
 20
1126.095522012997
 11
1757.4922000000001
 21
1119.2266
  0
LINE
  8
_0-1_LAYER003
  6
CONTINUOUS
 62
   18
 10
1757.4922000000001
 20
1119.2266
 11
1762.7955000000002
 21
1124.5299
  0
LINE
  8
_0-1_LAYER003
  6
CONTINUOUS
 62
   18
 10
1756.7757373589027
 20
1120.4145000000001
 11
1756.4214999999999
 21
1121.2625
  0
LINE
  8
_0-1_LAYER003
  6
CONTINUOUS
 62
   18
 10
1756.4214999999999
 20
1121.2625
 11
1751.7318
 21
1147.8558
  0
LINE
  8
_0-1_LAYER003
  6
CONTINUOUS
 62
   18
 10
1757.4922000000001
 20
1119.2266
 11
1900.8505
 21
1367.5302999999999
  0
LINE
  8
_0-1_LAYER003
  6
CONTINUOUS
 62
   18
 10
1777.5281
 20
1259.3625
 11
1775.5868999999998
 21
1252.1179999999999
  0
LINE
  8
_0-1_LAYER003
  6
CONTINUOUS
 62
   18
 10
1775.5868999999998
 20
1252.1179999999999
 11
1780.8901999999998
 21
1257.4213
  0
LINE
  8
_0-1_LAYER003
  6
CONTINUOUS
 62
   18
 10
1775.5868999999998
 20
1252.1179999999999
 11
1865.4906999999998
 21
1407.8359
  0
LINE
  8
_0-1_LAYER003
  6
CONTINUOUS
 62
   18
 10
1769.7177716285159
 20
1364.490128371699
 11
1869.7177000000001
 21
1264.4905000000001
  0
LINE
  8
_0-1_LAYER003
  6
CONTINUOUS
 62
   18
 10
1869.7177000000001
 20
1260.2479000000001
 11
1769.7177716285159
 21
1360.2477283715561
  0
LINE
  8
_0-1_LAYER003
  6
CONTINUOUS
 62
   18
 10
1852.3726000000001
 20
1161.5432000000001
 11
1850.4315000000001
 21
1154.2987000000001
  0
LINE
  8
_0-1_LAYER003
  6
CONTINUOUS
 62
   18
 10
1850.4315000000001
 20
1154.2987000000001
 11
1855.7348000000002
 21
1159.6020000000001
  0
LINE
  8
_0-1_LAYER003
  6
CONTINUOUS
 62
   18
 10
1850.4315000000001
 20
1154.2987000000001
 11
1911.5938000000001
 21
1260.2351000000001
  0
LINE
  8
_0-1_LAYER003
  6
CONTINUOUS
 62
   18
 10
1769.7177000000001
 20
1152.4902999999999
 11
1869.7177000000001
 21
1052.4905000000001
  0
LINE
  8
_0-1_LAYER003
  6
CONTINUOUS
 62
   18
 10
1769.7177000000001
 20
1148.2478000000001
 11
1869.7177000000001
 21
1048.2478000000001
  0
LINE
  8
_0-1_LAYER003
  6
CONTINUOUS
 62
   18
 10
1745.7175999999999
 20
1120.4145000000001
 11
1739.7177000000001
 21
1123.4146000000001
  0
LINE
  8
_0-1_LAYER003
  6
CONTINUOUS
 62
   18
 10
1745.7175999999999
 20
1114.4146000000001
 11
1739.7177000000001
 21
1111.4145000000001
  0
LINE
  8
_0-1_LAYER003
  6
CONTINUOUS
 62
   18
 10
1787.9176000000002
 20
1121.6657
 11
1797.0115000000001
 21
1123.2695000000001
  0
LINE
  8
_0-1_LAYER003
  6
CONTINUOUS
 62
   18
 10
1797.0115000000001
 20
1123.2686000000001
 11
1797.3076000000001
 21
1121.5954999999999
  0
LINE
  8
_0-1_LAYER003
  6
CONTINUOUS
 62
   18
 10
1797.3076000000001
 20
1121.5954999999999
 11
1798.9805999999999
 21
1121.8905999999999
  0
LINE
  8
_0-1_LAYER003
  6
CONTINUOUS
 62
   18
 10
1798.9805999999999
 20
1121.8905999999999
 11
1798.6855999999998
 21
1123.5645
  0
LINE
  8
_0-1_LAYER003
  6
CONTINUOUS
 62
   18
 10
1798.6855999999998
 20
1123.5645
 11
1801.3445999999999
 21
1124.0325
  0
LINE
  8
_0-1_LAYER003
  6
CONTINUOUS
 62
   18
 10
1801.3445999999999
 20
1124.0325
 11
1801.6406999999999
 21
1122.3596
  0
LINE
  8
_0-1_LAYER003
  6
CONTINUOUS
 62
   18
 10
1801.6406999999999
 20
1122.3596
 11
1803.3146999999999
 21
1122.6545000000001
  0
LINE
  8
_0-1_LAYER003
  6
CONTINUOUS
 62
   18
 10
1803.3146999999999
 20
1122.6545000000001
 11
1803.0188714627784
 21
1124.3276302505508
  0
LINE
  8
_0-1_LAYER003
  6
CONTINUOUS
 62
   18
 10
1803.0188714627784
 20
1124.3276302505508
 11
1805.6776
 21
1124.7967000000001
  0
LINE
  8
_0-1_LAYER003
  6
CONTINUOUS
 62
   18
 10
1805.6776
 20
1124.7967000000001
 11
1805.9735999999998
 21
1123.1235999999999
  0
LINE
  8
_0-1_LAYER003
  6
CONTINUOUS
 62
   18
 10
1805.9735999999998
 20
1123.1235999999999
 11
1807.6477
 21
1123.4185
  0
LINE
  8
_0-1_LAYER003
  6
CONTINUOUS
 62
   18
 10
1807.6477
 20
1123.4185
 11
1807.3517000000002
 21
1125.0915
  0
LINE
  8
_0-1_LAYER003
  6
CONTINUOUS
 62
   18
 10
1807.3517000000002
 20
1125.0915
 11
1808.8297411389071
 21
1125.3543593242559
  0
LINE
  8
_0-1_LAYER003
  6
CONTINUOUS
 62
   18
 10
1808.8297411389071
 20
1125.3543593242559
 11
1810.5617313622895
 21
1124.143605799645
  0
LINE
  8
_0-1_LAYER003
  6
CONTINUOUS
 62
   18
 10
1810.5617313622895
 20
1124.143605799645
 11
1810.9666999999999
 21
1121.8715
  0
LINE
  8
_0-1_LAYER003
  6
CONTINUOUS
 62
   18
 10
1810.9666999999999
 20
1121.8715
 11
1785.6936999999998
 21
1117.4156
  0
LINE
  8
_0-1_LAYER003
  6
CONTINUOUS
 62
   18
 10
1785.6936999999998
 20
1117.4156
 11
1810.7916
 21
1112.9896000000001
  0
LINE
  8
_0-1_LAYER003
  6
CONTINUOUS
 62
   18
 10
1810.7916
 20
1112.9896000000001
 11
1810.3937000000001
 21
1110.7247
  0
LINE
  8
_0-1_LAYER003
  6
CONTINUOUS
 62
   18
 10
1810.3886207687456
 20
1110.7313404287877
 11
1808.6547
 21
1109.5085999999999
  0
LINE
  8
_0-1_LAYER003
  6
CONTINUOUS
 62
   18
 10
1808.6547
 20
1109.5085999999999
 11
1807.1776
 21
1109.7696000000001
  0
LINE
  8
_0-1_LAYER003
  6
CONTINUOUS
 62
   18
 10
1807.1776
 20
1109.7696000000001
 11
1807.4726999999998
 21
1111.4425000000001
  0
LINE
  8
_0-1_LAYER003
  6
CONTINUOUS
 62
   18
 10
1807.4726999999998
 20
1111.4425000000001
 11
1805.7995999999998
 21
1111.7375
  0
LINE
  8
_0-1_LAYER003
  6
CONTINUOUS
 62
   18
 10
1805.7995999999998
 20
1111.7375
 11
1805.5037000000002
 21
1110.0645999999999
  0
LINE
  8
_0-1_LAYER003
  6
CONTINUOUS
 62
   18
 10
1805.5037000000002
 20
1110.0645999999999
 11
1802.8445999999999
 21
1110.5336
  0
LINE
  8
_0-1_LAYER003
  6
CONTINUOUS
 62
   18
 10
1802.8445999999999
 20
1110.5336
 11
1803.1406999999999
 21
1112.2066
  0
LINE
  8
_0-1_LAYER003
  6
CONTINUOUS
 62
   18
 10
1803.1406999999999
 20
1112.2066
 11
1801.4666697654789
 21
1112.5014291034552
  0
LINE
  8
_0-1_LAYER003
  6
CONTINUOUS
 62
   18
 10
1801.4666697654789
 20
1112.5014291034552
 11
1801.1707000000001
 21
1110.8285000000001
  0
LINE
  8
_0-1_LAYER003
  6
CONTINUOUS
 62
   18
 10
1801.1707000000001
 20
1110.8285000000001
 11
1798.5115000000001
 21
1111.2976000000001
  0
LINE
  8
_0-1_LAYER003
  6
CONTINUOUS
 62
   18
 10
1798.5115000000001
 20
1111.2976000000001
 11
1798.8065999999999
 21
1112.9704999999999
  0
LINE
  8
_0-1_LAYER003
  6
CONTINUOUS
 62
   18
 10
1798.8065999999999
 20
1112.9704999999999
 11
1797.1336697421248
 21
1113.2654290394282
  0
LINE
  8
_0-1_LAYER003
  6
CONTINUOUS
 62
   18
 10
1797.1336697421248
 20
1113.2654290394282
 11
1796.8375999999998
 21
1111.5925999999999
  0
LINE
  8
_0-1_LAYER003
  6
CONTINUOUS
 62
   18
 10
1796.8375999999998
 20
1111.5925999999999
 11
1787.9176000000002
 21
1113.1645000000001
  0
LINE
  8
_0-1_LAYER003
  6
CONTINUOUS
 62
   18
 10
1787.9176000000002
 20
1113.1645000000001
 11
1796.8375999999998
 21
1111.5925999999999
  0
LINE
  8
_0-1_LAYER003
  6
CONTINUOUS
 62
   18
 10
1767.7177000000001
 20
1054.2494999999999
 11
1217.9974
 21
806.87580000000003
  0
LINE
  8
_0-1_LAYER003
  6
CONTINUOUS
 62
   18
 10
1218.8181
 20
805.05199999999991
 11
1749.1995000000002
 21
1043.7230999999999
  0
LINE
  8
_0-1_LAYER003
  6
CONTINUOUS
 62
   18
 10
1749.1995000000002
 20
1043.7230999999999
 11
1769.7177000000001
 21
998.12709999999993
  0
LINE
  8
_0-1_LAYER003
  6
CONTINUOUS
 62
   18
 10
1769.7177000000001
 20
998.12709999999993
 11
1239.3362999999999
 21
759.45589999999993
  0
LINE
  8
_0-1_LAYER003
  6
CONTINUOUS
 62
   18
 10
1284.4763
 20
659.14450000000011
 11
1882.7718
 21
928.37689999999998
  0
LINE
  8
_0-1_LAYER003
  6
CONTINUOUS
 62
   18
 10
1507.0904999999998
 20
957.80230000000006
 11
1534.4376999999999
 21
970.13629999999989
  0
LINE
  8
_0-1_LAYER003
  6
CONTINUOUS
 62
   18
 10
1534.4376999999999
 20
970.13629999999989
 11
1540.6046999999999
 21
956.46260000000007
  0
LINE
  8
_0-1_LAYER003
  6
CONTINUOUS
 62
   18
 10
1540.6046999999999
 20
956.46260000000007
 11
1513.2575000000002
 21
944.12860000000001
  0
LINE
  8
_0-1_LAYER003
  6
CONTINUOUS
 62
   18
 10
1513.2575000000002
 20
944.12860000000001
 11
1507.0904999999998
 21
957.80230000000006
  0
LINE
  8
_0-1_LAYER003
  6
CONTINUOUS
 62
   18
 10
1513.2575000000002
 20
944.12860000000001
 11
1534.4376999999999
 21
970.13629999999989
  0
LINE
  8
_0-1_LAYER003
  6
CONTINUOUS
 62
   18
 10
1712.7795999999998
 20
1050.3625
 11
1718.9351000000001
 21
1036.6837
  0
LINE
  8
_0-1_LAYER003
  6
CONTINUOUS
 62
   18
 10
1718.9351000000001
 20
1036.6837
 11
1746.2927
 21
1048.9946
  0
LINE
  8
_0-1_LAYER003
  6
CONTINUOUS
 62
   18
 10
1746.2927
 20
1048.9946
 11
1740.1372000000001
 21
1062.6733999999999
  0
LINE
  8
_0-1_LAYER003
  6
CONTINUOUS
 62
   18
 10
1740.1372000000001
 20
1062.6733999999999
 11
1712.7795999999998
 21
1050.3625
  0
LINE
  8
_0-1_LAYER003
  6
CONTINUOUS
 62
   18
 10
1740.1372000000001
 20
1062.6733999999999
 11
1718.9351000000001
 21
1036.6837
  0
LINE
  8
_0-1_LAYER003
  6
CONTINUOUS
 62
   18
 10
1613.5448957940127
 20
982.67866366435999
 11
1679.6592999999998
 21
957.60079999999994
  0
LINE
  8
_0-1_LAYER003
  6
CONTINUOUS
 62
   18
 10
1675.7902443507796
 20
955.85982110834516
 11
1609.6759971612069
 21
980.93766314571371
  0
LINE
  8
_0-1_LAYER003
  6
CONTINUOUS
 62
   18
 10
1420.0970000000002
 20
895.62740000000008
 11
1486.2112999999999
 21
870.54950000000008
  0
LINE
  8
_0-1_LAYER003
  6
CONTINUOUS
 62
   18
 10
1482.3424
 20
868.80850000000009
 11
1416.2282172878759
 21
893.88635551138532
  0
ARC
  8
_0-1_LAYER003
  6
CONTINUOUS
 62
   18
 10
1576.4846103770406
 20
1105.4763486413178
 40
120.82212706065455
 50
339.61651198794038
 51
9.0032990087156968
  0
ARC
  8
_0-1_LAYER003
  6
CONTINUOUS
 62
   18
 10
1750.2174033512483
 20
1252.1864004061733
 40
22.100308616642327
 50
337.88537394170231
 51
28.07235284354698
  0
LINE
  8
_0-1_LAYER003
  6
CONTINUOUS
 62
   18
 10
1767.7177000000001
 20
1241.7864999999999
 11
1765.3177000000001
 21
1231.8456689152727
  0
TEXT
  8
_0-0_LAYER001
 62
    7
 10
1370.3934999999999
 20
1047.1838
 40
20
 41
1
 50
0
  1
桟　瓦
  0
TEXT
  8
_0-0_LAYER001
 62
    7
 10
1542.2801979048759
 20
1256.8332040731379
 40
20
 41
1
 50
0
  1
葺　土
  0
TEXT
  8
_0-0_LAYER001
 62
    7
 10
996.83709455054918
 20
1262.0501103039423
 40
20
 41
1
 50
0
  1
瓦桟：１５ｘ３０以上
  0
TEXT
  8
_0-0_LAYER001
 62
    7
 10
1023.1980707711884
 20
1196.1476697523444
 40
20
 41
1
 50
0
  1
　野地板：ALCt＝50
  0
TEXT
  8
_0-0_LAYER001
 62
    7
 10
999.76609190839781
 20
1228.3666406886812
 40
20
 41
1
 50
0
  1
下葺材：ルーフィング
  0
TEXT
  8
_0-0_LAYER001
 62
    7
 10
958.76012889851472
 20
1165.3931974949321
 40
20
 41
1
 50
0
  1
　鋼製：C－100x50x20x2.3　　
  0
TEXT
  8
_0-0_LAYER001
 62
    7
 10
1304.381817124673
 20
1068.7362846859216
 40
20
 41
1
 50
19.940917000000002
  1
225
  0
TEXT
  8
_0-0_LAYER001
 62
    7
 10
1528.4501150001063
 20
1182.9671816420248
 40
20
 41
1
 50
19.940917000000013
  1
295
  0
TEXT
  8
_0-0_LAYER001
 62
    7
 10
1655.8615000665291
 20
1182.9671816420248
 40
20
 41
1
 50
90
  1
90
  0
TEXT
  8
_0-0_LAYER001
 62
    7
 10
1565.0625819732161
 20
1371.8875112232722
 40
20
 41
1
 50
0
  1
笠木：15x90
  0
TEXT
  8
_0-0_LAYER001
 62
    7
 10
1708.5834525078074
 20
1434.8609544170217
 40
20
 41
1
 50
0
  1
100
  0
TEXT
  8
_0-0_LAYER001
 62
    7
 10
1367.3552603184223
 20
1335.2750442501624
 40
20
 41
1
 50
0
  1
雨押水切カラー鋼板0.35ｍｍ以上
  0
TEXT
  8
_0-0_LAYER001
 62
    7
 10
1871.1428058684157
 20
1412.8934742331558
 40
20
 41
1
 50
0
  1
シーリング
  0
TEXT
  8
_0-0_LAYER001
 62
    7
 10
1904.8262754836769
 20
1374.8165085811211
 40
20
 41
1
 50
0
  1
下地：40x30
  0
TEXT
  8
_0-0_LAYER001
 62
    7
 10
1992.696196219141
 20
1008.6918388500213
 40
20
 41
1
 50
90
  1
下葺き材立上がり寸法
  0
TEXT
  8
_0-0_LAYER001
 62
    7
 10
1920.9357609518452
 20
1267.9081050196401
 40
20
 41
1
 50
0
  1
ALCパネルt＝100
  0
TEXT
  8
_0-0_LAYER001
 62
    7
 10
1951.6902332092577
 20
1114.135743732578
 40
20
 41
1
 50
90
  1
150
  0
TEXT
  8
_0-0_LAYER001
 62
    7
 10
1652.9325027086802
 20
1240.0826301200764
 40
20
 41
1
 50
90
  1
20
  0
LINE
  8
_0-0_LAYER001
  6
CONTINUOUS
 62
    2
 10
1678.1030000000001
 20
1331.3957
 11
1371.7487563551956
 21
1331.3957
  0
LINE
  8
_0-1_LAYER003
  6
CONTINUOUS
 62
   18
 10
1368.8197589973468
 20
1331.3957
 11
1678.1030000000001
 21
1331.3957
  0
LINE
  8
_0-0_LAYER001
  6
CONTINUOUS
 62
    2
 10
1222.2883999999999
 20
1222.9631999999999
 11
999.76609190839781
 21
1222.9631999999999
  0
LINE
  8
_0-1_LAYER003
  6
CONTINUOUS
 62
   18
 10
1005.6240866240955
 20
1222.9631999999999
 11
1222.2883999999999
 21
1222.9631999999999
  0
LINE
  8
_0-0_LAYER001
  6
CONTINUOUS
 62
    2
 10
1238.0909999999999
 20
1163.0012999999999
 11
982.19210776130524
 21
1163.0012999999999
  0
LINE
  8
_0-1_LAYER003
  6
CONTINUOUS
 62
   18
 10
971.94061700883435
 20
1163.0012999999999
 11
1238.0909999999999
 21
1163.0012999999999
  0
LINE
  8
_0-0_LAYER001
  6
CONTINUOUS
 62
    2
 10
1865.4906999999998
 20
1407.8359
 11
1964.8707213195776
 21
1407.8359
  0
LINE
  8
_0-1_LAYER003
  6
CONTINUOUS
 62
   18
 10
1865.4906999999998
 20
1407.8359
 11
1970.7287160352748
 21
1407.8359
  0
ENDSEC
  0
EOF
