  0
SECTION
  2
HEADER
  9
$ACADVER
  1
AC1009
  9
$INSBASE
 10
0
 20
0
 30
0
  9
$EXTMIN
 10
0
 20
0
  9
$EXTMAX
 10
2970
 20
2100
  9
$LIMMIN
 10
0
 20
0
  9
$LIMMAX
 10
2970
 20
2100
  9
$LTSCALE
 40
10
  0
ENDSEC
  0
SECTION
  2
TABLES
  0
TABLE
  2
LTYPE
 70
     9
  0
LTYPE
  2
CONTINUOUS
 70
    64
  3
実線
 72
    65
 73
     0
 40
0.0
  0
LTYPE
  2
DASHED1
 70
    64
  3
--  --  --  --  --  --  --  --  
 72
    65
 73
     2
 40
2.5
 49
1.25
 49
-1.25
  0
LTYPE
  2
DASHED2
 70
    64
  3
----    ----    ----    ----    
 72
    65
 73
     2
 40
5.0
 49
2.5
 49
-2.5
  0
LTYPE
  2
DASHED3
 70
    64
  3
------  ------  ------  ------  
 72
    65
 73
     2
 40
5.0
 49
3.75
 49
-1.25
  0
LTYPE
  2
CENTER1
 70
    64
  3
----- - ----- - ----- - ----- - 
 72
    65
 73
     4
 40
10.0
 49
6.25
 49
-1.25
 49
1.25
 49
-1.25
  0
LTYPE
  2
CENTER2
 70
    64
  3
----------  --  ----------  --  
 72
    65
 73
     4
 40
20.0
 49
12.5
 49
-2.5
 49
2.5
 49
-2.5
  0
LTYPE
  2
PHANTOM1
 70
    64
  3
--- - - --- - - --- - - --- - - 
 72
    65
 73
     6
 40
10.0
 49
3.25
 49
-1.25
 49
1.25
 49
-1.25
 49
1.25
 49
-1.25
  0
LTYPE
  2
PHANTOM2
 70
    64
  3
--------  -  -  --------  -  -  
 72
    65
 73
     6
 40
20.0
 49
10.0
 49
-2.5
 49
1.25
 49
-2.5
 49
1.25
 49
-2.5
  0
LTYPE
  2
DOT
 70
    64
  3
-   -   -   -   -   -   -   -   
 72
    65
 73
     2
 40
2.5
 49
0.625
 49
-1.875
  0
LTYPE
  2
DUMMY
 70
    64
  3
ダミー
 72
    65
 73
     0
 40
0.0
  0
LTYPE
  2
RAND1
 70
    64
  3
ランダム線1
 72
    65
 73
     4
 40
10.0
 49
1.0
 49
-2.0
 49
3.0
 49
-4.0
  0
LTYPE
  2
RAND2
 70
    64
  3
ランダム線2
 72
    65
 73
     4
 40
14.0
 49
2.0
 49
-3.0
 49
4.0
 49
-5.0
  0
LTYPE
  2
RAND3
 70
    64
  3
ランダム線3
 72
    65
 73
     4
 40
18.0
 49
3.0
 49
-4.0
 49
5.0
 49
-6.0
  0
LTYPE
  2
RAND4
 70
    64
  3
ランダム線4
 72
    65
 73
     4
 40
22.0
 49
4.0
 49
-5.0
 49
6.0
 49
-7.0
  0
LTYPE
  2
RAND5
 70
    64
  3
ランダム線5
 72
    65
 73
     4
 40
26.0
 49
5.0
 49
-6.0
 49
7.0
 49
-8.0
  0
LTYPE
  2
LONG1
 70
    64
  3
----------  --  ----------  --  
 72
    65
 73
     4
 40
40.0
 49
32.5
 49
-2.5
 49
2.5
 49
-2.5
  0
LTYPE
  2
LONG2
 70
    64
  3
--------  -  -  --------  -  -  
 72
    65
 73
     6
 40
40.0
 49
30.0
 49
-2.5
 49
1.25
 49
-2.5
 49
1.25
 49
-2.5
  0
LTYPE
  2
LONG3
 70
    64
  3
+++++++++++++++..+++++++++++++++
 72
    65
 73
     2
 40
40.0
 49
37.5
 49
-2.5
  0
LTYPE
  2
LONG4
 70
    64
  3
+++++++++++++++..+++++++++++++++
 72
    65
 73
     2
 40
80.0
 49
75.0
 49
-5.0
  0
LTYPE
  2
LONG5
 70
    64
  3
----------  --  ----------  --  
 72
    65
 73
     4
 40
60.0
 49
37.5
 49
-7.5
 49
7.5
 49
-7.5
  0
LTYPE
  2
dashed
 70
   64
  3
-------   -------------   ------
 72
   65
 73
    2
 40
7.5
 49
6
 49
-1.5
  0
LTYPE
  2
dashed_spaced
 70
   64
  3
----        --------        ----
 72
   65
 73
    2
 40
12
 49
6
 49
-6
  0
LTYPE
  2
long_dashed_dotted
 70
   64
  3
------------- --- --------------
 72
   65
 73
    4
 40
15.25
 49
12
 49
-1.5
 49
0.25
 49
-1.5
  0
LTYPE
  2
long_dashed_double-dotted
 70
   64
  3
----------- --- --- ------------
 72
   65
 73
    6
 40
17
 49
12
 49
-1.5
 49
0.25
 49
-1.5
 49
0.25
 49
-1.5
  0
LTYPE
  2
long_dashed_triplicate-dotted
 70
   64
  3
--------- --- --- --- ----------
 72
   65
 73
    8
 40
18.75
 49
12
 49
-1.5
 49
0.25
 49
-1.5
 49
0.25
 49
-1.5
 49
0.25
 49
-1.5
  0
LTYPE
  2
dotted
 70
   64
  3
   -       -       -       -    
 72
   65
 73
    2
 40
1.75
 49
0.25
 49
-1.5
  0
LTYPE
  2
chain
 70
   64
  3
-------------- -- --------------
 72
   65
 73
    4
 40
18.5
 49
12
 49
-1.5
 49
3.5
 49
-1.5
  0
LTYPE
  2
chain_double_dash
 70
   64
  3
------------ -- -- -------------
 72
   65
 73
    6
 40
23.5
 49
12
 49
-1.5
 49
3.5
 49
-1.5
 49
3.5
 49
-1.5
  0
LTYPE
  2
dashed_dotted
 70
   64
  3
-----------     -     ----------
 72
   65
 73
    4
 40
9.25
 49
6
 49
-1.5
 49
0.25
 49
-1.5
  0
LTYPE
  2
double-dashed_dotted
 70
   64
  3
------   -----------   -   -----
 72
   65
 73
    6
 40
16.75
 49
6
 49
-1.5
 49
6
 49
-1.5
 49
0.25
 49
-1.5
  0
LTYPE
  2
dashed_double-dotted
 70
   64
  3
---------    -    -    ---------
 72
   65
 73
    6
 40
11
 49
6
 49
-1.5
 49
0.25
 49
-1.5
 49
0.25
 49
-1.5
  0
LTYPE
  2
double-dashed_double-dotted
 70
   64
  3
-----   ---------   -   -   ----
 72
   65
 73
    8
 40
18.5
 49
6
 49
-1.5
 49
6
 49
-1.5
 49
0.25
 49
-1.5
 49
0.25
 49
-1.5
  0
LTYPE
  2
dashed_triplicate-dotted
 70
   64
  3
-------    -    -    -    ------
 72
   65
 73
    8
 40
12.75
 49
6
 49
-1.5
 49
0.25
 49
-1.5
 49
0.25
 49
-1.5
 49
0.25
 49
-1.5
  0
LTYPE
  2
double-dashed_triplicate-dotted
 70
   64
  3
-----  ---------  -  -  -  -----
 72
   65
 73
   10
 40
20.25
 49
6
 49
-1.5
 49
6
 49
-1.5
 49
0.25
 49
-1.5
 49
0.25
 49
-1.5
 49
0.25
 49
-1.5
  0
LTYPE
  2
undefined
 70
   64
  3
--------------------------------
 72
   65
 73
    0
 40
0
  0
ENDTAB
  0
TABLE
  2
STYLE
  5
3
100
AcDbSymbolTable
 70
     1
  0
STYLE
  5
10
100
AcDbSymbolTableRecord
100
AcDbTextStyleTableRecord
  2
STANDARD
 70
     0
 40
0.0
 41
1.0
 50
0.0
 71
     0
 42
0.2
  3
txt
  4
bigfont.shx
  0
STYLE
  5
26
100
AcDbSymbolTableRecord
100
AcDbTextStyleTableRecord
  2
TATEGAKI
 70
    68
 40
0.0
 41
1.0
 50
0.0
 71
     0
 42
1.0
  3
txt
  4
bigfont.shx
  0
ENDTAB
  0
TABLE
  2
LAYER
 70
    4
  0
LAYER
  2
_0-0_LAYER001
 70
   64
 62
    7
  6
CONTINUOUS
  0
LAYER
  2
_0-1_LAYER004
 70
   64
 62
    7
  6
CONTINUOUS
  0
LAYER
  2
_0-2_LAYER006
 70
   64
 62
    7
  6
CONTINUOUS
  0
LAYER
  2
ADD_LINE
 70
   64
 62
    7
  6
CONTINUOUS
  0
ENDTAB
  0
ENDSEC
  0
SECTION
  2
BLOCKS
  0
ENDSEC
  0
SECTION
  2
ENTITIES
  0
LINE
  8
_0-0_LAYER001
  6
CONTINUOUS
 62
    2
 10
1739.8038000000001
 20
942.89560000000006
 11
1789.8036999999999
 21
992.89560000000006
  0
LINE
  8
_0-0_LAYER001
  6
CONTINUOUS
 62
    2
 10
1735.5612000000001
 20
942.89560000000006
 11
1785.5610000000001
 21
992.89560000000006
  0
LINE
  8
_0-0_LAYER001
  6
CONTINUOUS
 62
    2
 10
1951.9360000000001
 20
942.89560000000006
 11
2001.9358000000002
 21
992.89560000000006
  0
LINE
  8
_0-0_LAYER001
  6
CONTINUOUS
 62
    2
 10
1947.6932999999999
 20
942.89560000000006
 11
1997.6931
 21
992.89560000000006
  0
LINE
  8
_0-0_LAYER001
  6
CONTINUOUS
 62
    2
 10
2100.5637999999999
 20
1013.8956000000001
 11
1288.6030000000001
 21
1013.8956000000001
  0
LINE
  8
_0-0_LAYER001
  6
CONTINUOUS
 62
    2
 10
1269.0175999999999
 20
991.34850000000006
 11
1269.0175999999999
 21
998.84850000000006
  0
LINE
  8
_0-0_LAYER001
  6
CONTINUOUS
 62
    2
 10
1269.0175999999999
 20
998.84850000000006
 11
1272.7675999999999
 21
992.35339999999997
  0
LINE
  8
_0-0_LAYER001
  6
CONTINUOUS
 62
    2
 10
1269.0175999999999
 20
998.84850000000006
 11
1334.3403000000001
 21
755.0610999999999
  0
LINE
  8
_0-0_LAYER001
  6
CONTINUOUS
 62
    2
 10
1166.6029000000001
 20
757.66120000000001
 11
1166.6029000000001
 21
810.16120000000001
  0
CIRCLE
  8
_0-0_LAYER001
  6
CONTINUOUS
 62
    2
 10
1166.6029000000001
 20
760.16120000000001
 40
1.6999999999999997
  0
LINE
  8
_0-0_LAYER001
  6
CONTINUOUS
 62
    2
 10
1166.6029000000001
 20
760.16120000000001
 11
1286.6029000000001
 21
760.16120000000001
  0
CIRCLE
  8
_0-0_LAYER001
  6
CONTINUOUS
 62
    2
 10
1286.6029000000001
 20
760.16120000000001
 40
1.6999999999999997
  0
LINE
  8
_0-0_LAYER001
  6
CONTINUOUS
 62
    2
 10
1286.6029000000001
 20
757.66120000000001
 11
1286.6029000000001
 21
810.16120000000001
  0
LINE
  8
_0-0_LAYER001
  6
CONTINUOUS
 62
    2
 10
1154.2170000000001
 20
1013.702
 11
1159.5202999999999
 21
1019.0053
  0
LINE
  8
_0-0_LAYER001
  6
CONTINUOUS
 62
    2
 10
1159.5202999999999
 20
1019.0053
 11
1157.5790999999999
 21
1011.7608
  0
LINE
  8
_0-0_LAYER001
  6
CONTINUOUS
 62
    2
 10
1159.5202999999999
 20
1019.0053
 11
1091.566
 21
901.30500000000006
  0
LINE
  8
_0-0_LAYER001
  6
CONTINUOUS
 62
    2
 10
1091.566
 20
901.30500000000006
 11
944.56600000000003
 21
901.30500000000006
  0
LINE
  8
_0-0_LAYER001
  6
CONTINUOUS
 62
    2
 10
1182.1027999999999
 20
1389.1629
 11
1178.3527999999999
 21
1382.6677
  0
LINE
  8
_0-0_LAYER001
  6
CONTINUOUS
 62
    2
 10
1178.3527999999999
 20
1382.6677
 11
1178.3527999999999
 21
1390.1677
  0
LINE
  8
_0-0_LAYER001
  6
CONTINUOUS
 62
    2
 10
1178.3527999999999
 20
1382.6677
 11
1200.5454
 21
1465.4919
  0
LINE
  8
_0-0_LAYER001
  6
CONTINUOUS
 62
    2
 10
924.96710000000007
 20
992.89560000000006
 11
977.46710000000007
 21
992.89560000000006
  0
CIRCLE
  8
_0-0_LAYER001
  6
CONTINUOUS
 62
    2
 10
927.46710000000007
 20
992.89560000000006
 40
1.6999999999999997
  0
LINE
  8
_0-0_LAYER001
  6
CONTINUOUS
 62
    2
 10
927.46710000000007
 20
992.89560000000006
 11
927.46710000000007
 21
1292.8955999999998
  0
CIRCLE
  8
_0-0_LAYER001
  6
CONTINUOUS
 62
    2
 10
927.46710000000007
 20
1292.8955999999998
 40
1.6999999999999997
  0
LINE
  8
_0-0_LAYER001
  6
CONTINUOUS
 62
    2
 10
924.96710000000007
 20
1292.8955999999998
 11
977.46710000000007
 21
1292.8955999999998
  0
LINE
  8
_0-0_LAYER001
  6
CONTINUOUS
 62
    2
 10
2100.5637999999999
 20
998.89560000000006
 11
1288.6030000000001
 21
998.89560000000006
  0
LINE
  8
_0-0_LAYER001
  6
CONTINUOUS
 62
    2
 10
1168.3831
 20
996.02600000000007
 11
1153.3831
 21
996.02600000000007
  0
LINE
  8
_0-0_LAYER001
  6
CONTINUOUS
 62
    2
 10
1153.3831
 20
996.02600000000007
 11
1153.3831
 21
1059.9301
  0
LINE
  8
_0-0_LAYER001
  6
CONTINUOUS
 62
    2
 10
1168.3831
 20
1059.9301
 11
1168.3831
 21
996.02600000000007
  0
LINE
  8
_0-0_LAYER001
  6
CONTINUOUS
 62
    2
 10
1168.3831
 20
1059.9301
 11
1153.3831
 21
996.02600000000007
  0
LINE
  8
_0-0_LAYER001
  6
CONTINUOUS
 62
    2
 10
1185.0179000000001
 20
1254.3018
 11
1185.0179000000001
 21
1236.8018
  0
CIRCLE
  8
_0-0_LAYER001
  6
CONTINUOUS
 62
    2
 10
1185.0179000000001
 20
1251.8018
 40
1.6999999999999997
  0
LINE
  8
_0-0_LAYER001
  6
CONTINUOUS
 62
    2
 10
1185.0179000000001
 20
1251.8018
 11
1275.0179000000001
 21
1251.8018
  0
CIRCLE
  8
_0-0_LAYER001
  6
CONTINUOUS
 62
    2
 10
1275.0179000000001
 20
1251.8018
 40
1.6999999999999997
  0
LINE
  8
_0-0_LAYER001
  6
CONTINUOUS
 62
    2
 10
1275.0179000000001
 20
1254.3018
 11
1275.0179000000001
 21
1189.5183
  0
LINE
  8
_0-0_LAYER001
  6
CONTINUOUS
 62
    2
 10
1272.4353000000001
 20
1096.0164
 11
1275.0216
 21
1071.877
  0
LINE
  8
_0-0_LAYER001
  6
CONTINUOUS
 62
    2
 10
1275.0216
 20
1071.877
 11
1269.7411999999999
 21
1077.4774
  0
LINE
  8
_0-0_LAYER001
  6
CONTINUOUS
 62
    2
 10
1258.3504
 20
1096.4691
 11
1255.7456999999999
 21
1081.6969999999999
  0
LINE
  8
_0-0_LAYER001
  6
CONTINUOUS
 62
    2
 10
1152.3408999999999
 20
1099.9301
 11
1258.3504
 21
1096.4691
  0
LINE
  8
_0-0_LAYER001
  6
CONTINUOUS
 62
    2
 10
1255.7456999999999
 20
1081.6969999999999
 11
1152.3408999999999
 21
1099.9301
  0
LINE
  8
_0-0_LAYER001
  6
CONTINUOUS
 62
    2
 10
1258.3504
 20
1096.4691
 11
1154.9456
 21
1114.7021999999999
  0
LINE
  8
_0-0_LAYER001
  6
CONTINUOUS
 62
    2
 10
1154.9456
 20
1114.7021999999999
 11
1152.3408999999999
 21
1099.9301
  0
LINE
  8
_0-0_LAYER001
  6
DASHED1
 62
    2
 10
1104.3408999999999
 20
1079.9301
 11
1109.3409999999999
 21
1082.9301
  0
LINE
  8
_0-0_LAYER001
  6
DASHED1
 62
    2
 10
1109.3409999999999
 20
1076.9302
 11
1104.3408999999999
 21
1079.9301
  0
LINE
  8
_0-0_LAYER001
  6
CONTINUOUS
 62
    2
 10
1176.3409999999999
 20
1076.9302
 11
1176.3409999999999
 21
1082.9301
  0
LINE
  8
_0-0_LAYER001
  6
CONTINUOUS
 62
    2
 10
1182.3408999999999
 20
1073.9300000000001
 11
1182.3408999999999
 21
1085.9302
  0
LINE
  8
_0-0_LAYER001
  6
CONTINUOUS
 62
    2
 10
1173.454
 20
1076.9302
 11
1169.9909
 21
1082.9301
  0
LINE
  8
_0-0_LAYER001
  6
CONTINUOUS
 62
    2
 10
1182.3408999999999
 20
1073.9300000000001
 11
1176.3409999999999
 21
1076.9302
  0
LINE
  8
_0-0_LAYER001
  6
CONTINUOUS
 62
    2
 10
1176.3409999999999
 20
1082.9301
 11
1182.3408999999999
 21
1085.9302
  0
LINE
  8
_0-0_LAYER001
  6
DASHED1
 62
    2
 10
1109.3409999999999
 20
1082.9301
 11
1151.5856000000001
 21
1082.9301
  0
LINE
  8
_0-0_LAYER001
  6
DASHED1
 62
    2
 10
1109.3409999999999
 20
1076.9302
 11
1152.3408999999999
 21
1076.9302
  0
LINE
  8
_0-0_LAYER001
  6
CONTINUOUS
 62
    2
 10
1182.3408999999999
 20
1059.9301
 11
1152.3408999999999
 21
1059.9301
  0
LINE
  8
_0-0_LAYER001
  6
CONTINUOUS
 62
    2
 10
1152.3408999999999
 20
1082.9301
 11
1176.3409999999999
 21
1082.9301
  0
LINE
  8
_0-0_LAYER001
  6
CONTINUOUS
 62
    2
 10
1152.3408999999999
 20
1076.9302
 11
1176.3409999999999
 21
1076.9302
  0
LINE
  8
_0-0_LAYER001
  6
CONTINUOUS
 62
    2
 10
1167.7309
 20
1076.9302
 11
1164.2678000000001
 21
1082.9301
  0
LINE
  8
_0-0_LAYER001
  6
CONTINUOUS
 62
    2
 10
1162.0077000000001
 20
1076.9302
 11
1158.5446999999999
 21
1082.9301
  0
LINE
  8
_0-0_LAYER001
  6
CONTINUOUS
 62
    2
 10
1156.2846
 20
1076.9302
 11
1152.8215
 21
1082.9301
  0
LINE
  8
_0-0_LAYER001
  6
CONTINUOUS
 62
    2
 10
1182.3408999999999
 20
1059.9301
 11
1182.3408999999999
 21
1094.6403
  0
LINE
  8
_0-0_LAYER001
  6
CONTINUOUS
 62
    2
 10
1152.3408999999999
 20
1059.9301
 11
1178.837
 21
1095.2582
  0
LINE
  8
_0-0_LAYER001
  6
CONTINUOUS
 62
    2
 10
1272.4353000000001
 20
1096.0164
 11
1153.6029000000001
 21
1116.9697000000001
  0
LINE
  8
_0-0_LAYER001
  6
CONTINUOUS
 62
    2
 10
1173.1628000000001
 20
1111.49
 11
1164.3933999999999
 21
1113.0363
  0
LINE
  8
_0-0_LAYER001
  6
CONTINUOUS
 62
    2
 10
1165.6370999999999
 20
1083.7781
 11
1162.1954000000001
 21
1075.5391
  0
LINE
  8
_0-0_LAYER001
  6
CONTINUOUS
 62
    2
 10
1166.6768999999999
 20
1111.0137
 11
1161.9870000000001
 21
1084.4218000000001
  0
LINE
  8
_0-0_LAYER001
  6
CONTINUOUS
 62
    2
 10
1162.1954000000001
 20
1075.5391
 11
1161.9870000000001
 21
1084.4218000000001
  0
LINE
  8
_0-0_LAYER001
  6
CONTINUOUS
 62
    2
 10
1170.3268
 20
1110.3714
 11
1173.1628000000001
 21
1111.49
  0
LINE
  8
_0-0_LAYER001
  6
CONTINUOUS
 62
    2
 10
1166.6768999999999
 20
1111.0137
 11
1164.3933999999999
 21
1113.0363
  0
LINE
  8
_0-0_LAYER001
  6
CONTINUOUS
 62
    2
 10
1170.3268
 20
1110.3714
 11
1165.6370999999999
 21
1083.7781
  0
LINE
  8
_0-1_LAYER004
  6
DASHED3
 62
    2
 10
1152.3408999999999
 20
994.89560000000006
 11
1152.3408999999999
 21
1292.8955999999998
  0
LINE
  8
_0-1_LAYER004
  6
CONTINUOUS
 62
    2
 10
1173.0179000000001
 20
1142.0047
 11
1173.0179000000001
 21
1182.0047
  0
LINE
  8
_0-1_LAYER004
  6
CONTINUOUS
 62
    2
 10
1173.0179000000001
 20
1182.0047
 11
1155.0179000000001
 21
1182.0047
  0
LINE
  8
_0-1_LAYER004
  6
CONTINUOUS
 62
    2
 10
1155.0179000000001
 20
1182.0047
 11
1155.0179000000001
 21
1142.0047
  0
LINE
  8
_0-1_LAYER004
  6
CONTINUOUS
 62
    2
 10
1155.0179000000001
 20
1142.0047
 11
1173.0179000000001
 21
1142.0047
  0
LINE
  8
_0-1_LAYER004
  6
CONTINUOUS
 62
    2
 10
1155.0179000000001
 20
1182.0047
 11
1173.0179000000001
 21
1142.0047
  0
LINE
  8
_0-1_LAYER004
  6
CONTINUOUS
 62
    2
 10
1173.0179000000001
 20
1121.4503
 11
1173.0179000000001
 21
1437.2161000000001
  0
LINE
  8
_0-1_LAYER004
  6
CONTINUOUS
 62
    2
 10
1185.0179000000001
 20
1121.4503
 11
1185.0179000000001
 21
1437.2161000000001
  0
LINE
  8
_0-1_LAYER004
  6
CONTINUOUS
 62
    2
 10
1153.6029000000001
 20
1116.9697000000001
 11
1153.6029000000001
 21
1266.9697000000001
  0
LINE
  8
_0-1_LAYER004
  6
CONTINUOUS
 62
    2
 10
1185.0179000000001
 20
1121.4503
 11
1173.0179000000001
 21
1121.4503
  0
LINE
  8
_0-2_LAYER006
  6
CONTINUOUS
 62
    2
 10
1153.6029000000001
 20
1287.3371
 11
1153.6029000000001
 21
1289.8051
  0
LINE
  8
_0-1_LAYER004
  6
CONTINUOUS
 62
    2
 10
1145.2129
 20
1437.2161000000001
 11
1145.2129
 21
767.38679999999999
  0
LINE
  8
_0-1_LAYER004
  6
CONTINUOUS
 62
    2
 10
1150.0179000000001
 20
1439.2052000000001
 11
1150.0179000000001
 21
992.89560000000006
  0
LINE
  8
_0-0_LAYER001
  6
CONTINUOUS
 62
    2
 10
1023.7501999999999
 20
992.89560000000006
 11
1076.2501999999999
 21
992.89560000000006
  0
CIRCLE
  8
_0-0_LAYER001
  6
CONTINUOUS
 62
    2
 10
1026.2501999999999
 20
992.89560000000006
 40
1.6999999999999997
  0
LINE
  8
_0-0_LAYER001
  6
CONTINUOUS
 62
    2
 10
1026.2501999999999
 20
992.89560000000006
 11
1026.2501999999999
 21
1059.9301
  0
CIRCLE
  8
_0-0_LAYER001
  6
CONTINUOUS
 62
    2
 10
1026.2501999999999
 20
1059.9301
 40
1.6999999999999997
  0
LINE
  8
_0-0_LAYER001
  6
CONTINUOUS
 62
    2
 10
1023.7501999999999
 20
1059.9301
 11
1076.2501999999999
 21
1059.9301
  0
CIRCLE
  8
_0-0_LAYER001
  6
CONTINUOUS
 62
    2
 10
1026.2501999999999
 20
1059.9301
 40
1.6999999999999997
  0
LINE
  8
_0-0_LAYER001
  6
CONTINUOUS
 62
    2
 10
1026.2501999999999
 20
1059.9301
 11
1026.2501999999999
 21
1116.9697000000001
  0
CIRCLE
  8
_0-0_LAYER001
  6
CONTINUOUS
 62
    2
 10
1026.2501999999999
 20
1116.9697000000001
 40
1.6999999999999997
  0
LINE
  8
_0-0_LAYER001
  6
CONTINUOUS
 62
    2
 10
1023.7501999999999
 20
1116.9697000000001
 11
1076.2501999999999
 21
1116.9697000000001
  0
CIRCLE
  8
_0-0_LAYER001
  6
CONTINUOUS
 62
    2
 10
1026.2501999999999
 20
1116.9697000000001
 40
1.6999999999999997
  0
LINE
  8
_0-0_LAYER001
  6
CONTINUOUS
 62
    2
 10
1026.2501999999999
 20
1116.9697000000001
 11
1026.2501999999999
 21
1266.9697000000001
  0
CIRCLE
  8
_0-0_LAYER001
  6
CONTINUOUS
 62
    2
 10
1026.2501999999999
 20
1266.9697000000001
 40
1.6999999999999997
  0
LINE
  8
_0-0_LAYER001
  6
CONTINUOUS
 62
    2
 10
1023.7501999999999
 20
1266.9697000000001
 11
1076.2501999999999
 21
1266.9697000000001
  0
LINE
  8
_0-0_LAYER001
  6
CONTINUOUS
 62
    2
 10
1173.6808000000001
 20
1179.0496000000001
 11
1169.9308000000001
 21
1172.5544
  0
LINE
  8
_0-0_LAYER001
  6
CONTINUOUS
 62
    2
 10
1169.9308000000001
 20
1172.5544
 11
1169.9308000000001
 21
1180.0544
  0
LINE
  8
_0-0_LAYER001
  6
CONTINUOUS
 62
    2
 10
1169.9308000000001
 20
1172.5544
 11
1228.7366999999999
 21
1392.021
  0
LINE
  8
_0-0_LAYER001
  6
CONTINUOUS
 62
    2
 10
1228.7366999999999
 20
1392.021
 11
1269.2366999999999
 21
1392.021
  0
LINE
  8
_0-0_LAYER001
  6
CONTINUOUS
 62
    2
 10
1251.3014000000001
 20
1107.0319999999999
 11
1247.5514000000001
 21
1100.5368000000001
  0
LINE
  8
_0-0_LAYER001
  6
CONTINUOUS
 62
    2
 10
1247.5514000000001
 20
1100.5368000000001
 11
1247.5514000000001
 21
1108.0368000000001
  0
LINE
  8
_0-0_LAYER001
  6
CONTINUOUS
 62
    2
 10
1247.5514000000001
 20
1100.5368000000001
 11
1304.4040999999997
 21
1312.7138
  0
LINE
  8
_0-0_LAYER001
  6
CONTINUOUS
 62
    2
 10
1160.9956999999999
 20
1097.5731000000001
 11
1162.9368999999999
 21
1090.3286000000001
  0
LINE
  8
_0-0_LAYER001
  6
CONTINUOUS
 62
    2
 10
1162.9368999999999
 20
1090.3286000000001
 11
1157.6335999999999
 21
1095.6319000000001
  0
LINE
  8
_0-0_LAYER001
  6
CONTINUOUS
 62
    2
 10
1162.9368999999999
 20
1090.3286000000001
 11
1016.4360999999999
 21
1344.0753
  0
LINE
  8
_0-0_LAYER001
  6
CONTINUOUS
 62
    2
 10
1016.4360999999999
 20
1344.0753
 11
869.4360999999999
 21
1344.0753
  0
LINE
  8
_0-0_LAYER001
  6
CONTINUOUS
 62
    2
 10
1220.2303999999999
 20
1102.9528
 11
1216.4803999999999
 21
1096.4576
  0
LINE
  8
_0-0_LAYER001
  6
CONTINUOUS
 62
    2
 10
1216.4803999999999
 20
1096.4576
 11
1216.4803999999999
 21
1103.9576
  0
LINE
  8
_0-0_LAYER001
  6
CONTINUOUS
 62
    2
 10
1216.4803999999999
 20
1096.4576
 11
1284.1486
 21
1348.9989
  0
LINE
  8
_0-0_LAYER001
  6
CONTINUOUS
 62
    2
 10
1284.1486
 20
1348.9989
 11
1449.0808000000002
 21
1348.9989
  0
LINE
  8
_0-0_LAYER001
  6
CONTINUOUS
 62
    2
 10
1527.6716999999999
 20
942.89560000000006
 11
1577.6714999999999
 21
992.89560000000006
  0
LINE
  8
_0-0_LAYER001
  6
CONTINUOUS
 62
    2
 10
1523.4290999999998
 20
942.89560000000006
 11
1573.4288999999999
 21
992.89560000000006
  0
LINE
  8
_0-0_LAYER001
  6
CONTINUOUS
 62
    2
 10
1315.5396000000001
 20
942.89560000000006
 11
1365.5396000000001
 21
992.89560000000006
  0
LINE
  8
_0-0_LAYER001
  6
CONTINUOUS
 62
    2
 10
1311.2969000000001
 20
942.89560000000006
 11
1361.297
 21
992.89560000000006
  0
LINE
  8
_0-0_LAYER001
  6
CONTINUOUS
 62
    2
 10
1288.6030000000001
 20
1013.8956000000001
 11
1288.6030000000001
 21
998.89560000000006
  0
LINE
  8
_0-0_LAYER001
  6
CONTINUOUS
 62
    2
 10
1286.6029000000001
 20
996.89560000000006
 11
1170.6029000000001
 21
996.89560000000006
  0
LINE
  8
_0-0_LAYER001
  6
CONTINUOUS
 62
    2
 10
1151.6029000000001
 20
942.89560000000006
 11
2100.5637999999999
 21
942.89560000000006
  0
LINE
  8
_0-0_LAYER001
  6
CONTINUOUS
 62
    2
 10
1150.0179000000001
 20
992.89560000000006
 11
2100.5637999999999
 21
992.89560000000006
  0
LINE
  8
_0-0_LAYER001
  6
CONTINUOUS
 62
    2
 10
1151.6029000000001
 20
992.89560000000006
 11
1151.6029000000001
 21
942.89560000000006
  0
LINE
  8
_0-0_LAYER001
  6
CONTINUOUS
 62
    2
 10
1161.6029000000001
 20
842.89560000000006
 11
2100.5637999999999
 21
842.89560000000006
  0
LINE
  8
_0-0_LAYER001
  6
CONTINUOUS
 62
    2
 10
1161.6029000000001
 20
942.89560000000006
 11
1161.6029000000001
 21
842.89560000000006
  0
LINE
  8
_0-0_LAYER001
  6
DASHED1
 62
    1
 10
1161.6029000000001
 20
846.0956000000001
 11
2100.5637999999999
 21
846.0956000000001
  0
LINE
  8
_0-0_LAYER001
  6
DASHED1
 62
    1
 10
1161.6029000000001
 20
939.69560000000001
 11
2100.5637999999999
 21
939.69560000000001
  0
LINE
  8
_0-0_LAYER001
  6
DASHED1
 62
    1
 10
1161.6029000000001
 20
922.89560000000006
 11
2100.5637999999999
 21
922.89560000000006
  0
LINE
  8
_0-0_LAYER001
  6
DASHED1
 62
    1
 10
1161.6029000000001
 20
862.89560000000006
 11
2100.5637999999999
 21
862.89560000000006
  0
LINE
  8
_0-0_LAYER001
  6
CONTINUOUS
 62
    2
 10
1286.6029000000001
 20
1014.6385
 11
1286.6029000000001
 21
996.89560000000006
  0
LINE
  8
_0-0_LAYER001
  6
CONTINUOUS
 62
    2
 10
1286.6029000000001
 20
1014.6385
 11
1301.6030000000001
 21
1014.6385
  0
LINE
  8
_0-0_LAYER001
  6
CONTINUOUS
 62
    2
 10
1292.6025999999999
 20
1013.6385
 11
1290.9728999999998
 21
1014.6384
  0
LINE
  8
_0-0_LAYER001
  6
CONTINUOUS
 62
    2
 10
1297.2329
 20
1014.6385
 11
1290.9728999999998
 21
1014.6384
  0
LINE
  8
_0-0_LAYER001
  6
CONTINUOUS
 62
    2
 10
1295.6026999999999
 20
1013.6386
 11
1297.2329
 21
1014.6385
  0
LINE
  8
_0-0_LAYER001
  6
CONTINUOUS
 62
    2
 10
1295.6025999999999
 20
1001.3087
 11
1294.1030000000001
 21
994.63840000000005
  0
LINE
  8
_0-0_LAYER001
  6
CONTINUOUS
 62
    2
 10
1295.6026999999999
 20
1013.6386
 11
1295.6025999999999
 21
1001.3087
  0
LINE
  8
_0-0_LAYER001
  6
CONTINUOUS
 62
    2
 10
1294.1030000000001
 20
994.63840000000005
 11
1292.6025
 21
1002.1175000000001
  0
LINE
  8
_0-0_LAYER001
  6
CONTINUOUS
 62
    2
 10
1292.6025999999999
 20
1013.6385
 11
1292.6025
 21
1002.1175000000001
  0
LINE
  8
_0-0_LAYER001
  6
CONTINUOUS
 62
    2
 10
1170.6029000000001
 20
1059.9301
 11
1170.6029000000001
 21
996.89560000000006
  0
LINE
  8
_0-0_LAYER001
  6
CONTINUOUS
 62
    2
 10
1170.0556999999999
 20
1059.6307999999999
 11
1177.5556999999999
 21
1046.6404
  0
LINE
  8
_0-0_LAYER001
  6
CONTINUOUS
 62
    2
 10
1145.2129
 20
832.89560000000006
 11
2100.5637999999999
 21
832.89560000000006
  0
ARC
  8
_0-0_LAYER001
  6
CONTINUOUS
 62
    4
 10
1329.1017999999999
 20
1227.5039999999999
 40
214.38050999999999
 50
231.7756
 51
268.38173
  0
ARC
  8
_0-0_LAYER001
  6
CONTINUOUS
 62
    4
 10
1383.5709999999999
 20
1044.0015000000001
 40
52.178303999999997
 50
215.53766999999999
 51
234.46232000000001
  0
ARC
  8
_0-0_LAYER001
  6
CONTINUOUS
 62
    4
 10
1357.2422000000001
 20
1006.2977000000001
 40
6.2695089999999993
 50
234.10575000000003
 51
303.29033000000004
  0
ARC
  8
_0-0_LAYER001
  6
CONTINUOUS
 62
    4
 10
1325.7815000000001
 20
1050.3036999999999
 40
58.841383
 50
213.2508
 51
234.31144
  0
ARC
  8
_0-0_LAYER001
  6
CONTINUOUS
 62
    4
 10
1295.9058
 20
1009.1464000000001
 40
7.947610000000001
 50
234.52014000000003
 51
301.23766000000001
  0
ARC
  8
_0-0_LAYER001
  6
CONTINUOUS
 62
    4
 10
1279.4042999999999
 20
1041.6157000000001
 40
44.132803000000003
 50
297.62160999999998
 51
318.23129999999998
  0
ARC
  8
_0-0_LAYER001
  6
CONTINUOUS
 62
    4
 10
1329.1017999999999
 20
1227.5039999999999
 40
199.38050999999999
 50
231.7756
 51
268.38173
  0
ARC
  8
_0-0_LAYER001
  6
CONTINUOUS
 62
    4
 10
1329.1017999999999
 20
1227.5039999999999
 40
199.38050999999999
 50
231.7756
 51
268.38173
  0
ARC
  8
_0-0_LAYER001
  6
CONTINUOUS
 62
    4
 10
1329.1017999999999
 20
1227.5039999999999
 40
197.38050999999999
 50
231.7756
 51
268.38173
  0
ARC
  8
_0-0_LAYER001
  6
CONTINUOUS
 62
    4
 10
1329.1017999999999
 20
1227.5039999999999
 40
182.38050999999999
 50
231.7756
 51
268.38173
  0
ARC
  8
_0-0_LAYER001
  6
CONTINUOUS
 62
    4
 10
1329.1017999999999
 20
1227.5039999999999
 40
214.38050999999999
 50
231.7756
 51
268.38173
  0
ARC
  8
_0-0_LAYER001
  6
CONTINUOUS
 62
    4
 10
1305.7131999999999
 20
1044.1187
 40
69.674484000000007
 50
321.65733
 51
337.34946000000002
  0
ARC
  8
_0-0_LAYER001
  6
CONTINUOUS
 62
    4
 10
1319.5581999999999
 20
1320.3912
 40
307.27562
 50
270.90795000000003
 51
293.21983
  0
ARC
  8
_0-0_LAYER001
  6
CONTINUOUS
 62
    4
 10
1319.5581999999999
 20
1320.3912
 40
275.27562
 50
270.90795000000003
 51
287.11988000000002
  0
ARC
  8
_0-0_LAYER001
  6
CONTINUOUS
 62
    4
 10
1319.5581999999999
 20
1320.3912
 40
292.27562
 50
270.90795000000003
 51
292.69346000000002
  0
LINE
  8
_0-0_LAYER001
  6
CONTINUOUS
 62
    4
 10
1432.3182999999999
 20
1053.1677
 11
1432.3182999999999
 21
1050.7429999999999
  0
LINE
  8
_0-0_LAYER001
  6
CONTINUOUS
 62
    4
 10
1440.7046
 20
1038.0053
 11
1440.7046
 21
1056.3126
  0
LINE
  8
_0-0_LAYER001
  6
CONTINUOUS
 62
    4
 10
1432.3182999999999
 20
1053.1677
 11
1440.7046
 21
1056.3126
  0
ARC
  8
_0-0_LAYER001
  6
CONTINUOUS
 62
    4
 10
1319.5581999999999
 20
1320.3912
 40
290.27562
 50
270.90795000000003
 51
286.23334
  0
LINE
  8
_0-0_LAYER001
  6
CONTINUOUS
 62
    4
 10
1400.7046
 20
1041.6886
 11
1400.7046
 21
1057.3477
  0
ARC
  8
_0-0_LAYER001
  6
CONTINUOUS
 62
    4
 10
1583.8564999999999
 20
1225.8657000000001
 40
214.38050999999999
 50
231.7756
 51
268.38173
  0
LINE
  8
_0-0_LAYER001
  6
CONTINUOUS
 62
    4
 10
1404.4648000000002
 20
1041.4603999999999
 11
1440.6547999999998
 21
1057.6167
  0
ARC
  8
_0-0_LAYER001
  6
CONTINUOUS
 62
    4
 10
1638.3256999999999
 20
1042.3632
 40
52.178303999999997
 50
215.53766999999999
 51
234.46232000000001
  0
ARC
  8
_0-0_LAYER001
  6
CONTINUOUS
 62
    4
 10
1611.9969000000001
 20
1004.6594
 40
6.2695089999999993
 50
234.10575000000003
 51
303.29033000000004
  0
ARC
  8
_0-0_LAYER001
  6
CONTINUOUS
 62
    4
 10
1580.5362
 20
1048.6654000000001
 40
58.841383
 50
213.2508
 51
234.31144
  0
ARC
  8
_0-0_LAYER001
  6
CONTINUOUS
 62
    4
 10
1550.6605
 20
1007.5081
 40
7.947610000000001
 50
234.52014000000003
 51
301.23766000000001
  0
ARC
  8
_0-0_LAYER001
  6
CONTINUOUS
 62
    4
 10
1534.1590000000001
 20
1039.9774
 40
44.132803000000003
 50
297.62160999999998
 51
318.23129999999998
  0
LINE
  8
_0-0_LAYER001
  6
CONTINUOUS
 62
    4
 10
1404.4648000000002
 20
1040.0406
 11
1400.4594
 21
1038.1585
  0
LINE
  8
_0-0_LAYER001
  6
CONTINUOUS
 62
    4
 10
1404.4648000000002
 20
1041.4603999999999
 11
1404.4648000000002
 21
1040.0406
  0
LINE
  8
_0-0_LAYER001
  6
CONTINUOUS
 62
    4
 10
1403.9393
 20
1058.2044000000001
 11
1400.5762999999999
 21
1056.8780999999999
  0
LINE
  8
_0-0_LAYER001
  6
CONTINUOUS
 62
    4
 10
1403.9393
 20
1059.693
 11
1403.9393
 21
1058.2044000000001
  0
ARC
  8
_0-0_LAYER001
  6
CONTINUOUS
 62
    4
 10
1583.8564999999999
 20
1225.8657000000001
 40
199.38050999999999
 50
231.7756
 51
268.38173
  0
ARC
  8
_0-0_LAYER001
  6
CONTINUOUS
 62
    4
 10
1583.8564999999999
 20
1225.8657000000001
 40
199.38050999999999
 50
231.7756
 51
268.38173
  0
ARC
  8
_0-0_LAYER001
  6
CONTINUOUS
 62
    4
 10
1583.8564999999999
 20
1225.8657000000001
 40
197.38050999999999
 50
231.7756
 51
268.38173
  0
LINE
  8
_0-0_LAYER001
  6
CONTINUOUS
 62
    4
 10
1404.1943000000001
 20
1059.9175
 11
1434.4742000000001
 21
1073.9648999999999
  0
LINE
  8
_0-0_LAYER001
  6
CONTINUOUS
 62
    4
 10
1435.7229000000002
 20
1072.404
 11
1401.0726
 21
1056.7958000000001
  0
ARC
  8
_0-0_LAYER001
  6
CONTINUOUS
 62
    4
 10
1583.8564999999999
 20
1225.8657000000001
 40
182.38050999999999
 50
231.7756
 51
268.38173
  0
LINE
  8
_0-0_LAYER001
  6
CONTINUOUS
 62
    4
 10
1400.4594
 20
1038.1585
 11
1400.4594
 21
1074.7203
  0
LINE
  8
_0-0_LAYER001
  6
CONTINUOUS
 62
    4
 10
1400.4594
 20
1074.7203
 11
1428.1617000000001
 21
1087.5718999999999
  0
ARC
  8
_0-0_LAYER001
  6
CONTINUOUS
 62
    4
 10
1583.8564999999999
 20
1225.8657000000001
 40
214.38050999999999
 50
231.7756
 51
268.38173
  0
ARC
  8
_0-0_LAYER001
  6
CONTINUOUS
 62
    4
 10
1445.2705000000001
 20
1048.4727
 40
27.732966999999999
 50
54.176177000000003
 51
112.93031000000001
  0
ARC
  8
_0-0_LAYER001
  6
CONTINUOUS
 62
    4
 10
1445.6183999999998
 20
1050.7461000000001
 40
40.679594999999999
 50
51.535313000000002
 51
115.27963000000001
  0
ARC
  8
_0-0_LAYER001
  6
CONTINUOUS
 62
    4
 10
1445.2570000000001
 20
1047.9748
 40
26.213477999999995
 50
54.56426900000001
 51
111.2666
  0
ARC
  8
_0-0_LAYER001
  6
CONTINUOUS
 62
    4
 10
1445.7678000000001
 20
1045.5134
 40
13.076713
 50
65.553432000000001
 51
112.83269999999999
  0
ARC
  8
_0-0_LAYER001
  6
CONTINUOUS
 62
    4
 10
1560.4679000000001
 20
1042.4803999999999
 40
69.674484000000007
 50
321.65733
 51
337.34946000000002
  0
ARC
  8
_0-0_LAYER001
  6
CONTINUOUS
 62
    4
 10
1574.3128999999999
 20
1318.7529
 40
307.27562
 50
270.90795000000003
 51
293.21983
  0
ARC
  8
_0-0_LAYER001
  6
CONTINUOUS
 62
    4
 10
1574.3128999999999
 20
1318.7529
 40
275.27562
 50
270.90795000000003
 51
287.11988000000002
  0
ARC
  8
_0-0_LAYER001
  6
CONTINUOUS
 62
    4
 10
1574.3128999999999
 20
1318.7529
 40
292.27562
 50
270.90795000000003
 51
292.69346000000002
  0
LINE
  8
_0-0_LAYER001
  6
CONTINUOUS
 62
    4
 10
1687.0731000000001
 20
1051.5293999999999
 11
1687.0731000000001
 21
1049.1047000000001
  0
LINE
  8
_0-0_LAYER001
  6
CONTINUOUS
 62
    4
 10
1695.4594000000002
 20
1036.367
 11
1695.4594000000002
 21
1054.6742999999999
  0
LINE
  8
_0-0_LAYER001
  6
CONTINUOUS
 62
    4
 10
1687.0731000000001
 20
1051.5293999999999
 11
1695.4594000000002
 21
1054.6742999999999
  0
ARC
  8
_0-0_LAYER001
  6
CONTINUOUS
 62
    4
 10
1574.3128999999999
 20
1318.7529
 40
290.27562
 50
270.90795000000003
 51
286.23334
  0
ARC
  8
_0-0_LAYER001
  6
CONTINUOUS
 62
    4
 10
1839.4304000000002
 20
1225.8657000000001
 40
214.38050999999999
 50
231.7756
 51
268.38173
  0
LINE
  8
_0-0_LAYER001
  6
CONTINUOUS
 62
    4
 10
1660.0387999999998
 20
1041.4603999999999
 11
1696.2287999999999
 21
1057.6167
  0
ARC
  8
_0-0_LAYER001
  6
CONTINUOUS
 62
    4
 10
1893.8996000000002
 20
1042.3632
 40
52.178303999999997
 50
215.53766999999999
 51
234.46232000000001
  0
ARC
  8
_0-0_LAYER001
  6
CONTINUOUS
 62
    4
 10
1867.5709000000002
 20
1004.6594
 40
6.2695089999999993
 50
234.10575000000003
 51
303.29033000000004
  0
ARC
  8
_0-0_LAYER001
  6
CONTINUOUS
 62
    4
 10
1836.1100999999999
 20
1048.6654000000001
 40
58.841383
 50
213.2508
 51
234.31144
  0
ARC
  8
_0-0_LAYER001
  6
CONTINUOUS
 62
    4
 10
1806.2345
 20
1007.5081
 40
7.947610000000001
 50
234.52014000000003
 51
301.23766000000001
  0
ARC
  8
_0-0_LAYER001
  6
CONTINUOUS
 62
    4
 10
1789.7330000000002
 20
1039.9774
 40
44.132803000000003
 50
297.62160999999998
 51
318.23129999999998
  0
LINE
  8
_0-0_LAYER001
  6
CONTINUOUS
 62
    4
 10
1660.0387999999998
 20
1040.0406
 11
1656.0333000000001
 21
1038.1585
  0
LINE
  8
_0-0_LAYER001
  6
CONTINUOUS
 62
    4
 10
1660.0387999999998
 20
1041.4603999999999
 11
1660.0387999999998
 21
1040.0406
  0
LINE
  8
_0-0_LAYER001
  6
CONTINUOUS
 62
    4
 10
1659.5131999999999
 20
1058.2044000000001
 11
1656.1502999999998
 21
1056.8780999999999
  0
LINE
  8
_0-0_LAYER001
  6
CONTINUOUS
 62
    4
 10
1659.5131999999999
 20
1059.693
 11
1659.5131999999999
 21
1058.2044000000001
  0
ARC
  8
_0-0_LAYER001
  6
CONTINUOUS
 62
    4
 10
1839.4304000000002
 20
1225.8657000000001
 40
199.38050999999999
 50
231.7756
 51
268.38173
  0
ARC
  8
_0-0_LAYER001
  6
CONTINUOUS
 62
    4
 10
1839.4304000000002
 20
1225.8657000000001
 40
199.38050999999999
 50
231.7756
 51
268.38173
  0
ARC
  8
_0-0_LAYER001
  6
CONTINUOUS
 62
    4
 10
1839.4304000000002
 20
1225.8657000000001
 40
197.38050999999999
 50
231.7756
 51
268.38173
  0
LINE
  8
_0-0_LAYER001
  6
CONTINUOUS
 62
    4
 10
1659.7682
 20
1059.9175
 11
1690.0482000000002
 21
1073.9648999999999
  0
LINE
  8
_0-0_LAYER001
  6
CONTINUOUS
 62
    4
 10
1691.2968000000001
 20
1072.404
 11
1656.6466
 21
1056.7958000000001
  0
ARC
  8
_0-0_LAYER001
  6
CONTINUOUS
 62
    4
 10
1839.4304000000002
 20
1225.8657000000001
 40
182.38050999999999
 50
231.7756
 51
268.38173
  0
LINE
  8
_0-0_LAYER001
  6
CONTINUOUS
 62
    4
 10
1656.0333000000001
 20
1038.1585
 11
1656.0333000000001
 21
1074.7203
  0
LINE
  8
_0-0_LAYER001
  6
CONTINUOUS
 62
    4
 10
1656.0333000000001
 20
1074.7203
 11
1683.7356
 21
1087.5718999999999
  0
ARC
  8
_0-0_LAYER001
  6
CONTINUOUS
 62
    4
 10
1839.4304000000002
 20
1225.8657000000001
 40
214.38050999999999
 50
231.7756
 51
268.38173
  0
ARC
  8
_0-0_LAYER001
  6
CONTINUOUS
 62
    4
 10
1700.8445000000002
 20
1048.4727
 40
27.732966999999999
 50
54.176177000000003
 51
112.93031000000001
  0
ARC
  8
_0-0_LAYER001
  6
CONTINUOUS
 62
    4
 10
1701.1923999999999
 20
1050.7461000000001
 40
40.679594999999999
 50
51.535313000000002
 51
115.27963000000001
  0
ARC
  8
_0-0_LAYER001
  6
CONTINUOUS
 62
    4
 10
1700.8308999999999
 20
1047.9748
 40
26.213477999999995
 50
54.56426900000001
 51
111.2666
  0
ARC
  8
_0-0_LAYER001
  6
CONTINUOUS
 62
    4
 10
1701.3416999999999
 20
1045.5134
 40
13.076713
 50
65.553432000000001
 51
112.83269999999999
  0
ARC
  8
_0-0_LAYER001
  6
CONTINUOUS
 62
    4
 10
1816.0419000000002
 20
1042.4803999999999
 40
69.674484000000007
 50
321.65733
 51
337.34946000000002
  0
ARC
  8
_0-0_LAYER001
  6
CONTINUOUS
 62
    4
 10
1829.8868000000002
 20
1318.7529
 40
307.27562
 50
270.90795000000003
 51
293.21983
  0
ARC
  8
_0-0_LAYER001
  6
CONTINUOUS
 62
    4
 10
1829.8868000000002
 20
1318.7529
 40
275.27562
 50
270.90795000000003
 51
287.11988000000002
  0
ARC
  8
_0-0_LAYER001
  6
CONTINUOUS
 62
    4
 10
1829.8868000000002
 20
1318.7529
 40
292.27562
 50
270.90795000000003
 51
292.69346000000002
  0
LINE
  8
_0-0_LAYER001
  6
CONTINUOUS
 62
    4
 10
1942.6469999999999
 20
1051.5293999999999
 11
1942.6469999999999
 21
1049.1047000000001
  0
LINE
  8
_0-0_LAYER001
  6
CONTINUOUS
 62
    4
 10
1951.0333000000001
 20
1036.367
 11
1951.0333000000001
 21
1054.6742999999999
  0
LINE
  8
_0-0_LAYER001
  6
CONTINUOUS
 62
    4
 10
1942.6469999999999
 20
1051.5293999999999
 11
1951.0333000000001
 21
1054.6742999999999
  0
ARC
  8
_0-0_LAYER001
  6
CONTINUOUS
 62
    4
 10
1829.8868000000002
 20
1318.7529
 40
290.27562
 50
270.90795000000003
 51
286.23334
  0
LINE
  8
_0-0_LAYER001
  6
CONTINUOUS
 62
    4
 10
1911.0333000000001
 20
1040.0503000000001
 11
1911.0333000000001
 21
1055.7094
  0
ARC
  8
_0-0_LAYER001
  6
CONTINUOUS
 62
    4
 10
2094.3173000000002
 20
1225.4693
 40
214.38050999999999
 50
231.7756
 51
268.38173
  0
LINE
  8
_0-0_LAYER001
  6
CONTINUOUS
 62
    4
 10
1914.9256999999998
 20
1041.0640000000001
 11
1951.1156999999998
 21
1057.2203
  0
ARC
  8
_0-0_LAYER001
  6
CONTINUOUS
 62
    4
 10
2090.9971
 20
1048.269
 40
58.841383
 50
213.2508
 51
234.31144
  0
ARC
  8
_0-0_LAYER001
  6
CONTINUOUS
 62
    4
 10
2061.1214
 20
1007.1116999999999
 40
7.947610000000001
 50
234.52014000000003
 51
301.23766000000001
  0
ARC
  8
_0-0_LAYER001
  6
CONTINUOUS
 62
    4
 10
2044.6199000000001
 20
1039.5809999999999
 40
44.132803000000003
 50
297.62160999999998
 51
318.23129999999998
  0
LINE
  8
_0-0_LAYER001
  6
CONTINUOUS
 62
    4
 10
1914.9256999999998
 20
1039.6442
 11
1910.9203000000002
 21
1037.7620999999999
  0
LINE
  8
_0-0_LAYER001
  6
CONTINUOUS
 62
    4
 10
1914.9256999999998
 20
1041.0640000000001
 11
1914.9256999999998
 21
1039.6442
  0
LINE
  8
_0-0_LAYER001
  6
CONTINUOUS
 62
    4
 10
1914.4000999999998
 20
1057.808
 11
1911.0372000000002
 21
1056.4818
  0
LINE
  8
_0-0_LAYER001
  6
CONTINUOUS
 62
    4
 10
1914.4000999999998
 20
1059.2967000000001
 11
1914.4000999999998
 21
1057.808
  0
ARC
  8
_0-0_LAYER001
  6
CONTINUOUS
 62
    4
 10
2094.3173000000002
 20
1225.4693
 40
199.38050999999999
 50
231.7756
 51
268.38173
  0
ARC
  8
_0-0_LAYER001
  6
CONTINUOUS
 62
    4
 10
2094.3173000000002
 20
1225.4693
 40
199.38050999999999
 50
231.7756
 51
268.38173
  0
ARC
  8
_0-0_LAYER001
  6
CONTINUOUS
 62
    4
 10
2094.3173000000002
 20
1225.4693
 40
197.38050999999999
 50
231.7756
 51
268.38173
  0
LINE
  8
_0-0_LAYER001
  6
CONTINUOUS
 62
    4
 10
1914.6550999999999
 20
1059.5210999999999
 11
1944.9351000000001
 21
1073.5685000000001
  0
LINE
  8
_0-0_LAYER001
  6
CONTINUOUS
 62
    4
 10
1946.1837
 20
1072.0077000000001
 11
1911.5335
 21
1056.3995
  0
ARC
  8
_0-0_LAYER001
  6
CONTINUOUS
 62
    4
 10
2094.3173000000002
 20
1225.4693
 40
182.38050999999999
 50
231.7756
 51
268.38173
  0
LINE
  8
_0-0_LAYER001
  6
CONTINUOUS
 62
    4
 10
1910.9203000000002
 20
1037.7620999999999
 11
1910.9203000000002
 21
1074.3240000000001
  0
LINE
  8
_0-0_LAYER001
  6
CONTINUOUS
 62
    4
 10
1910.9203000000002
 20
1074.3240000000001
 11
1938.6224999999999
 21
1087.1756
  0
ARC
  8
_0-0_LAYER001
  6
CONTINUOUS
 62
    4
 10
2094.3173000000002
 20
1225.4693
 40
214.38050999999999
 50
231.7756
 51
268.38173
  0
ARC
  8
_0-0_LAYER001
  6
CONTINUOUS
 62
    4
 10
1955.7314000000001
 20
1048.0762999999999
 40
27.732966999999999
 50
54.176177000000003
 51
112.93031000000001
  0
ARC
  8
_0-0_LAYER001
  6
CONTINUOUS
 62
    4
 10
1956.0792999999999
 20
1050.3497
 40
40.679594999999999
 50
51.535313000000002
 51
115.27963000000001
  0
ARC
  8
_0-0_LAYER001
  6
CONTINUOUS
 62
    4
 10
1955.7179000000001
 20
1047.5784000000001
 40
26.213477999999995
 50
54.56426900000001
 51
111.2666
  0
ARC
  8
_0-0_LAYER001
  6
CONTINUOUS
 62
    4
 10
1956.2287000000001
 20
1045.117
 40
13.076713
 50
65.553432000000001
 51
112.83269999999999
  0
ARC
  8
_0-0_LAYER001
  6
CONTINUOUS
 62
    4
 10
2084.7737000000002
 20
1318.3566000000001
 40
307.27562
 50
270.90795000000003
 51
272.94556
  0
ARC
  8
_0-0_LAYER001
  6
CONTINUOUS
 62
    4
 10
2084.7737000000002
 20
1318.3566000000001
 40
275.27562
 50
270.90795000000003
 51
273.28832999999997
  0
ARC
  8
_0-0_LAYER001
  6
CONTINUOUS
 62
    4
 10
2084.7737000000002
 20
1318.3566000000001
 40
292.27562
 50
270.90795000000003
 51
273.09687000000002
  0
ARC
  8
_0-0_LAYER001
  6
CONTINUOUS
 62
    4
 10
2084.7737000000002
 20
1318.3566000000001
 40
290.27562
 50
270.90795000000003
 51
273.11822999999998
  0
ARC
  8
_0-0_LAYER001
  6
CONTINUOUS
 62
    4
 10
1191.0130999999999
 20
1047.1516999999999
 40
13.076713
 50
65.553432000000001
 51
117.42375
  0
ARC
  8
_0-0_LAYER001
  6
CONTINUOUS
 62
    4
 10
1190.8637000000001
 20
1052.3843999999999
 40
40.679594999999999
 50
51.535313000000002
 51
98.827657000000002
  0
ARC
  8
_0-0_LAYER001
  6
CONTINUOUS
 62
    4
 10
1190.5157999999999
 20
1050.1110000000001
 40
27.732966999999999
 50
54.176177000000003
 51
102.20569
  0
ARC
  8
_0-0_LAYER001
  6
CONTINUOUS
 62
    4
 10
1190.5023000000001
 20
1049.6131
 40
26.213477999999995
 50
54.56426900000001
 51
102.77263000000001
  0
LINE
  8
_0-0_LAYER001
  6
CONTINUOUS
 62
    4
 10
1184.9903999999999
 20
1092.3701000000001
 11
1184.9903999999999
 21
1063.0791999999999
  0
LINE
  8
_0-0_LAYER001
  6
CONTINUOUS
 62
    4
 10
1184.9903999999999
 20
1063.0791999999999
 11
1184.9903999999999
 21
1058.7589
  0
LINE
  8
_0-0_LAYER001
  6
CONTINUOUS
 62
    4
 10
1184.54
 20
1058.6477
 11
1185.9001000000001
 21
1059.2550000000001
  0
LINE
  8
_0-0_LAYER001
  6
CONTINUOUS
 62
    2
 10
1400.6379999999999
 20
1234.1895
 11
1400.6379999999999
 21
1181.6895
  0
CIRCLE
  8
_0-0_LAYER001
  6
CONTINUOUS
 62
    2
 10
1400.6379999999999
 20
1231.6895
 40
1.6999999999999997
  0
LINE
  8
_0-0_LAYER001
  6
CONTINUOUS
 62
    2
 10
1400.6379999999999
 20
1231.6895
 11
1655.9209999999998
 21
1231.6895
  0
CIRCLE
  8
_0-0_LAYER001
  6
CONTINUOUS
 62
    2
 10
1655.9209999999998
 20
1231.6895
 40
1.6999999999999997
  0
LINE
  8
_0-0_LAYER001
  6
CONTINUOUS
 62
    2
 10
1655.9209999999998
 20
1234.1895
 11
1655.9209999999998
 21
1181.6895
  0
CIRCLE
  8
_0-0_LAYER001
  6
CONTINUOUS
 62
    2
 10
1655.9209999999998
 20
1231.6895
 40
1.6999999999999997
  0
LINE
  8
_0-0_LAYER001
  6
CONTINUOUS
 62
    2
 10
1655.9209999999998
 20
1231.6895
 11
1910.9209999999998
 21
1231.6895
  0
CIRCLE
  8
_0-0_LAYER001
  6
CONTINUOUS
 62
    2
 10
1910.9209999999998
 20
1231.6895
 40
1.6999999999999997
  0
LINE
  8
_0-0_LAYER001
  6
CONTINUOUS
 62
    2
 10
1910.9209999999998
 20
1234.1895
 11
1910.9209999999998
 21
1181.6895
  0
LINE
  8
_0-0_LAYER001
  6
CONTINUOUS
 62
    2
 10
1723.154
 20
706.83649999999989
 11
1927.9767000000002
 21
706.83649999999989
  0
LINE
  8
_0-0_LAYER001
  6
CONTINUOUS
 62
    2
 10
1643.4043000000001
 20
995.30880000000002
 11
1643.4043000000001
 21
1002.8088
  0
LINE
  8
_0-0_LAYER001
  6
CONTINUOUS
 62
    2
 10
1643.4043000000001
 20
1002.8088
 11
1647.1543000000001
 21
996.31359999999995
  0
LINE
  8
_0-0_LAYER001
  6
CONTINUOUS
 62
    2
 10
1643.4043000000001
 20
1002.8088
 11
1746.7793000000001
 21
617.00800000000004
  0
LINE
  8
_0-1_LAYER004
  6
CONTINUOUS
 62
   18
 10
1228.7366999999999
 20
1392.021
 11
1269.2366999999999
 21
1392.021
  0
LINE
  8
_0-1_LAYER004
  6
CONTINUOUS
 62
   18
 10
1269.2366999999999
 20
1392.021
 11
1228.7366999999999
 21
1392.021
  0
LINE
  8
_0-1_LAYER004
  6
CONTINUOUS
 62
   18
 10
1284.1486
 20
1348.9989
 11
1449.0808000000002
 21
1348.9989
  0
LINE
  8
_0-1_LAYER004
  6
CONTINUOUS
 62
   18
 10
869.4360999999999
 20
1344.0753
 11
1016.4360999999999
 21
1344.0753
  0
LINE
  8
_0-1_LAYER004
  6
CONTINUOUS
 62
   18
 10
1145.2129
 20
1437.2161000000001
 11
1145.2129
 21
767.38679999999999
  0
LINE
  8
_0-1_LAYER004
  6
CONTINUOUS
 62
   18
 10
944.56600000000003
 20
901.30500000000006
 11
1091.566
 21
901.30500000000006
  0
LINE
  8
_0-1_LAYER004
  6
CONTINUOUS
 62
   18
 10
1166.6029000000001
 20
810.16120000000001
 11
1166.6029000000001
 21
760.16120000000001
  0
LINE
  8
_0-1_LAYER004
  6
CONTINUOUS
 62
   18
 10
1166.6029000000001
 20
760.16120000000001
 11
1286.6029000000001
 21
760.16120000000001
  0
LINE
  8
_0-1_LAYER004
  6
CONTINUOUS
 62
   18
 10
1286.6029000000001
 20
757.66120000000001
 11
1286.6029000000001
 21
810.16120000000001
  0
LINE
  8
_0-1_LAYER004
  6
CONTINUOUS
 62
   18
 10
1286.6029000000001
 20
810.16120000000001
 11
1286.6029000000001
 21
760.16120000000001
  0
LINE
  8
_0-1_LAYER004
  6
CONTINUOUS
 62
   18
 10
1166.6029000000001
 20
757.66120000000001
 11
1166.6029000000001
 21
761.86120000000005
  0
LINE
  8
_0-1_LAYER004
  6
CONTINUOUS
 62
   18
 10
924.96710000000007
 20
1292.8955999999998
 11
977.46710000000007
 21
1292.8955999999998
  0
LINE
  8
_0-1_LAYER004
  6
CONTINUOUS
 62
   18
 10
927.46710000000007
 20
1291.1956
 11
927.46710000000007
 21
1292.8955999999998
  0
LINE
  8
_0-1_LAYER004
  6
CONTINUOUS
 62
   18
 10
927.46710000000007
 20
1291.1956
 11
927.46710000000007
 21
992.89560000000006
  0
LINE
  8
_0-1_LAYER004
  6
CONTINUOUS
 62
   18
 10
925.76710000000003
 20
992.89560000000006
 11
977.46710000000007
 21
992.89560000000006
  0
LINE
  8
_0-1_LAYER004
  6
CONTINUOUS
 62
   18
 10
1023.7501999999999
 20
992.89560000000006
 11
1076.2501999999999
 21
992.89560000000006
  0
LINE
  8
_0-1_LAYER004
  6
CONTINUOUS
 62
   18
 10
1026.2501999999999
 20
992.89560000000006
 11
1026.2501999999999
 21
1266.9697000000001
  0
LINE
  8
_0-1_LAYER004
  6
CONTINUOUS
 62
   18
 10
1024.5501999999999
 20
1266.9697000000001
 11
1076.2501999999999
 21
1266.9697000000001
  0
LINE
  8
_0-1_LAYER004
  6
CONTINUOUS
 62
   18
 10
1024.5501999999999
 20
1116.9697000000001
 11
1076.2501999999999
 21
1116.9697000000001
  0
LINE
  8
_0-1_LAYER004
  6
CONTINUOUS
 62
   18
 10
1024.5501999999999
 20
1059.9301
 11
1076.2501999999999
 21
1059.9301
  0
LINE
  8
_0-1_LAYER004
  6
CONTINUOUS
 62
   18
 10
1161.6029000000001
 20
942.89560000000006
 11
1161.6029000000001
 21
842.89560000000006
  0
LINE
  8
_0-1_LAYER004
  6
CONTINUOUS
 62
   18
 10
1161.6029000000001
 20
842.89560000000006
 11
2100.5637999999999
 21
842.89560000000006
  0
LINE
  8
_0-1_LAYER004
  6
CONTINUOUS
 62
   18
 10
2100.5637999999999
 20
832.89560000000006
 11
1145.2129
 21
832.89560000000006
  0
LINE
  8
_0-1_LAYER004
  6
CONTINUOUS
 62
   18
 10
1723.154
 20
706.83649999999989
 11
1927.9767000000002
 21
706.83649999999989
  0
LINE
  8
_0-1_LAYER004
  6
CONTINUOUS
 62
   18
 10
2100.5637999999999
 20
942.89560000000006
 11
1151.6029000000001
 21
942.89560000000006
  0
LINE
  8
_0-1_LAYER004
  6
CONTINUOUS
 62
   18
 10
1151.6029000000001
 20
942.89560000000006
 11
1151.6029000000001
 21
992.89560000000006
  0
LINE
  8
_0-1_LAYER004
  6
CONTINUOUS
 62
   18
 10
1151.6029000000001
 20
992.89560000000006
 11
2100.5637999999999
 21
992.89560000000006
  0
LINE
  8
_0-1_LAYER004
  6
CONTINUOUS
 62
   18
 10
2100.5637999999999
 20
1013.8956000000001
 11
1288.6030000000001
 21
1013.8956000000001
  0
LINE
  8
_0-1_LAYER004
  6
CONTINUOUS
 62
   18
 10
1288.6030000000001
 20
1013.8956000000001
 11
1288.6030000000001
 21
998.89560000000006
  0
LINE
  8
_0-1_LAYER004
  6
CONTINUOUS
 62
   18
 10
1288.6030000000001
 20
998.89560000000006
 11
2100.5637999999999
 21
998.89560000000006
  0
LINE
  8
_0-1_LAYER004
  6
CONTINUOUS
 62
   18
 10
1150.0179000000001
 20
992.89560000000006
 11
1150.0179000000001
 21
1439.2052000000001
  0
LINE
  8
_0-1_LAYER004
  6
CONTINUOUS
 62
   18
 10
1173.0179000000001
 20
1437.2161000000001
 11
1173.0179000000001
 21
1121.4503
  0
LINE
  8
_0-1_LAYER004
  6
CONTINUOUS
 62
   18
 10
1173.0179000000001
 20
1121.4503
 11
1185.0179000000001
 21
1121.4503
  0
LINE
  8
_0-1_LAYER004
  6
CONTINUOUS
 62
   18
 10
1185.0179000000001
 20
1121.4503
 11
1185.0179000000001
 21
1437.2161000000001
  0
LINE
  8
_0-1_LAYER004
  6
CONTINUOUS
 62
   18
 10
1152.3408999999999
 20
1292.8955999999998
 11
1152.3408999999999
 21
994.89560000000006
  0
LINE
  8
_0-0_LAYER001
  6
DASHED3
 62
    2
 10
2100.5637999999999
 20
994.89560000000006
 11
1152.3408999999999
 21
994.89560000000006
  0
LINE
  8
_0-1_LAYER004
  6
CONTINUOUS
 62
   18
 10
2100.5637999999999
 20
994.89560000000006
 11
1152.3408999999999
 21
994.89560000000006
  0
LINE
  8
_0-1_LAYER004
  6
CONTINUOUS
 62
   18
 10
1150.0179000000001
 20
992.89560000000006
 11
1151.6029000000001
 21
992.89560000000006
  0
LINE
  8
_0-1_LAYER004
  6
CONTINUOUS
 62
   18
 10
1168.3831
 20
996.02600000000007
 11
1153.3831
 21
996.02600000000007
  0
LINE
  8
_0-1_LAYER004
  6
CONTINUOUS
 62
   18
 10
1153.3831
 20
996.02600000000007
 11
1153.3831
 21
1059.9301
  0
LINE
  8
_0-1_LAYER004
  6
CONTINUOUS
 62
   18
 10
1153.3831
 20
1059.9301
 11
1152.3408999999999
 21
1059.9301
  0
LINE
  8
_0-1_LAYER004
  6
CONTINUOUS
 62
   18
 10
1153.3831
 20
1059.9301
 11
1182.3408999999999
 21
1059.9301
  0
LINE
  8
_0-1_LAYER004
  6
CONTINUOUS
 62
   18
 10
1182.3408999999999
 20
1059.9301
 11
1182.3408999999999
 21
1094.6403
  0
LINE
  8
_0-1_LAYER004
  6
CONTINUOUS
 62
   18
 10
1182.3408999999999
 20
1094.6403
 11
1182.3408999999999
 21
1085.9302
  0
LINE
  8
_0-1_LAYER004
  6
CONTINUOUS
 62
   18
 10
1176.3409999999999
 20
1082.9301
 11
1176.3409999999999
 21
1076.9302
  0
LINE
  8
_0-1_LAYER004
  6
CONTINUOUS
 62
   18
 10
1176.3409999999999
 20
1076.9302
 11
1109.3409999999999
 21
1076.9302
  0
LINE
  8
_0-1_LAYER004
  6
CONTINUOUS
 62
   18
 10
1109.3409999999999
 20
1082.9301
 11
1176.3409999999999
 21
1082.9301
  0
LINE
  8
_0-1_LAYER004
  6
CONTINUOUS
 62
   18
 10
1170.6029000000001
 20
1058.6830204159996
 11
1170.6029000000001
 21
996.89560000000006
  0
LINE
  8
_0-1_LAYER004
  6
CONTINUOUS
 62
   18
 10
1170.6029000000001
 20
996.89560000000006
 11
1286.6029000000001
 21
996.89560000000006
  0
LINE
  8
_0-1_LAYER004
  6
CONTINUOUS
 62
   18
 10
1286.6029000000001
 20
1006.4021549771571
 11
1286.6029000000001
 21
996.89560000000006
  0
LINE
  8
_0-1_LAYER004
  6
CONTINUOUS
 62
   18
 10
1286.6029000000001
 20
1006.4021549771571
 11
1286.6029000000001
 21
1014.6385
  0
LINE
  8
_0-1_LAYER004
  6
CONTINUOUS
 62
   18
 10
1286.6029000000001
 20
1014.6385
 11
1271.4517272299336
 21
1014.6385
  0
LINE
  8
_0-1_LAYER004
  6
CONTINUOUS
 62
   18
 10
1168.3831
 20
1059.9301
 11
1168.3831
 21
996.02600000000007
  0
LINE
  8
_0-1_LAYER004
  6
CONTINUOUS
 62
   18
 10
1400.6379999999999
 20
1233.3895
 11
1400.6379999999999
 21
1181.6895
  0
LINE
  8
_0-1_LAYER004
  6
CONTINUOUS
 62
   18
 10
1400.6379999999999
 20
1231.6895
 11
1910.9209999999998
 21
1231.6895
  0
LINE
  8
_0-1_LAYER004
  6
CONTINUOUS
 62
   18
 10
1910.9209999999998
 20
1233.3895
 11
1910.9209999999998
 21
1181.6895
  0
LINE
  8
_0-1_LAYER004
  6
CONTINUOUS
 62
   18
 10
1910.9209999999998
 20
1181.6895
 11
1910.9209999999998
 21
1231.6895
  0
LINE
  8
_0-1_LAYER004
  6
CONTINUOUS
 62
   18
 10
1655.9209999999998
 20
1233.3895
 11
1655.9209999999998
 21
1181.6895
  0
LINE
  8
_0-1_LAYER004
  6
CONTINUOUS
 62
   18
 10
1200.5454
 20
1465.4919
 11
1178.3527999999999
 21
1382.6677
  0
LINE
  8
_0-1_LAYER004
  6
CONTINUOUS
 62
   18
 10
1178.3527999999999
 20
1382.6677
 11
1178.3527999999999
 21
1390.1677
  0
LINE
  8
_0-1_LAYER004
  6
CONTINUOUS
 62
   18
 10
1178.3527999999999
 20
1382.6677
 11
1182.1027999999999
 21
1389.1629
  0
LINE
  8
_0-1_LAYER004
  6
CONTINUOUS
 62
   18
 10
1228.7366999999999
 20
1392.021
 11
1169.9308000000001
 21
1172.5544
  0
LINE
  8
_0-1_LAYER004
  6
CONTINUOUS
 62
   18
 10
1169.9308000000001
 20
1172.5544
 11
1173.6808000000001
 21
1179.0496000000001
  0
LINE
  8
_0-1_LAYER004
  6
CONTINUOUS
 62
   18
 10
1169.9308000000001
 20
1172.5544
 11
1169.9308000000001
 21
1180.0544
  0
LINE
  8
_0-1_LAYER004
  6
CONTINUOUS
 62
   18
 10
1155.0179000000001
 20
1182.0047
 11
1173.0179000000001
 21
1182.0047
  0
LINE
  8
_0-1_LAYER004
  6
CONTINUOUS
 62
   18
 10
1155.0179000000001
 20
1182.0047
 11
1155.0179000000001
 21
1142.0047
  0
LINE
  8
_0-1_LAYER004
  6
CONTINUOUS
 62
   18
 10
1155.0179000000001
 20
1142.0047
 11
1173.0179000000001
 21
1142.0047
  0
LINE
  8
_0-1_LAYER004
  6
CONTINUOUS
 62
   18
 10
1173.0179000000001
 20
1142.0047
 11
1155.0179000000001
 21
1182.0047
  0
LINE
  8
_0-1_LAYER004
  6
CONTINUOUS
 62
   18
 10
1153.6029000000001
 20
1266.9697000000001
 11
1153.6029000000001
 21
1116.9697000000001
  0
LINE
  8
_0-1_LAYER004
  6
CONTINUOUS
 62
   18
 10
1153.6029000000001
 20
1116.9697000000001
 11
1272.4353000000001
 21
1096.0164
  0
LINE
  8
_0-1_LAYER004
  6
CONTINUOUS
 62
   18
 10
1272.4353000000001
 20
1096.0164
 11
1275.0216
 21
1071.877
  0
LINE
  8
_0-1_LAYER004
  6
CONTINUOUS
 62
   18
 10
1275.0216
 20
1071.877
 11
1269.7411999999999
 21
1077.4774
  0
LINE
  8
_0-1_LAYER004
  6
CONTINUOUS
 62
   18
 10
1258.3504
 20
1096.4691
 11
1255.7456999999999
 21
1081.6969999999999
  0
LINE
  8
_0-1_LAYER004
  6
CONTINUOUS
 62
   18
 10
1255.7456999999999
 20
1081.6969999999999
 11
1152.3408999999999
 21
1099.9301
  0
LINE
  8
_0-1_LAYER004
  6
CONTINUOUS
 62
   18
 10
1152.3408999999999
 20
1099.9301
 11
1154.9456
 21
1114.7021999999999
  0
LINE
  8
_0-1_LAYER004
  6
CONTINUOUS
 62
   18
 10
1154.9456
 20
1114.7021999999999
 11
1258.3504
 21
1096.4691
  0
LINE
  8
_0-1_LAYER004
  6
CONTINUOUS
 62
   18
 10
1258.3504
 20
1096.4691
 11
1152.3408999999999
 21
1099.9301
  0
LINE
  8
_0-1_LAYER004
  6
CONTINUOUS
 62
   18
 10
1164.3934085316728
 20
1113.0362924431086
 11
1166.6768999999999
 21
1111.0137
  0
LINE
  8
_0-1_LAYER004
  6
CONTINUOUS
 62
   18
 10
1170.3268
 20
1110.3714
 11
1173.1628000000001
 21
1111.49
  0
LINE
  8
_0-1_LAYER004
  6
CONTINUOUS
 62
   18
 10
1170.3268
 20
1110.3714
 11
1165.2828626410972
 21
1082.9301
  0
LINE
  8
_0-1_LAYER004
  6
CONTINUOUS
 62
   18
 10
1165.2828626410972
 20
1082.9301
 11
1162.1954000000001
 21
1075.5391
  0
LINE
  8
_0-1_LAYER004
  6
CONTINUOUS
 62
   18
 10
1162.1954000000001
 20
1075.5391
 11
1161.9870000000001
 21
1084.4218000000001
  0
LINE
  8
_0-1_LAYER004
  6
CONTINUOUS
 62
   18
 10
1161.9870000000001
 20
1084.4218000000001
 11
1166.6768999999999
 21
1111.0137
  0
LINE
  8
_0-1_LAYER004
  6
CONTINUOUS
 62
   18
 10
1216.4803999999999
 20
1103.8519284276938
 11
1216.4803999999999
 21
1096.4576
  0
LINE
  8
_0-1_LAYER004
  6
CONTINUOUS
 62
   18
 10
1216.4803999999999
 20
1096.4576
 11
1220.2303999999999
 21
1102.9528
  0
LINE
  8
_0-1_LAYER004
  6
CONTINUOUS
 62
   18
 10
1247.5514000000001
 20
1108.0368000000001
 11
1247.5514000000001
 21
1100.5368000000001
  0
LINE
  8
_0-1_LAYER004
  6
CONTINUOUS
 62
   18
 10
1247.5514000000001
 20
1100.5368000000001
 11
1251.3014000000001
 21
1107.0319999999999
  0
LINE
  8
_0-1_LAYER004
  6
CONTINUOUS
 62
   18
 10
1216.4803999999999
 20
1096.4576
 11
1284.1486
 21
1348.9989
  0
LINE
  8
_0-1_LAYER004
  6
CONTINUOUS
 62
   18
 10
1304.4040999999997
 20
1312.7138
 11
1247.5514000000001
 21
1100.5368000000001
  0
LINE
  8
_0-1_LAYER004
  6
CONTINUOUS
 62
   18
 10
1275.0179000000001
 20
1189.5183
 11
1275.0179000000001
 21
1254.3018
  0
LINE
  8
_0-1_LAYER004
  6
CONTINUOUS
 62
   18
 10
1275.0179000000001
 20
1251.8018
 11
1185.0179000000001
 21
1251.8018
  0
LINE
  8
_0-1_LAYER004
  6
CONTINUOUS
 62
   18
 10
1016.4360999999999
 20
1344.0753
 11
1162.9368999999999
 21
1090.3286000000001
  0
LINE
  8
_0-1_LAYER004
  6
CONTINUOUS
 62
   18
 10
1162.9368999999999
 20
1090.3286000000001
 11
1160.9956999999999
 21
1097.5731000000001
  0
LINE
  8
_0-1_LAYER004
  6
CONTINUOUS
 62
   18
 10
1162.9368999999999
 20
1090.3286000000001
 11
1157.6335999999999
 21
1095.6319000000001
  0
LINE
  8
_0-1_LAYER004
  6
CONTINUOUS
 62
   18
 10
1165.2828626410972
 20
1082.9301
 11
1165.6370999999999
 21
1083.7781
  0
LINE
  8
_0-1_LAYER004
  6
CONTINUOUS
 62
   18
 10
1165.6370999999999
 20
1083.7781
 11
1170.3268
 21
1110.3714
  0
LINE
  8
_0-1_LAYER004
  6
CONTINUOUS
 62
   18
 10
1178.837
 20
1095.2582
 11
1152.3408999999999
 21
1059.9301
  0
LINE
  8
_0-1_LAYER004
  6
CONTINUOUS
 62
   18
 10
1182.3408999999999
 20
1073.9300000000001
 11
1176.3409999999999
 21
1076.9302
  0
LINE
  8
_0-1_LAYER004
  6
CONTINUOUS
 62
   18
 10
1182.3408999999999
 20
1085.9302
 11
1176.3409999999999
 21
1082.9301
  0
LINE
  8
_0-1_LAYER004
  6
CONTINUOUS
 62
   18
 10
1109.3409999999999
 20
1082.9301
 11
1104.3408999999999
 21
1079.9301
  0
LINE
  8
_0-1_LAYER004
  6
CONTINUOUS
 62
   18
 10
1104.3408999999999
 20
1079.9301
 11
1109.3409999999999
 21
1076.9302
  0
LINE
  8
_0-1_LAYER004
  6
CONTINUOUS
 62
   18
 10
1168.3831
 20
1059.9301
 11
1153.3831
 21
996.02600000000007
  0
LINE
  8
_0-1_LAYER004
  6
CONTINUOUS
 62
   18
 10
1170.6029000000001
 20
1058.6830204159996
 11
1170.6029000000001
 21
1059.9301
  0
LINE
  8
_0-1_LAYER004
  6
CONTINUOUS
 62
   18
 10
1170.6029000000001
 20
1059.9301
 11
1177.5556999999999
 21
1046.6404
  0
LINE
  8
_0-1_LAYER004
  6
CONTINUOUS
 62
   18
 10
1154.2170000000001
 20
1013.702
 11
1159.5202999999999
 21
1019.0053
  0
LINE
  8
_0-1_LAYER004
  6
CONTINUOUS
 62
   18
 10
1159.5202999999999
 20
1019.0053
 11
1157.5790999999999
 21
1011.7608
  0
LINE
  8
_0-1_LAYER004
  6
CONTINUOUS
 62
   18
 10
1159.5202999999999
 20
1019.0053
 11
1091.566
 21
901.30500000000006
  0
LINE
  8
_0-1_LAYER004
  6
CONTINUOUS
 62
   18
 10
1269.0175999999999
 20
998.84850000000006
 11
1269.0175999999999
 21
991.34850000000006
  0
LINE
  8
_0-1_LAYER004
  6
CONTINUOUS
 62
   18
 10
1269.0175999999999
 20
998.84850000000006
 11
1272.4545563209188
 21
992.89560000000006
  0
LINE
  8
_0-1_LAYER004
  6
CONTINUOUS
 62
   18
 10
1269.0175999999999
 20
998.84850000000006
 11
1334.3403000000001
 21
755.0610999999999
  0
LINE
  8
_0-1_LAYER004
  6
CONTINUOUS
 62
   18
 10
1361.297
 20
992.89560000000006
 11
1311.2969000000001
 21
942.89560000000006
  0
LINE
  8
_0-1_LAYER004
  6
CONTINUOUS
 62
   18
 10
1315.5396000000001
 20
942.89560000000006
 11
1365.5396000000001
 21
992.89560000000006
  0
LINE
  8
_0-1_LAYER004
  6
CONTINUOUS
 62
   18
 10
1573.4288999999999
 20
992.89560000000006
 11
1523.4290999999998
 21
942.89560000000006
  0
LINE
  8
_0-1_LAYER004
  6
CONTINUOUS
 62
   18
 10
1527.6716999999999
 20
942.89560000000006
 11
1577.6714999999999
 21
992.89560000000006
  0
LINE
  8
_0-1_LAYER004
  6
CONTINUOUS
 62
   18
 10
1643.4043000000001
 20
1002.8088
 11
1643.4043000000001
 21
995.30880000000002
  0
LINE
  8
_0-1_LAYER004
  6
CONTINUOUS
 62
   18
 10
1643.4043000000001
 20
1002.8088
 11
1647.1543000000001
 21
996.31359999999995
  0
LINE
  8
_0-1_LAYER004
  6
CONTINUOUS
 62
   18
 10
1643.4043000000001
 20
1002.8088
 11
1746.7793000000001
 21
617.00800000000004
  0
LINE
  8
_0-1_LAYER004
  6
CONTINUOUS
 62
   18
 10
1785.5610000000001
 20
992.89560000000006
 11
1735.5612000000001
 21
942.89560000000006
  0
LINE
  8
_0-1_LAYER004
  6
CONTINUOUS
 62
   18
 10
1739.8038000000001
 20
942.89560000000006
 11
1789.8036999999999
 21
992.89560000000006
  0
LINE
  8
_0-1_LAYER004
  6
CONTINUOUS
 62
   18
 10
1997.6931
 20
992.89560000000006
 11
1947.6932999999999
 21
942.89560000000006
  0
LINE
  8
_0-1_LAYER004
  6
CONTINUOUS
 62
   18
 10
1951.9360000000001
 20
942.89560000000006
 11
2001.9358000000002
 21
992.89560000000006
  0
TEXT
  8
_0-0_LAYER001
 62
    7
 10
1007.7953028644015
 20
1067.2591564644763
 40
20
 41
1
 50
90
  1
水切り立上がり寸法
  0
TEXT
  8
_0-0_LAYER001
 62
    7
 10
907.11689015495745
 20
1060.0678412709444
 40
20
 41
1
 50
90
  1
下葺き材立上がり寸法
  0
TEXT
  8
_0-0_LAYER001
 62
    7
 10
1227.8495477864715
 20
1398.0596553669347
 40
20
 41
1
 50
0
  1
胴　縁
  0
TEXT
  8
_0-0_LAYER001
 62
    7
 10
1306.2381771281171
 20
1318.1427343078246
 40
20
 41
1
 50
0
  1
雨押水切カラー鋼板0.35ｍｍ以上
  0
TEXT
  8
_0-0_LAYER001
 62
    7
 10
1219.4110060189166
 20
1264.5141874462597
 40
20
 41
1
 50
0
  1
90
  0
TEXT
  8
_0-0_LAYER001
 62
    7
 10
1525.8598452278591
 20
1246.6380051590713
 40
20
 41
1
 50
0
  1
255
  0
TEXT
  8
_0-0_LAYER001
 62
    7
 10
1753.1427343078246
 20
1251.7454858125539
 40
20
 41
1
 50
0
  1
255
  0
TEXT
  8
_0-0_LAYER001
 62
    7
 10
1055.9716251074806
 20
1172.579535683577
 40
20
 41
1
 50
90
  1
150
  0
TEXT
  8
_0-0_LAYER001
 62
    7
 10
1055.9716251074806
 20
1083.1986242476355
 40
20
 41
1
 50
90
  1
57
  0
TEXT
  8
_0-0_LAYER001
 62
    7
 10
1058.5253654342218
 20
1009.140154772141
 40
20
 41
1
 50
90
  1
65
  0
TEXT
  8
_0-0_LAYER001
 62
    7
 10
951.26827171109198
 20
1118.9509888220121
 40
20
 41
1
 50
90
  1
300
  0
TEXT
  8
_0-0_LAYER001
 62
    7
 10
1336.8830610490113
 20
761.42734307824583
 40
20
 41
1
 50
0
  1
捨谷カラー鋼板0.35ｍｍ以上
  0
TEXT
  8
_0-0_LAYER001
 62
    7
 10
1730.159071367154
 20
715.46001719690457
 40
20
 41
1
 50
0
  1
瓦桟：１５ｘ３０以上
  0
TEXT
  8
_0-0_LAYER001
 62
    7
 10
1732.7128116938952
 20
682.26139294926907
 40
20
 41
1
 50
0
  1
下葺材：ルーフィング
  0
TEXT
  8
_0-0_LAYER001
 62
    7
 10
1748.9916609548643
 20
618.42784735678651
 40
20
 41
1
 50
0
  1
鋼製：C－100x50x20x2.3　
  0
TEXT
  8
_0-0_LAYER001
 62
    7
 10
1742.4827779374227
 20
650.97226244399531
 40
20
 41
1
 50
0
  1
野地板：ＡＬＣｔ＝５０
  0
LINE
  8
_0-0_LAYER001
  6
CONTINUOUS
 62
    2
 10
1334.3403000000001
 20
755.0610999999999
 11
1604.1690138167849
 21
755.0610999999999
  0
LINE
  8
_0-1_LAYER004
  6
CONTINUOUS
 62
   18
 10
1334.3403000000001
 20
755.0610999999999
 11
1600.9145723080637
 21
755.0610999999999
  0
LINE
  8
_0-0_LAYER001
  6
CONTINUOUS
 62
    2
 10
1746.7793000000001
 20
617.00800000000004
 11
1973.5481250566056
 21
617.00800000000004
  0
LINE
  8
_0-1_LAYER004
  6
CONTINUOUS
 62
   18
 10
1746.7793000000001
 20
617.00800000000004
 11
1968.6664627935243
 21
617.00800000000004
  0
LINE
  8
_0-0_LAYER001
  6
CONTINUOUS
 62
    2
 10
1730.0630000000001
 20
676.96990000000005
 11
1955.6486967586407
 21
676.96990000000005
  0
LINE
  8
_0-1_LAYER004
  6
CONTINUOUS
 62
   18
 10
1730.7125593076532
 20
676.96990000000005
 11
1939.3764892150364
 21
676.96990000000005
  0
LINE
  8
_0-0_LAYER001
  6
CONTINUOUS
 62
    2
 10
1739.6061
 20
646.8746000000001
 11
1965.4120212848034
 21
646.8746000000001
  0
LINE
  8
_0-1_LAYER004
  6
CONTINUOUS
 62
   18
 10
1739.6061
 20
646.8746000000001
 11
1968.6664627935243
 21
646.8746000000001
  0
LINE
  8
_0-0_LAYER001
  6
CONTINUOUS
 62
    2
 10
1304.4040999999997
 20
1312.7138
 11
1617.1867798516682
 21
1312.7138
  0
LINE
  8
_0-1_LAYER004
  6
CONTINUOUS
 62
   18
 10
1304.4040999999997
 20
1312.7138
 11
1615.5595590973078
 21
1312.7138
  0
LINE
  8
_0-0_LAYER001
  6
CONTINUOUS
 62
    2
 10
1200.5454
 20
1465.4919
 11
1425.1747308371359
 21
1465.4919
  0
LINE
  8
_0-1_LAYER004
  6
CONTINUOUS
 62
   18
 10
1200.5454
 20
1465.4919
 11
1420.2930685740546
 21
1465.4919
  0
TEXT
  8
_0-0_LAYER001
 62
    7
 10
1288.4881874708585
 20
1357.186069836428
 40
20
 41
1
 50
0
  1
笠木：15x105
  0
TEXT
  8
_0-0_LAYER001
 62
    7
 10
1200.6182667353946
 20
1472.7187433960196
 40
20
 41
1
 50
0
  1
外壁　防火サイディング
  0
TEXT
  8
_0-0_LAYER001
 62
    7
 10
878.42855737202649
 20
1349.049966064626
 40
20
 41
1
 50
0
  1
下地材：40x30
  0
TEXT
  8
_0-0_LAYER001
 62
    7
 10
951.65349131824655
 20
906.44592087858518
 40
20
 41
1
 50
0
  1
下地：15x145
  0
TEXT
  8
_0-0_LAYER001
 62
    7
 10
1213.636032770278
 20
768.13215675794731
 40
20
 41
1
 50
0
  1
120
  0
ENDSEC
  0
EOF
