  0
SECTION
  2
HEADER
  9
$ACADVER
  1
AC1009
  9
$INSBASE
 10
0
 20
0
 30
0
  9
$EXTMIN
 10
0
 20
0
  9
$EXTMAX
 10
2970
 20
2100
  9
$LIMMIN
 10
0
 20
0
  9
$LIMMAX
 10
2970
 20
2100
  9
$LTSCALE
 40
10
  0
ENDSEC
  0
SECTION
  2
TABLES
  0
TABLE
  2
LTYPE
 70
     9
  0
LTYPE
  2
CONTINUOUS
 70
    64
  3
実線
 72
    65
 73
     0
 40
0.0
  0
LTYPE
  2
DASHED1
 70
    64
  3
--  --  --  --  --  --  --  --  
 72
    65
 73
     2
 40
2.5
 49
1.25
 49
-1.25
  0
LTYPE
  2
DASHED2
 70
    64
  3
----    ----    ----    ----    
 72
    65
 73
     2
 40
5.0
 49
2.5
 49
-2.5
  0
LTYPE
  2
DASHED3
 70
    64
  3
------  ------  ------  ------  
 72
    65
 73
     2
 40
5.0
 49
3.75
 49
-1.25
  0
LTYPE
  2
CENTER1
 70
    64
  3
----- - ----- - ----- - ----- - 
 72
    65
 73
     4
 40
10.0
 49
6.25
 49
-1.25
 49
1.25
 49
-1.25
  0
LTYPE
  2
CENTER2
 70
    64
  3
----------  --  ----------  --  
 72
    65
 73
     4
 40
20.0
 49
12.5
 49
-2.5
 49
2.5
 49
-2.5
  0
LTYPE
  2
PHANTOM1
 70
    64
  3
--- - - --- - - --- - - --- - - 
 72
    65
 73
     6
 40
10.0
 49
3.25
 49
-1.25
 49
1.25
 49
-1.25
 49
1.25
 49
-1.25
  0
LTYPE
  2
PHANTOM2
 70
    64
  3
--------  -  -  --------  -  -  
 72
    65
 73
     6
 40
20.0
 49
10.0
 49
-2.5
 49
1.25
 49
-2.5
 49
1.25
 49
-2.5
  0
LTYPE
  2
DOT
 70
    64
  3
-   -   -   -   -   -   -   -   
 72
    65
 73
     2
 40
2.5
 49
0.625
 49
-1.875
  0
LTYPE
  2
DUMMY
 70
    64
  3
ダミー
 72
    65
 73
     0
 40
0.0
  0
LTYPE
  2
RAND1
 70
    64
  3
ランダム線1
 72
    65
 73
     4
 40
10.0
 49
1.0
 49
-2.0
 49
3.0
 49
-4.0
  0
LTYPE
  2
RAND2
 70
    64
  3
ランダム線2
 72
    65
 73
     4
 40
14.0
 49
2.0
 49
-3.0
 49
4.0
 49
-5.0
  0
LTYPE
  2
RAND3
 70
    64
  3
ランダム線3
 72
    65
 73
     4
 40
18.0
 49
3.0
 49
-4.0
 49
5.0
 49
-6.0
  0
LTYPE
  2
RAND4
 70
    64
  3
ランダム線4
 72
    65
 73
     4
 40
22.0
 49
4.0
 49
-5.0
 49
6.0
 49
-7.0
  0
LTYPE
  2
RAND5
 70
    64
  3
ランダム線5
 72
    65
 73
     4
 40
26.0
 49
5.0
 49
-6.0
 49
7.0
 49
-8.0
  0
LTYPE
  2
LONG1
 70
    64
  3
----------  --  ----------  --  
 72
    65
 73
     4
 40
40.0
 49
32.5
 49
-2.5
 49
2.5
 49
-2.5
  0
LTYPE
  2
LONG2
 70
    64
  3
--------  -  -  --------  -  -  
 72
    65
 73
     6
 40
40.0
 49
30.0
 49
-2.5
 49
1.25
 49
-2.5
 49
1.25
 49
-2.5
  0
LTYPE
  2
LONG3
 70
    64
  3
+++++++++++++++..+++++++++++++++
 72
    65
 73
     2
 40
40.0
 49
37.5
 49
-2.5
  0
LTYPE
  2
LONG4
 70
    64
  3
+++++++++++++++..+++++++++++++++
 72
    65
 73
     2
 40
80.0
 49
75.0
 49
-5.0
  0
LTYPE
  2
LONG5
 70
    64
  3
----------  --  ----------  --  
 72
    65
 73
     4
 40
60.0
 49
37.5
 49
-7.5
 49
7.5
 49
-7.5
  0
LTYPE
  2
dashed
 70
   64
  3
-------   -------------   ------
 72
   65
 73
    2
 40
7.5
 49
6
 49
-1.5
  0
LTYPE
  2
dashed_spaced
 70
   64
  3
----        --------        ----
 72
   65
 73
    2
 40
12
 49
6
 49
-6
  0
LTYPE
  2
long_dashed_dotted
 70
   64
  3
------------- --- --------------
 72
   65
 73
    4
 40
15.25
 49
12
 49
-1.5
 49
0.25
 49
-1.5
  0
LTYPE
  2
long_dashed_double-dotted
 70
   64
  3
----------- --- --- ------------
 72
   65
 73
    6
 40
17
 49
12
 49
-1.5
 49
0.25
 49
-1.5
 49
0.25
 49
-1.5
  0
LTYPE
  2
long_dashed_triplicate-dotted
 70
   64
  3
--------- --- --- --- ----------
 72
   65
 73
    8
 40
18.75
 49
12
 49
-1.5
 49
0.25
 49
-1.5
 49
0.25
 49
-1.5
 49
0.25
 49
-1.5
  0
LTYPE
  2
dotted
 70
   64
  3
   -       -       -       -    
 72
   65
 73
    2
 40
1.75
 49
0.25
 49
-1.5
  0
LTYPE
  2
chain
 70
   64
  3
-------------- -- --------------
 72
   65
 73
    4
 40
18.5
 49
12
 49
-1.5
 49
3.5
 49
-1.5
  0
LTYPE
  2
chain_double_dash
 70
   64
  3
------------ -- -- -------------
 72
   65
 73
    6
 40
23.5
 49
12
 49
-1.5
 49
3.5
 49
-1.5
 49
3.5
 49
-1.5
  0
LTYPE
  2
dashed_dotted
 70
   64
  3
-----------     -     ----------
 72
   65
 73
    4
 40
9.25
 49
6
 49
-1.5
 49
0.25
 49
-1.5
  0
LTYPE
  2
double-dashed_dotted
 70
   64
  3
------   -----------   -   -----
 72
   65
 73
    6
 40
16.75
 49
6
 49
-1.5
 49
6
 49
-1.5
 49
0.25
 49
-1.5
  0
LTYPE
  2
dashed_double-dotted
 70
   64
  3
---------    -    -    ---------
 72
   65
 73
    6
 40
11
 49
6
 49
-1.5
 49
0.25
 49
-1.5
 49
0.25
 49
-1.5
  0
LTYPE
  2
double-dashed_double-dotted
 70
   64
  3
-----   ---------   -   -   ----
 72
   65
 73
    8
 40
18.5
 49
6
 49
-1.5
 49
6
 49
-1.5
 49
0.25
 49
-1.5
 49
0.25
 49
-1.5
  0
LTYPE
  2
dashed_triplicate-dotted
 70
   64
  3
-------    -    -    -    ------
 72
   65
 73
    8
 40
12.75
 49
6
 49
-1.5
 49
0.25
 49
-1.5
 49
0.25
 49
-1.5
 49
0.25
 49
-1.5
  0
LTYPE
  2
double-dashed_triplicate-dotted
 70
   64
  3
-----  ---------  -  -  -  -----
 72
   65
 73
   10
 40
20.25
 49
6
 49
-1.5
 49
6
 49
-1.5
 49
0.25
 49
-1.5
 49
0.25
 49
-1.5
 49
0.25
 49
-1.5
  0
LTYPE
  2
undefined
 70
   64
  3
--------------------------------
 72
   65
 73
    0
 40
0
  0
ENDTAB
  0
TABLE
  2
STYLE
  5
3
100
AcDbSymbolTable
 70
     1
  0
STYLE
  5
10
100
AcDbSymbolTableRecord
100
AcDbTextStyleTableRecord
  2
STANDARD
 70
     0
 40
0.0
 41
1.0
 50
0.0
 71
     0
 42
0.2
  3
txt
  4
bigfont.shx
  0
STYLE
  5
26
100
AcDbSymbolTableRecord
100
AcDbTextStyleTableRecord
  2
TATEGAKI
 70
    68
 40
0.0
 41
1.0
 50
0.0
 71
     0
 42
1.0
  3
txt
  4
bigfont.shx
  0
ENDTAB
  0
TABLE
  2
LAYER
 70
    4
  0
LAYER
  2
_0-0_LAYER001
 70
   64
 62
    7
  6
CONTINUOUS
  0
LAYER
  2
_0-1_LAYER004
 70
   64
 62
    7
  6
CONTINUOUS
  0
LAYER
  2
_0-2_LAYER006
 70
   64
 62
    7
  6
CONTINUOUS
  0
LAYER
  2
ADD_LINE
 70
   64
 62
    7
  6
CONTINUOUS
  0
ENDTAB
  0
ENDSEC
  0
SECTION
  2
BLOCKS
  0
ENDSEC
  0
SECTION
  2
ENTITIES
  0
CIRCLE
  8
_0-0_LAYER001
  6
CONTINUOUS
 62
    2
 10
1805.1945000000001
 20
1035.3266000000001
 40
0.8999999999999999
  0
CIRCLE
  8
_0-0_LAYER001
  6
CONTINUOUS
 62
    2
 10
1813.7100999999998
 20
1032.1727000000001
 40
0.8999999999999999
  0
CIRCLE
  8
_0-0_LAYER001
  6
CONTINUOUS
 62
    2
 10
1795.4171999999999
 20
1027.4418000000001
 40
0.8999999999999999
  0
CIRCLE
  8
_0-0_LAYER001
  6
CONTINUOUS
 62
    2
 10
1779.3321000000001
 20
1032.4881
 40
0.8999999999999999
  0
CIRCLE
  8
_0-0_LAYER001
  6
CONTINUOUS
 62
    2
 10
1808.2330000000002
 20
1019.3959
 40
0.8999999999999999
  0
CIRCLE
  8
_0-0_LAYER001
  6
CONTINUOUS
 62
    2
 10
1792.1669000000002
 20
1039.8436999999999
 40
0.8999999999999999
  0
CIRCLE
  8
_0-0_LAYER001
  6
CONTINUOUS
 62
    2
 10
1778.6567
 20
1040.5739000000001
 40
0.8999999999999999
  0
CIRCLE
  8
_0-0_LAYER001
  6
CONTINUOUS
 62
    2
 10
1785.5944
 20
1021.5867000000001
 40
0.8999999999999999
  0
LINE
  8
_0-0_LAYER001
  6
CONTINUOUS
 62
    2
 10
1463.4083000000001
 20
992.63190000000009
 11
1463.4083000000001
 21
985.13190000000009
  0
LINE
  8
_0-0_LAYER001
  6
CONTINUOUS
 62
    2
 10
1463.4083000000001
 20
985.13190000000009
 11
1459.6583000000001
 21
991.62709999999993
  0
LINE
  8
_0-0_LAYER001
  6
CONTINUOUS
 62
    2
 10
1463.4083000000001
 20
985.13190000000009
 11
1436.3119000000002
 21
1086.2573
  0
LINE
  8
_0-0_LAYER001
  6
CONTINUOUS
 62
    2
 10
1436.3119000000002
 20
1086.2573
 11
1395.8118999999999
 21
1086.2573
  0
LINE
  8
_0-0_LAYER001
  6
CONTINUOUS
 62
    2
 10
1844.5762
 20
1131.0735
 11
1840.8262
 21
1124.5782999999999
  0
LINE
  8
_0-0_LAYER001
  6
CONTINUOUS
 62
    2
 10
1840.8262
 20
1124.5782999999999
 11
1840.8262
 21
1132.0782999999999
  0
LINE
  8
_0-0_LAYER001
  6
CONTINUOUS
 62
    2
 10
1840.8262
 20
1124.5782999999999
 11
1892.7649000000001
 21
1318.4161999999997
  0
LINE
  8
_0-0_LAYER001
  6
CONTINUOUS
 62
    2
 10
1892.7649000000001
 20
1318.4161999999997
 11
2039.7649000000001
 21
1318.4161999999997
  0
LINE
  8
_0-0_LAYER001
  6
CONTINUOUS
 62
    2
 10
1853.8679999999999
 20
948.82899999999995
 11
903.32220000000007
 21
948.82899999999995
  0
LINE
  8
_0-0_LAYER001
  6
CONTINUOUS
 62
    2
 10
903.32220000000007
 20
969.82899999999995
 11
1715.2829999999999
 21
969.82899999999995
  0
LINE
  8
_0-0_LAYER001
  6
CONTINUOUS
 62
    2
 10
1717.2829999999999
 20
739.0945999999999
 11
1717.2829999999999
 21
791.5945999999999
  0
CIRCLE
  8
_0-0_LAYER001
  6
CONTINUOUS
 62
    2
 10
1717.2829999999999
 20
741.5945999999999
 40
1.6999999999999997
  0
LINE
  8
_0-0_LAYER001
  6
CONTINUOUS
 62
    2
 10
1717.2829999999999
 20
741.5945999999999
 11
1837.2829999999999
 21
741.5945999999999
  0
CIRCLE
  8
_0-0_LAYER001
  6
CONTINUOUS
 62
    2
 10
1837.2829999999999
 20
741.5945999999999
 40
1.6999999999999997
  0
LINE
  8
_0-0_LAYER001
  6
CONTINUOUS
 62
    2
 10
1837.2829999999999
 20
739.0945999999999
 11
1837.2829999999999
 21
791.5945999999999
  0
LINE
  8
_0-0_LAYER001
  6
CONTINUOUS
 62
    2
 10
1825.3485999999998
 20
1333.3906999999999
 11
1825.3485999999998
 21
1325.8906999999999
  0
LINE
  8
_0-0_LAYER001
  6
CONTINUOUS
 62
    2
 10
1825.3485999999998
 20
1325.8906999999999
 11
1821.5985999999998
 21
1332.3858999999998
  0
LINE
  8
_0-0_LAYER001
  6
CONTINUOUS
 62
    2
 10
1825.3485999999998
 20
1325.8906999999999
 11
1801.9303
 21
1413.2891999999997
  0
LINE
  8
_0-0_LAYER001
  6
CONTINUOUS
 62
    2
 10
1848.4364999999998
 20
976.30199999999991
 11
1846.4953999999998
 21
983.54639999999995
  0
LINE
  8
_0-0_LAYER001
  6
CONTINUOUS
 62
    2
 10
1846.4953999999998
 20
983.54639999999995
 11
1851.7986999999998
 21
978.24309999999991
  0
LINE
  8
_0-0_LAYER001
  6
CONTINUOUS
 62
    2
 10
1846.4953999999998
 20
983.54639999999995
 11
1914.4497000000001
 21
865.84619999999995
  0
LINE
  8
_0-0_LAYER001
  6
CONTINUOUS
 62
    2
 10
1914.4497000000001
 20
865.84619999999995
 11
2061.4497000000001
 21
865.84619999999995
  0
LINE
  8
_0-0_LAYER001
  6
CONTINUOUS
 62
    2
 10
2048.2415000000001
 20
948.82899999999995
 11
1995.7415000000001
 21
948.82899999999995
  0
CIRCLE
  8
_0-0_LAYER001
  6
CONTINUOUS
 62
    2
 10
2045.7415000000001
 20
948.82899999999995
 40
1.6999999999999997
  0
LINE
  8
_0-0_LAYER001
  6
CONTINUOUS
 62
    2
 10
2045.7415000000001
 20
948.82899999999995
 11
2045.7415000000001
 21
1248.829
  0
CIRCLE
  8
_0-0_LAYER001
  6
CONTINUOUS
 62
    2
 10
2045.7415000000001
 20
1248.829
 40
1.6999999999999997
  0
LINE
  8
_0-0_LAYER001
  6
CONTINUOUS
 62
    2
 10
2048.2415000000001
 20
1248.829
 11
1995.7415000000001
 21
1248.829
  0
LINE
  8
_0-0_LAYER001
  6
CONTINUOUS
 62
    1
 10
1852.2829999999999
 20
928.82899999999995
 11
903.32220000000007
 21
928.82899999999995
  0
LINE
  8
_0-0_LAYER001
  6
CONTINUOUS
 62
    1
 10
1852.2829999999999
 20
933.82899999999995
 11
903.32220000000007
 21
933.82899999999995
  0
LINE
  8
_0-0_LAYER001
  6
CONTINUOUS
 62
    1
 10
1852.2829999999999
 20
938.82899999999995
 11
903.32220000000007
 21
938.82899999999995
  0
LINE
  8
_0-0_LAYER001
  6
CONTINUOUS
 62
    1
 10
1852.2829999999999
 20
943.82899999999995
 11
903.32220000000007
 21
943.82899999999995
  0
LINE
  8
_0-0_LAYER001
  6
DASHED1
 62
    2
 10
1900.2829999999999
 20
1098.829
 11
1895.2829999999999
 21
1101.8289
  0
LINE
  8
_0-0_LAYER001
  6
DASHED1
 62
    2
 10
1895.2829999999999
 20
1095.829
 11
1900.2829999999999
 21
1098.829
  0
LINE
  8
_0-0_LAYER001
  6
CONTINUOUS
 62
    2
 10
1828.2829000000002
 20
1095.829
 11
1828.2829000000002
 21
1101.8289
  0
LINE
  8
_0-0_LAYER001
  6
CONTINUOUS
 62
    2
 10
1822.2829999999999
 20
1092.8289
 11
1822.2829999999999
 21
1104.829
  0
LINE
  8
_0-0_LAYER001
  6
CONTINUOUS
 62
    2
 10
1831.1698999999999
 20
1095.829
 11
1834.6329999999998
 21
1101.8289
  0
LINE
  8
_0-0_LAYER001
  6
CONTINUOUS
 62
    2
 10
1822.2829999999999
 20
1092.8289
 11
1828.2829000000002
 21
1095.829
  0
LINE
  8
_0-0_LAYER001
  6
CONTINUOUS
 62
    2
 10
1828.2829000000002
 20
1101.8289
 11
1822.2829999999999
 21
1104.829
  0
LINE
  8
_0-0_LAYER001
  6
DASHED1
 62
    2
 10
1895.2829999999999
 20
1101.8289
 11
1853.8679999999999
 21
1101.8289
  0
LINE
  8
_0-0_LAYER001
  6
DASHED1
 62
    2
 10
1895.2829999999999
 20
1095.829
 11
1853.8679999999999
 21
1095.829
  0
LINE
  8
_0-0_LAYER001
  6
CONTINUOUS
 62
    2
 10
1822.2829999999999
 20
1078.829
 11
1852.2829999999999
 21
1078.829
  0
LINE
  8
_0-0_LAYER001
  6
CONTINUOUS
 62
    2
 10
1852.2829999999999
 20
1101.8289
 11
1828.2829000000002
 21
1101.8289
  0
LINE
  8
_0-0_LAYER001
  6
CONTINUOUS
 62
    2
 10
1852.2829999999999
 20
1095.829
 11
1828.2829000000002
 21
1095.829
  0
LINE
  8
_0-0_LAYER001
  6
CONTINUOUS
 62
    2
 10
1836.8930999999998
 20
1095.829
 11
1840.3562000000002
 21
1101.8289
  0
LINE
  8
_0-0_LAYER001
  6
CONTINUOUS
 62
    2
 10
1842.6161999999999
 20
1095.829
 11
1846.0792999999999
 21
1101.8289
  0
LINE
  8
_0-0_LAYER001
  6
CONTINUOUS
 62
    2
 10
1848.3393999999998
 20
1095.829
 11
1851.8024
 21
1101.8289
  0
LINE
  8
_0-0_LAYER001
  6
CONTINUOUS
 62
    2
 10
1822.2829999999999
 20
1078.829
 11
1822.2829999999999
 21
1113.5391
  0
LINE
  8
_0-0_LAYER001
  6
CONTINUOUS
 62
    2
 10
1852.2829999999999
 20
1078.829
 11
1825.7869999999998
 21
1114.1569999999999
  0
LINE
  8
_0-0_LAYER001
  6
CONTINUOUS
 62
    2
 10
1831.4612000000002
 20
1130.3888999999999
 11
1840.2305999999999
 21
1131.9350999999999
  0
LINE
  8
_0-0_LAYER001
  6
CONTINUOUS
 62
    2
 10
1838.9868000000001
 20
1102.6768999999999
 11
1842.4286000000002
 21
1094.4380000000001
  0
LINE
  8
_0-0_LAYER001
  6
CONTINUOUS
 62
    2
 10
1837.9470999999999
 20
1129.9126000000001
 11
1842.6369
 21
1103.3207
  0
LINE
  8
_0-0_LAYER001
  6
CONTINUOUS
 62
    2
 10
1842.4286000000002
 20
1094.4380000000001
 11
1842.6369
 21
1103.3207
  0
LINE
  8
_0-0_LAYER001
  6
CONTINUOUS
 62
    2
 10
1834.2970999999998
 20
1129.2702999999999
 11
1831.4612000000002
 21
1130.3888999999999
  0
LINE
  8
_0-0_LAYER001
  6
CONTINUOUS
 62
    2
 10
1837.9470999999999
 20
1129.9126000000001
 11
1840.2305999999999
 21
1131.9350999999999
  0
LINE
  8
_0-0_LAYER001
  6
CONTINUOUS
 62
    2
 10
1834.2970999999998
 20
1129.2702999999999
 11
1838.9868000000001
 21
1102.6768999999999
  0
LINE
  8
_0-0_LAYER001
  6
CONTINUOUS
 62
    3
 10
1817.2721999999999
 20
1107.4502
 11
1817.2831000000001
 21
1106.9846
  0
LINE
  8
_0-0_LAYER001
  6
CONTINUOUS
 62
    3
 10
1817.2831000000001
 20
1106.9846
 11
1817.3128999999999
 21
1105.7207000000001
  0
LINE
  8
_0-0_LAYER001
  6
CONTINUOUS
 62
    3
 10
1817.3128999999999
 20
1105.7207000000001
 11
1817.3568
 21
1103.8580999999999
  0
LINE
  8
_0-0_LAYER001
  6
CONTINUOUS
 62
    3
 10
1817.3568
 20
1103.8580999999999
 11
1817.4101000000001
 21
1101.5962999999999
  0
LINE
  8
_0-0_LAYER001
  6
CONTINUOUS
 62
    3
 10
1817.4101000000001
 20
1101.5962999999999
 11
1817.4681
 21
1099.135
  0
LINE
  8
_0-0_LAYER001
  6
CONTINUOUS
 62
    3
 10
1817.4681
 20
1099.135
 11
1817.5261
 21
1096.6737000000001
  0
LINE
  8
_0-0_LAYER001
  6
CONTINUOUS
 62
    3
 10
1817.5261
 20
1096.6737000000001
 11
1817.5794000000001
 21
1094.412
  0
LINE
  8
_0-0_LAYER001
  6
CONTINUOUS
 62
    3
 10
1817.5794000000001
 20
1094.412
 11
1817.6233000000002
 21
1092.5494000000001
  0
LINE
  8
_0-0_LAYER001
  6
CONTINUOUS
 62
    3
 10
1817.6233000000002
 20
1092.5494000000001
 11
1817.6531
 21
1091.2855
  0
LINE
  8
_0-0_LAYER001
  6
CONTINUOUS
 62
    3
 10
1817.6531
 20
1091.2855
 11
1817.6641
 21
1090.8199
  0
LINE
  8
_0-0_LAYER001
  6
CONTINUOUS
 62
    3
 10
1817.6641
 20
1090.8199
 11
1816.5164
 21
1090.8126999999999
  0
LINE
  8
_0-0_LAYER001
  6
CONTINUOUS
 62
    3
 10
1816.5164
 20
1090.8126999999999
 11
1813.145
 21
1090.6377
  0
LINE
  8
_0-0_LAYER001
  6
CONTINUOUS
 62
    3
 10
1813.145
 20
1090.6377
 11
1807.6570999999999
 21
1090.0643
  0
LINE
  8
_0-0_LAYER001
  6
CONTINUOUS
 62
    3
 10
1807.6570999999999
 20
1090.0643
 11
1800.1597999999999
 21
1088.8622
  0
LINE
  8
_0-0_LAYER001
  6
CONTINUOUS
 62
    3
 10
1800.1597999999999
 20
1088.8622
 11
1790.7602999999999
 21
1086.8009
  0
LINE
  8
_0-0_LAYER001
  6
CONTINUOUS
 62
    3
 10
1790.7602999999999
 20
1086.8009
 11
1779.5659999999998
 21
1083.6498999999999
  0
LINE
  8
_0-0_LAYER001
  6
CONTINUOUS
 62
    3
 10
1779.5659999999998
 20
1083.6498999999999
 11
1766.6840999999999
 21
1079.1789000000001
  0
LINE
  8
_0-0_LAYER001
  6
CONTINUOUS
 62
    3
 10
1766.6840999999999
 20
1079.1789000000001
 11
1752.2217000000001
 21
1073.1575
  0
LINE
  8
_0-0_LAYER001
  6
CONTINUOUS
 62
    3
 10
1752.2217000000001
 20
1073.1575
 11
1736.2860999999998
 21
1065.3551
  0
LINE
  8
_0-0_LAYER001
  6
CONTINUOUS
 62
    3
 10
1736.2860999999998
 20
1065.3551
 11
1718.9845
 21
1055.5415
  0
LINE
  8
_0-0_LAYER001
  6
CONTINUOUS
 62
    3
 10
1718.9845
 20
1055.5415
 11
1718.9666999999999
 21
1056.2992999999999
  0
LINE
  8
_0-0_LAYER001
  6
CONTINUOUS
 62
    3
 10
1718.9666999999999
 20
1056.2992999999999
 11
1718.9182000000001
 21
1058.3562999999999
  0
LINE
  8
_0-0_LAYER001
  6
CONTINUOUS
 62
    3
 10
1718.9182000000001
 20
1058.3562999999999
 11
1718.8467000000001
 21
1061.3876
  0
LINE
  8
_0-0_LAYER001
  6
CONTINUOUS
 62
    3
 10
1718.8467000000001
 20
1061.3876
 11
1718.7600000000002
 21
1065.0685000000001
  0
LINE
  8
_0-0_LAYER001
  6
CONTINUOUS
 62
    3
 10
1718.7600000000002
 20
1065.0685000000001
 11
1718.6655999999998
 21
1069.0742
  0
LINE
  8
_0-0_LAYER001
  6
CONTINUOUS
 62
    3
 10
1718.6655999999998
 20
1069.0742
 11
1718.5711999999999
 21
1073.0798
  0
LINE
  8
_0-0_LAYER001
  6
CONTINUOUS
 62
    3
 10
1718.5711999999999
 20
1073.0798
 11
1718.4843999999998
 21
1076.7607
  0
LINE
  8
_0-0_LAYER001
  6
CONTINUOUS
 62
    3
 10
1718.4843999999998
 20
1076.7607
 11
1718.413
 21
1079.7920999999999
  0
LINE
  8
_0-0_LAYER001
  6
CONTINUOUS
 62
    3
 10
1718.413
 20
1079.7920999999999
 11
1718.3645000000001
 21
1081.8489999999999
  0
LINE
  8
_0-0_LAYER001
  6
CONTINUOUS
 62
    3
 10
1718.3645000000001
 20
1081.8489999999999
 11
1718.3467000000001
 21
1082.6069
  0
LINE
  8
_0-0_LAYER001
  6
CONTINUOUS
 62
    3
 10
1718.3467000000001
 20
1082.6069
 11
1719.9994999999999
 21
1083.2320999999999
  0
LINE
  8
_0-0_LAYER001
  6
CONTINUOUS
 62
    3
 10
1719.9994999999999
 20
1083.2320999999999
 11
1724.663
 21
1084.9404
  0
LINE
  8
_0-0_LAYER001
  6
CONTINUOUS
 62
    3
 10
1724.663
 20
1084.9404
 11
1731.8948
 21
1087.4804999999999
  0
LINE
  8
_0-0_LAYER001
  6
CONTINUOUS
 62
    3
 10
1731.8948
 20
1087.4804999999999
 11
1741.2527
 21
1090.6012000000001
  0
LINE
  8
_0-0_LAYER001
  6
CONTINUOUS
 62
    3
 10
1741.2527
 20
1090.6012000000001
 11
1752.2941000000001
 21
1094.0512000000001
  0
LINE
  8
_0-0_LAYER001
  6
CONTINUOUS
 62
    3
 10
1752.2941000000001
 20
1094.0512000000001
 11
1764.5767000000001
 21
1097.5795000000001
  0
LINE
  8
_0-0_LAYER001
  6
CONTINUOUS
 62
    3
 10
1764.5767000000001
 20
1097.5795000000001
 11
1777.6581999999999
 21
1100.9348
  0
LINE
  8
_0-0_LAYER001
  6
CONTINUOUS
 62
    3
 10
1777.6581999999999
 20
1100.9348
 11
1791.0962
 21
1103.8658
  0
LINE
  8
_0-0_LAYER001
  6
CONTINUOUS
 62
    3
 10
1791.0962
 20
1103.8658
 11
1804.4483
 21
1106.1213
  0
LINE
  8
_0-0_LAYER001
  6
CONTINUOUS
 62
    3
 10
1817.2721999999999
 20
1107.4502
 11
1804.3364000000001
 21
1106.1024
  0
LINE
  8
_0-0_LAYER001
  6
CONTINUOUS
 62
    3
 10
1802.0396000000001
 20
1073.1806999999999
 11
1802.0504999999998
 21
1072.7150999999999
  0
LINE
  8
_0-0_LAYER001
  6
CONTINUOUS
 62
    3
 10
1802.0504999999998
 20
1072.7150999999999
 11
1802.0803000000001
 21
1071.4512
  0
LINE
  8
_0-0_LAYER001
  6
CONTINUOUS
 62
    3
 10
1802.0803000000001
 20
1071.4512
 11
1802.1242000000002
 21
1069.5886
  0
LINE
  8
_0-0_LAYER001
  6
CONTINUOUS
 62
    3
 10
1802.1242000000002
 20
1069.5886
 11
1802.1774999999998
 21
1067.3268
  0
LINE
  8
_0-0_LAYER001
  6
CONTINUOUS
 62
    3
 10
1802.1774999999998
 20
1067.3268
 11
1802.2354999999998
 21
1064.8656000000001
  0
LINE
  8
_0-0_LAYER001
  6
CONTINUOUS
 62
    3
 10
1802.2354999999998
 20
1064.8656000000001
 11
1802.2935000000002
 21
1062.4042999999999
  0
LINE
  8
_0-0_LAYER001
  6
CONTINUOUS
 62
    3
 10
1802.2935000000002
 20
1062.4042999999999
 11
1802.3467999999998
 21
1060.1424999999999
  0
LINE
  8
_0-0_LAYER001
  6
CONTINUOUS
 62
    3
 10
1802.3467999999998
 20
1060.1424999999999
 11
1802.3906999999999
 21
1058.2799
  0
LINE
  8
_0-0_LAYER001
  6
CONTINUOUS
 62
    3
 10
1802.3906999999999
 20
1058.2799
 11
1802.4205000000002
 21
1057.0160000000001
  0
LINE
  8
_0-0_LAYER001
  6
CONTINUOUS
 62
    3
 10
1802.4205000000002
 20
1057.0160000000001
 11
1802.4315000000001
 21
1056.5504000000001
  0
LINE
  8
_0-0_LAYER001
  6
CONTINUOUS
 62
    3
 10
1802.4315000000001
 20
1056.5504000000001
 11
1801.2838999999999
 21
1056.5432000000001
  0
LINE
  8
_0-0_LAYER001
  6
CONTINUOUS
 62
    3
 10
1801.2838999999999
 20
1056.5432000000001
 11
1797.9124000000002
 21
1056.3681999999999
  0
LINE
  8
_0-0_LAYER001
  6
CONTINUOUS
 62
    3
 10
1797.9124000000002
 20
1056.3681999999999
 11
1792.4245000000001
 21
1055.7947999999999
  0
LINE
  8
_0-0_LAYER001
  6
CONTINUOUS
 62
    3
 10
1792.4245000000001
 20
1055.7947999999999
 11
1784.9272000000001
 21
1054.5926999999999
  0
LINE
  8
_0-0_LAYER001
  6
CONTINUOUS
 62
    3
 10
1784.9272000000001
 20
1054.5926999999999
 11
1775.5277999999998
 21
1052.5314000000001
  0
LINE
  8
_0-0_LAYER001
  6
CONTINUOUS
 62
    3
 10
1775.5277999999998
 20
1052.5314000000001
 11
1764.3335000000002
 21
1049.3804
  0
LINE
  8
_0-0_LAYER001
  6
CONTINUOUS
 62
    3
 10
1764.3335000000002
 20
1049.3804
 11
1751.4515000000001
 21
1044.9095
  0
LINE
  8
_0-0_LAYER001
  6
CONTINUOUS
 62
    3
 10
1751.4515000000001
 20
1044.9095
 11
1736.9890999999998
 21
1038.8879999999999
  0
LINE
  8
_0-0_LAYER001
  6
CONTINUOUS
 62
    3
 10
1736.9890999999998
 20
1038.8879999999999
 11
1721.0535
 21
1031.0857000000001
  0
LINE
  8
_0-0_LAYER001
  6
CONTINUOUS
 62
    3
 10
1721.0535
 20
1031.0857000000001
 11
1703.7519000000002
 21
1021.2719999999999
  0
LINE
  8
_0-0_LAYER001
  6
CONTINUOUS
 62
    3
 10
1703.7519000000002
 20
1021.2719999999999
 11
1703.7341000000001
 21
1022.0298
  0
LINE
  8
_0-0_LAYER001
  6
CONTINUOUS
 62
    3
 10
1703.7341000000001
 20
1022.0298
 11
1703.6855999999998
 21
1024.0868
  0
LINE
  8
_0-0_LAYER001
  6
CONTINUOUS
 62
    3
 10
1703.6855999999998
 20
1024.0868
 11
1703.6142
 21
1027.1180999999999
  0
LINE
  8
_0-0_LAYER001
  6
CONTINUOUS
 62
    3
 10
1703.6142
 20
1027.1180999999999
 11
1703.5273999999999
 21
1030.799
  0
LINE
  8
_0-0_LAYER001
  6
CONTINUOUS
 62
    3
 10
1703.5273999999999
 20
1030.799
 11
1703.433
 21
1034.8046999999999
  0
LINE
  8
_0-0_LAYER001
  6
CONTINUOUS
 62
    3
 10
1703.433
 20
1034.8046999999999
 11
1703.3386
 21
1038.8104000000001
  0
LINE
  8
_0-0_LAYER001
  6
CONTINUOUS
 62
    3
 10
1703.3386
 20
1038.8104000000001
 11
1703.2519000000002
 21
1042.4912999999999
  0
LINE
  8
_0-0_LAYER001
  6
CONTINUOUS
 62
    3
 10
1703.2519000000002
 20
1042.4912999999999
 11
1703.1804000000002
 21
1045.5226
  0
LINE
  8
_0-0_LAYER001
  6
CONTINUOUS
 62
    3
 10
1703.1804000000002
 20
1045.5226
 11
1703.1318999999999
 21
1047.5796
  0
LINE
  8
_0-0_LAYER001
  6
CONTINUOUS
 62
    3
 10
1703.1318999999999
 20
1047.5796
 11
1703.1140999999998
 21
1048.3373999999999
  0
LINE
  8
_0-0_LAYER001
  6
CONTINUOUS
 62
    3
 10
1703.1140999999998
 20
1048.3373999999999
 11
1704.7669000000001
 21
1048.9626000000001
  0
LINE
  8
_0-0_LAYER001
  6
CONTINUOUS
 62
    3
 10
1704.7669000000001
 20
1048.9626000000001
 11
1709.4304000000002
 21
1050.6709000000001
  0
LINE
  8
_0-0_LAYER001
  6
CONTINUOUS
 62
    3
 10
1709.4304000000002
 20
1050.6709000000001
 11
1716.6623
 21
1053.211
  0
LINE
  8
_0-0_LAYER001
  6
CONTINUOUS
 62
    3
 10
1716.6623
 20
1053.211
 11
1726.0201000000002
 21
1056.3317
  0
LINE
  8
_0-0_LAYER001
  6
CONTINUOUS
 62
    3
 10
1726.0201000000002
 20
1056.3317
 11
1737.0614999999998
 21
1059.7818
  0
LINE
  8
_0-0_LAYER001
  6
CONTINUOUS
 62
    3
 10
1737.0614999999998
 20
1059.7818
 11
1749.3440999999998
 21
1063.3099999999999
  0
LINE
  8
_0-0_LAYER001
  6
CONTINUOUS
 62
    3
 10
1749.3440999999998
 20
1063.3099999999999
 11
1762.4256
 21
1066.6652999999999
  0
LINE
  8
_0-0_LAYER001
  6
CONTINUOUS
 62
    3
 10
1762.4256
 20
1066.6652999999999
 11
1775.8636000000001
 21
1069.5962999999999
  0
LINE
  8
_0-0_LAYER001
  6
CONTINUOUS
 62
    3
 10
1775.8636000000001
 20
1069.5962999999999
 11
1789.2157000000002
 21
1071.8517999999999
  0
LINE
  8
_0-0_LAYER001
  6
CONTINUOUS
 62
    3
 10
1802.0396000000001
 20
1073.1806999999999
 11
1789.1037999999999
 21
1071.8329000000001
  0
LINE
  8
_0-0_LAYER001
  6
CONTINUOUS
 62
    2
 10
1752.2217000000001
 20
1073.1575
 11
1750.7968000000001
 21
1063.5829000000001
  0
LINE
  8
_0-0_LAYER001
  6
CONTINUOUS
 62
    2
 10
1850.2156
 20
952.9507000000001
 11
1835.2156
 21
952.9507000000001
  0
LINE
  8
_0-0_LAYER001
  6
CONTINUOUS
 62
    2
 10
1835.2156
 20
952.9507000000001
 11
1835.2156
 21
1078.829
  0
LINE
  8
_0-0_LAYER001
  6
CONTINUOUS
 62
    2
 10
1850.2156
 20
1078.829
 11
1850.2156
 21
952.9507000000001
  0
LINE
  8
_0-0_LAYER001
  6
CONTINUOUS
 62
    2
 10
1835.2156
 20
1078.829
 11
1850.2156
 21
952.9507000000001
  0
LINE
  8
_0-0_LAYER001
  6
CONTINUOUS
 62
    2
 10
1967.3825999999999
 20
948.82899999999995
 11
1914.8825999999999
 21
948.82899999999995
  0
CIRCLE
  8
_0-0_LAYER001
  6
CONTINUOUS
 62
    2
 10
1964.8825999999999
 20
948.82899999999995
 40
1.6999999999999997
  0
LINE
  8
_0-0_LAYER001
  6
CONTINUOUS
 62
    2
 10
1964.8825999999999
 20
948.82899999999995
 11
1964.8825999999999
 21
1078.829
  0
CIRCLE
  8
_0-0_LAYER001
  6
CONTINUOUS
 62
    2
 10
1964.8825999999999
 20
1078.829
 40
1.6999999999999997
  0
LINE
  8
_0-0_LAYER001
  6
CONTINUOUS
 62
    2
 10
1967.3825999999999
 20
1078.829
 11
1914.8825999999999
 21
1078.829
  0
CIRCLE
  8
_0-0_LAYER001
  6
CONTINUOUS
 62
    2
 10
1964.8825999999999
 20
1078.829
 40
1.6999999999999997
  0
LINE
  8
_0-0_LAYER001
  6
CONTINUOUS
 62
    2
 10
1964.8825999999999
 20
1078.829
 11
1964.8825999999999
 21
1135.829
  0
CIRCLE
  8
_0-0_LAYER001
  6
CONTINUOUS
 62
    2
 10
1964.8825999999999
 20
1135.829
 40
1.6999999999999997
  0
LINE
  8
_0-0_LAYER001
  6
CONTINUOUS
 62
    2
 10
1967.3825999999999
 20
1135.829
 11
1914.8825999999999
 21
1135.829
  0
CIRCLE
  8
_0-0_LAYER001
  6
CONTINUOUS
 62
    2
 10
1964.8825999999999
 20
1135.829
 40
1.6999999999999997
  0
LINE
  8
_0-0_LAYER001
  6
CONTINUOUS
 62
    2
 10
1964.8825999999999
 20
1135.829
 11
1964.8825999999999
 21
1285.829
  0
CIRCLE
  8
_0-0_LAYER001
  6
CONTINUOUS
 62
    2
 10
1964.8825999999999
 20
1285.829
 40
1.6999999999999997
  0
LINE
  8
_0-0_LAYER001
  6
CONTINUOUS
 62
    2
 10
1967.3825999999999
 20
1285.829
 11
1914.8825999999999
 21
1285.829
  0
LINE
  8
_0-0_LAYER001
  6
CONTINUOUS
 62
    2
 10
1765.0547999999999
 20
1128.3459
 11
1765.0547999999999
 21
1120.8459
  0
LINE
  8
_0-0_LAYER001
  6
CONTINUOUS
 62
    2
 10
1765.0547999999999
 20
1120.8459
 11
1761.3047999999999
 21
1127.3411000000001
  0
LINE
  8
_0-0_LAYER001
  6
CONTINUOUS
 62
    2
 10
1765.0547999999999
 20
1120.8459
 11
1723.5351000000001
 21
1275.7994000000001
  0
LINE
  8
_0-0_LAYER001
  6
CONTINUOUS
 62
    2
 10
1834.8944999999999
 20
1189.4327000000001
 11
1834.8944999999999
 21
1181.9327000000001
  0
LINE
  8
_0-0_LAYER001
  6
CONTINUOUS
 62
    2
 10
1834.8944999999999
 20
1181.9327000000001
 11
1831.1444999999999
 21
1188.4278999999999
  0
LINE
  8
_0-0_LAYER001
  6
CONTINUOUS
 62
    2
 10
1834.8944999999999
 20
1181.9327000000001
 11
1791.4041999999999
 21
1344.2406000000001
  0
LINE
  8
_0-0_LAYER001
  6
CONTINUOUS
 62
    2
 10
1791.4041999999999
 20
1344.2406000000001
 11
1750.9041999999999
 21
1344.2406000000001
  0
LINE
  8
_0-0_LAYER001
  6
CONTINUOUS
 62
    2
 10
1745.7125000000001
 20
1115.269
 11
1748.3172
 21
1100.4969000000001
  0
LINE
  8
_0-0_LAYER001
  6
CONTINUOUS
 62
    2
 10
1849.1172999999999
 20
1133.5020999999999
 11
1851.7220000000002
 21
1118.73
  0
LINE
  8
_0-0_LAYER001
  6
CONTINUOUS
 62
    2
 10
1748.3172
 20
1100.4969000000001
 11
1849.1172999999999
 21
1133.5020999999999
  0
LINE
  8
_0-0_LAYER001
  6
CONTINUOUS
 62
    2
 10
1725.3726999999999
 20
1094.057
 11
1745.9830000000002
 21
1101.5586000000001
  0
LINE
  8
_0-0_LAYER001
  6
CONTINUOUS
 62
    2
 10
1725.3726999999999
 20
1094.057
 11
1731.2853
 21
1095.0772999999999
  0
LINE
  8
_0-0_LAYER001
  6
CONTINUOUS
 62
    2
 10
1748.3172
 20
1100.4969000000001
 11
1851.7220000000002
 21
1118.73
  0
LINE
  8
_0-0_LAYER001
  6
CONTINUOUS
 62
    2
 10
1745.7125000000001
 20
1115.269
 11
1849.1172999999999
 21
1133.5020999999999
  0
LINE
  8
_0-0_LAYER001
  6
CONTINUOUS
 62
    2
 10
1743.2829999999999
 20
1116.8715
 11
1745.9830000000002
 21
1101.5586000000001
  0
LINE
  8
_0-0_LAYER001
  6
CONTINUOUS
 62
    2
 10
1743.2829999999999
 20
1116.8715
 11
1850.2829999999999
 21
1135.7384
  0
LINE
  8
_0-0_LAYER001
  6
CONTINUOUS
 62
    2
 10
1819.0823999999998
 20
1128.2062000000001
 11
1827.8519000000001
 21
1129.7524000000001
  0
LINE
  8
_0-0_LAYER001
  6
CONTINUOUS
 62
    2
 10
903.32220000000007
 20
954.82899999999995
 11
1715.2829999999999
 21
954.82899999999995
  0
LINE
  8
_0-1_LAYER004
  6
DASHED3
 62
    2
 10
1851.5450000000001
 20
950.82899999999995
 11
1851.5450000000001
 21
1248.829
  0
LINE
  8
_0-1_LAYER004
  6
CONTINUOUS
 62
    2
 10
1830.8679999999999
 20
1159.1846
 11
1830.8679999999999
 21
1199.1846
  0
LINE
  8
_0-1_LAYER004
  6
CONTINUOUS
 62
    2
 10
1830.8679999999999
 20
1199.1846
 11
1848.8679999999999
 21
1199.1846
  0
LINE
  8
_0-1_LAYER004
  6
CONTINUOUS
 62
    2
 10
1848.8679999999999
 20
1199.1846
 11
1848.8679999999999
 21
1159.1846
  0
LINE
  8
_0-1_LAYER004
  6
CONTINUOUS
 62
    2
 10
1848.8679999999999
 20
1159.1846
 11
1830.8679999999999
 21
1159.1846
  0
LINE
  8
_0-1_LAYER004
  6
CONTINUOUS
 62
    2
 10
1848.8679999999999
 20
1199.1846
 11
1830.8679999999999
 21
1159.1846
  0
LINE
  8
_0-1_LAYER004
  6
CONTINUOUS
 62
    2
 10
1830.8679999999999
 20
1182.7224000000001
 11
1830.8679999999999
 21
1393.1494
  0
LINE
  8
_0-1_LAYER004
  6
CONTINUOUS
 62
    2
 10
1818.8679999999999
 20
1182.7224000000001
 11
1818.8679999999999
 21
1393.1494
  0
LINE
  8
_0-1_LAYER004
  6
CONTINUOUS
 62
    2
 10
1850.2829999999999
 20
1155.7384
 11
1850.2829999999999
 21
1285.829
  0
LINE
  8
_0-1_LAYER004
  6
CONTINUOUS
 62
    2
 10
1818.8679999999999
 20
1182.7224000000001
 11
1818.8679999999999
 21
1140.9069
  0
LINE
  8
_0-1_LAYER004
  6
CONTINUOUS
 62
    2
 10
1818.8679999999999
 20
1140.9069
 11
1830.8679999999999
 21
1140.9069
  0
LINE
  8
_0-1_LAYER004
  6
CONTINUOUS
 62
    2
 10
1830.8679999999999
 20
1182.7224000000001
 11
1830.8679999999999
 21
1140.9069
  0
LINE
  8
_0-2_LAYER006
  6
CONTINUOUS
 62
    2
 10
1850.2829999999999
 20
1243.2704000000001
 11
1850.2829999999999
 21
1244.1384
  0
LINE
  8
_0-1_LAYER004
  6
CONTINUOUS
 62
    2
 10
1858.5207
 20
1393.1494
 11
1858.5207
 21
691.98299999999995
  0
LINE
  8
_0-1_LAYER004
  6
CONTINUOUS
 62
    2
 10
1853.8679999999999
 20
1393.1494
 11
1853.8679999999999
 21
948.82899999999995
  0
LINE
  8
_0-0_LAYER001
  6
CONTINUOUS
 62
    2
 10
1715.2829999999999
 20
969.82899999999995
 11
1715.2829999999999
 21
954.82899999999995
  0
LINE
  8
_0-0_LAYER001
  6
CONTINUOUS
 62
    2
 10
1717.2829999999999
 20
952.82889999999998
 11
1833.2829999999999
 21
952.82889999999998
  0
LINE
  8
_0-0_LAYER001
  6
DASHED3
 62
    2
 10
903.32220000000007
 20
950.82899999999995
 11
1851.5450000000001
 21
950.82899999999995
  0
LINE
  8
_0-0_LAYER001
  6
CONTINUOUS
 62
    2
 10
1852.2829999999999
 20
923.82899999999995
 11
903.32220000000007
 21
923.82899999999995
  0
LINE
  8
_0-0_LAYER001
  6
CONTINUOUS
 62
    2
 10
1852.2829999999999
 20
948.82899999999995
 11
1852.2829999999999
 21
923.82899999999995
  0
LINE
  8
_0-0_LAYER001
  6
CONTINUOUS
 62
    2
 10
1842.2829999999999
 20
823.82899999999995
 11
903.32220000000007
 21
823.82899999999995
  0
LINE
  8
_0-0_LAYER001
  6
CONTINUOUS
 62
    2
 10
1842.2829999999999
 20
923.82899999999995
 11
1842.2829999999999
 21
823.82899999999995
  0
LINE
  8
_0-0_LAYER001
  6
DASHED1
 62
    1
 10
1842.2829999999999
 20
827.029
 11
903.32220000000007
 21
827.029
  0
LINE
  8
_0-0_LAYER001
  6
DASHED1
 62
    1
 10
1842.2829999999999
 20
920.62899999999991
 11
903.32220000000007
 21
920.62899999999991
  0
LINE
  8
_0-0_LAYER001
  6
DASHED1
 62
    1
 10
1842.2829999999999
 20
903.82899999999995
 11
903.32220000000007
 21
903.82899999999995
  0
LINE
  8
_0-0_LAYER001
  6
DASHED1
 62
    1
 10
1842.2829999999999
 20
843.82899999999995
 11
903.32220000000007
 21
843.82899999999995
  0
LINE
  8
_0-0_LAYER001
  6
CONTINUOUS
 62
    2
 10
1717.2829999999999
 20
970.57179999999994
 11
1717.2829999999999
 21
952.82889999999998
  0
LINE
  8
_0-0_LAYER001
  6
CONTINUOUS
 62
    2
 10
1717.2829999999999
 20
970.57179999999994
 11
1702.2829999999999
 21
970.57179999999994
  0
LINE
  8
_0-0_LAYER001
  6
CONTINUOUS
 62
    2
 10
1711.2833000000001
 20
969.57179999999994
 11
1712.913
 21
970.57179999999994
  0
LINE
  8
_0-0_LAYER001
  6
CONTINUOUS
 62
    2
 10
1706.6531
 20
970.57189999999991
 11
1712.913
 21
970.57179999999994
  0
LINE
  8
_0-0_LAYER001
  6
CONTINUOUS
 62
    2
 10
1708.2833000000001
 20
969.57189999999991
 11
1706.6531
 21
970.57189999999991
  0
LINE
  8
_0-0_LAYER001
  6
CONTINUOUS
 62
    2
 10
1708.2833000000001
 20
957.24199999999996
 11
1709.7829000000002
 21
950.57179999999994
  0
LINE
  8
_0-0_LAYER001
  6
CONTINUOUS
 62
    2
 10
1708.2833000000001
 20
969.57189999999991
 11
1708.2833000000001
 21
957.24199999999996
  0
LINE
  8
_0-0_LAYER001
  6
CONTINUOUS
 62
    2
 10
1709.7829000000002
 20
950.57179999999994
 11
1711.2833999999998
 21
958.05079999999998
  0
LINE
  8
_0-0_LAYER001
  6
CONTINUOUS
 62
    2
 10
1711.2833000000001
 20
969.57179999999994
 11
1711.2833999999998
 21
958.05079999999998
  0
LINE
  8
_0-0_LAYER001
  6
CONTINUOUS
 62
    2
 10
1850.2829999999999
 20
1135.7384
 11
1850.2829999999999
 21
1245.7384
  0
LINE
  8
_0-0_LAYER001
  6
CONTINUOUS
 62
    2
 10
1833.2829999999999
 20
1078.829
 11
1833.2829999999999
 21
952.82889999999998
  0
LINE
  8
_0-0_LAYER001
  6
CONTINUOUS
 62
    2
 10
1833.2829999999999
 20
1078.829
 11
1825.7829999999999
 21
1065.8386
  0
LINE
  8
_0-0_LAYER001
  6
CONTINUOUS
 62
    2
 10
1858.5207
 20
813.82899999999995
 11
903.32220000000007
 21
813.82899999999995
  0
CIRCLE
  8
_0-0_LAYER001
  6
CONTINUOUS
 62
    2
 10
1820.4731000000002
 20
1076.6657
 40
0.8999999999999999
  0
CIRCLE
  8
_0-0_LAYER001
  6
CONTINUOUS
 62
    2
 10
1817.9499000000001
 20
1054.9034999999999
 40
0.8999999999999999
  0
CIRCLE
  8
_0-0_LAYER001
  6
CONTINUOUS
 62
    2
 10
1803.7572
 20
1079.1887999999999
 40
0.8999999999999999
  0
CIRCLE
  8
_0-0_LAYER001
  6
CONTINUOUS
 62
    2
 10
1784.5180999999998
 20
1075.0887
 40
0.8999999999999999
  0
CIRCLE
  8
_0-0_LAYER001
  6
CONTINUOUS
 62
    2
 10
1765.1316000000002
 20
1040.1645000000001
 40
0.8999999999999999
  0
CIRCLE
  8
_0-0_LAYER001
  6
CONTINUOUS
 62
    2
 10
1824.8654999999999
 20
1058.2324000000001
 40
0.8999999999999999
  0
CIRCLE
  8
_0-0_LAYER001
  6
CONTINUOUS
 62
    2
 10
1814.6995999999999
 20
1067.3054
 40
0.8999999999999999
  0
CIRCLE
  8
_0-0_LAYER001
  6
CONTINUOUS
 62
    2
 10
1808.1271000000002
 20
1049.0485000000001
 40
0.8999999999999999
  0
CIRCLE
  8
_0-0_LAYER001
  6
CONTINUOUS
 62
    2
 10
1776.7251000000001
 20
1071.3219999999999
 40
0.8999999999999999
  0
CIRCLE
  8
_0-0_LAYER001
  6
CONTINUOUS
 62
    2
 10
1753.3562000000002
 20
1065.1146000000001
 40
0.8999999999999999
  0
CIRCLE
  8
_0-0_LAYER001
  6
CONTINUOUS
 62
    2
 10
1829.5938999999998
 20
1064.9423999999999
 40
0.8999999999999999
  0
CIRCLE
  8
_0-0_LAYER001
  6
CONTINUOUS
 62
    2
 10
1766.9416999999999
 20
1071.5726999999999
 40
0.8999999999999999
  0
CIRCLE
  8
_0-0_LAYER001
  6
CONTINUOUS
 62
    2
 10
1822.6563000000001
 20
1065.3074999999999
 40
0.8999999999999999
  0
CIRCLE
  8
_0-0_LAYER001
  6
CONTINUOUS
 62
    2
 10
1761.7582000000002
 20
1032.5663
 40
0.8999999999999999
  0
LINE
  8
_0-0_LAYER001
  6
CONTINUOUS
 62
    2
 10
1726.1351
 20
1075.8453999999999
 11
1726.1351
 21
1068.3453999999999
  0
LINE
  8
_0-0_LAYER001
  6
CONTINUOUS
 62
    2
 10
1726.1351
 20
1068.3453999999999
 11
1722.3851
 21
1074.8406
  0
LINE
  8
_0-0_LAYER001
  6
CONTINUOUS
 62
    2
 10
1726.1351
 20
1068.3453999999999
 11
1701.3072999999999
 21
1161.0042000000001
  0
LINE
  8
_0-0_LAYER001
  6
CONTINUOUS
 62
    2
 10
1726.7291
 20
946.33380000000011
 11
1730.4791
 21
952.82889999999998
  0
LINE
  8
_0-0_LAYER001
  6
CONTINUOUS
 62
    2
 10
1730.4791
 20
952.82889999999998
 11
1730.4791
 21
945.32889999999998
  0
LINE
  8
_0-0_LAYER001
  6
CONTINUOUS
 62
    2
 10
1730.4791
 20
952.82889999999998
 11
1681.2550000000001
 21
769.12200000000007
  0
LINE
  8
_0-0_LAYER001
  6
CONTINUOUS
 62
    2
 10
1743.2829999999999
 20
1235.1533999999999
 11
1743.2829999999999
 21
1167.8678
  0
CIRCLE
  8
_0-0_LAYER001
  6
CONTINUOUS
 62
    2
 10
1743.2829999999999
 20
1232.6533999999999
 40
1.6999999999999997
  0
LINE
  8
_0-0_LAYER001
  6
CONTINUOUS
 62
    2
 10
1743.2829999999999
 20
1232.6533999999999
 11
1818.8679999999999
 21
1232.6533999999999
  0
CIRCLE
  8
_0-0_LAYER001
  6
CONTINUOUS
 62
    2
 10
1818.8679999999999
 20
1232.6533999999999
 40
1.6999999999999997
  0
LINE
  8
_0-0_LAYER001
  6
CONTINUOUS
 62
    2
 10
1818.8679999999999
 20
1235.1533999999999
 11
1818.8679999999999
 21
1217.6533999999999
  0
CIRCLE
  8
_0-0_LAYER001
  6
CONTINUOUS
 62
    2
 10
1764.3539000000001
 20
1022.652
 40
0.8999999999999999
  0
CIRCLE
  8
_0-0_LAYER001
  6
CONTINUOUS
 62
    2
 10
1754.5767000000001
 20
1014.7671
 40
0.8999999999999999
  0
CIRCLE
  8
_0-0_LAYER001
  6
CONTINUOUS
 62
    2
 10
1816.0005000000001
 20
1017.8989999999999
 40
0.8999999999999999
  0
CIRCLE
  8
_0-0_LAYER001
  6
CONTINUOUS
 62
    2
 10
1825.4241000000002
 20
1029.0522000000001
 40
0.8999999999999999
  0
ARC
  8
_0-0_LAYER001
  6
CONTINUOUS
 62
    2
 10
1658.2184000000002
 20
1031.8748000000001
 40
94.13988599999999
 50
334.68087000000003
 51
7.9587950000000136
  0
LINE
  8
_0-0_LAYER001
  6
CONTINUOUS
 62
    2
 10
1783.3739999999998
 20
1117.1134999999999
 11
1783.3739999999998
 21
1109.6134999999999
  0
LINE
  8
_0-0_LAYER001
  6
CONTINUOUS
 62
    2
 10
1783.3739999999998
 20
1109.6134999999999
 11
1779.6239999999998
 21
1116.1087
  0
LINE
  8
_0-0_LAYER001
  6
CONTINUOUS
 62
    2
 10
1783.3739999999998
 20
1109.6134999999999
 11
1727.3562999999999
 21
1318.6744000000001
  0
LINE
  8
_0-0_LAYER001
  6
CONTINUOUS
 62
    2
 10
1727.3562999999999
 20
1318.6744000000001
 11
1558.1622000000002
 21
1318.6744000000001
  0
LINE
  8
_0-0_LAYER001
  6
CONTINUOUS
 62
    2
 10
1791.6923000000002
 20
1030.5365999999999
 11
1789.7512000000002
 21
1037.7810999999999
  0
LINE
  8
_0-0_LAYER001
  6
CONTINUOUS
 62
    2
 10
1789.7512000000002
 20
1037.7810999999999
 11
1795.0545000000002
 21
1032.4777999999999
  0
LINE
  8
_0-0_LAYER001
  6
CONTINUOUS
 62
    2
 10
1789.7512000000002
 20
1037.7810999999999
 11
1917.7197999999999
 21
816.13290000000006
  0
LINE
  8
_0-0_LAYER001
  6
CONTINUOUS
 62
    2
 10
1917.7197999999999
 20
816.13290000000006
 11
2008.9425999999999
 21
816.13290000000006
  0
LINE
  8
_0-0_LAYER001
  6
CONTINUOUS
 62
    2
 10
1811.4585999999999
 20
1108.5558000000001
 11
1811.4585999999999
 21
1089.6597999999999
  0
LINE
  8
_0-0_LAYER001
  6
CONTINUOUS
 62
    2
 10
1811.4585999999999
 20
1089.6597999999999
 11
1825.8883000000001
 21
1089.6597999999999
  0
LINE
  8
_0-0_LAYER001
  6
CONTINUOUS
 62
    2
 10
1811.4585999999999
 20
1108.5558000000001
 11
1826.6900000000001
 21
1108.5558000000001
  0
LINE
  8
_0-0_LAYER001
  6
CONTINUOUS
 62
    2
 10
1826.6900000000001
 20
1108.5558000000001
 11
1825.8883000000001
 21
1089.6597999999999
  0
LINE
  8
_0-0_LAYER001
  6
CONTINUOUS
 62
    2
 10
1794.2804000000001
 20
1073.5695000000001
 11
1794.2804000000001
 21
1055.0170000000001
  0
LINE
  8
_0-0_LAYER001
  6
CONTINUOUS
 62
    2
 10
1794.2804000000001
 20
1055.0170000000001
 11
1802.4315000000001
 21
1056.5504000000001
  0
LINE
  8
_0-0_LAYER001
  6
CONTINUOUS
 62
    2
 10
1794.2804000000001
 20
1073.5695000000001
 11
1824.5140999999999
 21
1085.3652
  0
LINE
  8
_0-0_LAYER001
  6
CONTINUOUS
 62
    2
 10
1824.5140999999999
 20
1085.3652
 11
1828.0641999999998
 21
1080.5553
  0
LINE
  8
_0-0_LAYER001
  6
CONTINUOUS
 62
    2
 10
1828.0641999999998
 20
1080.5553
 11
1802.4315000000001
 21
1056.5504000000001
  0
ARC
  8
_0-0_LAYER001
  6
CONTINUOUS
 62
    4
 10
944.85480000000007
 20
1184.6273000000001
 40
214.38050999999999
 50
258.82925999999998
 51
268.38172999999995
  0
ARC
  8
_0-0_LAYER001
  6
CONTINUOUS
 62
    4
 10
999.32400000000007
 20
1001.1248000000001
 40
52.178303999999997
 50
215.53766999999999
 51
234.46232000000001
  0
ARC
  8
_0-0_LAYER001
  6
CONTINUOUS
 62
    4
 10
972.99530000000004
 20
963.42100000000005
 40
6.2695089999999993
 50
234.10575000000003
 51
303.29033000000004
  0
ARC
  8
_0-0_LAYER001
  6
CONTINUOUS
 62
    4
 10
941.53449999999998
 20
1007.4271000000001
 40
58.841383
 50
229.50266999999999
 51
234.31144
  0
ARC
  8
_0-0_LAYER001
  6
CONTINUOUS
 62
    4
 10
911.6588999999999
 20
966.26970000000006
 40
7.947610000000001
 50
234.52014000000003
 51
301.23766000000001
  0
ARC
  8
_0-0_LAYER001
  6
CONTINUOUS
 62
    4
 10
895.15740000000005
 20
998.73900000000003
 40
44.132803000000003
 50
297.62160999999998
 51
318.23129999999998
  0
ARC
  8
_0-0_LAYER001
  6
CONTINUOUS
 62
    4
 10
944.85480000000007
 20
1184.6273000000001
 40
199.38050999999999
 50
257.97676000000001
 51
268.38173
  0
ARC
  8
_0-0_LAYER001
  6
CONTINUOUS
 62
    4
 10
944.85480000000007
 20
1184.6273000000001
 40
199.38050999999999
 50
257.97676000000001
 51
268.38173
  0
ARC
  8
_0-0_LAYER001
  6
CONTINUOUS
 62
    4
 10
944.85480000000007
 20
1184.6273000000001
 40
197.38050999999999
 50
257.85307999999998
 51
268.38172999999995
  0
ARC
  8
_0-0_LAYER001
  6
CONTINUOUS
 62
    4
 10
944.85480000000007
 20
1184.6273000000001
 40
182.38050999999999
 50
256.83681999999999
 51
268.38173
  0
ARC
  8
_0-0_LAYER001
  6
CONTINUOUS
 62
    4
 10
944.85480000000007
 20
1184.6273000000001
 40
214.38050999999999
 50
258.82925999999998
 51
268.38172999999995
  0
ARC
  8
_0-0_LAYER001
  6
CONTINUOUS
 62
    4
 10
921.46630000000005
 20
1001.2420999999999
 40
69.674484000000007
 50
321.65733
 51
337.34946000000002
  0
ARC
  8
_0-0_LAYER001
  6
CONTINUOUS
 62
    4
 10
935.3112000000001
 20
1277.5146
 40
307.27562
 50
270.90795000000003
 51
293.21983
  0
ARC
  8
_0-0_LAYER001
  6
CONTINUOUS
 62
    4
 10
935.3112000000001
 20
1277.5146
 40
275.27562
 50
270.90795000000003
 51
287.11988000000002
  0
ARC
  8
_0-0_LAYER001
  6
CONTINUOUS
 62
    4
 10
935.3112000000001
 20
1277.5146
 40
292.27562
 50
270.90795000000003
 51
292.69346000000002
  0
LINE
  8
_0-0_LAYER001
  6
CONTINUOUS
 62
    4
 10
1048.0714
 20
1010.2910999999999
 11
1048.0714
 21
1007.8664000000001
  0
LINE
  8
_0-0_LAYER001
  6
CONTINUOUS
 62
    4
 10
1056.4576999999999
 20
995.12869999999998
 11
1056.4576999999999
 21
1013.4359999999999
  0
LINE
  8
_0-0_LAYER001
  6
CONTINUOUS
 62
    4
 10
1048.0714
 20
1010.2910999999999
 11
1056.4576999999999
 21
1013.4359999999999
  0
ARC
  8
_0-0_LAYER001
  6
CONTINUOUS
 62
    4
 10
935.3112000000001
 20
1277.5146
 40
290.27562
 50
270.90795000000003
 51
286.23334
  0
LINE
  8
_0-0_LAYER001
  6
CONTINUOUS
 62
    4
 10
1016.4576999999999
 20
998.8119999999999
 11
1016.4576999999999
 21
1014.4711
  0
ARC
  8
_0-0_LAYER001
  6
CONTINUOUS
 62
    4
 10
1199.7417
 20
1184.231
 40
214.38050999999999
 50
231.7756
 51
268.38173
  0
LINE
  8
_0-0_LAYER001
  6
CONTINUOUS
 62
    4
 10
1020.3501000000001
 20
999.8257000000001
 11
1056.5400999999999
 21
1015.982
  0
ARC
  8
_0-0_LAYER001
  6
CONTINUOUS
 62
    4
 10
1254.2109
 20
1000.7284999999999
 40
52.178303999999997
 50
215.53766999999999
 51
234.46232000000001
  0
ARC
  8
_0-0_LAYER001
  6
CONTINUOUS
 62
    4
 10
1227.8822
 20
963.02469999999994
 40
6.2695089999999993
 50
234.10575000000003
 51
303.29033000000004
  0
ARC
  8
_0-0_LAYER001
  6
CONTINUOUS
 62
    4
 10
1196.4214999999999
 20
1007.0307
 40
58.841383
 50
213.2508
 51
234.31144
  0
ARC
  8
_0-0_LAYER001
  6
CONTINUOUS
 62
    4
 10
1166.5458000000001
 20
965.87339999999995
 40
7.947610000000001
 50
234.52014000000003
 51
301.23766000000001
  0
ARC
  8
_0-0_LAYER001
  6
CONTINUOUS
 62
    4
 10
1150.0443
 20
998.34269999999992
 40
44.132803000000003
 50
297.62160999999998
 51
318.23129999999998
  0
LINE
  8
_0-0_LAYER001
  6
CONTINUOUS
 62
    4
 10
1020.3501000000001
 20
998.40589999999997
 11
1016.3447000000001
 21
996.52379999999994
  0
LINE
  8
_0-0_LAYER001
  6
CONTINUOUS
 62
    4
 10
1020.3501000000001
 20
999.8257000000001
 11
1020.3501000000001
 21
998.40589999999997
  0
LINE
  8
_0-0_LAYER001
  6
CONTINUOUS
 62
    4
 10
1019.8244999999999
 20
1016.5697
 11
1016.4616000000001
 21
1015.2434000000001
  0
LINE
  8
_0-0_LAYER001
  6
CONTINUOUS
 62
    4
 10
1019.8244999999999
 20
1018.0582999999999
 11
1019.8244999999999
 21
1016.5697
  0
ARC
  8
_0-0_LAYER001
  6
CONTINUOUS
 62
    4
 10
1199.7417
 20
1184.231
 40
199.38050999999999
 50
231.7756
 51
268.38173
  0
ARC
  8
_0-0_LAYER001
  6
CONTINUOUS
 62
    4
 10
1199.7417
 20
1184.231
 40
199.38050999999999
 50
231.7756
 51
268.38173
  0
ARC
  8
_0-0_LAYER001
  6
CONTINUOUS
 62
    4
 10
1199.7417
 20
1184.231
 40
197.38050999999999
 50
231.7756
 51
268.38173
  0
LINE
  8
_0-0_LAYER001
  6
CONTINUOUS
 62
    4
 10
1020.0795000000001
 20
1018.2828
 11
1050.3595
 21
1032.3302000000001
  0
LINE
  8
_0-0_LAYER001
  6
CONTINUOUS
 62
    4
 10
1051.6080999999999
 20
1030.7693999999999
 11
1016.9579000000001
 21
1015.1611
  0
ARC
  8
_0-0_LAYER001
  6
CONTINUOUS
 62
    4
 10
1199.7417
 20
1184.231
 40
182.38050999999999
 50
231.7756
 51
268.38173
  0
LINE
  8
_0-0_LAYER001
  6
CONTINUOUS
 62
    4
 10
1016.3447000000001
 20
996.52379999999994
 11
1016.3447000000001
 21
1033.0857000000001
  0
LINE
  8
_0-0_LAYER001
  6
CONTINUOUS
 62
    4
 10
1016.3447000000001
 20
1033.0857000000001
 11
1044.0469000000001
 21
1045.9372000000001
  0
ARC
  8
_0-0_LAYER001
  6
CONTINUOUS
 62
    4
 10
1199.7417
 20
1184.231
 40
214.38050999999999
 50
231.7756
 51
268.38173
  0
ARC
  8
_0-0_LAYER001
  6
CONTINUOUS
 62
    4
 10
1061.1558
 20
1006.838
 40
27.732966999999999
 50
54.176177000000003
 51
112.93031000000001
  0
ARC
  8
_0-0_LAYER001
  6
CONTINUOUS
 62
    4
 10
1061.5037
 20
1009.1114
 40
40.679594999999999
 50
51.535313000000002
 51
115.27963000000001
  0
ARC
  8
_0-0_LAYER001
  6
CONTINUOUS
 62
    4
 10
1061.1423
 20
1006.3400999999999
 40
26.213477999999995
 50
54.56426900000001
 51
111.2666
  0
ARC
  8
_0-0_LAYER001
  6
CONTINUOUS
 62
    4
 10
1061.6531
 20
1003.8787
 40
13.076713
 50
65.553432000000001
 51
112.83269999999999
  0
ARC
  8
_0-0_LAYER001
  6
CONTINUOUS
 62
    4
 10
1176.3532
 20
1000.8457000000001
 40
69.674484000000007
 50
321.65733
 51
337.34946000000002
  0
ARC
  8
_0-0_LAYER001
  6
CONTINUOUS
 62
    4
 10
1190.1981000000001
 20
1277.1183000000001
 40
307.27562
 50
270.90795000000003
 51
293.21983
  0
ARC
  8
_0-0_LAYER001
  6
CONTINUOUS
 62
    4
 10
1190.1981000000001
 20
1277.1183000000001
 40
275.27562
 50
270.90795000000003
 51
287.11988000000002
  0
ARC
  8
_0-0_LAYER001
  6
CONTINUOUS
 62
    4
 10
1190.1981000000001
 20
1277.1183000000001
 40
292.27562
 50
270.90795000000003
 51
292.69346000000002
  0
ARC
  8
_0-0_LAYER001
  6
CONTINUOUS
 62
    4
 10
1190.1981000000001
 20
1277.1183000000001
 40
290.27562
 50
270.90795000000003
 51
286.23334
  0
ARC
  8
_0-0_LAYER001
  6
CONTINUOUS
 62
    4
 10
1454.3775999999998
 20
1186.6673000000001
 40
214.38050999999999
 50
231.7756
 51
268.38173
  0
LINE
  8
_0-0_LAYER001
  6
CONTINUOUS
 62
    4
 10
1274.9858999999999
 20
1002.2619999999999
 11
1311.1759000000002
 21
1018.4183
  0
ARC
  8
_0-0_LAYER001
  6
CONTINUOUS
 62
    4
 10
1508.8467999999998
 20
1003.1648
 40
52.178303999999997
 50
215.53766999999999
 51
234.46232000000001
  0
ARC
  8
_0-0_LAYER001
  6
CONTINUOUS
 62
    4
 10
1482.518
 20
965.46100000000001
 40
6.2695089999999993
 50
234.10575000000003
 51
303.29033000000004
  0
ARC
  8
_0-0_LAYER001
  6
CONTINUOUS
 62
    4
 10
1451.0572999999999
 20
1009.4670000000001
 40
58.841383
 50
213.2508
 51
234.31144
  0
ARC
  8
_0-0_LAYER001
  6
CONTINUOUS
 62
    4
 10
1421.1815999999999
 20
968.30970000000002
 40
7.947610000000001
 50
234.52014000000003
 51
301.23766000000001
  0
ARC
  8
_0-0_LAYER001
  6
CONTINUOUS
 62
    4
 10
1404.6801
 20
1000.779
 40
44.132803000000003
 50
297.62160999999998
 51
318.23129999999998
  0
LINE
  8
_0-0_LAYER001
  6
CONTINUOUS
 62
    4
 10
1274.9858999999999
 20
1000.8422
 11
1270.9804999999999
 21
998.96010000000001
  0
LINE
  8
_0-0_LAYER001
  6
CONTINUOUS
 62
    4
 10
1274.9858999999999
 20
1002.2619999999999
 11
1274.9858999999999
 21
1000.8422
  0
LINE
  8
_0-0_LAYER001
  6
CONTINUOUS
 62
    4
 10
1274.4603999999999
 20
1019.0060000000001
 11
1271.0974000000001
 21
1017.6796999999999
  0
LINE
  8
_0-0_LAYER001
  6
CONTINUOUS
 62
    4
 10
1274.4603999999999
 20
1020.4946
 11
1274.4603999999999
 21
1019.0060000000001
  0
ARC
  8
_0-0_LAYER001
  6
CONTINUOUS
 62
    4
 10
1454.3775999999998
 20
1186.6673000000001
 40
199.38050999999999
 50
231.7756
 51
268.38173
  0
ARC
  8
_0-0_LAYER001
  6
CONTINUOUS
 62
    4
 10
1454.3775999999998
 20
1186.6673000000001
 40
199.38050999999999
 50
231.7756
 51
268.38173
  0
ARC
  8
_0-0_LAYER001
  6
CONTINUOUS
 62
    4
 10
1454.3775999999998
 20
1186.6673000000001
 40
197.38050999999999
 50
231.7756
 51
268.38173
  0
LINE
  8
_0-0_LAYER001
  6
CONTINUOUS
 62
    4
 10
1274.7154
 20
1020.7191
 11
1304.9953
 21
1034.7665
  0
LINE
  8
_0-0_LAYER001
  6
CONTINUOUS
 62
    4
 10
1306.2439999999997
 20
1033.2056
 11
1271.5936999999999
 21
1017.5974000000001
  0
ARC
  8
_0-0_LAYER001
  6
CONTINUOUS
 62
    4
 10
1454.3775999999998
 20
1186.6673000000001
 40
182.38050999999999
 50
231.7756
 51
268.38173
  0
LINE
  8
_0-0_LAYER001
  6
CONTINUOUS
 62
    4
 10
1270.9804999999999
 20
998.96010000000001
 11
1270.9804999999999
 21
1035.5219
  0
LINE
  8
_0-0_LAYER001
  6
CONTINUOUS
 62
    4
 10
1270.9804999999999
 20
1035.5219
 11
1298.6828
 21
1048.3734999999999
  0
ARC
  8
_0-0_LAYER001
  6
CONTINUOUS
 62
    4
 10
1454.3775999999998
 20
1186.6673000000001
 40
214.38050999999999
 50
231.7756
 51
268.38173
  0
ARC
  8
_0-0_LAYER001
  6
CONTINUOUS
 62
    4
 10
1315.7916
 20
1009.2743
 40
27.732966999999999
 50
54.176177000000003
 51
112.93031000000001
  0
ARC
  8
_0-0_LAYER001
  6
CONTINUOUS
 62
    4
 10
1316.1394999999998
 20
1011.5477000000001
 40
40.679594999999999
 50
51.535313000000002
 51
115.27963000000001
  0
ARC
  8
_0-0_LAYER001
  6
CONTINUOUS
 62
    4
 10
1315.7781
 20
1008.7764
 40
26.213477999999995
 50
54.56426900000001
 51
111.2666
  0
ARC
  8
_0-0_LAYER001
  6
CONTINUOUS
 62
    4
 10
1316.2889
 20
1006.3150000000001
 40
13.076713
 50
65.553432000000001
 51
112.83269999999999
  0
ARC
  8
_0-0_LAYER001
  6
CONTINUOUS
 62
    4
 10
1430.989
 20
1003.2819999999999
 40
69.674484000000007
 50
321.65733
 51
337.34946000000002
  0
ARC
  8
_0-0_LAYER001
  6
CONTINUOUS
 62
    4
 10
1444.8339999999998
 20
1279.5545999999999
 40
307.27562
 50
270.90795000000003
 51
293.21983
  0
ARC
  8
_0-0_LAYER001
  6
CONTINUOUS
 62
    4
 10
1709.2645000000002
 20
1186.6790000000001
 40
214.38050999999999
 50
231.7756
 51
268.38173
  0
LINE
  8
_0-0_LAYER001
  6
CONTINUOUS
 62
    4
 10
1529.8728000000001
 20
1002.2737
 11
1566.0628999999999
 21
1018.4300000000001
  0
ARC
  8
_0-0_LAYER001
  6
CONTINUOUS
 62
    4
 10
1763.7337000000002
 20
1003.1765
 40
52.178303999999997
 50
215.53766999999999
 51
234.46232000000001
  0
ARC
  8
_0-0_LAYER001
  6
CONTINUOUS
 62
    4
 10
1737.4049
 20
965.47270000000003
 40
6.2695089999999993
 50
234.10575000000003
 51
303.29033000000004
  0
ARC
  8
_0-0_LAYER001
  6
CONTINUOUS
 62
    4
 10
1705.9441999999999
 20
1009.4788000000001
 40
58.841383
 50
213.2508
 51
234.31144
  0
ARC
  8
_0-0_LAYER001
  6
CONTINUOUS
 62
    4
 10
1676.0686000000001
 20
968.32140000000004
 40
7.947610000000001
 50
234.52014000000003
 51
301.23766000000001
  0
ARC
  8
_0-0_LAYER001
  6
CONTINUOUS
 62
    4
 10
1659.567
 20
1000.7907
 40
44.132803000000003
 50
297.62160999999998
 51
318.23129999999998
  0
LINE
  8
_0-0_LAYER001
  6
CONTINUOUS
 62
    4
 10
1820.2020000000002
 20
1035.1315999999999
 11
1812.4811
 21
1032.1289999999999
  0
LINE
  8
_0-0_LAYER001
  6
CONTINUOUS
 62
    4
 10
1529.8728000000001
 20
1002.2737
 11
1529.8728000000001
 21
1000.8539000000001
  0
LINE
  8
_0-0_LAYER001
  6
CONTINUOUS
 62
    4
 10
1529.3472999999999
 20
1019.0177000000001
 11
1525.9843000000001
 21
1017.6914999999999
  0
LINE
  8
_0-0_LAYER001
  6
CONTINUOUS
 62
    4
 10
1529.3472999999999
 20
1020.5064
 11
1529.3472999999999
 21
1019.0177000000001
  0
ARC
  8
_0-0_LAYER001
  6
CONTINUOUS
 62
    4
 10
1709.2645000000002
 20
1186.6790000000001
 40
199.38050999999999
 50
231.7756
 51
268.38173
  0
ARC
  8
_0-0_LAYER001
  6
CONTINUOUS
 62
    4
 10
1709.2645000000002
 20
1186.6790000000001
 40
199.38050999999999
 50
231.7756
 51
268.38173
  0
ARC
  8
_0-0_LAYER001
  6
CONTINUOUS
 62
    4
 10
1709.2645000000002
 20
1186.6790000000001
 40
197.38050999999999
 50
231.7756
 51
268.38173
  0
LINE
  8
_0-0_LAYER001
  6
CONTINUOUS
 62
    4
 10
1529.6023
 20
1020.7308
 11
1559.8822
 21
1034.7782
  0
ARC
  8
_0-0_LAYER001
  6
CONTINUOUS
 62
    4
 10
1709.2645000000002
 20
1186.6790000000001
 40
182.38050999999999
 50
231.7756
 51
268.38173
  0
LINE
  8
_0-0_LAYER001
  6
CONTINUOUS
 62
    4
 10
1525.8674000000001
 20
1035.5337
 11
1553.5697
 21
1048.3852999999999
  0
ARC
  8
_0-0_LAYER001
  6
CONTINUOUS
 62
    4
 10
1709.2645000000002
 20
1186.6790000000001
 40
214.38050999999999
 50
231.7756
 51
268.38173
  0
ARC
  8
_0-0_LAYER001
  6
CONTINUOUS
 62
    4
 10
1570.6785
 20
1009.2860000000001
 40
27.732966999999999
 50
54.176177000000003
 51
112.93031000000001
  0
ARC
  8
_0-0_LAYER001
  6
CONTINUOUS
 62
    4
 10
1571.0264000000002
 20
1011.5594000000001
 40
40.679594999999999
 50
51.535313000000002
 51
115.27963000000001
  0
ARC
  8
_0-0_LAYER001
  6
CONTINUOUS
 62
    4
 10
1570.665
 20
1008.7881
 40
26.213477999999995
 50
54.56426900000001
 51
111.2666
  0
ARC
  8
_0-0_LAYER001
  6
CONTINUOUS
 62
    4
 10
1571.1758
 20
1006.3267000000001
 40
13.076713
 50
65.553432000000001
 51
112.83269999999999
  0
LINE
  8
_0-0_LAYER001
  6
CONTINUOUS
 62
    4
 10
1780.8674000000001
 20
1000.8635999999999
 11
1780.8674000000001
 21
1016.5228
  0
ARC
  8
_0-0_LAYER001
  6
CONTINUOUS
 62
    4
 10
1699.7208999999998
 20
1279.5663
 40
290.27562
 50
270.90795000000003
 51
294.66739000000001
  0
ARC
  8
_0-0_LAYER001
  6
CONTINUOUS
 62
    4
 10
1699.7208999999998
 20
1279.5663
 40
275.27562
 50
270.90795000000003
 51
294.18137000000002
  0
LINE
  8
_0-0_LAYER001
  6
CONTINUOUS
 62
    4
 10
1812.4811
 20
1032.1289999999999
 11
1812.4811
 21
1028.4452000000001
  0
ARC
  8
_0-0_LAYER001
  6
CONTINUOUS
 62
    4
 10
1699.7208999999998
 20
1279.5663
 40
292.27562
 50
270.90795000000003
 51
294.48746
  0
ARC
  8
_0-0_LAYER001
  6
CONTINUOUS
 62
    4
 10
1685.8759
 20
1003.2937999999999
 40
69.674484000000007
 50
321.65733
 51
337.34946000000002
  0
ARC
  8
_0-0_LAYER001
  6
CONTINUOUS
 62
    4
 10
1699.7208999999998
 20
1279.5663
 40
307.27562
 50
270.90795000000003
 51
293.21983
  0
LINE
  8
_0-0_LAYER001
  6
CONTINUOUS
 62
    4
 10
1820.8674000000001
 20
997.18039999999996
 11
1820.8674000000001
 21
1035.5337
  0
ARC
  8
_0-0_LAYER001
  6
CONTINUOUS
 62
    4
 10
1444.8339999999998
 20
1279.5545999999999
 40
275.27562
 50
270.90795000000003
 51
287.11988000000002
  0
ARC
  8
_0-0_LAYER001
  6
CONTINUOUS
 62
    4
 10
1444.8339999999998
 20
1279.5545999999999
 40
290.27562
 50
270.90795000000003
 51
286.21008999999998
  0
LINE
  8
_0-0_LAYER001
  6
CONTINUOUS
 62
    4
 10
1525.8674000000001
 20
1000.819
 11
1525.8674000000001
 21
1035.5337
  0
LINE
  8
_0-0_LAYER001
  6
CONTINUOUS
 62
    4
 10
1529.8728000000001
 20
1000.8539000000001
 11
1525.9805000000001
 21
999.02500000000009
  0
LINE
  8
_0-0_LAYER001
  6
CONTINUOUS
 62
    4
 10
1525.9805000000001
 20
999.02500000000009
 11
1525.9805000000001
 21
1016.511
  0
ARC
  8
_0-0_LAYER001
  6
CONTINUOUS
 62
    4
 10
1444.8339999999998
 20
1279.5545999999999
 40
292.27562
 50
270.90795000000003
 51
292.69346000000002
  0
LINE
  8
_0-0_LAYER001
  6
CONTINUOUS
 62
    4
 10
1557.5940999999998
 20
1012.3309999999999
 11
1557.5940999999998
 21
1009.9063000000001
  0
LINE
  8
_0-0_LAYER001
  6
CONTINUOUS
 62
    4
 10
1565.9805000000001
 20
997.16859999999997
 11
1565.9805000000001
 21
1015.4758999999999
  0
LINE
  8
_0-0_LAYER001
  6
CONTINUOUS
 62
    4
 10
1557.5940999999998
 20
1012.3309999999999
 11
1565.9805000000001
 21
1015.4758999999999
  0
LINE
  8
_0-0_LAYER001
  6
CONTINUOUS
 62
    4
 10
1526.2727
 20
1016.9680000000001
 11
1561.3188
 21
1033.3504
  0
LINE
  8
_0-0_LAYER001
  6
CONTINUOUS
 62
    4
 10
1303.0953
 20
1009.9554000000001
 11
1303.0953
 21
1007.7701999999999
  0
LINE
  8
_0-0_LAYER001
  6
CONTINUOUS
 62
    4
 10
1303.0953
 20
1010.5797
 11
1303.0953
 21
1007.7701999999999
  0
LINE
  8
_0-0_LAYER001
  6
CONTINUOUS
 62
    4
 10
1303.0953
 20
1010.8919000000001
 11
1311.2116000000001
 21
1014.0135
  0
LINE
  8
_0-0_LAYER001
  6
CONTINUOUS
 62
    4
 10
1311.2116000000001
 20
995.28359999999998
 11
1311.2116000000001
 21
1014.0135
  0
LINE
  8
_0-0_LAYER001
  6
CONTINUOUS
 62
    2
 10
1016.3453999999999
 20
669.21070000000009
 11
1016.3453999999999
 21
721.71070000000009
  0
CIRCLE
  8
_0-0_LAYER001
  6
CONTINUOUS
 62
    2
 10
1016.3453999999999
 20
671.71070000000009
 40
1.6999999999999997
  0
LINE
  8
_0-0_LAYER001
  6
CONTINUOUS
 62
    2
 10
1016.3453999999999
 20
671.71070000000009
 11
1271.3453999999999
 21
671.71070000000009
  0
CIRCLE
  8
_0-0_LAYER001
  6
CONTINUOUS
 62
    2
 10
1271.3453999999999
 20
671.71070000000009
 40
1.6999999999999997
  0
LINE
  8
_0-0_LAYER001
  6
CONTINUOUS
 62
    2
 10
1271.3453999999999
 20
669.21070000000009
 11
1271.3453999999999
 21
721.71070000000009
  0
CIRCLE
  8
_0-0_LAYER001
  6
CONTINUOUS
 62
    2
 10
1271.3453999999999
 20
671.71070000000009
 40
1.6999999999999997
  0
LINE
  8
_0-0_LAYER001
  6
CONTINUOUS
 62
    2
 10
1271.3453999999999
 20
671.71070000000009
 11
1526.3454000000002
 21
671.71070000000009
  0
CIRCLE
  8
_0-0_LAYER001
  6
CONTINUOUS
 62
    2
 10
1526.3454000000002
 20
671.71070000000009
 40
1.6999999999999997
  0
LINE
  8
_0-0_LAYER001
  6
CONTINUOUS
 62
    2
 10
1526.3454000000002
 20
669.21070000000009
 11
1526.3454000000002
 21
721.71070000000009
  0
CIRCLE
  8
_0-0_LAYER001
  6
CONTINUOUS
 62
    2
 10
1526.3454000000002
 20
671.71070000000009
 40
1.6999999999999997
  0
LINE
  8
_0-0_LAYER001
  6
CONTINUOUS
 62
    2
 10
1526.3454000000002
 20
671.71070000000009
 11
1822.4063999999998
 21
671.71070000000009
  0
CIRCLE
  8
_0-0_LAYER001
  6
CONTINUOUS
 62
    2
 10
1822.4063999999998
 20
671.71070000000009
 40
1.6999999999999997
  0
LINE
  8
_0-0_LAYER001
  6
CONTINUOUS
 62
    2
 10
1822.4063999999998
 20
669.21070000000009
 11
1822.4063999999998
 21
721.71070000000009
  0
LINE
  8
_0-0_LAYER001
  6
CONTINUOUS
 62
    2
 10
1374.8543
 20
969.43959999999993
 11
1374.8543
 21
961.93959999999993
  0
LINE
  8
_0-0_LAYER001
  6
CONTINUOUS
 62
    2
 10
1374.8543
 20
961.93959999999993
 11
1371.1043
 21
968.4348
  0
LINE
  8
_0-0_LAYER001
  6
CONTINUOUS
 62
    2
 10
1374.8543
 20
961.93959999999993
 11
1284.9807000000001
 21
1297.3526999999999
  0
LINE
  8
_0-0_LAYER001
  6
CONTINUOUS
 62
    7
 10
1750.9041999999999
 20
1344.2406000000001
 11
1791.4041999999999
 21
1344.2406000000001
  0
LINE
  8
_0-0_LAYER001
  6
CONTINUOUS
 62
    7
 10
1727.3562999999999
 20
1318.6744000000001
 11
1558.1622000000002
 21
1318.6744000000001
  0
LINE
  8
_0-0_LAYER001
  6
CONTINUOUS
 62
    7
 10
1436.3119000000002
 20
1086.2573
 11
1395.8118999999999
 21
1086.2573
  0
LINE
  8
_0-0_LAYER001
  6
CONTINUOUS
 62
    7
 10
1892.7649000000001
 20
1318.4161999999997
 11
2024.7649000000001
 21
1318.4161999999997
  0
LINE
  8
_0-0_LAYER001
  6
CONTINUOUS
 62
    7
 10
1914.4497000000001
 20
865.84619999999995
 11
2061.4497000000001
 21
865.84619999999995
  0
LINE
  8
_0-0_LAYER001
  6
CONTINUOUS
 62
    7
 10
1917.7197999999999
 20
816.13290000000006
 11
2008.9425999999999
 21
816.13290000000006
  0
LINE
  8
_0-0_LAYER001
  6
CONTINUOUS
 62
    7
 10
1914.8825999999999
 20
948.82899999999995
 11
1966.5825999999997
 21
948.82899999999995
  0
LINE
  8
_0-0_LAYER001
  6
CONTINUOUS
 62
    7
 10
1964.8825999999999
 20
948.82899999999995
 11
1964.8825999999999
 21
1284.1289999999999
  0
LINE
  8
_0-0_LAYER001
  6
CONTINUOUS
 62
    7
 10
1966.5825999999997
 20
1285.829
 11
1914.8825999999999
 21
1285.829
  0
LINE
  8
_0-0_LAYER001
  6
CONTINUOUS
 62
    7
 10
1964.8825999999999
 20
1285.829
 11
1964.8825999999999
 21
1284.1289999999999
  0
LINE
  8
_0-0_LAYER001
  6
CONTINUOUS
 62
    7
 10
1995.7415000000001
 20
1248.829
 11
2048.2415000000001
 21
1248.829
  0
LINE
  8
_0-0_LAYER001
  6
CONTINUOUS
 62
    7
 10
2045.7415000000001
 20
1248.829
 11
2045.7415000000001
 21
948.82899999999995
  0
LINE
  8
_0-0_LAYER001
  6
CONTINUOUS
 62
    7
 10
2047.4415000000001
 20
948.82899999999995
 11
1995.7415000000001
 21
948.82899999999995
  0
LINE
  8
_0-0_LAYER001
  6
CONTINUOUS
 62
    7
 10
1914.8825999999999
 20
1078.829
 11
1966.5825999999997
 21
1078.829
  0
LINE
  8
_0-0_LAYER001
  6
CONTINUOUS
 62
    7
 10
1914.8825999999999
 20
1135.829
 11
1964.8825999999999
 21
1135.829
  0
LINE
  8
_0-0_LAYER001
  6
CONTINUOUS
 62
    7
 10
1964.8825999999999
 20
1135.829
 11
1966.5825999999997
 21
1135.829
  0
LINE
  8
_0-0_LAYER001
  6
CONTINUOUS
 62
    7
 10
1966.5825999999997
 20
1135.829
 11
1964.8825999999999
 21
1135.829
  0
LINE
  8
_0-0_LAYER001
  6
CONTINUOUS
 62
    7
 10
1858.5207
 20
1393.1494
 11
1858.5207
 21
691.98299999999995
  0
LINE
  8
_0-0_LAYER001
  6
CONTINUOUS
 62
    7
 10
1822.4063999999998
 20
721.71070000000009
 11
1822.4063999999998
 21
670.01070000000004
  0
LINE
  8
_0-0_LAYER001
  6
CONTINUOUS
 62
    7
 10
1837.2829999999999
 20
739.0945999999999
 11
1837.2829999999999
 21
791.5945999999999
  0
LINE
  8
_0-0_LAYER001
  6
CONTINUOUS
 62
    7
 10
1837.2829999999999
 20
741.5945999999999
 11
1718.9830000000002
 21
741.5945999999999
  0
LINE
  8
_0-0_LAYER001
  6
CONTINUOUS
 62
    7
 10
1717.2829999999999
 20
739.89459999999985
 11
1717.2829999999999
 21
791.5945999999999
  0
LINE
  8
_0-0_LAYER001
  6
CONTINUOUS
 62
    7
 10
1718.9830000000002
 20
741.5945999999999
 11
1717.2829999999999
 21
741.5945999999999
  0
LINE
  8
_0-0_LAYER001
  6
CONTINUOUS
 62
    7
 10
1822.4063999999998
 20
671.71070000000009
 11
1016.3453999999999
 21
671.71070000000009
  0
LINE
  8
_0-0_LAYER001
  6
CONTINUOUS
 62
    7
 10
1016.3453999999999
 20
670.01070000000004
 11
1016.3453999999999
 21
721.71070000000009
  0
LINE
  8
_0-0_LAYER001
  6
CONTINUOUS
 62
    7
 10
903.32220000000007
 20
813.82899999999995
 11
1858.5207
 21
813.82899999999995
  0
LINE
  8
_0-0_LAYER001
  6
CONTINUOUS
 62
    7
 10
1842.2829999999999
 20
823.82899999999995
 11
903.32220000000007
 21
823.82899999999995
  0
LINE
  8
_0-0_LAYER001
  6
CONTINUOUS
 62
    7
 10
903.32220000000007
 20
923.82899999999995
 11
1852.2829999999999
 21
923.82899999999995
  0
LINE
  8
_0-0_LAYER001
  6
CONTINUOUS
 62
    7
 10
1852.2829999999999
 20
923.82899999999995
 11
1852.2829999999999
 21
948.82899999999995
  0
LINE
  8
_0-0_LAYER001
  6
CONTINUOUS
 62
    7
 10
1853.8679999999999
 20
948.82899999999995
 11
903.32220000000007
 21
948.82899999999995
  0
LINE
  8
_0-0_LAYER001
  6
CONTINUOUS
 62
    7
 10
903.32220000000007
 20
948.82899999999995
 11
903.32220000000007
 21
950.82899999999995
  0
LINE
  8
_0-0_LAYER001
  6
CONTINUOUS
 62
    7
 10
903.32220000000007
 20
950.82899999999995
 11
1851.5450000000001
 21
950.82899999999995
  0
LINE
  8
_0-0_LAYER001
  6
CONTINUOUS
 62
    7
 10
1851.5450000000001
 20
950.82899999999995
 11
1851.5450000000001
 21
1248.829
  0
LINE
  8
_0-0_LAYER001
  6
CONTINUOUS
 62
    7
 10
1853.8679999999999
 20
1393.1494
 11
1853.8679999999999
 21
948.82899999999995
  0
LINE
  8
_0-0_LAYER001
  6
CONTINUOUS
 62
    7
 10
1835.2156
 20
952.9507000000001
 11
1850.2156
 21
952.9507000000001
  0
LINE
  8
_0-0_LAYER001
  6
CONTINUOUS
 62
    7
 10
1850.2156
 20
952.9507000000001
 11
1850.2156
 21
1078.829
  0
LINE
  8
_0-0_LAYER001
  6
CONTINUOUS
 62
    7
 10
1851.5450000000001
 20
1078.829
 11
1822.2829999999999
 21
1078.829
  0
LINE
  8
_0-0_LAYER001
  6
CONTINUOUS
 62
    7
 10
1822.2829999999999
 20
1078.829
 11
1822.2829999999999
 21
1113.5390975380253
  0
LINE
  8
_0-0_LAYER001
  6
CONTINUOUS
 62
    7
 10
1811.4585999999999
 20
1108.5558000000001
 11
1826.6900000000001
 21
1108.5558000000001
  0
LINE
  8
_0-0_LAYER001
  6
CONTINUOUS
 62
    7
 10
1825.8883000000001
 20
1089.6597999999999
 11
1811.4585999999999
 21
1089.6597999999999
  0
LINE
  8
_0-0_LAYER001
  6
CONTINUOUS
 62
    7
 10
1811.4585999999999
 20
1089.6597999999999
 11
1811.4585999999999
 21
1108.5558000000001
  0
LINE
  8
_0-0_LAYER001
  6
CONTINUOUS
 62
    7
 10
1828.2829000000002
 20
1101.8289
 11
1828.2829000000002
 21
1095.829
  0
LINE
  8
_0-0_LAYER001
  6
CONTINUOUS
 62
    7
 10
1828.2829000000002
 20
1095.829
 11
1851.5450000000001
 21
1095.829
  0
LINE
  8
_0-0_LAYER001
  6
CONTINUOUS
 62
    7
 10
1828.2829000000002
 20
1101.8289
 11
1851.5450000000001
 21
1101.8289
  0
LINE
  8
_0-0_LAYER001
  6
CONTINUOUS
 62
    7
 10
1853.8679999999999
 20
1095.829
 11
1851.5450000000001
 21
1095.829
  0
LINE
  8
_0-0_LAYER001
  6
CONTINUOUS
 62
    7
 10
1851.5450000000001
 20
1101.8289
 11
1895.2829999999999
 21
1101.8289
  0
LINE
  8
_0-0_LAYER001
  6
CONTINUOUS
 62
    7
 10
1852.2829999999999
 20
1095.829
 11
1895.2829999999999
 21
1095.829
  0
LINE
  8
_0-0_LAYER001
  6
CONTINUOUS
 62
    7
 10
1835.2156
 20
1078.829
 11
1835.2156
 21
952.9507000000001
  0
LINE
  8
_0-0_LAYER001
  6
CONTINUOUS
 62
    7
 10
1833.2829999999999
 20
1078.829
 11
1833.2829999999999
 21
952.82889999999998
  0
LINE
  8
_0-0_LAYER001
  6
CONTINUOUS
 62
    7
 10
1833.2829999999999
 20
952.82889999999998
 11
1717.2829999999999
 21
952.82889999999998
  0
LINE
  8
_0-0_LAYER001
  6
CONTINUOUS
 62
    7
 10
1717.2829999999999
 20
952.82889999999998
 11
1717.2829999999999
 21
970.57179999999994
  0
LINE
  8
_0-0_LAYER001
  6
CONTINUOUS
 62
    7
 10
1717.2829999999999
 20
970.57179999999994
 11
1730.8776531139306
 21
970.57179999999994
  0
LINE
  8
_0-0_LAYER001
  6
CONTINUOUS
 62
    7
 10
1715.2829999999999
 20
954.82899999999995
 11
903.32220000000007
 21
954.82899999999995
  0
LINE
  8
_0-0_LAYER001
  6
CONTINUOUS
 62
    7
 10
903.32220000000007
 20
969.82899999999995
 11
1715.2829999999999
 21
969.82899999999995
  0
LINE
  8
_0-0_LAYER001
  6
CONTINUOUS
 62
    7
 10
1715.2829999999999
 20
969.82899999999995
 11
1715.2829999999999
 21
954.82899999999995
  0
LINE
  8
_0-0_LAYER001
  6
CONTINUOUS
 62
    7
 10
1526.3454000000002
 20
669.21070000000009
 11
1526.3454000000002
 21
721.71070000000009
  0
LINE
  8
_0-0_LAYER001
  6
CONTINUOUS
 62
    7
 10
1271.3453999999999
 20
669.21070000000009
 11
1271.3453999999999
 21
721.71070000000009
  0
LINE
  8
_0-0_LAYER001
  6
CONTINUOUS
 62
    7
 10
1830.8679999999999
 20
1140.9069
 11
1830.8679999999999
 21
1393.1494
  0
LINE
  8
_0-0_LAYER001
  6
CONTINUOUS
 62
    7
 10
1818.8679999999999
 20
1393.1494
 11
1818.8679999999999
 21
1140.9069
  0
LINE
  8
_0-0_LAYER001
  6
CONTINUOUS
 62
    7
 10
1818.8679999999999
 20
1140.9069
 11
1830.8679999999999
 21
1140.9069
  0
LINE
  8
_0-0_LAYER001
  6
CONTINUOUS
 62
    7
 10
1848.8679999999999
 20
1199.1846
 11
1830.8679999999999
 21
1199.1846
  0
LINE
  8
_0-0_LAYER001
  6
CONTINUOUS
 62
    7
 10
1848.8679999999999
 20
1199.1846
 11
1848.8679999999999
 21
1159.1846
  0
LINE
  8
_0-0_LAYER001
  6
CONTINUOUS
 62
    7
 10
1848.8679999999999
 20
1159.1846
 11
1830.8679999999999
 21
1159.1846
  0
LINE
  8
_0-0_LAYER001
  6
CONTINUOUS
 62
    7
 10
1830.8679999999999
 20
1159.1846
 11
1830.8679999999999
 21
1199.1846
  0
LINE
  8
_0-0_LAYER001
  6
CONTINUOUS
 62
    7
 10
1850.2829999999999
 20
1285.829
 11
1850.2829999999999
 21
1135.7384
  0
LINE
  8
_0-0_LAYER001
  6
CONTINUOUS
 62
    7
 10
1743.2829999999999
 20
1234.3534
 11
1743.2829999999999
 21
1167.8678
  0
LINE
  8
_0-0_LAYER001
  6
CONTINUOUS
 62
    7
 10
1743.2829999999999
 20
1232.6533999999999
 11
1818.8679999999999
 21
1232.6533999999999
  0
LINE
  8
_0-0_LAYER001
  6
CONTINUOUS
 62
    7
 10
1801.9303
 20
1413.2891999999997
 11
1825.3485999999998
 21
1325.8906999999999
  0
LINE
  8
_0-0_LAYER001
  6
CONTINUOUS
 62
    7
 10
1825.3485999999998
 20
1325.8906999999999
 11
1825.3485999999998
 21
1333.3906999999999
  0
LINE
  8
_0-0_LAYER001
  6
CONTINUOUS
 62
    7
 10
1821.5985999999998
 20
1332.3858999999998
 11
1825.3485999999998
 21
1325.8906999999999
  0
LINE
  8
_0-0_LAYER001
  6
CONTINUOUS
 62
    7
 10
1791.4041999999999
 20
1344.2406000000001
 11
1834.8944999999999
 21
1181.9327000000001
  0
LINE
  8
_0-0_LAYER001
  6
CONTINUOUS
 62
    7
 10
1834.8944999999999
 20
1181.9327000000001
 11
1834.8944999999999
 21
1189.4327000000001
  0
LINE
  8
_0-0_LAYER001
  6
CONTINUOUS
 62
    7
 10
1834.8944999999999
 20
1181.9327000000001
 11
1831.1444999999999
 21
1188.4278999999999
  0
LINE
  8
_0-1_LAYER004
  6
CONTINUOUS
 62
    7
 10
1840.8262
 20
1124.5782999999999
 11
1844.5762
 21
1131.0735
  0
LINE
  8
_0-1_LAYER004
  6
CONTINUOUS
 62
    7
 10
1840.8262
 20
1132.0401518562967
 11
1840.8262
 21
1124.5782999999999
  0
LINE
  8
_0-1_LAYER004
  6
CONTINUOUS
 62
    7
 10
1840.8262
 20
1124.5782999999999
 11
1844.5762
 21
1131.0735
  0
LINE
  8
_0-1_LAYER004
  6
CONTINUOUS
 62
    7
 10
1840.8262
 20
1124.5782999999999
 11
1892.7649000000001
 21
1318.4161999999997
  0
LINE
  8
_0-1_LAYER004
  6
CONTINUOUS
 62
    7
 10
1727.3562999999999
 20
1318.6744000000001
 11
1783.3739999999998
 21
1109.6134999999999
  0
LINE
  8
_0-1_LAYER004
  6
CONTINUOUS
 62
    7
 10
1783.3739999999998
 20
1109.6134999999999
 11
1783.3739999999998
 21
1117.1134999999999
  0
LINE
  8
_0-1_LAYER004
  6
CONTINUOUS
 62
    7
 10
1783.3739999999998
 20
1109.6134999999999
 11
1779.6239999999998
 21
1116.1087
  0
LINE
  8
_0-1_LAYER004
  6
CONTINUOUS
 62
    7
 10
1765.0547999999999
 20
1128.3459
 11
1765.0547999999999
 21
1120.8459
  0
LINE
  8
_0-1_LAYER004
  6
CONTINUOUS
 62
    7
 10
1765.0547999999999
 20
1120.8459
 11
1761.3047999999999
 21
1127.3411000000001
  0
LINE
  8
_0-1_LAYER004
  6
CONTINUOUS
 62
    7
 10
1765.0547999999999
 20
1120.8459
 11
1723.5351000000001
 21
1275.7994000000001
  0
LINE
  8
_0-1_LAYER004
  6
CONTINUOUS
 62
    7
 10
1701.3072999999999
 20
1161.0042000000001
 11
1726.1351
 21
1068.3453999999999
  0
LINE
  8
_0-1_LAYER004
  6
CONTINUOUS
 62
    7
 10
1726.1351
 20
1068.3453999999999
 11
1726.1351
 21
1075.8453999999999
  0
LINE
  8
_0-1_LAYER004
  6
CONTINUOUS
 62
    7
 10
1726.1351
 20
1068.3453999999999
 11
1722.3851
 21
1074.8406
  0
LINE
  8
_0-1_LAYER004
  6
CONTINUOUS
 62
    7
 10
1731.2853
 20
1095.0772999999999
 11
1725.3726999999999
 21
1094.057
  0
LINE
  8
_0-1_LAYER004
  6
CONTINUOUS
 62
    7
 10
1725.3726999999999
 20
1094.057
 11
1745.9830000000002
 21
1101.5586000000001
  0
LINE
  8
_0-1_LAYER004
  6
CONTINUOUS
 62
    7
 10
1745.9830000000002
 20
1101.5586000000001
 11
1743.2829999999999
 21
1116.8715
  0
LINE
  8
_0-1_LAYER004
  6
CONTINUOUS
 62
    7
 10
1743.2829999999999
 20
1116.8715
 11
1850.2829999999999
 21
1135.7384
  0
LINE
  8
_0-1_LAYER004
  6
CONTINUOUS
 62
    7
 10
1849.1172999999999
 20
1133.5020999999999
 11
1745.7125000000001
 21
1115.269
  0
LINE
  8
_0-1_LAYER004
  6
CONTINUOUS
 62
    7
 10
1745.7125000000001
 20
1115.269
 11
1748.3172
 21
1100.4969000000001
  0
LINE
  8
_0-1_LAYER004
  6
CONTINUOUS
 62
    7
 10
1748.3172
 20
1100.4969000000001
 11
1851.7220000000002
 21
1118.73
  0
LINE
  8
_0-1_LAYER004
  6
CONTINUOUS
 62
    7
 10
1851.7220000000002
 20
1118.73
 11
1849.1172999999999
 21
1133.5020999999999
  0
LINE
  8
_0-1_LAYER004
  6
CONTINUOUS
 62
    7
 10
1849.1172999999999
 20
1133.5020999999999
 11
1748.3172
 21
1100.4969000000001
  0
LINE
  8
_0-1_LAYER004
  6
CONTINUOUS
 62
    7
 10
1840.2305999999999
 20
1131.9350999999999
 11
1837.9470999999999
 21
1129.9126000000001
  0
LINE
  8
_0-1_LAYER004
  6
CONTINUOUS
 62
    7
 10
1834.4006024773469
 20
1128.6833791348949
 11
1838.9868000000001
 21
1102.6768999999999
  0
LINE
  8
_0-1_LAYER004
  6
CONTINUOUS
 62
    7
 10
1838.9868000000001
 20
1102.6768999999999
 11
1842.4286000000002
 21
1094.4380000000001
  0
LINE
  8
_0-1_LAYER004
  6
CONTINUOUS
 62
    7
 10
1842.4286000000002
 20
1094.4380000000001
 11
1842.6369
 21
1103.3207
  0
LINE
  8
_0-1_LAYER004
  6
CONTINUOUS
 62
    7
 10
1842.6369
 20
1103.3207
 11
1837.9470999999999
 21
1129.9126000000001
  0
LINE
  8
_0-1_LAYER004
  6
CONTINUOUS
 62
    7
 10
1831.461295112083
 20
1130.388862483735
 11
1834.2970999999998
 21
1129.2702999999999
  0
LINE
  8
_0-1_LAYER004
  6
CONTINUOUS
 62
    7
 10
1834.2970999999998
 20
1129.2702999999999
 11
1834.4006024773469
 21
1128.6833791348949
  0
LINE
  8
_0-1_LAYER004
  6
CONTINUOUS
 62
    7
 10
1825.7869999999998
 20
1114.1569999999999
 11
1852.2829999999999
 21
1078.829
  0
LINE
  8
_0-1_LAYER004
  6
CONTINUOUS
 62
    7
 10
1852.2829999999999
 20
1078.829
 11
1851.5450000000001
 21
1078.829
  0
LINE
  8
_0-1_LAYER004
  6
CONTINUOUS
 62
    7
 10
1826.6900000000001
 20
1108.5558000000001
 11
1825.8883000000001
 21
1089.6597999999999
  0
LINE
  8
_0-1_LAYER004
  6
CONTINUOUS
 62
    7
 10
1824.5140999999999
 20
1085.3652
 11
1828.0641999999998
 21
1080.5553
  0
LINE
  8
_0-1_LAYER004
  6
CONTINUOUS
 62
    7
 10
1828.0641999999998
 20
1080.5553
 11
1802.4315000000001
 21
1056.5504000000001
  0
LINE
  8
_0-1_LAYER004
  6
CONTINUOUS
 62
    7
 10
1802.4315000000001
 20
1056.5504000000001
 11
1794.2804000000001
 21
1055.0170000000001
  0
LINE
  8
_0-1_LAYER004
  6
CONTINUOUS
 62
    7
 10
1794.2804000000001
 20
1055.0170000000001
 11
1794.2804000000001
 21
1073.5695000000001
  0
LINE
  8
_0-1_LAYER004
  6
CONTINUOUS
 62
    7
 10
1794.2804000000001
 20
1073.5695000000001
 11
1824.5140999999999
 21
1085.3652
  0
LINE
  8
_0-1_LAYER004
  6
CONTINUOUS
 62
    7
 10
1833.2829999999999
 20
1078.829
 11
1825.7829999999999
 21
1065.8386
  0
LINE
  8
_0-1_LAYER004
  6
CONTINUOUS
 62
    7
 10
1835.2156
 20
1078.829
 11
1850.2156
 21
952.9507000000001
  0
LINE
  8
_0-1_LAYER004
  6
CONTINUOUS
 62
    7
 10
1789.7512000000002
 20
1037.7810999999999
 11
1791.6923000000002
 21
1030.5365999999999
  0
LINE
  8
_0-1_LAYER004
  6
CONTINUOUS
 62
    7
 10
1789.7512000000002
 20
1037.7810999999999
 11
1795.0545000000002
 21
1032.4777999999999
  0
LINE
  8
_0-1_LAYER004
  6
CONTINUOUS
 62
    7
 10
1846.5797893860208
 20
983.46201061397915
 11
1848.4364999999998
 21
976.30199999999991
  0
LINE
  8
_0-1_LAYER004
  6
CONTINUOUS
 62
    7
 10
1846.6292684040382
 20
983.046788302398
 11
1851.7986999999998
 21
978.24309999999991
  0
LINE
  8
_0-1_LAYER004
  6
CONTINUOUS
 62
    7
 10
1789.7512000000002
 20
1037.7810999999999
 11
1917.7197999999999
 21
816.13290000000006
  0
LINE
  8
_0-1_LAYER004
  6
CONTINUOUS
 62
    7
 10
1914.4497000000001
 20
868.34619999999995
 11
1846.6292684040382
 21
983.046788302398
  0
LINE
  8
_0-1_LAYER004
  6
CONTINUOUS
 62
    7
 10
1842.2829999999999
 20
920.62899999999991
 11
1842.2829999999999
 21
823.82899999999995
  0
LINE
  8
_0-1_LAYER004
  6
CONTINUOUS
 62
    7
 10
1842.2829999999999
 20
823.82899999999995
 11
1842.2829999999999
 21
923.82899999999995
  0
LINE
  8
_0-1_LAYER004
  6
CONTINUOUS
 62
    7
 10
1730.4791
 20
952.82889999999998
 11
1726.7291
 21
946.33380000000011
  0
LINE
  8
_0-1_LAYER004
  6
CONTINUOUS
 62
    7
 10
1730.4791
 20
952.82889999999998
 11
1730.4791
 21
945.32889999999998
  0
LINE
  8
_0-1_LAYER004
  6
CONTINUOUS
 62
    7
 10
1730.4791
 20
952.82889999999998
 11
1681.2550000000001
 21
769.12200000000007
  0
LINE
  8
_0-1_LAYER004
  6
CONTINUOUS
 62
    7
 10
1374.8543
 20
961.93959999999993
 11
1374.8543
 21
969.43959999999993
  0
LINE
  8
_0-1_LAYER004
  6
CONTINUOUS
 62
    7
 10
1374.8543
 20
961.93959999999993
 11
1371.1043
 21
968.4348
  0
LINE
  8
_0-1_LAYER004
  6
CONTINUOUS
 62
    7
 10
1374.8543
 20
961.93959999999993
 11
1284.9807000000001
 21
1297.3526999999999
  0
LINE
  8
_0-1_LAYER004
  6
CONTINUOUS
 62
    7
 10
1436.3119000000002
 20
1086.2573
 11
1463.4083000000001
 21
985.13190000000009
  0
LINE
  8
_0-1_LAYER004
  6
CONTINUOUS
 62
    7
 10
1463.4083000000001
 20
985.13190000000009
 11
1463.4083000000001
 21
992.63190000000009
  0
LINE
  8
_0-1_LAYER004
  6
CONTINUOUS
 62
    7
 10
1459.6583000000001
 20
991.62709999999993
 11
1463.4083000000001
 21
985.13190000000009
  0
LINE
  8
_0-1_LAYER004
  6
CONTINUOUS
 62
    7
 10
1848.8679999999999
 20
1199.1846
 11
1830.8679999999999
 21
1159.1846
  0
ARC
  8
_0-1_LAYER004
  6
CONTINUOUS
 62
    7
 10
1741.5316955382928
 20
1069.4517750319174
 40
11.314088250070869
 50
334.33288474991008
 51
19.119040936396225
  0
ARC
  8
_0-1_LAYER004
  6
CONTINUOUS
 62
    7
 10
1672.8395459284729
 20
1029.7338930388692
 40
80.063359382638581
 50
332.41305856369138
 51
10.926225512525441
  0
TEXT
  8
_0-0_LAYER001
 62
    7
 10
1917.7198000000003
 20
818.63290000000006
 40
20
 41
1
 50
0
  1
　葺　土
  0
TEXT
  8
_0-0_LAYER001
 62
    7
 10
1396.9475605311075
 20
1093.237919839949
 40
20
 41
1
 50
0
  1
桟　瓦
  0
TEXT
  8
_0-0_LAYER001
 62
    7
 10
1135.9839561740794
 20
686.98416566696199
 40
20
 41
1
 50
0
  1
255
  0
TEXT
  8
_0-0_LAYER001
 62
    7
 10
1388.2337787567824
 20
690.72120007559408
 40
20
 41
1
 50
0
  1
255
  0
TEXT
  8
_0-0_LAYER001
 62
    7
 10
1664.7743249955979
 20
688.85268287127803
 40
20
 41
1
 50
0
  1
295
  0
TEXT
  8
_0-0_LAYER001
 62
    7
 10
1765.6742540286793
 20
754.25078502234896
 40
20
 41
1
 50
0
  1
120
  0
TEXT
  8
_0-0_LAYER001
 62
    7
 10
1771.2281306920022
 20
1243.1610661186319
 40
20
 41
1
 50
0
  1
75
  0
TEXT
  8
_0-0_LAYER001
 62
    7
 10
1954.3944916646285
 20
1202.6949140582665
 40
20
 41
1
 50
90
  1
150
  0
TEXT
  8
_0-0_LAYER001
 62
    7
 10
1958.1315260732606
 20
1098.0579506165525
 40
20
 41
1
 50
90
  1
57
  0
TEXT
  8
_0-0_LAYER001
 62
    7
 10
1952.5259744603113
 20
1002.76357319642
 40
20
 41
1
 50
90
  1
130
  0
TEXT
  8
_0-0_LAYER001
 62
    7
 10
2034.7407314502293
 20
1086.8468473906544
 40
20
 41
1
 50
90
  1
300
  0
TEXT
  8
_0-0_LAYER001
 62
    7
 10
1993.9913311052646
 20
1017.5419272385327
 40
20
 41
1
 50
90
  1
水切り立上がり寸法
  0
TEXT
  8
_0-0_LAYER001
 62
    7
 10
2083.9533928106202
 20
1013.2580195382776
 40
20
 41
1
 50
90
  1
下葺き材立上がり寸法
  0
TEXT
  8
_0-0_LAYER001
 62
    7
 10
1925.448807901184
 20
871.88906542986103
 40
20
 41
1
 50
0
  1
下地：15x145
  0
TEXT
  8
_0-0_LAYER001
 62
    7
 10
1551.3208687455765
 20
1166.050727514041
 40
20
 41
1
 50
0
  1
熨斗瓦２段積み
  0
TEXT
  8
_0-0_LAYER001
 62
    7
 10
1399.9561300032315
 20
1280.2882661875087
 40
20
 41
1
 50
0
  1
雨押水切カラー鋼板0.35ｍｍ以上
  0
TEXT
  8
_0-0_LAYER001
 62
    7
 10
1562.7446226129232
 20
1321.699373956641
 40
20
 41
1
 50
0
  1
笠木：15x105
  0
TEXT
  8
_0-0_LAYER001
 62
    7
 10
1721.2492075223599
 20
1351.6867278584264
 40
20
 41
1
 50
0
  1
胴　縁
  0
TEXT
  8
_0-0_LAYER001
 62
    7
 10
1569.8844687800149
 20
1423.0851895293438
 40
20
 41
1
 50
0
  1
外壁　防火サイディング
  0
TEXT
  8
_0-0_LAYER001
 62
    7
 10
1394.244253069558
 20
779.07106525766847
 40
20
 41
1
 50
0
  1
捨谷カラー鋼板0.35ｍｍ以上
  0
TEXT
  8
_0-0_LAYER001
 62
    7
 10
1038.6799139483892
 20
1305.9917123890391
 40
20
 41
1
 50
0
  1
　瓦桟：１５ｘ３０以上　
  0
TEXT
  8
_0-0_LAYER001
 62
    7
 10
1062.9553909165011
 20
1271.7204507869988
 40
20
 41
1
 50
0
  1
下葺材：ルーフィング
  0
TEXT
  8
_0-0_LAYER001
 62
    7
 10
863.03969823793227
 20
1241.7330968852136
 40
20
 41
1
 50
0
  1
　野地板：硬質木片セメントパネルｔ＝25　
  0
TEXT
  8
_0-0_LAYER001
 62
    7
 10
958.71363687696157
 20
1210.3177737500098
 40
20
 41
1
 50
0
  1
　鋼製：C－100x50x20x2.3　@606　
  0
LINE
  8
_0-0_LAYER001
  6
CONTINUOUS
 62
    2
 10
1681.2550000000001
 20
769.12200000000007
 11
1391.388314602721
 21
769.12200000000007
  0
LINE
  8
_0-0_LAYER001
  6
CONTINUOUS
 62
    7
 10
1681.2550000000001
 20
769.12200000000007
 11
1397.1001915363947
 21
769.12200000000007
  0
LINE
  8
_0-0_LAYER001
  6
CONTINUOUS
 62
    2
 10
1701.3072999999999
 20
1161.0042000000001
 11
1548.4649302787398
 21
1161.0042000000001
  0
LINE
  8
_0-0_LAYER001
  6
CONTINUOUS
 62
    7
 10
1701.3072999999999
 20
1161.0042000000001
 11
1547.0369610453213
 21
1161.0042000000001
  0
LINE
  8
_0-0_LAYER001
  6
CONTINUOUS
 62
    2
 10
1723.5351000000001
 20
1275.7994000000001
 11
1399.9561300032315
 21
1275.7994000000001
  0
LINE
  8
_0-0_LAYER001
  6
CONTINUOUS
 62
    7
 10
1723.5351000000001
 20
1275.7994000000001
 11
1387.1044069024663
 21
1275.7994000000001
  0
LINE
  8
_0-0_LAYER001
  6
CONTINUOUS
 62
    2
 10
1801.9303
 20
1413.2891999999997
 11
1558.460714912668
 21
1413.2891999999997
  0
LINE
  8
_0-0_LAYER001
  6
CONTINUOUS
 62
    7
 10
1554.1768072124132
 20
1413.2891999999997
 11
1801.9303
 21
1413.2891999999997
  0
LINE
  8
_0-0_LAYER001
  6
CONTINUOUS
 62
    2
 10
1308.606
 20
1207.5243
 11
974.42129844456349
 21
1207.5243
  0
LINE
  8
_0-0_LAYER001
  6
CONTINUOUS
 62
    7
 10
1308.606
 20
1207.5243
 11
964.42551381063492
 21
1207.5243
  0
LINE
  8
_0-0_LAYER001
  6
CONTINUOUS
 62
    2
 10
1300.8674000000001
 20
1237.3907999999999
 11
880.17532903895244
 21
1237.3907999999999
  0
LINE
  8
_0-0_LAYER001
  6
CONTINUOUS
 62
    7
 10
881.60329827237081
 20
1237.3907999999999
 11
1300.8674000000001
 21
1237.3907999999999
  0
LINE
  8
_0-0_LAYER001
  6
CONTINUOUS
 62
    2
 10
1291.0362
 20
1267.4862000000001
 11
1062.9553909165011
 21
1267.4862000000001
  0
LINE
  8
_0-0_LAYER001
  6
CONTINUOUS
 62
    7
 10
1291.0362
 20
1267.4862000000001
 11
1062.9553909165011
 21
1267.4862000000001
  0
LINE
  8
_0-0_LAYER001
  6
CONTINUOUS
 62
    2
 10
1284.9807000000001
 20
1297.3526999999999
 11
1060.0994524496643
 21
1297.3526999999999
  0
LINE
  8
_0-0_LAYER001
  6
CONTINUOUS
 62
    7
 10
1051.5316370491544
 20
1297.3526999999999
 11
1284.9807000000001
 21
1297.3526999999999
  0
TEXT
  8
_0-0_LAYER001
 62
    7
 10
1895.4614539993986
 20
1324.5553124234777
 40
20
 41
1
 50
0
  1
下地材：40x30
  0
ENDSEC
  0
EOF
