  0
SECTION
  2
HEADER
  9
$ACADVER
  1
AC1018
  9
$ACADMAINTVER
 70
     0
  9
$DWGCODEPAGE
  3
ANSI_932
  9
$INSBASE
 10
0.0
 20
0.0
 30
0.0
  9
$EXTMIN
 10
829.4664080271795
 20
686.4669856690652
 30
-0.0015258207003583
  9
$EXTMAX
 10
2171.576849247302
 20
1418.499759955447
 30
0.0000000349246037
  9
$LIMMIN
 10
0.0
 20
0.0
  9
$LIMMAX
 10
2970.0
 20
2100.0
  9
$ORTHOMODE
 70
     0
  9
$REGENMODE
 70
     1
  9
$FILLMODE
 70
     1
  9
$QTEXTMODE
 70
     0
  9
$MIRRTEXT
 70
     0
  9
$LTSCALE
 40
10.0
  9
$ATTMODE
 70
     1
  9
$TEXTSIZE
 40
0.2
  9
$TRACEWID
 40
0.05
  9
$TEXTSTYLE
  7
STANDARD
  9
$CLAYER
  8
0
  9
$CELTYPE
  6
CONTINUOUS
  9
$CECOLOR
 62
   256
  9
$CELTSCALE
 40
1.0
  9
$DISPSILH
 70
     0
  9
$DIMSCALE
 40
1.0
  9
$DIMASZ
 40
0.18
  9
$DIMEXO
 40
0.0625
  9
$DIMDLI
 40
0.38
  9
$DIMRND
 40
0.0
  9
$DIMDLE
 40
0.0
  9
$DIMEXE
 40
0.18
  9
$DIMTP
 40
0.0
  9
$DIMTM
 40
0.0
  9
$DIMTXT
 40
0.18
  9
$DIMCEN
 40
0.09
  9
$DIMTSZ
 40
0.0
  9
$DIMTOL
 70
     0
  9
$DIMLIM
 70
     0
  9
$DIMTIH
 70
     1
  9
$DIMTOH
 70
     1
  9
$DIMSE1
 70
     0
  9
$DIMSE2
 70
     0
  9
$DIMTAD
 70
     0
  9
$DIMZIN
 70
     0
  9
$DIMBLK
  1

  9
$DIMASO
 70
     1
  9
$DIMSHO
 70
     1
  9
$DIMPOST
  1

  9
$DIMAPOST
  1

  9
$DIMALT
 70
     0
  9
$DIMALTD
 70
     2
  9
$DIMALTF
 40
25.4
  9
$DIMLFAC
 40
1.0
  9
$DIMTOFL
 70
     0
  9
$DIMTVP
 40
0.0
  9
$DIMTIX
 70
     0
  9
$DIMSOXD
 70
     0
  9
$DIMSAH
 70
     0
  9
$DIMBLK1
  1

  9
$DIMBLK2
  1

  9
$DIMSTYLE
  2
Standard
  9
$DIMCLRD
 70
     0
  9
$DIMCLRE
 70
     0
  9
$DIMCLRT
 70
     0
  9
$DIMTFAC
 40
1.0
  9
$DIMGAP
 40
0.09
  9
$DIMJUST
 70
     0
  9
$DIMSD1
 70
     0
  9
$DIMSD2
 70
     0
  9
$DIMTOLJ
 70
     1
  9
$DIMTZIN
 70
     0
  9
$DIMALTZ
 70
     0
  9
$DIMALTTZ
 70
     0
  9
$DIMUPT
 70
     0
  9
$DIMDEC
 70
     4
  9
$DIMTDEC
 70
     4
  9
$DIMALTU
 70
     2
  9
$DIMALTTD
 70
     2
  9
$DIMTXSTY
  7
STANDARD
  9
$DIMAUNIT
 70
     0
  9
$DIMADEC
 70
     0
  9
$DIMALTRND
 40
0.0
  9
$DIMAZIN
 70
     0
  9
$DIMDSEP
 70
    46
  9
$DIMATFIT
 70
     3
  9
$DIMFRAC
 70
     0
  9
$DIMLDRBLK
  1

  9
$DIMLUNIT
 70
     2
  9
$DIMLWD
 70
    -2
  9
$DIMLWE
 70
    -2
  9
$DIMTMOVE
 70
     0
  9
$LUNITS
 70
     2
  9
$LUPREC
 70
     4
  9
$SKETCHINC
 40
0.1
  9
$FILLETRAD
 40
0.0
  9
$AUNITS
 70
     0
  9
$AUPREC
 70
     0
  9
$MENU
  1
.
  9
$ELEVATION
 40
0.0
  9
$PELEVATION
 40
0.0
  9
$THICKNESS
 40
0.0
  9
$LIMCHECK
 70
     0
  9
$CHAMFERA
 40
0.0
  9
$CHAMFERB
 40
0.0
  9
$CHAMFERC
 40
0.0
  9
$CHAMFERD
 40
0.0
  9
$SKPOLY
 70
     0
  9
$TDCREATE
 40
2454405.785059850
  9
$TDUCREATE
 40
2454405.410059850
  9
$TDUPDATE
 40
2454405.786936667
  9
$TDUUPDATE
 40
2454405.411936667
  9
$TDINDWG
 40
0.0018815162
  9
$TDUSRTIMER
 40
0.0018815162
  9
$USRTIMER
 70
     1
  9
$ANGBASE
 50
0.0
  9
$ANGDIR
 70
     0
  9
$PDMODE
 70
     0
  9
$PDSIZE
 40
0.0
  9
$PLINEWID
 40
0.0
  9
$SPLFRAME
 70
     0
  9
$SPLINETYPE
 70
     6
  9
$SPLINESEGS
 70
     8
  9
$HANDSEED
  5
2DD
  9
$SURFTAB1
 70
     6
  9
$SURFTAB2
 70
     6
  9
$SURFTYPE
 70
     6
  9
$SURFU
 70
     6
  9
$SURFV
 70
     6
  9
$UCSBASE
  2

  9
$UCSNAME
  2

  9
$UCSORG
 10
0.0
 20
0.0
 30
0.0
  9
$UCSXDIR
 10
1.0
 20
0.0
 30
0.0
  9
$UCSYDIR
 10
0.0
 20
1.0
 30
0.0
  9
$UCSORTHOREF
  2

  9
$UCSORTHOVIEW
 70
     0
  9
$UCSORGTOP
 10
0.0
 20
0.0
 30
0.0
  9
$UCSORGBOTTOM
 10
0.0
 20
0.0
 30
0.0
  9
$UCSORGLEFT
 10
0.0
 20
0.0
 30
0.0
  9
$UCSORGRIGHT
 10
0.0
 20
0.0
 30
0.0
  9
$UCSORGFRONT
 10
0.0
 20
0.0
 30
0.0
  9
$UCSORGBACK
 10
0.0
 20
0.0
 30
0.0
  9
$PUCSBASE
  2

  9
$PUCSNAME
  2

  9
$PUCSORG
 10
0.0
 20
0.0
 30
0.0
  9
$PUCSXDIR
 10
1.0
 20
0.0
 30
0.0
  9
$PUCSYDIR
 10
0.0
 20
1.0
 30
0.0
  9
$PUCSORTHOREF
  2

  9
$PUCSORTHOVIEW
 70
     0
  9
$PUCSORGTOP
 10
0.0
 20
0.0
 30
0.0
  9
$PUCSORGBOTTOM
 10
0.0
 20
0.0
 30
0.0
  9
$PUCSORGLEFT
 10
0.0
 20
0.0
 30
0.0
  9
$PUCSORGRIGHT
 10
0.0
 20
0.0
 30
0.0
  9
$PUCSORGFRONT
 10
0.0
 20
0.0
 30
0.0
  9
$PUCSORGBACK
 10
0.0
 20
0.0
 30
0.0
  9
$USERI1
 70
     0
  9
$USERI2
 70
     0
  9
$USERI3
 70
     0
  9
$USERI4
 70
     0
  9
$USERI5
 70
     0
  9
$USERR1
 40
0.0
  9
$USERR2
 40
0.0
  9
$USERR3
 40
0.0
  9
$USERR4
 40
0.0
  9
$USERR5
 40
0.0
  9
$WORLDVIEW
 70
     1
  9
$SHADEDGE
 70
     3
  9
$SHADEDIF
 70
    70
  9
$TILEMODE
 70
     1
  9
$MAXACTVP
 70
    64
  9
$PINSBASE
 10
0.0
 20
0.0
 30
0.0
  9
$PLIMCHECK
 70
     0
  9
$PEXTMIN
 10
1.000000000000000E+20
 20
1.000000000000000E+20
 30
1.000000000000000E+20
  9
$PEXTMAX
 10
-1.000000000000000E+20
 20
-1.000000000000000E+20
 30
-1.000000000000000E+20
  9
$PLIMMIN
 10
0.0
 20
0.0
  9
$PLIMMAX
 10
12.0
 20
9.0
  9
$UNITMODE
 70
     0
  9
$VISRETAIN
 70
     1
  9
$PLINEGEN
 70
     0
  9
$PSLTSCALE
 70
     1
  9
$TREEDEPTH
 70
  3020
  9
$CMLSTYLE
  2
Standard
  9
$CMLJUST
 70
     0
  9
$CMLSCALE
 40
1.0
  9
$PROXYGRAPHICS
 70
     1
  9
$MEASUREMENT
 70
     0
  9
$CELWEIGHT
370
    -1
  9
$ENDCAPS
280
     0
  9
$JOINSTYLE
280
     0
  9
$LWDISPLAY
290
     0
  9
$INSUNITS
 70
     0
  9
$HYPERLINKBASE
  1

  9
$STYLESHEET
  1

  9
$XEDIT
290
     1
  9
$CEPSNTYPE
380
     0
  9
$PSTYLEMODE
290
     1
  9
$FINGERPRINTGUID
  2
{36CD98AA-CEBD-48C7-B0A6-AEDC8D9ED15E}
  9
$VERSIONGUID
  2
{FBBE6CB7-351D-4F21-8D84-2B825B3C10FB}
  9
$EXTNAMES
290
     1
  9
$PSVPSCALE
 40
0.0
  9
$OLESTARTUP
290
     0
  9
$SORTENTS
280
   127
  9
$INDEXCTL
280
     0
  9
$HIDETEXT
280
     0
  9
$XCLIPFRAME
290
     0
  9
$HALOGAP
280
     0
  9
$OBSCOLOR
 70
   257
  9
$OBSLTYPE
280
     0
  9
$INTERSECTIONDISPLAY
280
     0
  9
$INTERSECTIONCOLOR
 70
   257
  9
$DIMASSOC
280
     1
  9
$PROJECTNAME
  1

  0
ENDSEC
  0
SECTION
  2
CLASSES
  0
CLASS
  1
ACDBDICTIONARYWDFLT
  2
AcDbDictionaryWithDefault
  3
ObjectDBX Classes
 90
        0
 91
        1
280
     0
281
     0
  0
ENDSEC
  0
SECTION
  2
TABLES
  0
TABLE
  2
VPORT
  5
8
330
0
100
AcDbSymbolTable
 70
     3
  0
VPORT
  5
2DC
330
8
100
AcDbSymbolTableRecord
100
AcDbViewportTableRecord
  2
*Active
 70
     0
 10
0.0
 20
0.0
 11
1.0
 21
1.0
 12
1485.0
 22
1050.0
 13
0.0
 23
0.0
 14
1.0
 24
1.0
 15
0.0
 25
0.0
 16
0.0
 26
0.0
 36
1.0
 17
0.0
 27
0.0
 37
0.0
 40
2254.20049911216
 41
1.326027397260274
 42
50.0
 43
0.0
 44
0.0
 50
0.0
 51
0.0
 71
     0
 72
   100
 73
     1
 74
     1
 75
     0
 76
     0
 77
     0
 78
     0
281
     0
 65
     1
110
0.0
120
0.0
130
0.0
111
1.0
121
0.0
131
0.0
112
0.0
122
1.0
132
0.0
 79
     0
146
0.0
  0
ENDTAB
  0
TABLE
  2
LTYPE
  5
5
330
0
100
AcDbSymbolTable
 70
    35
  0
LTYPE
  5
13
330
5
100
AcDbSymbolTableRecord
100
AcDbLinetypeTableRecord
  2
ByBlock
 70
     0
  3

 72
    65
 73
     0
 40
0.0
  0
LTYPE
  5
14
330
5
100
AcDbSymbolTableRecord
100
AcDbLinetypeTableRecord
  2
ByLayer
 70
     0
  3

 72
    65
 73
     0
 40
0.0
  0
LTYPE
  5
15
330
5
100
AcDbSymbolTableRecord
100
AcDbLinetypeTableRecord
  2
CONTINUOUS
 70
     0
  3
実線
 72
    65
 73
     0
 40
0.0
  0
LTYPE
  5
24
330
5
100
AcDbSymbolTableRecord
100
AcDbLinetypeTableRecord
  2
DASHED1
 70
     0
  3
--  --  --  --  --  --  --  --  
 72
    65
 73
     2
 40
2.5
 49
1.25
 74
     0
 49
-1.25
 74
     0
  0
LTYPE
  5
25
330
5
100
AcDbSymbolTableRecord
100
AcDbLinetypeTableRecord
  2
DASHED2
 70
     0
  3
----    ----    ----    ----    
 72
    65
 73
     2
 40
5.0
 49
2.5
 74
     0
 49
-2.5
 74
     0
  0
LTYPE
  5
26
330
5
100
AcDbSymbolTableRecord
100
AcDbLinetypeTableRecord
  2
DASHED3
 70
     0
  3
------  ------  ------  ------  
 72
    65
 73
     2
 40
5.0
 49
3.75
 74
     0
 49
-1.25
 74
     0
  0
LTYPE
  5
27
330
5
100
AcDbSymbolTableRecord
100
AcDbLinetypeTableRecord
  2
CENTER1
 70
     0
  3
----- - ----- - ----- - ----- - 
 72
    65
 73
     4
 40
10.0
 49
6.25
 74
     0
 49
-1.25
 74
     0
 49
1.25
 74
     0
 49
-1.25
 74
     0
  0
LTYPE
  5
28
330
5
100
AcDbSymbolTableRecord
100
AcDbLinetypeTableRecord
  2
CENTER2
 70
     0
  3
----------  --  ----------  --  
 72
    65
 73
     4
 40
20.0
 49
12.5
 74
     0
 49
-2.5
 74
     0
 49
2.5
 74
     0
 49
-2.5
 74
     0
  0
LTYPE
  5
29
330
5
100
AcDbSymbolTableRecord
100
AcDbLinetypeTableRecord
  2
PHANTOM1
 70
     0
  3
--- - - --- - - --- - - --- - - 
 72
    65
 73
     6
 40
10.0
 49
3.25
 74
     0
 49
-1.25
 74
     0
 49
1.25
 74
     0
 49
-1.25
 74
     0
 49
1.25
 74
     0
 49
-1.25
 74
     0
  0
LTYPE
  5
2A
330
5
100
AcDbSymbolTableRecord
100
AcDbLinetypeTableRecord
  2
PHANTOM2
 70
     0
  3
--------  -  -  --------  -  -  
 72
    65
 73
     6
 40
20.0
 49
10.0
 74
     0
 49
-2.5
 74
     0
 49
1.25
 74
     0
 49
-2.5
 74
     0
 49
1.25
 74
     0
 49
-2.5
 74
     0
  0
LTYPE
  5
2B
330
5
100
AcDbSymbolTableRecord
100
AcDbLinetypeTableRecord
  2
DOT
 70
     0
  3
-   -   -   -   -   -   -   -   
 72
    65
 73
     2
 40
2.5
 49
0.625
 74
     0
 49
-1.875
 74
     0
  0
LTYPE
  5
2C
330
5
100
AcDbSymbolTableRecord
100
AcDbLinetypeTableRecord
  2
DUMMY
 70
     0
  3
ダミー
 72
    65
 73
     0
 40
0.0
  0
LTYPE
  5
2D
330
5
100
AcDbSymbolTableRecord
100
AcDbLinetypeTableRecord
  2
RAND1
 70
     0
  3
ランダム線1
 72
    65
 73
     4
 40
10.0
 49
1.0
 74
     0
 49
-2.0
 74
     0
 49
3.0
 74
     0
 49
-4.0
 74
     0
  0
LTYPE
  5
2E
330
5
100
AcDbSymbolTableRecord
100
AcDbLinetypeTableRecord
  2
RAND2
 70
     0
  3
ランダム線2
 72
    65
 73
     4
 40
14.0
 49
2.0
 74
     0
 49
-3.0
 74
     0
 49
4.0
 74
     0
 49
-5.0
 74
     0
  0
LTYPE
  5
2F
330
5
100
AcDbSymbolTableRecord
100
AcDbLinetypeTableRecord
  2
RAND3
 70
     0
  3
ランダム線3
 72
    65
 73
     4
 40
18.0
 49
3.0
 74
     0
 49
-4.0
 74
     0
 49
5.0
 74
     0
 49
-6.0
 74
     0
  0
LTYPE
  5
30
330
5
100
AcDbSymbolTableRecord
100
AcDbLinetypeTableRecord
  2
RAND4
 70
     0
  3
ランダム線4
 72
    65
 73
     4
 40
22.0
 49
4.0
 74
     0
 49
-5.0
 74
     0
 49
6.0
 74
     0
 49
-7.0
 74
     0
  0
LTYPE
  5
31
330
5
100
AcDbSymbolTableRecord
100
AcDbLinetypeTableRecord
  2
RAND5
 70
     0
  3
ランダム線5
 72
    65
 73
     4
 40
26.0
 49
5.0
 74
     0
 49
-6.0
 74
     0
 49
7.0
 74
     0
 49
-8.0
 74
     0
  0
LTYPE
  5
32
330
5
100
AcDbSymbolTableRecord
100
AcDbLinetypeTableRecord
  2
LONG1
 70
     0
  3
----------  --  ----------  --  
 72
    65
 73
     4
 40
40.0
 49
32.5
 74
     0
 49
-2.5
 74
     0
 49
2.5
 74
     0
 49
-2.5
 74
     0
  0
LTYPE
  5
33
330
5
100
AcDbSymbolTableRecord
100
AcDbLinetypeTableRecord
  2
LONG2
 70
     0
  3
--------  -  -  --------  -  -  
 72
    65
 73
     6
 40
40.0
 49
30.0
 74
     0
 49
-2.5
 74
     0
 49
1.25
 74
     0
 49
-2.5
 74
     0
 49
1.25
 74
     0
 49
-2.5
 74
     0
  0
LTYPE
  5
34
330
5
100
AcDbSymbolTableRecord
100
AcDbLinetypeTableRecord
  2
LONG3
 70
     0
  3
+++++++++++++++..+++++++++++++++
 72
    65
 73
     2
 40
40.0
 49
37.5
 74
     0
 49
-2.5
 74
     0
  0
LTYPE
  5
35
330
5
100
AcDbSymbolTableRecord
100
AcDbLinetypeTableRecord
  2
LONG4
 70
     0
  3
+++++++++++++++..+++++++++++++++
 72
    65
 73
     2
 40
80.0
 49
75.0
 74
     0
 49
-5.0
 74
     0
  0
LTYPE
  5
36
330
5
100
AcDbSymbolTableRecord
100
AcDbLinetypeTableRecord
  2
LONG5
 70
     0
  3
----------  --  ----------  --  
 72
    65
 73
     4
 40
60.0
 49
37.5
 74
     0
 49
-7.5
 74
     0
 49
7.5
 74
     0
 49
-7.5
 74
     0
  0
LTYPE
  5
37
330
5
100
AcDbSymbolTableRecord
100
AcDbLinetypeTableRecord
  2
DASHED
 70
     0
  3
-------   -------------   ------
 72
    65
 73
     2
 40
7.5
 49
6.0
 74
     0
 49
-1.5
 74
     0
  0
LTYPE
  5
38
330
5
100
AcDbSymbolTableRecord
100
AcDbLinetypeTableRecord
  2
DASHED_SPACED
 70
     0
  3
----        --------        ----
 72
    65
 73
     2
 40
12.0
 49
6.0
 74
     0
 49
-6.0
 74
     0
  0
LTYPE
  5
39
330
5
100
AcDbSymbolTableRecord
100
AcDbLinetypeTableRecord
  2
LONG_DASHED_DOTTED
 70
     0
  3
------------- --- --------------
 72
    65
 73
     4
 40
15.25
 49
12.0
 74
     0
 49
-1.5
 74
     0
 49
0.25
 74
     0
 49
-1.5
 74
     0
  0
LTYPE
  5
3A
330
5
100
AcDbSymbolTableRecord
100
AcDbLinetypeTableRecord
  2
LONG_DASHED_DOUBLE-DOTTED
 70
     0
  3
----------- --- --- ------------
 72
    65
 73
     6
 40
17.0
 49
12.0
 74
     0
 49
-1.5
 74
     0
 49
0.25
 74
     0
 49
-1.5
 74
     0
 49
0.25
 74
     0
 49
-1.5
 74
     0
  0
LTYPE
  5
3B
330
5
100
AcDbSymbolTableRecord
100
AcDbLinetypeTableRecord
  2
LONG_DASHED_TRIPLICATE-DOTTED
 70
     0
  3
--------- --- --- --- ----------
 72
    65
 73
     8
 40
18.75
 49
12.0
 74
     0
 49
-1.5
 74
     0
 49
0.25
 74
     0
 49
-1.5
 74
     0
 49
0.25
 74
     0
 49
-1.5
 74
     0
 49
0.25
 74
     0
 49
-1.5
 74
     0
  0
LTYPE
  5
3C
330
5
100
AcDbSymbolTableRecord
100
AcDbLinetypeTableRecord
  2
DOTTED
 70
     0
  3
   -       -       -       -    
 72
    65
 73
     2
 40
1.75
 49
0.25
 74
     0
 49
-1.5
 74
     0
  0
LTYPE
  5
3D
330
5
100
AcDbSymbolTableRecord
100
AcDbLinetypeTableRecord
  2
CHAIN
 70
     0
  3
-------------- -- --------------
 72
    65
 73
     4
 40
18.5
 49
12.0
 74
     0
 49
-1.5
 74
     0
 49
3.5
 74
     0
 49
-1.5
 74
     0
  0
LTYPE
  5
3E
330
5
100
AcDbSymbolTableRecord
100
AcDbLinetypeTableRecord
  2
CHAIN_DOUBLE_DASH
 70
     0
  3
------------ -- -- -------------
 72
    65
 73
     6
 40
23.5
 49
12.0
 74
     0
 49
-1.5
 74
     0
 49
3.5
 74
     0
 49
-1.5
 74
     0
 49
3.5
 74
     0
 49
-1.5
 74
     0
  0
LTYPE
  5
3F
330
5
100
AcDbSymbolTableRecord
100
AcDbLinetypeTableRecord
  2
DASHED_DOTTED
 70
     0
  3
-----------     -     ----------
 72
    65
 73
     4
 40
9.25
 49
6.0
 74
     0
 49
-1.5
 74
     0
 49
0.25
 74
     0
 49
-1.5
 74
     0
  0
LTYPE
  5
40
330
5
100
AcDbSymbolTableRecord
100
AcDbLinetypeTableRecord
  2
DOUBLE-DASHED_DOTTED
 70
     0
  3
------   -----------   -   -----
 72
    65
 73
     6
 40
16.75
 49
6.0
 74
     0
 49
-1.5
 74
     0
 49
6.0
 74
     0
 49
-1.5
 74
     0
 49
0.25
 74
     0
 49
-1.5
 74
     0
  0
LTYPE
  5
41
330
5
100
AcDbSymbolTableRecord
100
AcDbLinetypeTableRecord
  2
DASHED_DOUBLE-DOTTED
 70
     0
  3
---------    -    -    ---------
 72
    65
 73
     6
 40
11.0
 49
6.0
 74
     0
 49
-1.5
 74
     0
 49
0.25
 74
     0
 49
-1.5
 74
     0
 49
0.25
 74
     0
 49
-1.5
 74
     0
  0
LTYPE
  5
42
330
5
100
AcDbSymbolTableRecord
100
AcDbLinetypeTableRecord
  2
DOUBLE-DASHED_DOUBLE-DOTTED
 70
     0
  3
-----   ---------   -   -   ----
 72
    65
 73
     8
 40
18.5
 49
6.0
 74
     0
 49
-1.5
 74
     0
 49
6.0
 74
     0
 49
-1.5
 74
     0
 49
0.25
 74
     0
 49
-1.5
 74
     0
 49
0.25
 74
     0
 49
-1.5
 74
     0
  0
LTYPE
  5
43
330
5
100
AcDbSymbolTableRecord
100
AcDbLinetypeTableRecord
  2
DASHED_TRIPLICATE-DOTTED
 70
     0
  3
-------    -    -    -    ------
 72
    65
 73
     8
 40
12.75
 49
6.0
 74
     0
 49
-1.5
 74
     0
 49
0.25
 74
     0
 49
-1.5
 74
     0
 49
0.25
 74
     0
 49
-1.5
 74
     0
 49
0.25
 74
     0
 49
-1.5
 74
     0
  0
LTYPE
  5
44
330
5
100
AcDbSymbolTableRecord
100
AcDbLinetypeTableRecord
  2
DOUBLE-DASHED_TRIPLICATE-DOTTED
 70
     0
  3
-----  ---------  -  -  -  -----
 72
    65
 73
    10
 40
20.25
 49
6.0
 74
     0
 49
-1.5
 74
     0
 49
6.0
 74
     0
 49
-1.5
 74
     0
 49
0.25
 74
     0
 49
-1.5
 74
     0
 49
0.25
 74
     0
 49
-1.5
 74
     0
 49
0.25
 74
     0
 49
-1.5
 74
     0
  0
LTYPE
  5
45
330
5
100
AcDbSymbolTableRecord
100
AcDbLinetypeTableRecord
  2
UNDEFINED
 70
     0
  3
--------------------------------
 72
    65
 73
     0
 40
0.0
  0
ENDTAB
  0
TABLE
  2
LAYER
  5
2
330
0
100
AcDbSymbolTable
 70
     4
  0
LAYER
  5
10
330
2
100
AcDbSymbolTableRecord
100
AcDbLayerTableRecord
  2
0
 70
     0
 62
     7
  6
CONTINUOUS
370
    -3
390
F
  0
LAYER
  5
47
330
2
100
AcDbSymbolTableRecord
100
AcDbLayerTableRecord
  2
_0-0_LAYER001
 70
     0
 62
     7
  6
CONTINUOUS
370
    -3
390
F
  0
LAYER
  5
48
330
2
100
AcDbSymbolTableRecord
100
AcDbLayerTableRecord
  2
_0-1_LAYER004
 70
     0
 62
     7
  6
CONTINUOUS
370
    -3
390
F
  0
LAYER
  5
49
330
2
100
AcDbSymbolTableRecord
100
AcDbLayerTableRecord
  2
ADD_LINE
 70
     0
 62
     7
  6
CONTINUOUS
370
    -3
390
F
  0
ENDTAB
  0
TABLE
  2
STYLE
  5
3
330
0
100
AcDbSymbolTable
 70
     2
  0
STYLE
  5
11
330
3
100
AcDbSymbolTableRecord
100
AcDbTextStyleTableRecord
  2
STANDARD
 70
     0
 40
0.0
 41
1.0
 50
0.0
 71
     0
 42
0.2
  3
txt
  4
bigfont.shx
  0
STYLE
  5
46
330
3
100
AcDbSymbolTableRecord
100
AcDbTextStyleTableRecord
  2
TATEGAKI
 70
     4
 40
0.0
 41
1.0
 50
0.0
 71
     0
 42
1.0
  3
txt
  4
bigfont.shx
  0
ENDTAB
  0
TABLE
  2
VIEW
  5
6
330
0
100
AcDbSymbolTable
 70
     0
  0
ENDTAB
  0
TABLE
  2
UCS
  5
7
330
0
100
AcDbSymbolTable
 70
     0
  0
ENDTAB
  0
TABLE
  2
APPID
  5
9
330
0
100
AcDbSymbolTable
 70
     1
  0
APPID
  5
12
330
9
100
AcDbSymbolTableRecord
100
AcDbRegAppTableRecord
  2
ACAD
 70
     0
  0
ENDTAB
  0
TABLE
  2
DIMSTYLE
  5
A
330
0
100
AcDbSymbolTable
 70
     1
100
AcDbDimStyleTable
 71
     0
  0
DIMSTYLE
105
2D9
330
A
100
AcDbSymbolTableRecord
100
AcDbDimStyleTableRecord
  2
Standard
 70
     0
340
11
  0
ENDTAB
  0
TABLE
  2
BLOCK_RECORD
  5
1
330
0
100
AcDbSymbolTable
 70
     0
  0
BLOCK_RECORD
  5
20
330
1
100
AcDbSymbolTableRecord
100
AcDbBlockTableRecord
  2
*Model_Space
340
23
  0
BLOCK_RECORD
  5
1C
330
1
100
AcDbSymbolTableRecord
100
AcDbBlockTableRecord
  2
*Paper_Space
340
1F
  0
ENDTAB
  0
ENDSEC
  0
SECTION
  2
BLOCKS
  0
BLOCK
  5
21
330
20
100
AcDbEntity
  8
0
100
AcDbBlockBegin
  2
*Model_Space
 70
     0
 10
0.0
 20
0.0
 30
0.0
  3
*Model_Space
  1

  0
ENDBLK
  5
22
330
20
100
AcDbEntity
  8
0
100
AcDbBlockEnd
  0
BLOCK
  5
1D
330
1C
100
AcDbEntity
 67
     1
  8
0
100
AcDbBlockBegin
  2
*Paper_Space
 70
     0
 10
0.0
 20
0.0
 30
0.0
  3
*Paper_Space
  1

  0
ENDBLK
  5
1E
330
1C
100
AcDbEntity
 67
     1
  8
0
100
AcDbBlockEnd
  0
ENDSEC
  0
SECTION
  2
ENTITIES
  0
LINE
  5
4D
330
20
100
AcDbEntity
  8
_0-0_LAYER001
  6
Continuous
 62
     2
100
AcDbLine
 10
1823.8036
 20
971.3765
 30
0.0
 11
874.8427999999998
 21
971.3765
 31
0.0
  0
LINE
  5
4E
330
20
100
AcDbEntity
  8
_0-0_LAYER001
  6
Continuous
 62
     2
100
AcDbLine
 10
874.8427999999998
 20
992.3764999999999
 30
0.0
 11
1701.8035
 21
992.3764999999999
 31
0.0
  0
LINE
  5
4F
330
20
100
AcDbEntity
  8
_0-0_LAYER001
  6
Continuous
 62
     2
100
AcDbLine
 10
1703.8036
 20
761.6421
 30
0.0
 11
1703.8036
 21
814.1421000000001
 31
0.0
  0
CIRCLE
  5
50
330
20
100
AcDbEntity
  8
_0-0_LAYER001
  6
Continuous
 62
     2
100
AcDbCircle
 10
1703.8036
 20
764.1421
 30
0.0
 40
1.699999999999999
  0
LINE
  5
51
330
20
100
AcDbEntity
  8
_0-0_LAYER001
  6
Continuous
 62
     2
100
AcDbLine
 10
1703.8036
 20
764.1421
 30
0.0
 11
1823.8036
 21
764.1421
 31
0.0
  0
CIRCLE
  5
52
330
20
100
AcDbEntity
  8
_0-0_LAYER001
  6
Continuous
 62
     2
100
AcDbCircle
 10
1823.8036
 20
764.1421
 30
0.0
 40
1.699999999999999
  0
LINE
  5
53
330
20
100
AcDbEntity
  8
_0-0_LAYER001
  6
Continuous
 62
     2
100
AcDbLine
 10
1823.8036
 20
761.6421
 30
0.0
 11
1823.8036
 21
814.1421000000001
 31
0.0
  0
LINE
  5
54
330
20
100
AcDbEntity
  8
_0-0_LAYER001
  6
Continuous
 62
     2
100
AcDbLine
 10
1893.4515
 20
976.2162
 30
0.0
 11
1891.5103
 21
983.4606
 31
0.0
  0
LINE
  5
55
330
20
100
AcDbEntity
  8
_0-0_LAYER001
  6
Continuous
 62
     2
100
AcDbLine
 10
1891.5103
 20
983.4606
 30
0.0
 11
1896.8136
 21
978.1572999999999
 31
0.0
  0
LINE
  5
56
330
20
100
AcDbEntity
  8
_0-0_LAYER001
  6
Continuous
 62
     2
100
AcDbLine
 10
1891.5103
 20
983.4606
 30
0.0
 11
1955.5561
 21
872.5300999999998
 31
0.0
  0
LINE
  5
57
330
20
100
AcDbEntity
  8
_0-0_LAYER001
  6
Continuous
 62
     2
100
AcDbLine
 10
1955.5561
 20
872.5300999999998
 30
0.0
 11
2135.5561
 21
872.5300999999998
 31
0.0
  0
LINE
  5
58
330
20
100
AcDbEntity
  8
_0-0_LAYER001
  6
Continuous
 62
     2
100
AcDbLine
 10
2102.5645
 20
971.3765
 30
0.0
 11
2050.0645
 21
971.3765
 31
0.0
  0
CIRCLE
  5
59
330
20
100
AcDbEntity
  8
_0-0_LAYER001
  6
Continuous
 62
     2
100
AcDbCircle
 10
2100.0645
 20
971.3765
 30
0.0
 40
1.699999999999999
  0
LINE
  5
5A
330
20
100
AcDbEntity
  8
_0-0_LAYER001
  6
Continuous
 62
     2
100
AcDbLine
 10
2100.0645
 20
971.3765
 30
0.0
 11
2100.0645
 21
1171.3765
 31
0.0
  0
CIRCLE
  5
5B
330
20
100
AcDbEntity
  8
_0-0_LAYER001
  6
Continuous
 62
     2
100
AcDbCircle
 10
2100.0645
 20
1171.3765
 30
0.0
 40
1.699999999999999
  0
LINE
  5
5C
330
20
100
AcDbEntity
  8
_0-0_LAYER001
  6
Continuous
 62
     2
100
AcDbLine
 10
2102.5645
 20
1171.3765
 30
0.0
 11
2050.0645
 21
1171.3765
 31
0.0
  0
LINE
  5
5D
330
20
100
AcDbEntity
  8
_0-0_LAYER001
  6
Continuous
 62
     1
100
AcDbLine
 10
1823.8036
 20
951.3764999999999
 30
0.0
 11
874.8427999999998
 21
951.3764999999999
 31
0.0
  0
LINE
  5
5E
330
20
100
AcDbEntity
  8
_0-0_LAYER001
  6
Continuous
 62
     1
100
AcDbLine
 10
1823.8036
 20
956.3765
 30
0.0
 11
874.8427999999998
 21
956.3765
 31
0.0
  0
LINE
  5
5F
330
20
100
AcDbEntity
  8
_0-0_LAYER001
  6
Continuous
 62
     1
100
AcDbLine
 10
1823.8036
 20
961.3764999999999
 30
0.0
 11
874.8427999999998
 21
961.3764999999999
 31
0.0
  0
LINE
  5
60
330
20
100
AcDbEntity
  8
_0-0_LAYER001
  6
Continuous
 62
     1
100
AcDbLine
 10
1823.8036
 20
966.3764999999999
 30
0.0
 11
874.8427999999998
 21
966.3764999999999
 31
0.0
  0
LINE
  5
61
330
20
100
AcDbEntity
  8
_0-0_LAYER001
  6
Continuous
 62
     2
100
AcDbLine
 10
874.8427999999998
 20
977.3764999999999
 30
0.0
 11
1701.8035
 21
977.3764999999999
 31
0.0
  0
LINE
  5
62
330
20
100
AcDbEntity
  8
_0-0_LAYER001
  6
Continuous
 62
     2
100
AcDbLine
 10
1726.9009
 20
971.0705
 30
0.0
 11
1730.6509
 21
977.5657
 31
0.0
  0
LINE
  5
63
330
20
100
AcDbEntity
  8
_0-0_LAYER001
  6
Continuous
 62
     2
100
AcDbLine
 10
1730.6509
 20
977.5657
 30
0.0
 11
1730.6509
 21
970.0656999999999
 31
0.0
  0
LINE
  5
64
330
20
100
AcDbEntity
  8
_0-0_LAYER001
  6
Continuous
 62
     2
100
AcDbLine
 10
1730.6509
 20
977.5657
 30
0.0
 11
1682.0566
 21
796.2095999999998
 31
0.0
  0
LINE
  5
65
330
20
100
AcDbEntity
  8
_0-0_LAYER001
  6
Continuous
 62
     2
100
AcDbLine
 10
1402.5458
 20
1019.9776
 30
0.0
 11
1402.5458
 21
1012.4776
 31
0.0
  0
LINE
  5
66
330
20
100
AcDbEntity
  8
_0-0_LAYER001
  6
Continuous
 62
     2
100
AcDbLine
 10
1402.5458
 20
1012.4776
 30
0.0
 11
1398.7958
 21
1018.9728
 31
0.0
  0
LINE
  5
67
330
20
100
AcDbEntity
  8
_0-0_LAYER001
  6
Continuous
 62
     2
100
AcDbLine
 10
1402.5458
 20
1012.4776
 30
0.0
 11
1375.4493
 21
1113.6031
 31
0.0
  0
LINE
  5
68
330
20
100
AcDbEntity
  8
_0-0_LAYER001
  6
Continuous
 62
     2
100
AcDbLine
 10
1375.4493
 20
1113.6031
 30
0.0
 11
1334.9493
 21
1113.6031
 31
0.0
  0
LINE
  5
69
330
20
100
AcDbEntity
  8
_0-0_LAYER001
  6
Continuous
 62
     2
100
AcDbLine
 10
1788.918
 20
1065.5194
 30
0.0
 11
1786.9769
 21
1072.7639
 31
0.0
  0
LINE
  5
6A
330
20
100
AcDbEntity
  8
_0-0_LAYER001
  6
Continuous
 62
     2
100
AcDbLine
 10
1786.9769
 20
1072.7639
 30
0.0
 11
1792.2802
 21
1067.4606
 31
0.0
  0
LINE
  5
6B
330
20
100
AcDbEntity
  8
_0-0_LAYER001
  6
Continuous
 62
     2
100
AcDbLine
 10
1786.9769
 20
1072.7639
 30
0.0
 11
1934.3242
 21
817.5508999999998
 31
0.0
  0
LINE
  5
6C
330
20
100
AcDbEntity
  8
_0-0_LAYER001
  6
Continuous
 62
     2
100
AcDbLine
 10
1934.3242
 20
817.5508999999998
 30
0.0
 11
2018.3524
 21
817.5508999999998
 31
0.0
  0
LINE
  5
6D
330
20
100
AcDbEntity
  8
_0-0_LAYER001
  6
Continuous
 62
     2
100
AcDbLine
 10
910.1126999999999
 20
686.57
 30
0.0
 11
910.1126999999999
 21
739.0699999999998
 31
0.0
  0
CIRCLE
  5
6E
330
20
100
AcDbEntity
  8
_0-0_LAYER001
  6
Continuous
 62
     2
100
AcDbCircle
 10
910.1126999999999
 20
689.07
 30
0.0
 40
1.699999999999999
  0
LINE
  5
6F
330
20
100
AcDbEntity
  8
_0-0_LAYER001
  6
Continuous
 62
     2
100
AcDbLine
 10
910.1126999999999
 20
689.07
 30
0.0
 11
1165.1127
 21
689.07
 31
0.0
  0
CIRCLE
  5
70
330
20
100
AcDbEntity
  8
_0-0_LAYER001
  6
Continuous
 62
     2
100
AcDbCircle
 10
1165.1127
 20
689.07
 30
0.0
 40
1.699999999999999
  0
LINE
  5
71
330
20
100
AcDbEntity
  8
_0-0_LAYER001
  6
Continuous
 62
     2
100
AcDbLine
 10
1165.1127
 20
686.57
 30
0.0
 11
1165.1127
 21
739.0699999999998
 31
0.0
  0
CIRCLE
  5
72
330
20
100
AcDbEntity
  8
_0-0_LAYER001
  6
Continuous
 62
     2
100
AcDbCircle
 10
1165.1127
 20
689.07
 30
0.0
 40
1.699999999999999
  0
LINE
  5
73
330
20
100
AcDbEntity
  8
_0-0_LAYER001
  6
Continuous
 62
     2
100
AcDbLine
 10
1165.1127
 20
689.07
 30
0.0
 11
1420.1127
 21
689.07
 31
0.0
  0
CIRCLE
  5
74
330
20
100
AcDbEntity
  8
_0-0_LAYER001
  6
Continuous
 62
     2
100
AcDbCircle
 10
1420.1127
 20
689.07
 30
0.0
 40
1.699999999999999
  0
LINE
  5
75
330
20
100
AcDbEntity
  8
_0-0_LAYER001
  6
Continuous
 62
     2
100
AcDbLine
 10
1420.1127
 20
686.57
 30
0.0
 11
1420.1127
 21
739.0699999999998
 31
0.0
  0
CIRCLE
  5
76
330
20
100
AcDbEntity
  8
_0-0_LAYER001
  6
Continuous
 62
     2
100
AcDbCircle
 10
1420.1127
 20
689.07
 30
0.0
 40
1.699999999999999
  0
LINE
  5
77
330
20
100
AcDbEntity
  8
_0-0_LAYER001
  6
Continuous
 62
     2
100
AcDbLine
 10
1420.1127
 20
689.07
 30
0.0
 11
1716.1736
 21
689.07
 31
0.0
  0
CIRCLE
  5
78
330
20
100
AcDbEntity
  8
_0-0_LAYER001
  6
Continuous
 62
     2
100
AcDbCircle
 10
1716.1736
 20
689.07
 30
0.0
 40
1.699999999999999
  0
LINE
  5
79
330
20
100
AcDbEntity
  8
_0-0_LAYER001
  6
Continuous
 62
     2
100
AcDbLine
 10
1716.1736
 20
686.57
 30
0.0
 11
1716.1736
 21
739.0699999999998
 31
0.0
  0
LINE
  5
7A
330
20
100
AcDbEntity
  8
_0-0_LAYER001
  6
Continuous
 62
     2
100
AcDbLine
 10
1298.619699999999
 20
992.0522999999999
 30
0.0
 11
1298.619699999999
 21
984.5523
 31
0.0
  0
LINE
  5
7B
330
20
100
AcDbEntity
  8
_0-0_LAYER001
  6
Continuous
 62
     2
100
AcDbLine
 10
1298.619699999999
 20
984.5523
 30
0.0
 11
1294.869699999999
 21
991.0474999999999
 31
0.0
  0
LINE
  5
7C
330
20
100
AcDbEntity
  8
_0-0_LAYER001
  6
Continuous
 62
     2
100
AcDbLine
 10
1298.619699999999
 20
984.5523
 30
0.0
 11
1208.7461
 21
1319.9654
 31
0.0
  0
CIRCLE
  5
7D
330
20
100
AcDbEntity
  8
_0-0_LAYER001
  6
Continuous
 62
     2
100
AcDbCircle
 10
1776.715
 20
1077.8741
 30
0.0
 40
0.9
  0
CIRCLE
  5
7E
330
20
100
AcDbEntity
  8
_0-0_LAYER001
  6
Continuous
 62
     2
100
AcDbCircle
 10
1785.2307
 20
1074.7202
 30
0.0
 40
0.9
  0
CIRCLE
  5
7F
330
20
100
AcDbEntity
  8
_0-0_LAYER001
  6
Continuous
 62
     2
100
AcDbCircle
 10
1766.9378
 20
1069.9893
 30
0.0
 40
0.9
  0
CIRCLE
  5
80
330
20
100
AcDbEntity
  8
_0-0_LAYER001
  6
Continuous
 62
     2
100
AcDbCircle
 10
1750.8527
 20
1075.0356
 30
0.0
 40
0.9
  0
CIRCLE
  5
81
330
20
100
AcDbEntity
  8
_0-0_LAYER001
  6
Continuous
 62
     2
100
AcDbCircle
 10
1779.7536
 20
1061.9434
 30
0.0
 40
0.9
  0
CIRCLE
  5
82
330
20
100
AcDbEntity
  8
_0-0_LAYER001
  6
Continuous
 62
     2
100
AcDbCircle
 10
1763.6875
 20
1082.3912
 30
0.0
 40
0.9
  0
CIRCLE
  5
83
330
20
100
AcDbEntity
  8
_0-0_LAYER001
  6
Continuous
 62
     2
100
AcDbCircle
 10
1750.1773
 20
1083.1214
 30
0.0
 40
0.9
  0
CIRCLE
  5
84
330
20
100
AcDbEntity
  8
_0-0_LAYER001
  6
Continuous
 62
     2
100
AcDbCircle
 10
1757.115
 20
1064.1342
 30
0.0
 40
0.9
  0
LINE
  5
85
330
20
100
AcDbEntity
  8
_0-0_LAYER001
  6
Continuous
 62
     2
100
AcDbLine
 10
1730.2494
 20
1364.8317
 30
0.0
 11
1730.2494
 21
1312.3317
 31
0.0
  0
CIRCLE
  5
86
330
20
100
AcDbEntity
  8
_0-0_LAYER001
  6
Continuous
 62
     2
100
AcDbCircle
 10
1730.2494
 20
1362.3317
 30
0.0
 40
1.699999999999999
  0
LINE
  5
87
330
20
100
AcDbEntity
  8
_0-0_LAYER001
  6
Continuous
 62
     2
100
AcDbLine
 10
1730.2494
 20
1362.3317
 30
0.0
 11
1821.8036
 21
1362.3317
 31
0.0
  0
CIRCLE
  5
88
330
20
100
AcDbEntity
  8
_0-0_LAYER001
  6
Continuous
 62
     2
100
AcDbCircle
 10
1821.8036
 20
1362.3317
 30
0.0
 40
1.699999999999999
  0
LINE
  5
89
330
20
100
AcDbEntity
  8
_0-0_LAYER001
  6
Continuous
 62
     2
100
AcDbLine
 10
1821.8036
 20
1364.8317
 30
0.0
 11
1821.8036
 21
1312.3317
 31
0.0
  0
LINE
  5
8A
330
20
100
AcDbEntity
  8
_0-0_LAYER001
  6
Continuous
 62
     3
100
AcDbLine
 10
1788.7818
 20
1153.342
 30
0.0
 11
1788.7927
 21
1152.8764
 31
0.0
  0
LINE
  5
8B
330
20
100
AcDbEntity
  8
_0-0_LAYER001
  6
Continuous
 62
     3
100
AcDbLine
 10
1788.7927
 20
1152.8764
 30
0.0
 11
1788.8225
 21
1151.6125
 31
0.0
  0
LINE
  5
8C
330
20
100
AcDbEntity
  8
_0-0_LAYER001
  6
Continuous
 62
     3
100
AcDbLine
 10
1788.8225
 20
1151.6125
 30
0.0
 11
1788.8664
 21
1149.7499
 31
0.0
  0
LINE
  5
8D
330
20
100
AcDbEntity
  8
_0-0_LAYER001
  6
Continuous
 62
     3
100
AcDbLine
 10
1788.8664
 20
1149.7499
 30
0.0
 11
1788.9197
 21
1147.4882
 31
0.0
  0
LINE
  5
8E
330
20
100
AcDbEntity
  8
_0-0_LAYER001
  6
Continuous
 62
     3
100
AcDbLine
 10
1788.9197
 20
1147.4882
 30
0.0
 11
1788.9777
 21
1145.0269
 31
0.0
  0
LINE
  5
8F
330
20
100
AcDbEntity
  8
_0-0_LAYER001
  6
Continuous
 62
     3
100
AcDbLine
 10
1788.9777
 20
1145.0269
 30
0.0
 11
1789.0357
 21
1142.5656
 31
0.0
  0
LINE
  5
90
330
20
100
AcDbEntity
  8
_0-0_LAYER001
  6
Continuous
 62
     3
100
AcDbLine
 10
1789.0357
 20
1142.5656
 30
0.0
 11
1789.089
 21
1140.3038
 31
0.0
  0
LINE
  5
91
330
20
100
AcDbEntity
  8
_0-0_LAYER001
  6
Continuous
 62
     3
100
AcDbLine
 10
1789.089
 20
1140.3038
 30
0.0
 11
1789.1329
 21
1138.4412
 31
0.0
  0
LINE
  5
92
330
20
100
AcDbEntity
  8
_0-0_LAYER001
  6
Continuous
 62
     3
100
AcDbLine
 10
1789.1329
 20
1138.4412
 30
0.0
 11
1789.1627
 21
1137.1773
 31
0.0
  0
LINE
  5
93
330
20
100
AcDbEntity
  8
_0-0_LAYER001
  6
Continuous
 62
     3
100
AcDbLine
 10
1789.1627
 20
1137.1773
 30
0.0
 11
1789.173699999999
 21
1136.7117
 31
0.0
  0
LINE
  5
94
330
20
100
AcDbEntity
  8
_0-0_LAYER001
  6
Continuous
 62
     3
100
AcDbLine
 10
1789.173699999999
 20
1136.7117
 30
0.0
 11
1788.025999999999
 21
1136.7045
 31
0.0
  0
LINE
  5
95
330
20
100
AcDbEntity
  8
_0-0_LAYER001
  6
Continuous
 62
     3
100
AcDbLine
 10
1788.025999999999
 20
1136.7045
 30
0.0
 11
1784.654599999999
 21
1136.5295
 31
0.0
  0
LINE
  5
96
330
20
100
AcDbEntity
  8
_0-0_LAYER001
  6
Continuous
 62
     3
100
AcDbLine
 10
1784.654599999999
 20
1136.5295
 30
0.0
 11
1779.1667
 21
1135.9561
 31
0.0
  0
LINE
  5
97
330
20
100
AcDbEntity
  8
_0-0_LAYER001
  6
Continuous
 62
     3
100
AcDbLine
 10
1779.1667
 20
1135.9561
 30
0.0
 11
1771.6694
 21
1134.754
 31
0.0
  0
LINE
  5
98
330
20
100
AcDbEntity
  8
_0-0_LAYER001
  6
Continuous
 62
     3
100
AcDbLine
 10
1771.6694
 20
1134.754
 30
0.0
 11
1762.269899999999
 21
1132.6927
 31
0.0
  0
LINE
  5
99
330
20
100
AcDbEntity
  8
_0-0_LAYER001
  6
Continuous
 62
     3
100
AcDbLine
 10
1762.269899999999
 20
1132.6927
 30
0.0
 11
1751.0756
 21
1129.5417
 31
0.0
  0
LINE
  5
9A
330
20
100
AcDbEntity
  8
_0-0_LAYER001
  6
Continuous
 62
     3
100
AcDbLine
 10
1751.0756
 20
1129.5417
 30
0.0
 11
1738.1937
 21
1125.0708
 31
0.0
  0
LINE
  5
9B
330
20
100
AcDbEntity
  8
_0-0_LAYER001
  6
Continuous
 62
     3
100
AcDbLine
 10
1738.1937
 20
1125.0708
 30
0.0
 11
1723.7313
 21
1119.0493
 31
0.0
  0
LINE
  5
9C
330
20
100
AcDbEntity
  8
_0-0_LAYER001
  6
Continuous
 62
     3
100
AcDbLine
 10
1723.7313
 20
1119.0493
 30
0.0
 11
1707.7957
 21
1111.247
 31
0.0
  0
LINE
  5
9D
330
20
100
AcDbEntity
  8
_0-0_LAYER001
  6
Continuous
 62
     3
100
AcDbLine
 10
1707.7957
 20
1111.247
 30
0.0
 11
1690.4941
 21
1101.4333
 31
0.0
  0
LINE
  5
9E
330
20
100
AcDbEntity
  8
_0-0_LAYER001
  6
Continuous
 62
     3
100
AcDbLine
 10
1690.4941
 20
1101.4333
 30
0.0
 11
1690.476299999999
 21
1102.1911
 31
0.0
  0
LINE
  5
9F
330
20
100
AcDbEntity
  8
_0-0_LAYER001
  6
Continuous
 62
     3
100
AcDbLine
 10
1690.476299999999
 20
1102.1911
 30
0.0
 11
1690.4278
 21
1104.2481
 31
0.0
  0
LINE
  5
A0
330
20
100
AcDbEntity
  8
_0-0_LAYER001
  6
Continuous
 62
     3
100
AcDbLine
 10
1690.4278
 20
1104.2481
 30
0.0
 11
1690.3563
 21
1107.2794
 31
0.0
  0
LINE
  5
A1
330
20
100
AcDbEntity
  8
_0-0_LAYER001
  6
Continuous
 62
     3
100
AcDbLine
 10
1690.3563
 20
1107.2794
 30
0.0
 11
1690.2696
 21
1110.9603
 31
0.0
  0
LINE
  5
A2
330
20
100
AcDbEntity
  8
_0-0_LAYER001
  6
Continuous
 62
     3
100
AcDbLine
 10
1690.2696
 20
1110.9603
 30
0.0
 11
1690.1752
 21
1114.966
 31
0.0
  0
LINE
  5
A3
330
20
100
AcDbEntity
  8
_0-0_LAYER001
  6
Continuous
 62
     3
100
AcDbLine
 10
1690.1752
 20
1114.966
 30
0.0
 11
1690.0808
 21
1118.9717
 31
0.0
  0
LINE
  5
A4
330
20
100
AcDbEntity
  8
_0-0_LAYER001
  6
Continuous
 62
     3
100
AcDbLine
 10
1690.0808
 20
1118.9717
 30
0.0
 11
1689.994
 21
1122.6526
 31
0.0
  0
LINE
  5
A5
330
20
100
AcDbEntity
  8
_0-0_LAYER001
  6
Continuous
 62
     3
100
AcDbLine
 10
1689.994
 20
1122.6526
 30
0.0
 11
1689.9226
 21
1125.6839
 31
0.0
  0
LINE
  5
A6
330
20
100
AcDbEntity
  8
_0-0_LAYER001
  6
Continuous
 62
     3
100
AcDbLine
 10
1689.9226
 20
1125.6839
 30
0.0
 11
1689.8741
 21
1127.7409
 31
0.0
  0
LINE
  5
A7
330
20
100
AcDbEntity
  8
_0-0_LAYER001
  6
Continuous
 62
     3
100
AcDbLine
 10
1689.8741
 20
1127.7409
 30
0.0
 11
1689.8563
 21
1128.4987
 31
0.0
  0
LINE
  5
A8
330
20
100
AcDbEntity
  8
_0-0_LAYER001
  6
Continuous
 62
     3
100
AcDbLine
 10
1689.8563
 20
1128.4987
 30
0.0
 11
1691.5091
 21
1129.1239
 31
0.0
  0
LINE
  5
A9
330
20
100
AcDbEntity
  8
_0-0_LAYER001
  6
Continuous
 62
     3
100
AcDbLine
 10
1691.5091
 20
1129.1239
 30
0.0
 11
1696.1726
 21
1130.8322
 31
0.0
  0
LINE
  5
AA
330
20
100
AcDbEntity
  8
_0-0_LAYER001
  6
Continuous
 62
     3
100
AcDbLine
 10
1696.1726
 20
1130.8322
 30
0.0
 11
1703.4044
 21
1133.3723
 31
0.0
  0
LINE
  5
AB
330
20
100
AcDbEntity
  8
_0-0_LAYER001
  6
Continuous
 62
     3
100
AcDbLine
 10
1703.4044
 20
1133.3723
 30
0.0
 11
1712.7623
 21
1136.493
 31
0.0
  0
LINE
  5
AC
330
20
100
AcDbEntity
  8
_0-0_LAYER001
  6
Continuous
 62
     3
100
AcDbLine
 10
1712.7623
 20
1136.493
 30
0.0
 11
1723.8037
 21
1139.9431
 31
0.0
  0
LINE
  5
AD
330
20
100
AcDbEntity
  8
_0-0_LAYER001
  6
Continuous
 62
     3
100
AcDbLine
 10
1723.8037
 20
1139.9431
 30
0.0
 11
1736.0863
 21
1143.4713
 31
0.0
  0
LINE
  5
AE
330
20
100
AcDbEntity
  8
_0-0_LAYER001
  6
Continuous
 62
     3
100
AcDbLine
 10
1736.0863
 20
1143.4713
 30
0.0
 11
1749.1678
 21
1146.8266
 31
0.0
  0
LINE
  5
AF
330
20
100
AcDbEntity
  8
_0-0_LAYER001
  6
Continuous
 62
     3
100
AcDbLine
 10
1749.1678
 20
1146.8266
 30
0.0
 11
1762.6058
 21
1149.7576
 31
0.0
  0
LINE
  5
B0
330
20
100
AcDbEntity
  8
_0-0_LAYER001
  6
Continuous
 62
     3
100
AcDbLine
 10
1762.6058
 20
1149.7576
 30
0.0
 11
1775.9579
 21
1152.0131
 31
0.0
  0
LINE
  5
B1
330
20
100
AcDbEntity
  8
_0-0_LAYER001
  6
Continuous
 62
     3
100
AcDbLine
 10
1788.7818
 20
1153.342
 30
0.0
 11
1775.846
 21
1151.9942
 31
0.0
  0
LINE
  5
B2
330
20
100
AcDbEntity
  8
_0-0_LAYER001
  6
Continuous
 62
     2
100
AcDbLine
 10
1709.272
 20
1140.361
 30
0.0
 11
1732.853999999999
 21
1148.9442
 31
0.0
  0
LINE
  5
B3
330
20
100
AcDbEntity
  8
_0-0_LAYER001
  6
Continuous
 62
     2
100
AcDbLine
 10
1709.272
 20
1140.361
 30
0.0
 11
1715.1846
 21
1141.3813
 31
0.0
  0
LINE
  5
B4
330
20
100
AcDbEntity
  8
_0-0_LAYER001
  6
Continuous
 62
     2
100
AcDbLine
 10
1735.1709
 20
1147.3219
 30
0.0
 11
1823.8036
 21
1162.9503
 31
0.0
  0
LINE
  5
B5
330
20
100
AcDbEntity
  8
_0-0_LAYER001
  6
Continuous
 62
     2
100
AcDbLine
 10
1732.5662
 20
1162.094
 30
0.0
 11
1821.1989
 21
1177.7224
 31
0.0
  0
LINE
  5
B6
330
20
100
AcDbEntity
  8
_0-0_LAYER001
  6
Continuous
 62
     2
100
AcDbLine
 10
1732.5662
 20
1162.094
 30
0.0
 11
1735.1709
 21
1147.3219
 31
0.0
  0
LINE
  5
B7
330
20
100
AcDbEntity
  8
_0-0_LAYER001
  6
Continuous
 62
     2
100
AcDbLine
 10
1821.1989
 20
1177.7224
 30
0.0
 11
1823.8036
 21
1162.9503
 31
0.0
  0
LINE
  5
B8
330
20
100
AcDbEntity
  8
_0-0_LAYER001
  6
Continuous
 62
     2
100
AcDbLine
 10
1823.8036
 20
1162.9503
 30
0.0
 11
1732.5662
 21
1162.094
 31
0.0
  0
LINE
  5
B9
330
20
100
AcDbEntity
  8
_0-0_LAYER001
  6
Continuous
 62
     2
100
AcDbLine
 10
1730.2494
 20
1163.7163
 30
0.0
 11
1732.853999999999
 21
1148.9442
 31
0.0
  0
LINE
  5
BA
330
20
100
AcDbEntity
  8
_0-0_LAYER001
  6
Continuous
 62
     2
100
AcDbLine
 10
1871.8036
 20
1142.9503
 30
0.0
 11
1866.8035
 21
1145.9503
 31
0.0
  0
LINE
  5
BB
330
20
100
AcDbEntity
  8
_0-0_LAYER001
  6
Continuous
 62
     2
100
AcDbLine
 10
1866.8035
 20
1139.9503
 30
0.0
 11
1871.8036
 21
1142.9503
 31
0.0
  0
LINE
  5
BC
330
20
100
AcDbEntity
  8
_0-0_LAYER001
  6
Continuous
 62
     2
100
AcDbLine
 10
1865.7286
 20
1139.9503
 30
0.0
 11
1868.5776
 21
1144.8864
 31
0.0
  0
LINE
  5
BD
330
20
100
AcDbEntity
  8
_0-0_LAYER001
  6
Continuous
 62
     2
100
AcDbLine
 10
1799.8035
 20
1139.9503
 30
0.0
 11
1799.8035
 21
1145.9503
 31
0.0
  0
LINE
  5
BE
330
20
100
AcDbEntity
  8
_0-0_LAYER001
  6
Continuous
 62
     2
100
AcDbLine
 10
1793.8036
 20
1136.9502
 30
0.0
 11
1793.8036
 21
1148.9504
 31
0.0
  0
LINE
  5
BF
330
20
100
AcDbEntity
  8
_0-0_LAYER001
  6
Continuous
 62
     2
100
AcDbLine
 10
1802.6905
 20
1139.9503
 30
0.0
 11
1806.1536
 21
1145.9503
 31
0.0
  0
LINE
  5
C0
330
20
100
AcDbEntity
  8
_0-0_LAYER001
  6
Continuous
 62
     2
100
AcDbLine
 10
1793.8036
 20
1136.9502
 30
0.0
 11
1799.8035
 21
1139.9503
 31
0.0
  0
LINE
  5
C1
330
20
100
AcDbEntity
  8
_0-0_LAYER001
  6
Continuous
 62
     2
100
AcDbLine
 10
1799.8035
 20
1145.9503
 30
0.0
 11
1793.8036
 21
1148.9504
 31
0.0
  0
LINE
  5
C2
330
20
100
AcDbEntity
  8
_0-0_LAYER001
  6
Continuous
 62
     2
100
AcDbLine
 10
1866.8035
 20
1145.9503
 30
0.0
 11
1856.7885
 21
1145.9503
 31
0.0
  0
LINE
  5
C3
330
20
100
AcDbEntity
  8
_0-0_LAYER001
  6
Continuous
 62
     2
100
AcDbLine
 10
1848.1366
 20
1141.4774
 30
0.0
 11
1850.0306
 21
1144.7584
 31
0.0
  0
LINE
  5
C4
330
20
100
AcDbEntity
  8
_0-0_LAYER001
  6
Continuous
 62
     2
100
AcDbLine
 10
1856.5206
 20
1139.9993
 30
0.0
 11
1859.9555
 21
1145.9503
 31
0.0
  0
LINE
  5
C5
330
20
100
AcDbEntity
  8
_0-0_LAYER001
  6
Continuous
 62
     2
100
AcDbLine
 10
1866.8035
 20
1139.9503
 30
0.0
 11
1856.7966
 21
1139.9503
 31
0.0
  0
LINE
  5
C6
330
20
100
AcDbEntity
  8
_0-0_LAYER001
  6
Continuous
 62
     2
100
AcDbLine
 10
1864.6525
 20
1149.6733
 30
0.0
 11
1865.0526
 21
1147.4073
 31
0.0
  0
LINE
  5
C7
330
20
100
AcDbEntity
  8
_0-0_LAYER001
  6
Continuous
 62
     2
100
AcDbLine
 10
1864.4796
 20
1136.2604
 30
0.0
 11
1864.8775
 21
1138.5253
 31
0.0
  0
LINE
  5
C8
330
20
100
AcDbEntity
  8
_0-0_LAYER001
  6
Continuous
 62
     2
100
AcDbLine
 10
1860.0594
 20
1148.6593
 30
0.0
 11
1861.7336
 21
1148.9543
 31
0.0
  0
LINE
  5
C9
330
20
100
AcDbEntity
  8
_0-0_LAYER001
  6
Continuous
 62
     2
100
AcDbLine
 10
1855.7265
 20
1147.8954
 30
0.0
 11
1857.3995
 21
1148.1903
 31
0.0
  0
LINE
  5
CA
330
20
100
AcDbEntity
  8
_0-0_LAYER001
  6
Continuous
 62
     2
100
AcDbLine
 10
1851.3935
 20
1147.1313
 30
0.0
 11
1853.0665
 21
1147.4263
 31
0.0
  0
LINE
  5
CB
330
20
100
AcDbEntity
  8
_0-0_LAYER001
  6
Continuous
 62
     2
100
AcDbLine
 10
1851.0974
 20
1148.8044
 30
0.0
 11
1842.0035
 21
1147.2015
 31
0.0
  0
LINE
  5
CC
330
20
100
AcDbEntity
  8
_0-0_LAYER001
  6
Continuous
 62
     2
100
AcDbLine
 10
1855.4305
 20
1149.5683
 30
0.0
 11
1852.7715
 21
1149.0993
 31
0.0
  0
LINE
  5
CD
330
20
100
AcDbEntity
  8
_0-0_LAYER001
  6
Continuous
 62
     2
100
AcDbLine
 10
1859.7635
 20
1150.3324
 30
0.0
 11
1857.1045
 21
1149.8634
 31
0.0
  0
LINE
  5
CE
330
20
100
AcDbEntity
  8
_0-0_LAYER001
  6
Continuous
 62
     2
100
AcDbLine
 10
1862.9154
 20
1150.8883
 30
0.0
 11
1861.4376
 21
1150.6272
 31
0.0
  0
LINE
  5
CF
330
20
100
AcDbEntity
  8
_0-0_LAYER001
  6
Continuous
 62
     2
100
AcDbLine
 10
1861.7336
 20
1148.9543
 30
0.0
 11
1861.4376
 21
1150.6283
 31
0.0
  0
LINE
  5
D0
330
20
100
AcDbEntity
  8
_0-0_LAYER001
  6
Continuous
 62
     2
100
AcDbLine
 10
1860.0594
 20
1148.6593
 30
0.0
 11
1859.7635
 21
1150.3334
 31
0.0
  0
LINE
  5
D1
330
20
100
AcDbEntity
  8
_0-0_LAYER001
  6
Continuous
 62
     2
100
AcDbLine
 10
1857.4006
 20
1148.1903
 30
0.0
 11
1857.1045
 21
1149.8644
 31
0.0
  0
LINE
  5
D2
330
20
100
AcDbEntity
  8
_0-0_LAYER001
  6
Continuous
 62
     2
100
AcDbLine
 10
1855.7265
 20
1147.8954
 30
0.0
 11
1855.4305
 21
1149.5693
 31
0.0
  0
LINE
  5
D3
330
20
100
AcDbEntity
  8
_0-0_LAYER001
  6
Continuous
 62
     2
100
AcDbLine
 10
1853.0676
 20
1147.4263
 30
0.0
 11
1852.7715
 21
1149.1003
 31
0.0
  0
LINE
  5
D4
330
20
100
AcDbEntity
  8
_0-0_LAYER001
  6
Continuous
 62
     2
100
AcDbLine
 10
1851.3935
 20
1147.1313
 30
0.0
 11
1851.0974
 21
1148.8053
 31
0.0
  0
LINE
  5
D5
330
20
100
AcDbEntity
  8
_0-0_LAYER001
  6
Continuous
 62
     2
100
AcDbLine
 10
1859.8846
 20
1137.2733
 30
0.0
 11
1861.5586
 21
1136.9783
 31
0.0
  0
LINE
  5
D6
330
20
100
AcDbEntity
  8
_0-0_LAYER001
  6
Continuous
 62
     2
100
AcDbLine
 10
1855.5516
 20
1138.0374
 30
0.0
 11
1857.2255
 21
1137.7424
 31
0.0
  0
LINE
  5
D7
330
20
100
AcDbEntity
  8
_0-0_LAYER001
  6
Continuous
 62
     2
100
AcDbLine
 10
1851.2186
 20
1138.8013
 30
0.0
 11
1852.8925
 21
1138.5063
 31
0.0
  0
LINE
  5
D8
330
20
100
AcDbEntity
  8
_0-0_LAYER001
  6
Continuous
 62
     2
100
AcDbLine
 10
1851.2196
 20
1138.8013
 30
0.0
 11
1850.9235
 21
1137.1284
 31
0.0
  0
LINE
  5
D9
330
20
100
AcDbEntity
  8
_0-0_LAYER001
  6
Continuous
 62
     2
100
AcDbLine
 10
1852.8935
 20
1138.5063
 30
0.0
 11
1852.5974
 21
1136.8333
 31
0.0
  0
LINE
  5
DA
330
20
100
AcDbEntity
  8
_0-0_LAYER001
  6
Continuous
 62
     2
100
AcDbLine
 10
1855.5526
 20
1138.0374
 30
0.0
 11
1855.2565
 21
1136.3643
 31
0.0
  0
LINE
  5
DB
330
20
100
AcDbEntity
  8
_0-0_LAYER001
  6
Continuous
 62
     2
100
AcDbLine
 10
1857.2265
 20
1137.7424
 30
0.0
 11
1856.9305
 21
1136.0694
 31
0.0
  0
LINE
  5
DC
330
20
100
AcDbEntity
  8
_0-0_LAYER001
  6
Continuous
 62
     2
100
AcDbLine
 10
1859.8855
 20
1137.2733
 30
0.0
 11
1859.5896
 21
1135.6003
 31
0.0
  0
LINE
  5
DD
330
20
100
AcDbEntity
  8
_0-0_LAYER001
  6
Continuous
 62
     2
100
AcDbLine
 10
1861.5596
 20
1136.9783
 30
0.0
 11
1861.2635
 21
1135.3054
 31
0.0
  0
LINE
  5
DE
330
20
100
AcDbEntity
  8
_0-0_LAYER001
  6
Continuous
 62
     2
100
AcDbLine
 10
1850.9235
 20
1137.1284
 30
0.0
 11
1842.0035
 21
1138.7003
 31
0.0
  0
LINE
  5
DF
330
20
100
AcDbEntity
  8
_0-0_LAYER001
  6
Continuous
 62
     2
100
AcDbLine
 10
1855.2565
 20
1136.3643
 30
0.0
 11
1852.5974
 21
1136.8333
 31
0.0
  0
LINE
  5
E0
330
20
100
AcDbEntity
  8
_0-0_LAYER001
  6
Continuous
 62
     2
100
AcDbLine
 10
1859.5896
 20
1135.6003
 30
0.0
 11
1856.9305
 21
1136.0694
 31
0.0
  0
LINE
  5
E1
330
20
100
AcDbEntity
  8
_0-0_LAYER001
  6
Continuous
 62
     2
100
AcDbLine
 10
1862.7406
 20
1135.0443
 30
0.0
 11
1861.2635
 21
1135.3043
 31
0.0
  0
LINE
  5
E2
330
20
100
AcDbEntity
  8
_0-0_LAYER001
  6
Continuous
 62
     2
100
AcDbLine
 10
1839.7796
 20
1142.9514
 30
0.0
 11
1865.0526
 21
1147.4073
 31
0.0
  0
LINE
  5
E3
330
20
100
AcDbEntity
  8
_0-0_LAYER001
  6
Continuous
 62
     2
100
AcDbLine
 10
1839.7796
 20
1142.9514
 30
0.0
 11
1864.8775
 21
1138.5253
 31
0.0
  0
LINE
  5
E4
330
20
100
AcDbEntity
  8
_0-0_LAYER001
  6
Continuous
 62
     2
100
AcDbLine
 10
1823.8036
 20
1147.2003
 30
0.0
 11
1842.0035
 21
1147.2003
 31
0.0
  0
LINE
  5
E5
330
20
100
AcDbEntity
  8
_0-0_LAYER001
  6
Continuous
 62
     2
100
AcDbLine
 10
1823.8036
 20
1138.7003
 30
0.0
 11
1842.0035
 21
1138.7003
 31
0.0
  0
LINE
  5
E6
330
20
100
AcDbEntity
  8
_0-0_LAYER001
  6
Continuous
 62
     2
100
AcDbLine
 10
1823.8036
 20
1138.7003
 30
0.0
 11
1823.8036
 21
1147.2003
 31
0.0
  0
LINE
  5
E7
330
20
100
AcDbEntity
  8
_0-0_LAYER001
  6
Continuous
 62
     2
100
AcDbLine
 10
1793.8036
 20
1122.9503
 30
0.0
 11
1823.8036
 21
1122.9503
 31
0.0
  0
LINE
  5
E8
330
20
100
AcDbEntity
  8
_0-0_LAYER001
  6
Continuous
 62
     2
100
AcDbLine
 10
1823.8036
 20
1145.9503
 30
0.0
 11
1799.8035
 21
1145.9503
 31
0.0
  0
LINE
  5
E9
330
20
100
AcDbEntity
  8
_0-0_LAYER001
  6
Continuous
 62
     2
100
AcDbLine
 10
1823.8036
 20
1139.9503
 30
0.0
 11
1799.8035
 21
1139.9503
 31
0.0
  0
LINE
  5
EA
330
20
100
AcDbEntity
  8
_0-0_LAYER001
  6
Continuous
 62
     2
100
AcDbLine
 10
1808.4137
 20
1139.9503
 30
0.0
 11
1811.8767
 21
1145.9503
 31
0.0
  0
LINE
  5
EB
330
20
100
AcDbEntity
  8
_0-0_LAYER001
  6
Continuous
 62
     2
100
AcDbLine
 10
1814.1368
 20
1139.9503
 30
0.0
 11
1817.5999
 21
1145.9503
 31
0.0
  0
LINE
  5
EC
330
20
100
AcDbEntity
  8
_0-0_LAYER001
  6
Continuous
 62
     2
100
AcDbLine
 10
1819.8599
 20
1139.9503
 30
0.0
 11
1823.323
 21
1145.9503
 31
0.0
  0
LINE
  5
ED
330
20
100
AcDbEntity
  8
_0-0_LAYER001
  6
Continuous
 62
     2
100
AcDbLine
 10
1793.8036
 20
1122.9503
 30
0.0
 11
1793.8036
 21
1157.6605
 31
0.0
  0
LINE
  5
EE
330
20
100
AcDbEntity
  8
_0-0_LAYER001
  6
Continuous
 62
     2
100
AcDbLine
 10
1823.8036
 20
1122.9503
 30
0.0
 11
1797.3076
 21
1158.2783
 31
0.0
  0
LINE
  5
EF
330
20
100
AcDbEntity
  8
_0-0_LAYER001
  6
Continuous
 62
     2
100
AcDbLine
 10
1730.2494
 20
1163.7163
 30
0.0
 11
1821.8036
 21
1179.8598
 31
0.0
  0
LINE
  5
F0
330
20
100
AcDbEntity
  8
_0-0_LAYER001
  6
Continuous
 62
     2
100
AcDbLine
 10
1802.9817
 20
1174.5102
 30
0.0
 11
1811.7512
 21
1176.0565
 31
0.0
  0
LINE
  5
F1
330
20
100
AcDbEntity
  8
_0-0_LAYER001
  6
Continuous
 62
     2
100
AcDbLine
 10
1810.5074
 20
1146.7983
 30
0.0
 11
1813.9491
 21
1138.5593
 31
0.0
  0
LINE
  5
F2
330
20
100
AcDbEntity
  8
_0-0_LAYER001
  6
Continuous
 62
     2
100
AcDbLine
 10
1809.4676
 20
1174.0339
 30
0.0
 11
1814.1575
 21
1147.442
 31
0.0
  0
LINE
  5
F3
330
20
100
AcDbEntity
  8
_0-0_LAYER001
  6
Continuous
 62
     2
100
AcDbLine
 10
1813.9491
 20
1138.5593
 30
0.0
 11
1814.1575
 21
1147.442
 31
0.0
  0
LINE
  5
F4
330
20
100
AcDbEntity
  8
_0-0_LAYER001
  6
Continuous
 62
     2
100
AcDbLine
 10
1805.8177
 20
1173.3916
 30
0.0
 11
1802.9817
 21
1174.5102
 31
0.0
  0
LINE
  5
F5
330
20
100
AcDbEntity
  8
_0-0_LAYER001
  6
Continuous
 62
     2
100
AcDbLine
 10
1809.4676
 20
1174.0339
 30
0.0
 11
1811.7512
 21
1176.0565
 31
0.0
  0
LINE
  5
F6
330
20
100
AcDbEntity
  8
_0-0_LAYER001
  6
Continuous
 62
     2
100
AcDbLine
 10
1805.8177
 20
1173.3916
 30
0.0
 11
1810.5074
 21
1146.7983
 31
0.0
  0
ARC
  5
F7
330
20
100
AcDbEntity
  8
_0-0_LAYER001
  6
Continuous
 62
     2
100
AcDbCircle
 10
1863.1675
 20
1149.4064
 30
0.0
 40
1.504999999999999
100
AcDbArc
 50
10.45127
 51
99.63752800000001
  0
ARC
  5
F8
330
20
100
AcDbEntity
  8
_0-0_LAYER001
  6
Continuous
 62
     2
100
AcDbCircle
 10
1862.9996
 20
1136.5233
 30
0.0
 40
1.497
100
AcDbArc
 50
259.8389900000001
 51
350.14733
  0
CIRCLE
  5
F9
330
20
100
AcDbEntity
  8
_0-0_LAYER001
  6
Continuous
 62
     2
100
AcDbCircle
 10
1748.8507
 20
1122.0916
 30
0.0
 40
0.9
  0
CIRCLE
  5
FA
330
20
100
AcDbEntity
  8
_0-0_LAYER001
  6
Continuous
 62
     2
100
AcDbCircle
 10
1749.9281
 20
1091.347
 30
0.0
 40
0.9
  0
LINE
  5
FB
330
20
100
AcDbEntity
  8
_0-0_LAYER001
  6
Continuous
 62
     3
100
AcDbLine
 10
1773.1792
 20
1118.2118
 30
0.0
 11
1773.1902
 21
1117.7461
 31
0.0
  0
LINE
  5
FC
330
20
100
AcDbEntity
  8
_0-0_LAYER001
  6
Continuous
 62
     3
100
AcDbLine
 10
1773.1902
 20
1117.7461
 30
0.0
 11
1773.22
 21
1116.4822
 31
0.0
  0
LINE
  5
FD
330
20
100
AcDbEntity
  8
_0-0_LAYER001
  6
Continuous
 62
     3
100
AcDbLine
 10
1773.22
 20
1116.4822
 30
0.0
 11
1773.2639
 21
1114.6196
 31
0.0
  0
LINE
  5
FE
330
20
100
AcDbEntity
  8
_0-0_LAYER001
  6
Continuous
 62
     3
100
AcDbLine
 10
1773.2639
 20
1114.6196
 30
0.0
 11
1773.3172
 21
1112.3579
 31
0.0
  0
LINE
  5
FF
330
20
100
AcDbEntity
  8
_0-0_LAYER001
  6
Continuous
 62
     3
100
AcDbLine
 10
1773.3172
 20
1112.3579
 30
0.0
 11
1773.3752
 21
1109.8966
 31
0.0
  0
LINE
  5
100
330
20
100
AcDbEntity
  8
_0-0_LAYER001
  6
Continuous
 62
     3
100
AcDbLine
 10
1773.3752
 20
1109.8966
 30
0.0
 11
1773.4332
 21
1107.4353
 31
0.0
  0
LINE
  5
101
330
20
100
AcDbEntity
  8
_0-0_LAYER001
  6
Continuous
 62
     3
100
AcDbLine
 10
1773.4332
 20
1107.4353
 30
0.0
 11
1773.4865
 21
1105.1736
 31
0.0
  0
LINE
  5
102
330
20
100
AcDbEntity
  8
_0-0_LAYER001
  6
Continuous
 62
     3
100
AcDbLine
 10
1773.4865
 20
1105.1736
 30
0.0
 11
1773.5304
 21
1103.311
 31
0.0
  0
LINE
  5
103
330
20
100
AcDbEntity
  8
_0-0_LAYER001
  6
Continuous
 62
     3
100
AcDbLine
 10
1773.5304
 20
1103.311
 30
0.0
 11
1773.5601
 21
1102.0471
 31
0.0
  0
LINE
  5
104
330
20
100
AcDbEntity
  8
_0-0_LAYER001
  6
Continuous
 62
     3
100
AcDbLine
 10
1773.5601
 20
1102.0471
 30
0.0
 11
1773.5711
 21
1101.5814
 31
0.0
  0
LINE
  5
105
330
20
100
AcDbEntity
  8
_0-0_LAYER001
  6
Continuous
 62
     3
100
AcDbLine
 10
1773.5711
 20
1101.5814
 30
0.0
 11
1772.4235
 21
1101.5743
 31
0.0
  0
LINE
  5
106
330
20
100
AcDbEntity
  8
_0-0_LAYER001
  6
Continuous
 62
     3
100
AcDbLine
 10
1772.4235
 20
1101.5743
 30
0.0
 11
1769.0521
 21
1101.3992
 31
0.0
  0
LINE
  5
107
330
20
100
AcDbEntity
  8
_0-0_LAYER001
  6
Continuous
 62
     3
100
AcDbLine
 10
1769.0521
 20
1101.3992
 30
0.0
 11
1763.5641
 21
1100.8259
 31
0.0
  0
LINE
  5
108
330
20
100
AcDbEntity
  8
_0-0_LAYER001
  6
Continuous
 62
     3
100
AcDbLine
 10
1763.5641
 20
1100.8259
 30
0.0
 11
1756.0668
 21
1099.6237
 31
0.0
  0
LINE
  5
109
330
20
100
AcDbEntity
  8
_0-0_LAYER001
  6
Continuous
 62
     3
100
AcDbLine
 10
1756.0668
 20
1099.6237
 30
0.0
 11
1746.667399999999
 21
1097.5624
 31
0.0
  0
LINE
  5
10A
330
20
100
AcDbEntity
  8
_0-0_LAYER001
  6
Continuous
 62
     3
100
AcDbLine
 10
1746.667399999999
 20
1097.5624
 30
0.0
 11
1735.4731
 21
1094.4115
 31
0.0
  0
LINE
  5
10B
330
20
100
AcDbEntity
  8
_0-0_LAYER001
  6
Continuous
 62
     3
100
AcDbLine
 10
1735.4731
 20
1094.4115
 30
0.0
 11
1722.5911
 21
1089.9405
 31
0.0
  0
LINE
  5
10C
330
20
100
AcDbEntity
  8
_0-0_LAYER001
  6
Continuous
 62
     3
100
AcDbLine
 10
1722.5911
 20
1089.9405
 30
0.0
 11
1708.1287
 21
1083.9191
 31
0.0
  0
LINE
  5
10D
330
20
100
AcDbEntity
  8
_0-0_LAYER001
  6
Continuous
 62
     3
100
AcDbLine
 10
1708.1287
 20
1083.9191
 30
0.0
 11
1692.1931
 21
1076.1167
 31
0.0
  0
LINE
  5
10E
330
20
100
AcDbEntity
  8
_0-0_LAYER001
  6
Continuous
 62
     3
100
AcDbLine
 10
1692.1931
 20
1076.1167
 30
0.0
 11
1674.8915
 21
1066.303
 31
0.0
  0
LINE
  5
10F
330
20
100
AcDbEntity
  8
_0-0_LAYER001
  6
Continuous
 62
     3
100
AcDbLine
 10
1674.8915
 20
1066.303
 30
0.0
 11
1674.8737
 21
1067.0608
 31
0.0
  0
LINE
  5
110
330
20
100
AcDbEntity
  8
_0-0_LAYER001
  6
Continuous
 62
     3
100
AcDbLine
 10
1674.8737
 20
1067.0608
 30
0.0
 11
1674.8252
 21
1069.1178
 31
0.0
  0
LINE
  5
111
330
20
100
AcDbEntity
  8
_0-0_LAYER001
  6
Continuous
 62
     3
100
AcDbLine
 10
1674.8252
 20
1069.1178
 30
0.0
 11
1674.7538
 21
1072.1491
 31
0.0
  0
LINE
  5
112
330
20
100
AcDbEntity
  8
_0-0_LAYER001
  6
Continuous
 62
     3
100
AcDbLine
 10
1674.7538
 20
1072.1491
 30
0.0
 11
1674.667
 21
1075.83
 31
0.0
  0
LINE
  5
113
330
20
100
AcDbEntity
  8
_0-0_LAYER001
  6
Continuous
 62
     3
100
AcDbLine
 10
1674.667
 20
1075.83
 30
0.0
 11
1674.5726
 21
1079.8357
 31
0.0
  0
LINE
  5
114
330
20
100
AcDbEntity
  8
_0-0_LAYER001
  6
Continuous
 62
     3
100
AcDbLine
 10
1674.5726
 20
1079.8357
 30
0.0
 11
1674.4782
 21
1083.8414
 31
0.0
  0
LINE
  5
115
330
20
100
AcDbEntity
  8
_0-0_LAYER001
  6
Continuous
 62
     3
100
AcDbLine
 10
1674.4782
 20
1083.8414
 30
0.0
 11
1674.3915
 21
1087.5223
 31
0.0
  0
LINE
  5
116
330
20
100
AcDbEntity
  8
_0-0_LAYER001
  6
Continuous
 62
     3
100
AcDbLine
 10
1674.3915
 20
1087.5223
 30
0.0
 11
1674.32
 21
1090.5536
 31
0.0
  0
LINE
  5
117
330
20
100
AcDbEntity
  8
_0-0_LAYER001
  6
Continuous
 62
     3
100
AcDbLine
 10
1674.32
 20
1090.5536
 30
0.0
 11
1674.2716
 21
1092.6106
 31
0.0
  0
LINE
  5
118
330
20
100
AcDbEntity
  8
_0-0_LAYER001
  6
Continuous
 62
     3
100
AcDbLine
 10
1674.2716
 20
1092.6106
 30
0.0
 11
1674.2537
 21
1093.3684
 31
0.0
  0
LINE
  5
119
330
20
100
AcDbEntity
  8
_0-0_LAYER001
  6
Continuous
 62
     3
100
AcDbLine
 10
1674.2537
 20
1093.3684
 30
0.0
 11
1675.9065
 21
1093.9937
 31
0.0
  0
LINE
  5
11A
330
20
100
AcDbEntity
  8
_0-0_LAYER001
  6
Continuous
 62
     3
100
AcDbLine
 10
1675.9065
 20
1093.9937
 30
0.0
 11
1680.57
 21
1095.702
 31
0.0
  0
LINE
  5
11B
330
20
100
AcDbEntity
  8
_0-0_LAYER001
  6
Continuous
 62
     3
100
AcDbLine
 10
1680.57
 20
1095.702
 30
0.0
 11
1687.8019
 21
1098.242
 31
0.0
  0
LINE
  5
11C
330
20
100
AcDbEntity
  8
_0-0_LAYER001
  6
Continuous
 62
     3
100
AcDbLine
 10
1687.8019
 20
1098.242
 30
0.0
 11
1697.1597
 21
1101.3627
 31
0.0
  0
LINE
  5
11D
330
20
100
AcDbEntity
  8
_0-0_LAYER001
  6
Continuous
 62
     3
100
AcDbLine
 10
1697.1597
 20
1101.3627
 30
0.0
 11
1708.2011
 21
1104.8128
 31
0.0
  0
LINE
  5
11E
330
20
100
AcDbEntity
  8
_0-0_LAYER001
  6
Continuous
 62
     3
100
AcDbLine
 10
1708.2011
 20
1104.8128
 30
0.0
 11
1720.4837
 21
1108.3411
 31
0.0
  0
LINE
  5
11F
330
20
100
AcDbEntity
  8
_0-0_LAYER001
  6
Continuous
 62
     3
100
AcDbLine
 10
1720.4837
 20
1108.3411
 30
0.0
 11
1733.5652
 21
1111.6963
 31
0.0
  0
LINE
  5
120
330
20
100
AcDbEntity
  8
_0-0_LAYER001
  6
Continuous
 62
     3
100
AcDbLine
 10
1733.5652
 20
1111.6963
 30
0.0
 11
1747.0032
 21
1114.6273
 31
0.0
  0
LINE
  5
121
330
20
100
AcDbEntity
  8
_0-0_LAYER001
  6
Continuous
 62
     3
100
AcDbLine
 10
1747.0032
 20
1114.6273
 30
0.0
 11
1760.3553
 21
1116.8829
 31
0.0
  0
LINE
  5
122
330
20
100
AcDbEntity
  8
_0-0_LAYER001
  6
Continuous
 62
     3
100
AcDbLine
 10
1773.1792
 20
1118.2118
 30
0.0
 11
1760.243399999999
 21
1116.864
 31
0.0
  0
CIRCLE
  5
123
330
20
100
AcDbEntity
  8
_0-0_LAYER001
  6
Continuous
 62
     2
100
AcDbCircle
 10
1796.4011
 20
1075.0902
 30
0.0
 40
0.9
  0
CIRCLE
  5
124
330
20
100
AcDbEntity
  8
_0-0_LAYER001
  6
Continuous
 62
     2
100
AcDbCircle
 10
1804.9167
 20
1071.9363
 30
0.0
 40
0.9
  0
CIRCLE
  5
125
330
20
100
AcDbEntity
  8
_0-0_LAYER001
  6
Continuous
 62
     2
100
AcDbCircle
 10
1766.5618
 20
1088.7562
 30
0.0
 40
0.9
  0
CIRCLE
  5
126
330
20
100
AcDbEntity
  8
_0-0_LAYER001
  6
Continuous
 62
     2
100
AcDbCircle
 10
1765.8864
 20
1096.842
 30
0.0
 40
0.9
  0
CIRCLE
  5
127
330
20
100
AcDbEntity
  8
_0-0_LAYER001
  6
Continuous
 62
     2
100
AcDbCircle
 10
1778.716399999999
 20
1118.6739
 30
0.0
 40
0.9
  0
CIRCLE
  5
128
330
20
100
AcDbEntity
  8
_0-0_LAYER001
  6
Continuous
 62
     2
100
AcDbCircle
 10
1787.2321
 20
1115.5199
 30
0.0
 40
0.9
  0
CIRCLE
  5
129
330
20
100
AcDbEntity
  8
_0-0_LAYER001
  6
Continuous
 62
     2
100
AcDbCircle
 10
1793.5255
 20
1062.295
 30
0.0
 40
0.9
  0
CIRCLE
  5
12A
330
20
100
AcDbEntity
  8
_0-0_LAYER001
  6
Continuous
 62
     2
100
AcDbCircle
 10
1802.0411
 20
1059.141
 30
0.0
 40
0.9
  0
ARC
  5
12B
330
20
100
AcDbEntity
  8
_0-0_LAYER001
  6
Continuous
 62
     2
100
AcDbCircle
 10
1720.2744
 20
1123.0162
 30
0.0
 40
20.334565
100
AcDbArc
 50
328.6785900000001
 51
7.131893000000044
  0
ARC
  5
12C
330
20
100
AcDbEntity
  8
_0-0_LAYER001
  6
Continuous
 62
     2
100
AcDbCircle
 10
1671.185
 20
1102.7015
 30
0.0
 40
68.977193
100
AcDbArc
 50
338.1953700000001
 51
354.35825
  0
LINE
  5
12D
330
20
100
AcDbEntity
  8
_0-0_LAYER001
  6
Continuous
 62
     2
100
AcDbLine
 10
1781.2448
 20
1153.6319
 30
0.0
 11
1781.2448
 21
1135.2801
 31
0.0
  0
LINE
  5
12E
330
20
100
AcDbEntity
  8
_0-0_LAYER001
  6
Continuous
 62
     2
100
AcDbLine
 10
1781.2448
 20
1135.2801
 30
0.0
 11
1796.538
 21
1135.2801
 31
0.0
  0
LINE
  5
12F
330
20
100
AcDbEntity
  8
_0-0_LAYER001
  6
Continuous
 62
     2
100
AcDbLine
 10
1796.538
 20
1135.2801
 30
0.0
 11
1796.538
 21
1154.1416
 31
0.0
  0
LINE
  5
130
330
20
100
AcDbEntity
  8
_0-0_LAYER001
  6
Continuous
 62
     2
100
AcDbLine
 10
1781.2448
 20
1153.6319
 30
0.0
 11
1796.538
 21
1153.6319
 31
0.0
  0
LINE
  5
131
330
20
100
AcDbEntity
  8
_0-0_LAYER001
  6
Continuous
 62
     2
100
AcDbLine
 10
1766.5634
 20
1118.8145
 30
0.0
 11
1766.5634
 21
1100.7686
 31
0.0
  0
LINE
  5
132
330
20
100
AcDbEntity
  8
_0-0_LAYER001
  6
Continuous
 62
     2
100
AcDbLine
 10
1766.5634
 20
1100.7686
 30
0.0
 11
1773.5711
 21
1101.5814
 31
0.0
  0
LINE
  5
133
330
20
100
AcDbEntity
  8
_0-0_LAYER001
  6
Continuous
 62
     2
100
AcDbLine
 10
1773.5711
 20
1101.5814
 30
0.0
 11
1799.0868
 21
1124.32
 31
0.0
  0
LINE
  5
134
330
20
100
AcDbEntity
  8
_0-0_LAYER001
  6
Continuous
 62
     2
100
AcDbLine
 10
1766.5634
 20
1118.8145
 30
0.0
 11
1796.538
 21
1126.8689
 31
0.0
  0
LINE
  5
135
330
20
100
AcDbEntity
  8
_0-0_LAYER001
  6
Continuous
 62
     2
100
AcDbLine
 10
1796.538
 20
1126.8689
 30
0.0
 11
1799.0868
 21
1124.32
 31
0.0
  0
LINE
  5
136
330
20
100
AcDbEntity
  8
_0-0_LAYER001
  6
Continuous
 62
     2
100
AcDbLine
 10
1823.8036
 20
1289.0598
 30
0.0
 11
1823.8036
 21
1383.1182
 31
0.0
  0
LINE
  5
137
330
20
100
AcDbEntity
  8
_0-0_LAYER001
  6
Continuous
 62
     4
100
AcDbLine
 10
1674.4675
 20
1061.7258
 30
0.0
 11
1674.4675
 21
1044.0097
 31
0.0
  0
ARC
  5
138
330
20
100
AcDbEntity
  8
_0-0_LAYER001
  6
Continuous
 62
     4
100
AcDbCircle
 10
1849.6235
 20
1202.7678
 30
0.0
 40
171.72701
100
AcDbArc
 50
228.22927
 51
259.16159
  0
LINE
  5
139
330
20
100
AcDbEntity
  8
_0-0_LAYER001
  6
Continuous
 62
     4
100
AcDbLine
 10
1678.1911
 20
1046.7108
 30
0.0
 11
1714.3812
 21
1062.867
 31
0.0
  0
LINE
  5
13A
330
20
100
AcDbEntity
  8
_0-0_LAYER001
  6
Continuous
 62
     4
100
AcDbLine
 10
1678.1911
 20
1046.7108
 30
0.0
 11
1678.1911
 21
1045.0975
 31
0.0
  0
LINE
  5
13B
330
20
100
AcDbEntity
  8
_0-0_LAYER001
  6
Continuous
 62
     4
100
AcDbLine
 10
1674.4675
 20
1044.0097
 30
0.0
 11
1678.183
 21
1045.1244
 31
0.0
  0
ARC
  5
13C
330
20
100
AcDbEntity
  8
_0-0_LAYER001
  6
Continuous
 62
     4
100
AcDbCircle
 10
1720.058
 20
1046.3686
 30
0.0
 40
17.566393
100
AcDbArc
 50
69.91802199999999
 51
110.08197
  0
ARC
  5
13D
330
20
100
AcDbEntity
  8
_0-0_LAYER001
  6
Continuous
 62
     4
100
AcDbCircle
 10
1855.865
 20
1216.2896
 30
0.0
 40
200.99047
100
AcDbArc
 50
229.91572
 51
258.9435300000001
  0
LINE
  5
13E
330
20
100
AcDbEntity
  8
_0-0_LAYER001
  6
Continuous
 62
     4
100
AcDbLine
 10
1674.4675
 20
1061.7258
 30
0.0
 11
1708.7043
 21
1076.7044
 31
0.0
  0
ARC
  5
13F
330
20
100
AcDbEntity
  8
_0-0_LAYER001
  6
Continuous
 62
     4
100
AcDbCircle
 10
1720.3177
 20
1054.2252
 30
0.0
 40
25.30421
100
AcDbArc
 50
53.942641
 51
117.01753
  0
LINE
  5
140
330
20
100
AcDbEntity
  8
_0-0_LAYER001
  6
Continuous
 62
     4
100
AcDbLine
 10
1817.332
 20
1034.1041
 30
0.0
 11
1817.332
 21
1019.0298
 31
0.0
  0
LINE
  5
141
330
20
100
AcDbEntity
  8
_0-0_LAYER001
  6
Continuous
 62
     2
100
AcDbLine
 10
2016.6319
 20
971.3765
 30
0.0
 11
1964.1319
 21
971.3765
 31
0.0
  0
CIRCLE
  5
142
330
20
100
AcDbEntity
  8
_0-0_LAYER001
  6
Continuous
 62
     2
100
AcDbCircle
 10
2014.1319
 20
971.3765
 30
0.0
 40
1.699999999999999
  0
LINE
  5
143
330
20
100
AcDbEntity
  8
_0-0_LAYER001
  6
Continuous
 62
     2
100
AcDbLine
 10
2014.1319
 20
971.3765
 30
0.0
 11
2014.1319
 21
1102.9503
 31
0.0
  0
CIRCLE
  5
144
330
20
100
AcDbEntity
  8
_0-0_LAYER001
  6
Continuous
 62
     2
100
AcDbCircle
 10
2014.1319
 20
1102.9503
 30
0.0
 40
1.699999999999999
  0
LINE
  5
145
330
20
100
AcDbEntity
  8
_0-0_LAYER001
  6
Continuous
 62
     2
100
AcDbLine
 10
2016.6319
 20
1102.9503
 30
0.0
 11
1964.1319
 21
1102.9503
 31
0.0
  0
LINE
  5
146
330
20
100
AcDbEntity
  8
_0-0_LAYER001
  6
Continuous
 62
     2
100
AcDbLine
 10
2016.6319
 20
1179.8598
 30
0.0
 11
1964.1319
 21
1179.8598
 31
0.0
  0
CIRCLE
  5
147
330
20
100
AcDbEntity
  8
_0-0_LAYER001
  6
Continuous
 62
     2
100
AcDbCircle
 10
2014.1319
 20
1179.8598
 30
0.0
 40
1.699999999999999
  0
LINE
  5
148
330
20
100
AcDbEntity
  8
_0-0_LAYER001
  6
Continuous
 62
     2
100
AcDbLine
 10
2014.1319
 20
1179.8598
 30
0.0
 11
2014.1319
 21
1269.8598
 31
0.0
  0
CIRCLE
  5
149
330
20
100
AcDbEntity
  8
_0-0_LAYER001
  6
Continuous
 62
     2
100
AcDbCircle
 10
2014.1319
 20
1269.8598
 30
0.0
 40
1.699999999999999
  0
LINE
  5
14A
330
20
100
AcDbEntity
  8
_0-0_LAYER001
  6
Continuous
 62
     2
100
AcDbLine
 10
2016.6319
 20
1269.8598
 30
0.0
 11
1964.1319
 21
1269.8598
 31
0.0
  0
CIRCLE
  5
14B
330
20
100
AcDbEntity
  8
_0-0_LAYER001
  6
Continuous
 62
     2
100
AcDbCircle
 10
2014.1319
 20
1269.8598
 30
0.0
 40
1.699999999999999
  0
LINE
  5
14C
330
20
100
AcDbEntity
  8
_0-0_LAYER001
  6
Continuous
 62
     2
100
AcDbLine
 10
2014.1319
 20
1269.8598
 30
0.0
 11
2014.1319
 21
1284.2598
 31
0.0
  0
CIRCLE
  5
14D
330
20
100
AcDbEntity
  8
_0-0_LAYER001
  6
Continuous
 62
     2
100
AcDbCircle
 10
2014.1319
 20
1284.2598
 30
0.0
 40
1.699999999999999
  0
LINE
  5
14E
330
20
100
AcDbEntity
  8
_0-0_LAYER001
  6
Continuous
 62
     2
100
AcDbLine
 10
2016.6319
 20
1284.2598
 30
0.0
 11
1964.1319
 21
1284.2598
 31
0.0
  0
ARC
  5
14F
330
20
100
AcDbEntity
  8
_0-0_LAYER001
  6
Continuous
 62
     4
100
AcDbCircle
 10
815.4006999999998
 20
1023.3464
 30
0.0
 40
69.67448400000001
100
AcDbArc
 50
328.81929
 51
337.34946
  0
ARC
  5
150
330
20
100
AcDbEntity
  8
_0-0_LAYER001
  6
Continuous
 62
     4
100
AcDbCircle
 10
829.2455999999997
 20
1299.6189
 30
0.0
 40
307.27562
100
AcDbArc
 50
278.5652500000001
 51
293.21983
  0
ARC
  5
151
330
20
100
AcDbEntity
  8
_0-0_LAYER001
  6
Continuous
 62
     4
100
AcDbCircle
 10
829.2455999999997
 20
1299.6189
 30
0.0
 40
275.27562
100
AcDbArc
 50
279.5698
 51
287.11988
  0
ARC
  5
152
330
20
100
AcDbEntity
  8
_0-0_LAYER001
  6
Continuous
 62
     4
100
AcDbCircle
 10
829.2455999999997
 20
1299.6189
 30
0.0
 40
292.27562
100
AcDbArc
 50
279.0084
 51
292.69346
  0
LINE
  5
153
330
20
100
AcDbEntity
  8
_0-0_LAYER001
  6
Continuous
 62
     4
100
AcDbLine
 10
942.0058
 20
1032.3954
 30
0.0
 11
942.0058
 21
1029.9707
 31
0.0
  0
LINE
  5
154
330
20
100
AcDbEntity
  8
_0-0_LAYER001
  6
Continuous
 62
     4
100
AcDbLine
 10
950.3921
 20
1017.233
 30
0.0
 11
950.3921
 21
1035.5403
 31
0.0
  0
LINE
  5
155
330
20
100
AcDbEntity
  8
_0-0_LAYER001
  6
Continuous
 62
     4
100
AcDbLine
 10
942.0058
 20
1032.3954
 30
0.0
 11
950.3921
 21
1035.5403
 31
0.0
  0
ARC
  5
156
330
20
100
AcDbEntity
  8
_0-0_LAYER001
  6
Continuous
 62
     4
100
AcDbCircle
 10
829.2455999999997
 20
1299.6189
 30
0.0
 40
290.27562
100
AcDbArc
 50
279.07099
 51
286.23334
  0
LINE
  5
157
330
20
100
AcDbEntity
  8
_0-0_LAYER001
  6
Continuous
 62
     4
100
AcDbLine
 10
910.3920999999999
 20
1020.9163
 30
0.0
 11
910.3920999999999
 21
1036.5754
 31
0.0
  0
ARC
  5
158
330
20
100
AcDbEntity
  8
_0-0_LAYER001
  6
Continuous
 62
     4
100
AcDbCircle
 10
1093.6761
 20
1206.3353
 30
0.0
 40
214.38051
100
AcDbArc
 50
231.7756
 51
268.38173
  0
LINE
  5
159
330
20
100
AcDbEntity
  8
_0-0_LAYER001
  6
Continuous
 62
     4
100
AcDbLine
 10
914.2844999999999
 20
1021.93
 30
0.0
 11
950.4744999999999
 21
1038.0863
 31
0.0
  0
ARC
  5
15A
330
20
100
AcDbEntity
  8
_0-0_LAYER001
  6
Continuous
 62
     4
100
AcDbCircle
 10
1148.1453
 20
1022.8328
 30
0.0
 40
52.178304
100
AcDbArc
 50
215.53767
 51
234.46232
  0
ARC
  5
15B
330
20
100
AcDbEntity
  8
_0-0_LAYER001
  6
Continuous
 62
     4
100
AcDbCircle
 10
1121.8166
 20
985.129
 30
0.0
 40
6.269508999999999
100
AcDbArc
 50
234.10575
 51
303.2903300000001
  0
ARC
  5
15C
330
20
100
AcDbEntity
  8
_0-0_LAYER001
  6
Continuous
 62
     4
100
AcDbCircle
 10
1090.3559
 20
1029.135
 30
0.0
 40
58.841383
100
AcDbArc
 50
213.2508
 51
234.3114400000001
  0
ARC
  5
15D
330
20
100
AcDbEntity
  8
_0-0_LAYER001
  6
Continuous
 62
     4
100
AcDbCircle
 10
1060.4802
 20
987.9777
 30
0.0
 40
7.94761
100
AcDbArc
 50
234.52014
 51
301.23766
  0
ARC
  5
15E
330
20
100
AcDbEntity
  8
_0-0_LAYER001
  6
Continuous
 62
     4
100
AcDbCircle
 10
1043.9787
 20
1020.447
 30
0.0
 40
44.132803
100
AcDbArc
 50
297.62161
 51
318.2313
  0
LINE
  5
15F
330
20
100
AcDbEntity
  8
_0-0_LAYER001
  6
Continuous
 62
     4
100
AcDbLine
 10
914.2844999999999
 20
1020.5102
 30
0.0
 11
910.2790999999999
 21
1018.6281
 31
0.0
  0
LINE
  5
160
330
20
100
AcDbEntity
  8
_0-0_LAYER001
  6
Continuous
 62
     4
100
AcDbLine
 10
914.2844999999999
 20
1021.93
 30
0.0
 11
914.2844999999999
 21
1020.5102
 31
0.0
  0
LINE
  5
161
330
20
100
AcDbEntity
  8
_0-0_LAYER001
  6
Continuous
 62
     4
100
AcDbLine
 10
913.7589
 20
1038.674
 30
0.0
 11
910.3959999999998
 21
1037.3477
 31
0.0
  0
LINE
  5
162
330
20
100
AcDbEntity
  8
_0-0_LAYER001
  6
Continuous
 62
     4
100
AcDbLine
 10
913.7589
 20
1040.1627
 30
0.0
 11
913.7589
 21
1038.674
 31
0.0
  0
ARC
  5
163
330
20
100
AcDbEntity
  8
_0-0_LAYER001
  6
Continuous
 62
     4
100
AcDbCircle
 10
1093.6761
 20
1206.3353
 30
0.0
 40
199.38051
100
AcDbArc
 50
231.7756
 51
268.38173
  0
ARC
  5
164
330
20
100
AcDbEntity
  8
_0-0_LAYER001
  6
Continuous
 62
     4
100
AcDbCircle
 10
1093.6761
 20
1206.3353
 30
0.0
 40
199.38051
100
AcDbArc
 50
231.7756
 51
268.38173
  0
ARC
  5
165
330
20
100
AcDbEntity
  8
_0-0_LAYER001
  6
Continuous
 62
     4
100
AcDbCircle
 10
1093.6761
 20
1206.3353
 30
0.0
 40
197.38051
100
AcDbArc
 50
231.7756
 51
268.38173
  0
LINE
  5
166
330
20
100
AcDbEntity
  8
_0-0_LAYER001
  6
Continuous
 62
     4
100
AcDbLine
 10
914.0139000000001
 20
1040.3871
 30
0.0
 11
944.2939
 21
1054.4345
 31
0.0
  0
LINE
  5
167
330
20
100
AcDbEntity
  8
_0-0_LAYER001
  6
Continuous
 62
     4
100
AcDbLine
 10
945.5424999999999
 20
1052.8737
 30
0.0
 11
910.8923
 21
1037.2654
 31
0.0
  0
ARC
  5
168
330
20
100
AcDbEntity
  8
_0-0_LAYER001
  6
Continuous
 62
     4
100
AcDbCircle
 10
1093.6761
 20
1206.3353
 30
0.0
 40
182.38051
100
AcDbArc
 50
231.7756
 51
268.38173
  0
LINE
  5
169
330
20
100
AcDbEntity
  8
_0-0_LAYER001
  6
Continuous
 62
     4
100
AcDbLine
 10
910.2790999999999
 20
1018.6281
 30
0.0
 11
910.2790999999999
 21
1055.19
 31
0.0
  0
LINE
  5
16A
330
20
100
AcDbEntity
  8
_0-0_LAYER001
  6
Continuous
 62
     4
100
AcDbLine
 10
910.2790999999999
 20
1055.19
 30
0.0
 11
937.9813
 21
1068.0415
 31
0.0
  0
ARC
  5
16B
330
20
100
AcDbEntity
  8
_0-0_LAYER001
  6
Continuous
 62
     4
100
AcDbCircle
 10
1093.6761
 20
1206.3353
 30
0.0
 40
214.38051
100
AcDbArc
 50
231.7756
 51
268.38173
  0
ARC
  5
16C
330
20
100
AcDbEntity
  8
_0-0_LAYER001
  6
Continuous
 62
     4
100
AcDbCircle
 10
955.0902
 20
1028.9423
 30
0.0
 40
27.732967
100
AcDbArc
 50
54.176177
 51
112.93031
  0
ARC
  5
16D
330
20
100
AcDbEntity
  8
_0-0_LAYER001
  6
Continuous
 62
     4
100
AcDbCircle
 10
955.4380999999999
 20
1031.2157
 30
0.0
 40
40.67959499999999
100
AcDbArc
 50
51.535313
 51
115.27963
  0
ARC
  5
16E
330
20
100
AcDbEntity
  8
_0-0_LAYER001
  6
Continuous
 62
     4
100
AcDbCircle
 10
955.0767
 20
1028.4444
 30
0.0
 40
26.213478
100
AcDbArc
 50
54.56426900000001
 51
111.2666
  0
ARC
  5
16F
330
20
100
AcDbEntity
  8
_0-0_LAYER001
  6
Continuous
 62
     4
100
AcDbCircle
 10
955.5875000000002
 20
1025.983
 30
0.0
 40
13.076713
100
AcDbArc
 50
65.553432
 51
112.8327
  0
ARC
  5
170
330
20
100
AcDbEntity
  8
_0-0_LAYER001
  6
Continuous
 62
     4
100
AcDbCircle
 10
1070.2876
 20
1022.95
 30
0.0
 40
69.67448400000001
100
AcDbArc
 50
321.65733
 51
337.34946
  0
ARC
  5
171
330
20
100
AcDbEntity
  8
_0-0_LAYER001
  6
Continuous
 62
     4
100
AcDbCircle
 10
1084.1325
 20
1299.2226
 30
0.0
 40
307.27562
100
AcDbArc
 50
270.90795
 51
293.21983
  0
ARC
  5
172
330
20
100
AcDbEntity
  8
_0-0_LAYER001
  6
Continuous
 62
     4
100
AcDbCircle
 10
1084.1325
 20
1299.2226
 30
0.0
 40
275.27562
100
AcDbArc
 50
270.90795
 51
287.11988
  0
ARC
  5
173
330
20
100
AcDbEntity
  8
_0-0_LAYER001
  6
Continuous
 62
     4
100
AcDbCircle
 10
1084.1325
 20
1299.2226
 30
0.0
 40
292.27562
100
AcDbArc
 50
270.90795
 51
292.69346
  0
ARC
  5
174
330
20
100
AcDbEntity
  8
_0-0_LAYER001
  6
Continuous
 62
     4
100
AcDbCircle
 10
1084.1325
 20
1299.2226
 30
0.0
 40
290.27562
100
AcDbArc
 50
270.90795
 51
286.23334
  0
ARC
  5
175
330
20
100
AcDbEntity
  8
_0-0_LAYER001
  6
Continuous
 62
     4
100
AcDbCircle
 10
1348.312
 20
1208.7716
 30
0.0
 40
214.38051
100
AcDbArc
 50
231.7756
 51
268.38173
  0
LINE
  5
176
330
20
100
AcDbEntity
  8
_0-0_LAYER001
  6
Continuous
 62
     4
100
AcDbLine
 10
1168.9203
 20
1024.3663
 30
0.0
 11
1205.1103
 21
1040.5226
 31
0.0
  0
ARC
  5
177
330
20
100
AcDbEntity
  8
_0-0_LAYER001
  6
Continuous
 62
     4
100
AcDbCircle
 10
1402.7812
 20
1025.2691
 30
0.0
 40
52.178304
100
AcDbArc
 50
215.53767
 51
234.46232
  0
ARC
  5
178
330
20
100
AcDbEntity
  8
_0-0_LAYER001
  6
Continuous
 62
     4
100
AcDbCircle
 10
1376.4524
 20
987.5652999999999
 30
0.0
 40
6.269508999999999
100
AcDbArc
 50
234.10575
 51
303.2903300000001
  0
ARC
  5
179
330
20
100
AcDbEntity
  8
_0-0_LAYER001
  6
Continuous
 62
     4
100
AcDbCircle
 10
1344.9917
 20
1031.5713
 30
0.0
 40
58.841383
100
AcDbArc
 50
213.2508
 51
234.3114400000001
  0
ARC
  5
17A
330
20
100
AcDbEntity
  8
_0-0_LAYER001
  6
Continuous
 62
     4
100
AcDbCircle
 10
1315.116
 20
990.4140000000001
 30
0.0
 40
7.94761
100
AcDbArc
 50
234.52014
 51
301.23766
  0
ARC
  5
17B
330
20
100
AcDbEntity
  8
_0-0_LAYER001
  6
Continuous
 62
     4
100
AcDbCircle
 10
1298.6145
 20
1022.8833
 30
0.0
 40
44.132803
100
AcDbArc
 50
297.62161
 51
318.2313
  0
LINE
  5
17C
330
20
100
AcDbEntity
  8
_0-0_LAYER001
  6
Continuous
 62
     4
100
AcDbLine
 10
1168.9203
 20
1022.9465
 30
0.0
 11
1164.9149
 21
1021.0644
 31
0.0
  0
LINE
  5
17D
330
20
100
AcDbEntity
  8
_0-0_LAYER001
  6
Continuous
 62
     4
100
AcDbLine
 10
1168.9203
 20
1024.3663
 30
0.0
 11
1168.9203
 21
1022.9465
 31
0.0
  0
LINE
  5
17E
330
20
100
AcDbEntity
  8
_0-0_LAYER001
  6
Continuous
 62
     4
100
AcDbLine
 10
1168.3948
 20
1041.1103
 30
0.0
 11
1165.0318
 21
1039.784
 31
0.0
  0
LINE
  5
17F
330
20
100
AcDbEntity
  8
_0-0_LAYER001
  6
Continuous
 62
     4
100
AcDbLine
 10
1168.3948
 20
1042.5989
 30
0.0
 11
1168.3948
 21
1041.1103
 31
0.0
  0
ARC
  5
180
330
20
100
AcDbEntity
  8
_0-0_LAYER001
  6
Continuous
 62
     4
100
AcDbCircle
 10
1348.312
 20
1208.7716
 30
0.0
 40
199.38051
100
AcDbArc
 50
231.7756
 51
268.38173
  0
ARC
  5
181
330
20
100
AcDbEntity
  8
_0-0_LAYER001
  6
Continuous
 62
     4
100
AcDbCircle
 10
1348.312
 20
1208.7716
 30
0.0
 40
199.38051
100
AcDbArc
 50
231.7756
 51
268.38173
  0
ARC
  5
182
330
20
100
AcDbEntity
  8
_0-0_LAYER001
  6
Continuous
 62
     4
100
AcDbCircle
 10
1348.312
 20
1208.7716
 30
0.0
 40
197.38051
100
AcDbArc
 50
231.7756
 51
268.38173
  0
LINE
  5
183
330
20
100
AcDbEntity
  8
_0-0_LAYER001
  6
Continuous
 62
     4
100
AcDbLine
 10
1168.6498
 20
1042.8234
 30
0.0
 11
1198.9297
 21
1056.8708
 31
0.0
  0
LINE
  5
184
330
20
100
AcDbEntity
  8
_0-0_LAYER001
  6
Continuous
 62
     4
100
AcDbLine
 10
1200.1784
 20
1055.31
 30
0.0
 11
1165.5281
 21
1039.7017
 31
0.0
  0
ARC
  5
185
330
20
100
AcDbEntity
  8
_0-0_LAYER001
  6
Continuous
 62
     4
100
AcDbCircle
 10
1348.312
 20
1208.7716
 30
0.0
 40
182.38051
100
AcDbArc
 50
231.7756
 51
268.38173
  0
LINE
  5
186
330
20
100
AcDbEntity
  8
_0-0_LAYER001
  6
Continuous
 62
     4
100
AcDbLine
 10
1164.9149
 20
1021.0644
 30
0.0
 11
1164.9149
 21
1057.6263
 31
0.0
  0
LINE
  5
187
330
20
100
AcDbEntity
  8
_0-0_LAYER001
  6
Continuous
 62
     4
100
AcDbLine
 10
1164.9149
 20
1057.6263
 30
0.0
 11
1192.6172
 21
1070.4778
 31
0.0
  0
ARC
  5
188
330
20
100
AcDbEntity
  8
_0-0_LAYER001
  6
Continuous
 62
     4
100
AcDbCircle
 10
1348.312
 20
1208.7716
 30
0.0
 40
214.38051
100
AcDbArc
 50
231.7756
 51
268.38173
  0
ARC
  5
189
330
20
100
AcDbEntity
  8
_0-0_LAYER001
  6
Continuous
 62
     4
100
AcDbCircle
 10
1209.726
 20
1031.3786
 30
0.0
 40
27.732967
100
AcDbArc
 50
54.176177
 51
112.93031
  0
ARC
  5
18A
330
20
100
AcDbEntity
  8
_0-0_LAYER001
  6
Continuous
 62
     4
100
AcDbCircle
 10
1210.0739
 20
1033.652
 30
0.0
 40
40.67959499999999
100
AcDbArc
 50
51.535313
 51
115.27963
  0
ARC
  5
18B
330
20
100
AcDbEntity
  8
_0-0_LAYER001
  6
Continuous
 62
     4
100
AcDbCircle
 10
1209.7125
 20
1030.8807
 30
0.0
 40
26.213478
100
AcDbArc
 50
54.56426900000001
 51
111.2666
  0
ARC
  5
18C
330
20
100
AcDbEntity
  8
_0-0_LAYER001
  6
Continuous
 62
     4
100
AcDbCircle
 10
1210.2233
 20
1028.4193
 30
0.0
 40
13.076713
100
AcDbArc
 50
65.553432
 51
112.8327
  0
ARC
  5
18D
330
20
100
AcDbEntity
  8
_0-0_LAYER001
  6
Continuous
 62
     4
100
AcDbCircle
 10
1324.9234
 20
1025.3863
 30
0.0
 40
69.67448400000001
100
AcDbArc
 50
321.65733
 51
337.34946
  0
ARC
  5
18E
330
20
100
AcDbEntity
  8
_0-0_LAYER001
  6
Continuous
 62
     4
100
AcDbCircle
 10
1338.7684
 20
1301.6589
 30
0.0
 40
307.27562
100
AcDbArc
 50
270.90795
 51
293.21983
  0
ARC
  5
18F
330
20
100
AcDbEntity
  8
_0-0_LAYER001
  6
Continuous
 62
     4
100
AcDbCircle
 10
1603.1989
 20
1208.7833
 30
0.0
 40
214.38051
100
AcDbArc
 50
231.7756
 51
268.38173
  0
LINE
  5
190
330
20
100
AcDbEntity
  8
_0-0_LAYER001
  6
Continuous
 62
     4
100
AcDbLine
 10
1423.8072
 20
1024.3781
 30
0.0
 11
1459.9973
 21
1040.5343
 31
0.0
  0
ARC
  5
191
330
20
100
AcDbEntity
  8
_0-0_LAYER001
  6
Continuous
 62
     4
100
AcDbCircle
 10
1657.6681
 20
1025.2808
 30
0.0
 40
52.178304
100
AcDbArc
 50
215.53767
 51
234.46232
  0
ARC
  5
192
330
20
100
AcDbEntity
  8
_0-0_LAYER001
  6
Continuous
 62
     4
100
AcDbCircle
 10
1631.3393
 20
987.5770000000001
 30
0.0
 40
6.269508999999999
100
AcDbArc
 50
234.10575
 51
303.2903300000001
  0
ARC
  5
193
330
20
100
AcDbEntity
  8
_0-0_LAYER001
  6
Continuous
 62
     4
100
AcDbCircle
 10
1599.8786
 20
1031.5831
 30
0.0
 40
58.841383
100
AcDbArc
 50
213.2508
 51
234.3114400000001
  0
ARC
  5
194
330
20
100
AcDbEntity
  8
_0-0_LAYER001
  6
Continuous
 62
     4
100
AcDbCircle
 10
1570.003
 20
990.4256999999999
 30
0.0
 40
7.94761
100
AcDbArc
 50
234.52014
 51
301.23766
  0
ARC
  5
195
330
20
100
AcDbEntity
  8
_0-0_LAYER001
  6
Continuous
 62
     4
100
AcDbCircle
 10
1553.5014
 20
1022.895
 30
0.0
 40
44.132803
100
AcDbArc
 50
297.62161
 51
318.2313
  0
LINE
  5
196
330
20
100
AcDbEntity
  8
_0-0_LAYER001
  6
Continuous
 62
     4
100
AcDbLine
 10
1423.8072
 20
1024.3781
 30
0.0
 11
1423.8072
 21
1022.9582
 31
0.0
  0
LINE
  5
197
330
20
100
AcDbEntity
  8
_0-0_LAYER001
  6
Continuous
 62
     4
100
AcDbLine
 10
1423.2817
 20
1041.122
 30
0.0
 11
1419.9187
 21
1039.7958
 31
0.0
  0
LINE
  5
198
330
20
100
AcDbEntity
  8
_0-0_LAYER001
  6
Continuous
 62
     4
100
AcDbLine
 10
1423.2817
 20
1042.6107
 30
0.0
 11
1423.2817
 21
1041.122
 31
0.0
  0
ARC
  5
199
330
20
100
AcDbEntity
  8
_0-0_LAYER001
  6
Continuous
 62
     4
100
AcDbCircle
 10
1603.1989
 20
1208.7833
 30
0.0
 40
199.38051
100
AcDbArc
 50
231.7756
 51
268.38173
  0
ARC
  5
19A
330
20
100
AcDbEntity
  8
_0-0_LAYER001
  6
Continuous
 62
     4
100
AcDbCircle
 10
1603.1989
 20
1208.7833
 30
0.0
 40
199.38051
100
AcDbArc
 50
231.7756
 51
268.38173
  0
ARC
  5
19B
330
20
100
AcDbEntity
  8
_0-0_LAYER001
  6
Continuous
 62
     4
100
AcDbCircle
 10
1603.1989
 20
1208.7833
 30
0.0
 40
197.38051
100
AcDbArc
 50
231.7756
 51
268.38173
  0
LINE
  5
19C
330
20
100
AcDbEntity
  8
_0-0_LAYER001
  6
Continuous
 62
     4
100
AcDbLine
 10
1423.5367
 20
1042.8351
 30
0.0
 11
1453.8166
 21
1056.8825
 31
0.0
  0
ARC
  5
19D
330
20
100
AcDbEntity
  8
_0-0_LAYER001
  6
Continuous
 62
     4
100
AcDbCircle
 10
1603.1989
 20
1208.7833
 30
0.0
 40
182.38051
100
AcDbArc
 50
231.7756
 51
268.38173
  0
LINE
  5
19E
330
20
100
AcDbEntity
  8
_0-0_LAYER001
  6
Continuous
 62
     4
100
AcDbLine
 10
1419.8018
 20
1057.638
 30
0.0
 11
1447.5041
 21
1070.4896
 31
0.0
  0
ARC
  5
19F
330
20
100
AcDbEntity
  8
_0-0_LAYER001
  6
Continuous
 62
     4
100
AcDbCircle
 10
1603.1989
 20
1208.7833
 30
0.0
 40
214.38051
100
AcDbArc
 50
231.7756
 51
268.38173
  0
ARC
  5
1A0
330
20
100
AcDbEntity
  8
_0-0_LAYER001
  6
Continuous
 62
     4
100
AcDbCircle
 10
1464.6129
 20
1031.3903
 30
0.0
 40
27.732967
100
AcDbArc
 50
54.176177
 51
112.93031
  0
ARC
  5
1A1
330
20
100
AcDbEntity
  8
_0-0_LAYER001
  6
Continuous
 62
     4
100
AcDbCircle
 10
1464.9608
 20
1033.6637
 30
0.0
 40
40.67959499999999
100
AcDbArc
 50
51.535313
 51
115.27963
  0
ARC
  5
1A2
330
20
100
AcDbEntity
  8
_0-0_LAYER001
  6
Continuous
 62
     4
100
AcDbCircle
 10
1464.5994
 20
1030.8924
 30
0.0
 40
26.213478
100
AcDbArc
 50
54.56426900000001
 51
111.2666
  0
ARC
  5
1A3
330
20
100
AcDbEntity
  8
_0-0_LAYER001
  6
Continuous
 62
     4
100
AcDbCircle
 10
1465.1102
 20
1028.431
 30
0.0
 40
13.076713
100
AcDbArc
 50
65.553432
 51
112.8327
  0
ARC
  5
1A4
330
20
100
AcDbEntity
  8
_0-0_LAYER001
  6
Continuous
 62
     4
100
AcDbCircle
 10
1593.6553
 20
1301.6706
 30
0.0
 40
290.27562
100
AcDbArc
 50
270.90795
 51
294.63108
  0
ARC
  5
1A5
330
20
100
AcDbEntity
  8
_0-0_LAYER001
  6
Continuous
 62
     4
100
AcDbCircle
 10
1593.6553
 20
1301.6706
 30
0.0
 40
275.27562
100
AcDbArc
 50
270.90795
 51
296.07098
  0
ARC
  5
1A6
330
20
100
AcDbEntity
  8
_0-0_LAYER001
  6
Continuous
 62
     4
100
AcDbCircle
 10
1593.6553
 20
1301.6706
 30
0.0
 40
292.27562
100
AcDbArc
 50
270.90795
 51
294.48746
  0
ARC
  5
1A7
330
20
100
AcDbEntity
  8
_0-0_LAYER001
  6
Continuous
 62
     4
100
AcDbCircle
 10
1579.8103
 20
1025.3981
 30
0.0
 40
69.67448400000001
100
AcDbArc
 50
321.65733
 51
337.34946
  0
ARC
  5
1A8
330
20
100
AcDbEntity
  8
_0-0_LAYER001
  6
Continuous
 62
     4
100
AcDbCircle
 10
1593.6553
 20
1301.6706
 30
0.0
 40
307.27562
100
AcDbArc
 50
270.90795
 51
293.21983
  0
LINE
  5
1A9
330
20
100
AcDbEntity
  8
_0-0_LAYER001
  6
Continuous
 62
     4
100
AcDbLine
 10
1714.8018
 20
1019.2847
 30
0.0
 11
1714.8018
 21
1054.4042
 31
0.0
  0
ARC
  5
1AA
330
20
100
AcDbEntity
  8
_0-0_LAYER001
  6
Continuous
 62
     4
100
AcDbCircle
 10
1338.7684
 20
1301.6589
 30
0.0
 40
275.27562
100
AcDbArc
 50
270.90795
 51
287.11988
  0
ARC
  5
1AB
330
20
100
AcDbEntity
  8
_0-0_LAYER001
  6
Continuous
 62
     4
100
AcDbCircle
 10
1338.7684
 20
1301.6589
 30
0.0
 40
290.27562
100
AcDbArc
 50
270.90795
 51
286.21009
  0
LINE
  5
1AC
330
20
100
AcDbEntity
  8
_0-0_LAYER001
  6
Continuous
 62
     4
100
AcDbLine
 10
1419.8018
 20
1022.9233
 30
0.0
 11
1419.8018
 21
1057.638
 31
0.0
  0
LINE
  5
1AD
330
20
100
AcDbEntity
  8
_0-0_LAYER001
  6
Continuous
 62
     4
100
AcDbLine
 10
1423.8072
 20
1022.9582
 30
0.0
 11
1419.9149
 21
1021.1293
 31
0.0
  0
LINE
  5
1AE
330
20
100
AcDbEntity
  8
_0-0_LAYER001
  6
Continuous
 62
     4
100
AcDbLine
 10
1419.9149
 20
1021.1293
 30
0.0
 11
1419.9149
 21
1038.6153
 31
0.0
  0
ARC
  5
1AF
330
20
100
AcDbEntity
  8
_0-0_LAYER001
  6
Continuous
 62
     4
100
AcDbCircle
 10
1338.7684
 20
1301.6589
 30
0.0
 40
292.27562
100
AcDbArc
 50
270.90795
 51
292.69346
  0
LINE
  5
1B0
330
20
100
AcDbEntity
  8
_0-0_LAYER001
  6
Continuous
 62
     4
100
AcDbLine
 10
1451.5285
 20
1034.4353
 30
0.0
 11
1451.5285
 21
1032.0106
 31
0.0
  0
LINE
  5
1B1
330
20
100
AcDbEntity
  8
_0-0_LAYER001
  6
Continuous
 62
     4
100
AcDbLine
 10
1459.9149
 20
1019.2729
 30
0.0
 11
1459.9149
 21
1037.5802
 31
0.0
  0
LINE
  5
1B2
330
20
100
AcDbEntity
  8
_0-0_LAYER001
  6
Continuous
 62
     4
100
AcDbLine
 10
1451.5285
 20
1034.4353
 30
0.0
 11
1459.9149
 21
1037.5802
 31
0.0
  0
LINE
  5
1B3
330
20
100
AcDbEntity
  8
_0-0_LAYER001
  6
Continuous
 62
     4
100
AcDbLine
 10
1420.2071
 20
1039.0723
 30
0.0
 11
1455.2532
 21
1055.4547
 31
0.0
  0
LINE
  5
1B4
330
20
100
AcDbEntity
  8
_0-0_LAYER001
  6
Continuous
 62
     4
100
AcDbLine
 10
1197.0297
 20
1032.0597
 30
0.0
 11
1197.0297
 21
1029.8745
 31
0.0
  0
LINE
  5
1B5
330
20
100
AcDbEntity
  8
_0-0_LAYER001
  6
Continuous
 62
     4
100
AcDbLine
 10
1197.0297
 20
1032.684
 30
0.0
 11
1197.0297
 21
1029.8745
 31
0.0
  0
LINE
  5
1B6
330
20
100
AcDbEntity
  8
_0-0_LAYER001
  6
Continuous
 62
     4
100
AcDbLine
 10
1197.0297
 20
1032.9962
 30
0.0
 11
1205.146
 21
1036.1178
 31
0.0
  0
LINE
  5
1B7
330
20
100
AcDbEntity
  8
_0-0_LAYER001
  6
Continuous
 62
     4
100
AcDbLine
 10
1205.146
 20
1017.3879
 30
0.0
 11
1205.146
 21
1036.1178
 31
0.0
  0
LINE
  5
1B8
330
20
100
AcDbEntity
  8
_0-0_LAYER001
  6
Continuous
 62
     2
100
AcDbLine
 10
1701.8035
 20
992.3764999999999
 30
0.0
 11
1701.8035
 21
977.3764999999999
 31
0.0
  0
LINE
  5
1B9
330
20
100
AcDbEntity
  8
_0-0_LAYER001
  6
Continuous
 62
     2
100
AcDbLine
 10
1703.8036
 20
975.3764
 30
0.0
 11
1819.8036
 21
975.3764
 31
0.0
  0
LINE
  5
1BA
330
20
100
AcDbEntity
  8
_0-0_LAYER001
  6
DASHED3
 62
     2
100
AcDbLine
 10
874.8427999999998
 20
973.3765
 30
0.0
 11
1821.8036
 21
973.3765
 31
0.0
  0
LINE
  5
1BB
330
20
100
AcDbEntity
  8
_0-0_LAYER001
  6
Continuous
 62
     2
100
AcDbLine
 10
1823.8036
 20
946.3765
 30
0.0
 11
874.8427999999998
 21
946.3765
 31
0.0
  0
LINE
  5
1BC
330
20
100
AcDbEntity
  8
_0-0_LAYER001
  6
Continuous
 62
     2
100
AcDbLine
 10
1823.8036
 20
996.3765
 30
0.0
 11
1823.8036
 21
946.3765
 31
0.0
  0
LINE
  5
1BD
330
20
100
AcDbEntity
  8
_0-0_LAYER001
  6
Continuous
 62
     2
100
AcDbLine
 10
1823.8036
 20
946.3765
 30
0.0
 11
1923.8036
 21
946.3765
 31
0.0
  0
LINE
  5
1BE
330
20
100
AcDbEntity
  8
_0-0_LAYER001
  6
Continuous
 62
     2
100
AcDbLine
 10
1813.8036
 20
846.3765
 30
0.0
 11
874.8427999999998
 21
846.3765
 31
0.0
  0
LINE
  5
1BF
330
20
100
AcDbEntity
  8
_0-0_LAYER001
  6
Continuous
 62
     2
100
AcDbLine
 10
1813.8036
 20
946.3765
 30
0.0
 11
1813.8036
 21
846.3765
 31
0.0
  0
LINE
  5
1C0
330
20
100
AcDbEntity
  8
_0-0_LAYER001
  6
DASHED1
 62
     1
100
AcDbLine
 10
1813.8036
 20
849.5764999999998
 30
0.0
 11
874.8427999999998
 21
849.5764999999998
 31
0.0
  0
LINE
  5
1C1
330
20
100
AcDbEntity
  8
_0-0_LAYER001
  6
DASHED1
 62
     1
100
AcDbLine
 10
1813.8036
 20
943.1765
 30
0.0
 11
874.8427999999998
 21
943.1765
 31
0.0
  0
LINE
  5
1C2
330
20
100
AcDbEntity
  8
_0-0_LAYER001
  6
DASHED1
 62
     1
100
AcDbLine
 10
1813.8036
 20
926.3764999999999
 30
0.0
 11
874.8427999999998
 21
926.3764999999999
 31
0.0
  0
LINE
  5
1C3
330
20
100
AcDbEntity
  8
_0-0_LAYER001
  6
DASHED1
 62
     1
100
AcDbLine
 10
1813.8036
 20
866.3764999999999
 30
0.0
 11
874.8427999999998
 21
866.3764999999999
 31
0.0
  0
LINE
  5
1C4
330
20
100
AcDbEntity
  8
_0-0_LAYER001
  6
Continuous
 62
     2
100
AcDbLine
 10
1923.8036
 20
1000.7399
 30
0.0
 11
1823.8036
 21
1100.7397
 31
0.0
  0
LINE
  5
1C5
330
20
100
AcDbEntity
  8
_0-0_LAYER001
  6
Continuous
 62
     2
100
AcDbLine
 10
1923.8036
 20
996.4972000000001
 30
0.0
 11
1823.8036
 21
1096.4972
 31
0.0
  0
LINE
  5
1C6
330
20
100
AcDbEntity
  8
_0-0_LAYER001
  6
Continuous
 62
     2
100
AcDbLine
 10
1923.8036
 20
1212.7399
 30
0.0
 11
1823.8036
 21
1312.7397
 31
0.0
  0
LINE
  5
1C7
330
20
100
AcDbEntity
  8
_0-0_LAYER001
  6
Continuous
 62
     2
100
AcDbLine
 10
1923.8036
 20
1208.4973
 30
0.0
 11
1823.8036
 21
1308.4972
 31
0.0
  0
LINE
  5
1C8
330
20
100
AcDbEntity
  8
_0-0_LAYER001
  6
Continuous
 62
     2
100
AcDbLine
 10
1923.8036
 20
1332.8274
 30
0.0
 11
1923.8036
 21
1072.4802
 31
0.0
  0
LINE
  5
1C9
330
20
100
AcDbEntity
  8
_0-0_LAYER001
  6
Continuous
 62
     2
100
AcDbLine
 10
1923.8036
 20
1075.3753
 30
0.0
 11
1923.8036
 21
946.3765
 31
0.0
  0
LINE
  5
1CA
330
20
100
AcDbEntity
  8
_0-0_LAYER001
  6
Continuous
 62
     2
100
AcDbLine
 10
1703.8036
 20
993.1193
 30
0.0
 11
1703.8036
 21
975.3764
 31
0.0
  0
LINE
  5
1CB
330
20
100
AcDbEntity
  8
_0-0_LAYER001
  6
Continuous
 62
     2
100
AcDbLine
 10
1703.8036
 20
993.1193
 30
0.0
 11
1688.8036
 21
993.1193
 31
0.0
  0
LINE
  5
1CC
330
20
100
AcDbEntity
  8
_0-0_LAYER001
  6
Continuous
 62
     2
100
AcDbLine
 10
1697.8039
 20
992.1193
 30
0.0
 11
1699.4336
 21
993.1193
 31
0.0
  0
LINE
  5
1CD
330
20
100
AcDbEntity
  8
_0-0_LAYER001
  6
Continuous
 62
     2
100
AcDbLine
 10
1693.1736
 20
993.1194000000001
 30
0.0
 11
1699.4336
 21
993.1193
 31
0.0
  0
LINE
  5
1CE
330
20
100
AcDbEntity
  8
_0-0_LAYER001
  6
Continuous
 62
     2
100
AcDbLine
 10
1694.8038
 20
992.1193999999999
 30
0.0
 11
1693.1736
 21
993.1194000000001
 31
0.0
  0
LINE
  5
1CF
330
20
100
AcDbEntity
  8
_0-0_LAYER001
  6
Continuous
 62
     2
100
AcDbLine
 10
1694.8039
 20
979.7895000000002
 30
0.0
 11
1696.3035
 21
973.1192999999999
 31
0.0
  0
LINE
  5
1D0
330
20
100
AcDbEntity
  8
_0-0_LAYER001
  6
Continuous
 62
     2
100
AcDbLine
 10
1694.8038
 20
992.1193999999999
 30
0.0
 11
1694.8039
 21
979.7895000000002
 31
0.0
  0
LINE
  5
1D1
330
20
100
AcDbEntity
  8
_0-0_LAYER001
  6
Continuous
 62
     2
100
AcDbLine
 10
1696.3035
 20
973.1192999999999
 30
0.0
 11
1697.804
 21
980.5982999999999
 31
0.0
  0
LINE
  5
1D2
330
20
100
AcDbEntity
  8
_0-0_LAYER001
  6
Continuous
 62
     2
100
AcDbLine
 10
1697.8039
 20
992.1193
 30
0.0
 11
1697.804
 21
980.5982999999999
 31
0.0
  0
LINE
  5
1D3
330
20
100
AcDbEntity
  8
_0-0_LAYER001
  6
Continuous
 62
     2
100
AcDbLine
 10
1821.2036
 20
1268.2598
 30
0.0
 11
1818.4241
 21
1252.9095
 31
0.0
  0
LINE
  5
1D4
330
20
100
AcDbEntity
  8
_0-0_LAYER001
  6
Continuous
 62
     2
100
AcDbLine
 10
1839.4036
 20
1268.2598
 30
0.0
 11
1839.4036
 21
1289.0598
 31
0.0
  0
LINE
  5
1D5
330
20
100
AcDbEntity
  8
_0-0_LAYER001
  6
Continuous
 62
     2
100
AcDbLine
 10
1837.3236
 20
1270.3398
 30
0.0
 11
1837.3236
 21
1285.9399
 31
0.0
  0
LINE
  5
1D6
330
20
100
AcDbEntity
  8
_0-0_LAYER001
  6
Continuous
 62
     2
100
AcDbLine
 10
1837.3236
 20
1270.3398
 30
0.0
 11
1826.2287
 21
1281.4347
 31
0.0
  0
LINE
  5
1D7
330
20
100
AcDbEntity
  8
_0-0_LAYER001
  6
Continuous
 62
     2
100
AcDbLine
 10
1832.9112
 20
1270.3398
 30
0.0
 11
1826.3348
 21
1276.9163
 31
0.0
  0
LINE
  5
1D8
330
20
100
AcDbEntity
  8
_0-0_LAYER001
  6
Continuous
 62
     2
100
AcDbLine
 10
1828.4989
 20
1270.3398
 30
0.0
 11
1825.7023
 21
1273.1365
 31
0.0
  0
LINE
  5
1D9
330
20
100
AcDbEntity
  8
_0-0_LAYER001
  6
Continuous
 62
     2
100
AcDbLine
 10
1826.0375
 20
1274.6537
 30
0.0
 11
1837.3236
 21
1285.9398
 31
0.0
  0
LINE
  5
1DA
330
20
100
AcDbEntity
  8
_0-0_LAYER001
  6
Continuous
 62
     2
100
AcDbLine
 10
1826.3906
 20
1279.4192
 30
0.0
 11
1836.0313
 21
1289.0598
 31
0.0
  0
LINE
  5
1DB
330
20
100
AcDbEntity
  8
_0-0_LAYER001
  6
Continuous
 62
     2
100
AcDbLine
 10
1825.9017
 20
1283.3428
 30
0.0
 11
1831.6188
 21
1289.0598
 31
0.0
  0
LINE
  5
1DC
330
20
100
AcDbEntity
  8
_0-0_LAYER001
  6
Continuous
 62
     2
100
AcDbLine
 10
1830.5483
 20
1270.3398
 30
0.0
 11
1835.6753
 21
1275.4668
 31
0.0
  0
LINE
  5
1DD
330
20
100
AcDbEntity
  8
_0-0_LAYER001
  6
Continuous
 62
     2
100
AcDbLine
 10
1834.9607
 20
1270.3398
 30
0.0
 11
1837.0088
 21
1272.3879
 31
0.0
  0
LINE
  5
1DE
330
20
100
AcDbEntity
  8
_0-0_LAYER001
  6
Continuous
 62
     2
100
AcDbLine
 10
1835.4101
 20
1276.6656
 30
0.0
 11
1824.5451
 21
1287.5306
 31
0.0
  0
LINE
  5
1DF
330
20
100
AcDbEntity
  8
_0-0_LAYER001
  6
Continuous
 62
     2
100
AcDbLine
 10
1835.4759
 20
1281.0122
 30
0.0
 11
1827.4284
 21
1289.0598
 31
0.0
  0
LINE
  5
1E0
330
20
100
AcDbEntity
  8
_0-0_LAYER001
  6
Continuous
 62
     2
100
AcDbLine
 10
1826.1359
 20
1270.3398
 30
0.0
 11
1835.2712
 21
1279.4751
 31
0.0
  0
LINE
  5
1E1
330
20
100
AcDbEntity
  8
_0-0_LAYER001
  6
Continuous
 62
     2
100
AcDbLine
 10
1824.8771
 20
1286.7307
 30
0.0
 11
1827.2063
 21
1289.0598
 31
0.0
  0
LINE
  5
1E2
330
20
100
AcDbEntity
  8
_0-0_LAYER001
  6
Continuous
 62
     2
100
AcDbLine
 10
1836.6319
 20
1284.2688
 30
0.0
 11
1831.8409
 21
1289.0598
 31
0.0
  0
LINE
  5
1E3
330
20
100
AcDbEntity
  8
_0-0_LAYER001
  6
Continuous
 62
     2
100
AcDbLine
 10
1837.3236
 20
1287.9894
 30
0.0
 11
1836.2533
 21
1289.0598
 31
0.0
  0
LINE
  5
1E4
330
20
100
AcDbEntity
  8
_0-0_LAYER001
  6
Continuous
 62
     2
100
AcDbLine
 10
1837.3236
 20
1285.9398
 30
0.0
 11
1837.3236
 21
1289.0598
 31
0.0
  0
LINE
  5
1E5
330
20
100
AcDbEntity
  8
_0-0_LAYER001
  6
Continuous
 62
     2
100
AcDbLine
 10
1821.8036
 20
1179.8598
 30
0.0
 11
1821.8036
 21
1268.2598
 31
0.0
  0
LINE
  5
1E6
330
20
100
AcDbEntity
  8
_0-0_LAYER001
  6
Continuous
 62
     2
100
AcDbLine
 10
1837.3236
 20
1270.3398
 30
0.0
 11
1819.4036
 21
1270.3398
 31
0.0
  0
LINE
  5
1E7
330
20
100
AcDbEntity
  8
_0-0_LAYER001
  6
Continuous
 62
     2
100
AcDbLine
 10
1819.4036
 20
1237.8598
 30
0.0
 11
1819.4036
 21
1270.3398
 31
0.0
  0
LINE
  5
1E8
330
20
100
AcDbEntity
  8
_0-0_LAYER001
  6
Continuous
 62
     2
100
AcDbLine
 10
1819.8036
 20
1102.9503
 30
0.0
 11
1819.8036
 21
975.3764
 31
0.0
  0
LINE
  5
1E9
330
20
100
AcDbEntity
  8
_0-0_LAYER001
  6
Continuous
 62
     2
100
AcDbLine
 10
1819.8036
 20
1102.9503
 30
0.0
 11
1812.3036
 21
1089.96
 31
0.0
  0
LINE
  5
1EA
330
20
100
AcDbEntity
  8
_0-0_LAYER001
  6
DASHED3
 62
     2
100
AcDbLine
 10
1821.8036
 20
1102.9503
 30
0.0
 11
1821.8036
 21
973.3765
 31
0.0
  0
LINE
  5
1EB
330
20
100
AcDbEntity
  8
_0-0_LAYER001
  6
Continuous
 62
     2
100
AcDbLine
 10
1823.8036
 20
1240.6859
 30
0.0
 11
1823.8036
 21
971.3765
 31
0.0
  0
LINE
  5
1EC
330
20
100
AcDbEntity
  8
_0-0_LAYER001
  6
Continuous
 62
     2
100
AcDbLine
 10
1839.4036
 20
1268.2598
 30
0.0
 11
1823.8036
 21
1268.2598
 31
0.0
  0
LINE
  5
1ED
330
20
100
AcDbEntity
  8
_0-0_LAYER001
  6
Continuous
 62
     2
100
AcDbLine
 10
1839.4036
 20
1289.0598
 30
0.0
 11
1823.8036
 21
1289.0598
 31
0.0
  0
LINE
  5
1EE
330
20
100
AcDbEntity
  8
_0-0_LAYER001
  6
Continuous
 62
     2
100
AcDbLine
 10
1823.8036
 20
1190.1231
 30
0.0
 11
1823.8036
 21
1268.2598
 31
0.0
  0
LINE
  5
1EF
330
20
100
AcDbEntity
  8
_0-0_LAYER001
  6
Continuous
 62
     2
100
AcDbLine
 10
1923.8036
 20
836.3764999999999
 30
0.0
 11
874.8427999999998
 21
836.3764999999999
 31
0.0
  0
CIRCLE
  5
1F0
330
20
100
AcDbEntity
  8
_0-0_LAYER001
  6
Continuous
 62
     2
100
AcDbCircle
 10
1799.2477
 20
1105.3358
 30
0.0
 40
0.9
  0
CIRCLE
  5
1F1
330
20
100
AcDbEntity
  8
_0-0_LAYER001
  6
Continuous
 62
     2
100
AcDbCircle
 10
1807.7634
 20
1102.1819
 30
0.0
 40
0.9
  0
CIRCLE
  5
1F2
330
20
100
AcDbEntity
  8
_0-0_LAYER001
  6
Continuous
 62
     2
100
AcDbCircle
 10
1789.4705
 20
1097.451
 30
0.0
 40
0.9
  0
CIRCLE
  5
1F3
330
20
100
AcDbEntity
  8
_0-0_LAYER001
  6
Continuous
 62
     2
100
AcDbCircle
 10
1756.0387
 20
1117.6362
 30
0.0
 40
0.9
  0
CIRCLE
  5
1F4
330
20
100
AcDbEntity
  8
_0-0_LAYER001
  6
Continuous
 62
     2
100
AcDbCircle
 10
1769.8589
 20
1123.8189
 30
0.0
 40
0.9
  0
ARC
  5
1F5
330
20
100
AcDbEntity
  8
_0-0_LAYER001
  6
Continuous
 62
     2
100
AcDbCircle
 10
1804.3037
 20
1278.6598
 30
0.0
 40
22.099883
100
AcDbArc
 50
337.88465
 51
28.07263999999998
  0
CIRCLE
  5
1F6
330
20
100
AcDbEntity
  8
_0-0_LAYER001
  6
Continuous
 62
     2
100
AcDbCircle
 10
1812.145
 20
1110.5832
 30
0.0
 40
0.9
  0
CIRCLE
  5
1F7
330
20
100
AcDbEntity
  8
_0-0_LAYER001
  6
Continuous
 62
     2
100
AcDbCircle
 10
1802.2863
 20
1089.4051
 30
0.0
 40
0.9
  0
CIRCLE
  5
1F8
330
20
100
AcDbEntity
  8
_0-0_LAYER001
  6
Continuous
 62
     2
100
AcDbCircle
 10
1786.2202
 20
1109.8529
 30
0.0
 40
0.9
  0
CIRCLE
  5
1F9
330
20
100
AcDbEntity
  8
_0-0_LAYER001
  6
Continuous
 62
     2
100
AcDbCircle
 10
1779.6477
 20
1091.596
 30
0.0
 40
0.9
  0
CIRCLE
  5
1FA
330
20
100
AcDbEntity
  8
_0-0_LAYER001
  6
Continuous
 62
     2
100
AcDbCircle
 10
1774.5873
 20
1130.5289
 30
0.0
 40
0.9
  0
CIRCLE
  5
1FB
330
20
100
AcDbEntity
  8
_0-0_LAYER001
  6
Continuous
 62
     2
100
AcDbCircle
 10
1767.6497
 20
1130.894
 30
0.0
 40
0.9
  0
LINE
  5
1FC
330
20
100
AcDbEntity
  8
_0-0_LAYER001
  6
Continuous
 62
     2
100
AcDbLine
 10
1837.5151
 20
1288.3112
 30
0.0
 11
1833.7651
 21
1281.816
 31
0.0
  0
LINE
  5
1FD
330
20
100
AcDbEntity
  8
_0-0_LAYER001
  6
Continuous
 62
     2
100
AcDbLine
 10
1833.7651
 20
1281.816
 30
0.0
 11
1833.7651
 21
1289.316
 31
0.0
  0
LINE
  5
1FE
330
20
100
AcDbEntity
  8
_0-0_LAYER001
  6
Continuous
 62
     2
100
AcDbLine
 10
1833.7651
 20
1281.816
 30
0.0
 11
1864.3418
 21
1395.9299
 31
0.0
  0
LINE
  5
1FF
330
20
100
AcDbEntity
  8
_0-0_LAYER001
  6
Continuous
 62
     2
100
AcDbLine
 10
1819.1246
 20
1154.3079
 30
0.0
 11
1815.3746
 21
1147.8127
 31
0.0
  0
LINE
  5
200
330
20
100
AcDbEntity
  8
_0-0_LAYER001
  6
Continuous
 62
     2
100
AcDbLine
 10
1815.3746
 20
1147.8127
 30
0.0
 11
1815.3746
 21
1155.3127
 31
0.0
  0
LINE
  5
201
330
20
100
AcDbEntity
  8
_0-0_LAYER001
  6
Continuous
 62
     2
100
AcDbLine
 10
1815.3746
 20
1147.8127
 30
0.0
 11
1872.4883
 21
1360.9637
 31
0.0
  0
LINE
  5
202
330
20
100
AcDbEntity
  8
_0-0_LAYER001
  6
Continuous
 62
     2
100
AcDbLine
 10
1872.4883
 20
1360.9637
 30
0.0
 11
2019.4883
 21
1360.9637
 31
0.0
  0
LINE
  5
203
330
20
100
AcDbEntity
  8
_0-0_LAYER001
  6
Continuous
 62
     2
100
AcDbLine
 10
1760.9824
 20
1165.2814
 30
0.0
 11
1760.9824
 21
1157.7814
 31
0.0
  0
LINE
  5
204
330
20
100
AcDbEntity
  8
_0-0_LAYER001
  6
Continuous
 62
     2
100
AcDbLine
 10
1760.9824
 20
1157.7814
 30
0.0
 11
1757.2324
 21
1164.2766
 31
0.0
  0
LINE
  5
205
330
20
100
AcDbEntity
  8
_0-0_LAYER001
  6
Continuous
 62
     2
100
AcDbLine
 10
1760.9824
 20
1157.7814
 30
0.0
 11
1699.7427
 21
1386.3312
 31
0.0
  0
LINE
  5
206
330
20
100
AcDbEntity
  8
_0-0_LAYER001
  6
Continuous
 62
     2
100
AcDbLine
 10
1699.7427
 20
1386.3312
 30
0.0
 11
1552.7427
 21
1386.3312
 31
0.0
  0
LINE
  5
207
330
20
100
AcDbEntity
  8
_0-0_LAYER001
  6
Continuous
 62
     2
100
AcDbLine
 10
1740.1307
 20
1172.8079
 30
0.0
 11
1740.1307
 21
1165.3079
 31
0.0
  0
LINE
  5
208
330
20
100
AcDbEntity
  8
_0-0_LAYER001
  6
Continuous
 62
     2
100
AcDbLine
 10
1740.1307
 20
1165.3079
 30
0.0
 11
1736.3807
 21
1171.8031
 31
0.0
  0
LINE
  5
209
330
20
100
AcDbEntity
  8
_0-0_LAYER001
  6
Continuous
 62
     2
100
AcDbLine
 10
1740.1307
 20
1165.3079
 30
0.0
 11
1693.324
 21
1339.9929
 31
0.0
  0
LINE
  5
20A
330
20
100
AcDbEntity
  8
_0-0_LAYER001
  6
Continuous
 62
     2
100
AcDbLine
 10
1697.5992
 20
1118.3553
 30
0.0
 11
1697.5992
 21
1110.8553
 31
0.0
  0
LINE
  5
20B
330
20
100
AcDbEntity
  8
_0-0_LAYER001
  6
Continuous
 62
     2
100
AcDbLine
 10
1697.5992
 20
1110.8553
 30
0.0
 11
1693.8492
 21
1117.3505
 31
0.0
  0
LINE
  5
20C
330
20
100
AcDbEntity
  8
_0-0_LAYER001
  6
Continuous
 62
     2
100
AcDbLine
 10
1697.5992
 20
1110.8553
 30
0.0
 11
1672.7714
 21
1203.5141
 31
0.0
  0
LINE
  5
20D
330
20
100
AcDbEntity
  8
_0-1_LAYER004
  6
Continuous
 62
     7
100
AcDbLine
 10
1552.7427
 20
1386.3312
 30
0.0
 11
1699.7427
 21
1386.3312
 31
0.0
  0
LINE
  5
20E
330
20
100
AcDbEntity
  8
_0-1_LAYER004
  6
Continuous
 62
     7
100
AcDbLine
 10
1672.7714
 20
1203.5141
 30
0.0
 11
1558.7714
 21
1203.5141
 31
0.0
  0
LINE
  5
20F
330
20
100
AcDbEntity
  8
_0-1_LAYER004
  6
Continuous
 62
     7
100
AcDbLine
 10
1334.9493
 20
1113.6031
 30
0.0
 11
1375.4493
 21
1113.6031
 31
0.0
  0
LINE
  5
210
330
20
100
AcDbEntity
  8
_0-1_LAYER004
  6
Continuous
 62
     7
100
AcDbLine
 10
1945.3418
 20
1395.9299
 30
0.0
 11
1864.3418
 21
1395.9299
 31
0.0
  0
LINE
  5
211
330
20
100
AcDbEntity
  8
_0-1_LAYER004
  6
Continuous
 62
     7
100
AcDbLine
 10
1872.4883
 20
1360.9637
 30
0.0
 11
2019.4883
 21
1360.9637
 31
0.0
  0
LINE
  5
212
330
20
100
AcDbEntity
  8
_0-1_LAYER004
  6
Continuous
 62
     7
100
AcDbLine
 10
910.1126999999999
 20
739.0699999999998
 30
0.0
 11
910.1126999999999
 21
690.77
 31
0.0
  0
LINE
  5
213
330
20
100
AcDbEntity
  8
_0-1_LAYER004
  6
Continuous
 62
     7
100
AcDbLine
 10
910.1126999999999
 20
686.57
 30
0.0
 11
910.1126999999999
 21
690.77
 31
0.0
  0
LINE
  5
214
330
20
100
AcDbEntity
  8
_0-1_LAYER004
  6
Continuous
 62
     7
100
AcDbLine
 10
911.8126999999999
 20
689.07
 30
0.0
 11
1716.1736
 21
689.07
 31
0.0
  0
LINE
  5
215
330
20
100
AcDbEntity
  8
_0-1_LAYER004
  6
Continuous
 62
     7
100
AcDbLine
 10
1716.1736
 20
690.77
 30
0.0
 11
1716.1736
 21
739.0699999999998
 31
0.0
  0
LINE
  5
216
330
20
100
AcDbEntity
  8
_0-1_LAYER004
  6
Continuous
 62
     7
100
AcDbLine
 10
1716.1736
 20
690.77
 30
0.0
 11
1716.1736
 21
686.57
 31
0.0
  0
LINE
  5
217
330
20
100
AcDbEntity
  8
_0-1_LAYER004
  6
Continuous
 62
     7
100
AcDbLine
 10
1420.1127
 20
687.3699999999999
 30
0.0
 11
1420.1127
 21
739.0699999999998
 31
0.0
  0
LINE
  5
218
330
20
100
AcDbEntity
  8
_0-1_LAYER004
  6
Continuous
 62
     7
100
AcDbLine
 10
1165.1127
 20
686.57
 30
0.0
 11
1165.1127
 21
739.0699999999998
 31
0.0
  0
LINE
  5
219
330
20
100
AcDbEntity
  8
_0-1_LAYER004
  6
Continuous
 62
     7
100
AcDbLine
 10
874.8427999999998
 20
836.3764999999999
 30
0.0
 11
1923.45523434825
 21
836.3764999999999
 31
0.0
  0
LINE
  5
21A
330
20
100
AcDbEntity
  8
_0-1_LAYER004
  6
Continuous
 62
     7
100
AcDbLine
 10
1934.3242
 20
817.5508999999998
 30
0.0
 11
2018.3524
 21
817.5508999999998
 31
0.0
  0
LINE
  5
21B
330
20
100
AcDbEntity
  8
_0-1_LAYER004
  6
Continuous
 62
     7
100
AcDbLine
 10
1955.5561
 20
872.5300999999998
 30
0.0
 11
2135.5561
 21
872.5300999999998
 31
0.0
  0
LINE
  5
21C
330
20
100
AcDbEntity
  8
_0-1_LAYER004
  6
Continuous
 62
     7
100
AcDbLine
 10
1813.8036
 20
846.3765
 30
0.0
 11
1813.8036
 21
946.3765
 31
0.0
  0
LINE
  5
21D
330
20
100
AcDbEntity
  8
_0-1_LAYER004
  6
Continuous
 62
     7
100
AcDbLine
 10
1813.8036
 20
846.3765
 30
0.0
 11
874.8427999999998
 21
846.3765
 31
0.0
  0
LINE
  5
21E
330
20
100
AcDbEntity
  8
_0-1_LAYER004
  6
Continuous
 62
     7
100
AcDbLine
 10
874.8427999999998
 20
946.3765
 30
0.0
 11
1923.8036
 21
946.3765
 31
0.0
  0
LINE
  5
21F
330
20
100
AcDbEntity
  8
_0-1_LAYER004
  6
Continuous
 62
     7
100
AcDbLine
 10
1923.8036
 20
946.3765
 30
0.0
 11
1923.8036
 21
1332.8274
 31
0.0
  0
LINE
  5
220
330
20
100
AcDbEntity
  8
_0-1_LAYER004
  6
Continuous
 62
     7
100
AcDbLine
 10
1730.2494
 20
1364.8317
 30
0.0
 11
1730.2494
 21
1312.3317
 31
0.0
  0
LINE
  5
221
330
20
100
AcDbEntity
  8
_0-1_LAYER004
  6
Continuous
 62
     7
100
AcDbLine
 10
1730.2494
 20
1362.3317
 30
0.0
 11
1821.8036
 21
1362.3317
 31
0.0
  0
LINE
  5
222
330
20
100
AcDbEntity
  8
_0-1_LAYER004
  6
Continuous
 62
     7
100
AcDbLine
 10
1821.8036
 20
1364.0317
 30
0.0
 11
1821.8036
 21
1312.3317
 31
0.0
  0
LINE
  5
223
330
20
100
AcDbEntity
  8
_0-1_LAYER004
  6
Continuous
 62
     7
100
AcDbLine
 10
1823.8036
 20
1383.1182
 30
0.0
 11
1823.8036
 21
1289.0598
 31
0.0
  0
LINE
  5
224
330
20
100
AcDbEntity
  8
_0-1_LAYER004
  6
Continuous
 62
     7
100
AcDbLine
 10
1823.8036
 20
1289.0598
 30
0.0
 11
1839.4036
 21
1289.0598
 31
0.0
  0
LINE
  5
225
330
20
100
AcDbEntity
  8
_0-1_LAYER004
  6
Continuous
 62
     7
100
AcDbLine
 10
1839.4036
 20
1289.0598
 30
0.0
 11
1839.4036
 21
1268.2598
 31
0.0
  0
LINE
  5
226
330
20
100
AcDbEntity
  8
_0-1_LAYER004
  6
Continuous
 62
     7
100
AcDbLine
 10
1839.4036
 20
1268.2598
 30
0.0
 11
1823.8036
 21
1268.2598
 31
0.0
  0
LINE
  5
227
330
20
100
AcDbEntity
  8
_0-1_LAYER004
  6
Continuous
 62
     7
100
AcDbLine
 10
1823.8036
 20
1268.2598
 30
0.0
 11
1823.8036
 21
946.3765
 31
0.0
  0
LINE
  5
228
330
20
100
AcDbEntity
  8
_0-1_LAYER004
  6
Continuous
 62
     7
100
AcDbLine
 10
1819.8036
 20
1102.9503
 30
0.0
 11
1819.8036
 21
975.3764
 31
0.0
  0
LINE
  5
229
330
20
100
AcDbEntity
  8
_0-1_LAYER004
  6
Continuous
 62
     7
100
AcDbLine
 10
1819.8036
 20
975.3764
 30
0.0
 11
1703.8036
 21
975.3764
 31
0.0
  0
LINE
  5
22A
330
20
100
AcDbEntity
  8
_0-1_LAYER004
  6
Continuous
 62
     7
100
AcDbLine
 10
1703.8036
 20
975.3764
 30
0.0
 11
1703.8036
 21
993.1193
 31
0.0
  0
LINE
  5
22B
330
20
100
AcDbEntity
  8
_0-1_LAYER004
  6
Continuous
 62
     7
100
AcDbLine
 10
1703.8036
 20
993.1193
 30
0.0
 11
1720.059872936831
 21
993.1193
 31
0.0
  0
LINE
  5
22C
330
20
100
AcDbEntity
  8
_0-1_LAYER004
  6
Continuous
 62
     7
100
AcDbLine
 10
1821.8036
 20
1102.9503
 30
0.0
 11
1821.8036
 21
973.3765
 31
0.0
  0
LINE
  5
22D
330
20
100
AcDbEntity
  8
_0-1_LAYER004
  6
Continuous
 62
     7
100
AcDbLine
 10
1821.8036
 20
973.3765
 30
0.0
 11
874.8427999999998
 21
973.3765
 31
0.0
  0
LINE
  5
22E
330
20
100
AcDbEntity
  8
_0-1_LAYER004
  6
Continuous
 62
     7
100
AcDbLine
 10
874.8427999999998
 20
971.3765
 30
0.0
 11
1823.8036
 21
971.3765
 31
0.0
  0
LINE
  5
22F
330
20
100
AcDbEntity
  8
_0-1_LAYER004
  6
Continuous
 62
     7
100
AcDbLine
 10
1701.8035
 20
992.3764999999999
 30
0.0
 11
1701.8035
 21
977.3764999999999
 31
0.0
  0
LINE
  5
230
330
20
100
AcDbEntity
  8
_0-1_LAYER004
  6
Continuous
 62
     7
100
AcDbLine
 10
1701.8035
 20
977.3764999999999
 30
0.0
 11
874.8427999999998
 21
977.3764999999999
 31
0.0
  0
LINE
  5
231
330
20
100
AcDbEntity
  8
_0-1_LAYER004
  6
Continuous
 62
     7
100
AcDbLine
 10
874.8427999999998
 20
992.3764999999999
 30
0.0
 11
1701.8035
 21
992.3764999999999
 31
0.0
  0
LINE
  5
232
330
20
100
AcDbEntity
  8
_0-1_LAYER004
  6
Continuous
 62
     7
100
AcDbLine
 10
1964.1319
 20
1284.2598
 30
0.0
 11
2015.8319
 21
1284.2598
 31
0.0
  0
LINE
  5
233
330
20
100
AcDbEntity
  8
_0-1_LAYER004
  6
Continuous
 62
     7
100
AcDbLine
 10
2014.1319
 20
1284.2598
 30
0.0
 11
2014.1319
 21
1179.8598
 31
0.0
  0
LINE
  5
234
330
20
100
AcDbEntity
  8
_0-1_LAYER004
  6
Continuous
 62
     7
100
AcDbLine
 10
2015.8319
 20
1179.8598
 30
0.0
 11
1964.1319
 21
1179.8598
 31
0.0
  0
LINE
  5
235
330
20
100
AcDbEntity
  8
_0-1_LAYER004
  6
Continuous
 62
     7
100
AcDbLine
 10
1964.1319
 20
1269.8598
 30
0.0
 11
2014.1319
 21
1269.8598
 31
0.0
  0
LINE
  5
236
330
20
100
AcDbEntity
  8
_0-1_LAYER004
  6
Continuous
 62
     7
100
AcDbLine
 10
2014.1319
 20
1269.8598
 30
0.0
 11
2015.8319
 21
1269.8598
 31
0.0
  0
LINE
  5
237
330
20
100
AcDbEntity
  8
_0-1_LAYER004
  6
Continuous
 62
     7
100
AcDbLine
 10
2050.0645
 20
1171.3765
 30
0.0
 11
2101.7645
 21
1171.3765
 31
0.0
  0
LINE
  5
238
330
20
100
AcDbEntity
  8
_0-1_LAYER004
  6
Continuous
 62
     7
100
AcDbLine
 10
2100.0645
 20
1171.3765
 30
0.0
 11
2100.0645
 21
973.0764999999999
 31
0.0
  0
LINE
  5
239
330
20
100
AcDbEntity
  8
_0-1_LAYER004
  6
Continuous
 62
     7
100
AcDbLine
 10
2102.5645
 20
971.3765
 30
0.0
 11
2050.0645
 21
971.3765
 31
0.0
  0
LINE
  5
23A
330
20
100
AcDbEntity
  8
_0-1_LAYER004
  6
Continuous
 62
     7
100
AcDbLine
 10
2100.0645
 20
973.0764999999999
 30
0.0
 11
2100.0645
 21
971.3765
 31
0.0
  0
LINE
  5
23B
330
20
100
AcDbEntity
  8
_0-1_LAYER004
  6
Continuous
 62
     7
100
AcDbLine
 10
1964.1319
 20
971.3765
 30
0.0
 11
2016.6319
 21
971.3765
 31
0.0
  0
LINE
  5
23C
330
20
100
AcDbEntity
  8
_0-1_LAYER004
  6
Continuous
 62
     7
100
AcDbLine
 10
2014.1319
 20
971.3765
 30
0.0
 11
2014.1319
 21
1102.9503
 31
0.0
  0
LINE
  5
23D
330
20
100
AcDbEntity
  8
_0-1_LAYER004
  6
Continuous
 62
     7
100
AcDbLine
 10
2016.6319
 20
1102.9503
 30
0.0
 11
1964.1319
 21
1102.9503
 31
0.0
  0
LINE
  5
23E
330
20
100
AcDbEntity
  8
_0-1_LAYER004
  6
Continuous
 62
     7
100
AcDbLine
 10
1823.8036
 20
814.1421000000001
 30
0.0
 11
1823.8036
 21
762.4421
 31
0.0
  0
LINE
  5
23F
330
20
100
AcDbEntity
  8
_0-1_LAYER004
  6
Continuous
 62
     7
100
AcDbLine
 10
1823.8036
 20
764.1421
 30
0.0
 11
1703.8036
 21
764.1421
 31
0.0
  0
LINE
  5
240
330
20
100
AcDbEntity
  8
_0-1_LAYER004
  6
Continuous
 62
     7
100
AcDbLine
 10
1703.8036
 20
762.4421
 30
0.0
 11
1703.8036
 21
814.1421000000001
 31
0.0
  0
LINE
  5
241
330
20
100
AcDbEntity
  8
_0-1_LAYER004
  6
Continuous
 62
     7
100
AcDbLine
 10
1793.8036
 20
1157.660469045961
 30
0.0
 11
1793.8036
 21
1122.9503
 31
0.0
  0
LINE
  5
242
330
20
100
AcDbEntity
  8
_0-1_LAYER004
  6
Continuous
 62
     7
100
AcDbLine
 10
1793.8036
 20
1122.9503
 30
0.0
 11
1823.8036
 21
1122.9503
 31
0.0
  0
LINE
  5
243
330
20
100
AcDbEntity
  8
_0-1_LAYER004
  6
Continuous
 62
     7
100
AcDbLine
 10
1781.2448
 20
1153.6319
 30
0.0
 11
1781.2448
 21
1135.2801
 31
0.0
  0
LINE
  5
244
330
20
100
AcDbEntity
  8
_0-1_LAYER004
  6
Continuous
 62
     7
100
AcDbLine
 10
1781.2448
 20
1135.2801
 30
0.0
 11
1796.538
 21
1135.2801
 31
0.0
  0
LINE
  5
245
330
20
100
AcDbEntity
  8
_0-1_LAYER004
  6
Continuous
 62
     7
100
AcDbLine
 10
1781.2448
 20
1153.6319
 30
0.0
 11
1796.538
 21
1153.6319
 31
0.0
  0
LINE
  5
246
330
20
100
AcDbEntity
  8
_0-1_LAYER004
  6
Continuous
 62
     7
100
AcDbLine
 10
1796.538
 20
1154.1416
 30
0.0
 11
1796.538
 21
1135.2801
 31
0.0
  0
LINE
  5
247
330
20
100
AcDbEntity
  8
_0-1_LAYER004
  6
Continuous
 62
     7
100
AcDbLine
 10
1766.5634
 20
1118.8145
 30
0.0
 11
1766.5634
 21
1100.7686
 31
0.0
  0
LINE
  5
248
330
20
100
AcDbEntity
  8
_0-1_LAYER004
  6
Continuous
 62
     7
100
AcDbLine
 10
1837.3236
 20
1289.0598
 30
0.0
 11
1837.3236
 21
1270.3398
 31
0.0
  0
LINE
  5
249
330
20
100
AcDbEntity
  8
_0-1_LAYER004
  6
Continuous
 62
     7
100
AcDbLine
 10
1837.3236
 20
1270.3398
 30
0.0
 11
1819.4036
 21
1270.3398
 31
0.0
  0
LINE
  5
24A
330
20
100
AcDbEntity
  8
_0-1_LAYER004
  6
Continuous
 62
     7
100
AcDbLine
 10
1819.4036
 20
1270.3398
 30
0.0
 11
1819.4036
 21
1237.8598
 31
0.0
  0
LINE
  5
24B
330
20
100
AcDbEntity
  8
_0-1_LAYER004
  6
Continuous
 62
     7
100
AcDbLine
 10
1821.8036
 20
1268.2598
 30
0.0
 11
1821.8036
 21
1179.8598
 31
0.0
  0
LINE
  5
24C
330
20
100
AcDbEntity
  8
_0-1_LAYER004
  6
Continuous
 62
     7
100
AcDbLine
 10
1821.8036
 20
1179.8598
 30
0.0
 11
1730.2494
 21
1163.7163
 31
0.0
  0
LINE
  5
24D
330
20
100
AcDbEntity
  8
_0-1_LAYER004
  6
Continuous
 62
     7
100
AcDbLine
 10
1730.2494
 20
1163.7163
 30
0.0
 11
1732.853999999999
 21
1148.9442
 31
0.0
  0
LINE
  5
24E
330
20
100
AcDbEntity
  8
_0-1_LAYER004
  6
Continuous
 62
     7
100
AcDbLine
 10
1732.853999999999
 20
1148.9442
 30
0.0
 11
1709.272
 21
1140.361
 31
0.0
  0
LINE
  5
24F
330
20
100
AcDbEntity
  8
_0-1_LAYER004
  6
Continuous
 62
     7
100
AcDbLine
 10
1709.272
 20
1140.361
 30
0.0
 11
1715.1846
 21
1141.3813
 31
0.0
  0
LINE
  5
250
330
20
100
AcDbEntity
  8
_0-1_LAYER004
  6
Continuous
 62
     7
100
AcDbLine
 10
1732.5662
 20
1162.094
 30
0.0
 11
1735.1709
 21
1147.3219
 31
0.0
  0
LINE
  5
251
330
20
100
AcDbEntity
  8
_0-1_LAYER004
  6
Continuous
 62
     7
100
AcDbLine
 10
1735.1709
 20
1147.3219
 30
0.0
 11
1823.8036
 21
1162.9503
 31
0.0
  0
LINE
  5
252
330
20
100
AcDbEntity
  8
_0-1_LAYER004
  6
Continuous
 62
     7
100
AcDbLine
 10
1823.8036
 20
1162.9503
 30
0.0
 11
1821.1989
 21
1177.7224
 31
0.0
  0
LINE
  5
253
330
20
100
AcDbEntity
  8
_0-1_LAYER004
  6
Continuous
 62
     7
100
AcDbLine
 10
1821.1989
 20
1177.7224
 30
0.0
 11
1732.5662
 21
1162.094
 31
0.0
  0
LINE
  5
254
330
20
100
AcDbEntity
  8
_0-1_LAYER004
  6
Continuous
 62
     7
100
AcDbLine
 10
1732.5662
 20
1162.094
 30
0.0
 11
1823.8036
 21
1162.9503
 31
0.0
  0
LINE
  5
255
330
20
100
AcDbEntity
  8
_0-1_LAYER004
  6
Continuous
 62
     7
100
AcDbLine
 10
1815.3746
 20
1155.3127
 30
0.0
 11
1815.3746
 21
1147.8127
 31
0.0
  0
LINE
  5
256
330
20
100
AcDbEntity
  8
_0-1_LAYER004
  6
Continuous
 62
     7
100
AcDbLine
 10
1815.3746
 20
1147.8127
 30
0.0
 11
1819.1246
 21
1154.3079
 31
0.0
  0
LINE
  5
257
330
20
100
AcDbEntity
  8
_0-1_LAYER004
  6
Continuous
 62
     7
100
AcDbLine
 10
1815.3746
 20
1147.8127
 30
0.0
 11
1872.4883
 21
1360.9637
 31
0.0
  0
LINE
  5
258
330
20
100
AcDbEntity
  8
_0-1_LAYER004
  6
Continuous
 62
     7
100
AcDbLine
 10
1864.3418
 20
1395.9299
 30
0.0
 11
1833.7651
 21
1281.816
 31
0.0
  0
LINE
  5
259
330
20
100
AcDbEntity
  8
_0-1_LAYER004
  6
Continuous
 62
     7
100
AcDbLine
 10
1833.7651
 20
1281.816
 30
0.0
 11
1833.7651
 21
1289.0598
 31
0.0
  0
LINE
  5
25A
330
20
100
AcDbEntity
  8
_0-1_LAYER004
  6
Continuous
 62
     7
100
AcDbLine
 10
1833.7651
 20
1281.816
 30
0.0
 11
1837.5151
 21
1288.3112
 31
0.0
  0
LINE
  5
25B
330
20
100
AcDbEntity
  8
_0-1_LAYER004
  6
Continuous
 62
     7
100
AcDbLine
 10
1821.8036
 20
1268.2598
 30
0.0
 11
1819.4036
 21
1258.318968915273
 31
0.0
  0
LINE
  5
25C
330
20
100
AcDbEntity
  8
_0-1_LAYER004
  6
Continuous
 62
     7
100
AcDbLine
 10
1699.7427
 20
1386.3312
 30
0.0
 11
1760.9824
 21
1157.7814
 31
0.0
  0
LINE
  5
25D
330
20
100
AcDbEntity
  8
_0-1_LAYER004
  6
Continuous
 62
     7
100
AcDbLine
 10
1760.9824
 20
1157.7814
 30
0.0
 11
1760.9824
 21
1165.2814
 31
0.0
  0
LINE
  5
25E
330
20
100
AcDbEntity
  8
_0-1_LAYER004
  6
Continuous
 62
     7
100
AcDbLine
 10
1757.2324
 20
1164.2766
 30
0.0
 11
1760.9824
 21
1157.7814
 31
0.0
  0
LINE
  5
25F
330
20
100
AcDbEntity
  8
_0-1_LAYER004
  6
Continuous
 62
     7
100
AcDbLine
 10
1740.1307
 20
1172.8079
 30
0.0
 11
1740.1307
 21
1165.458642421757
 31
0.0
  0
LINE
  5
260
330
20
100
AcDbEntity
  8
_0-1_LAYER004
  6
Continuous
 62
     7
100
AcDbLine
 10
1740.1307
 20
1165.458642421757
 30
0.0
 11
1736.3807
 21
1171.8031
 31
0.0
  0
LINE
  5
261
330
20
100
AcDbEntity
  8
_0-1_LAYER004
  6
Continuous
 62
     7
100
AcDbLine
 10
1740.1307
 20
1165.458642421757
 30
0.0
 11
1740.1307
 21
1172.8079
 31
0.0
  0
LINE
  5
262
330
20
100
AcDbEntity
  8
_0-1_LAYER004
  6
Continuous
 62
     7
100
AcDbLine
 10
1740.1307
 20
1165.458642421757
 30
0.0
 11
1693.324
 21
1339.9929
 31
0.0
  0
LINE
  5
263
330
20
100
AcDbEntity
  8
_0-1_LAYER004
  6
Continuous
 62
     7
100
AcDbLine
 10
1672.7714
 20
1203.5141
 30
0.0
 11
1697.5992
 21
1110.8553
 31
0.0
  0
LINE
  5
264
330
20
100
AcDbEntity
  8
_0-1_LAYER004
  6
Continuous
 62
     7
100
AcDbLine
 10
1697.5992
 20
1110.8553
 30
0.0
 11
1697.5992
 21
1118.3553
 31
0.0
  0
LINE
  5
265
330
20
100
AcDbEntity
  8
_0-1_LAYER004
  6
Continuous
 62
     7
100
AcDbLine
 10
1697.5992
 20
1110.8553
 30
0.0
 11
1693.8492
 21
1117.3505
 31
0.0
  0
LINE
  5
266
330
20
100
AcDbEntity
  8
_0-1_LAYER004
  6
Continuous
 62
     7
100
AcDbLine
 10
1766.5634
 20
1118.8145
 30
0.0
 11
1796.538
 21
1126.8689
 31
0.0
  0
LINE
  5
267
330
20
100
AcDbEntity
  8
_0-1_LAYER004
  6
Continuous
 62
     7
100
AcDbLine
 10
1796.538
 20
1126.8689
 30
0.0
 11
1799.0868
 21
1124.32
 31
0.0
  0
LINE
  5
268
330
20
100
AcDbEntity
  8
_0-1_LAYER004
  6
Continuous
 62
     7
100
AcDbLine
 10
1799.0868
 20
1124.32
 30
0.0
 11
1773.5711
 21
1101.5814
 31
0.0
  0
LINE
  5
269
330
20
100
AcDbEntity
  8
_0-1_LAYER004
  6
Continuous
 62
     7
100
AcDbLine
 10
1766.5634
 20
1100.7686
 30
0.0
 11
1773.5711
 21
1101.5814
 31
0.0
  0
LINE
  5
26A
330
20
100
AcDbEntity
  8
_0-1_LAYER004
  6
Continuous
 62
     7
100
AcDbLine
 10
1797.3076
 20
1158.2783
 30
0.0
 11
1823.8036
 21
1122.9503
 31
0.0
  0
LINE
  5
26B
330
20
100
AcDbEntity
  8
_0-1_LAYER004
  6
Continuous
 62
     7
100
AcDbLine
 10
1799.8035
 20
1145.9503
 30
0.0
 11
1799.8035
 21
1139.9503
 31
0.0
  0
LINE
  5
26C
330
20
100
AcDbEntity
  8
_0-1_LAYER004
  6
Continuous
 62
     7
100
AcDbLine
 10
1799.8035
 20
1139.9503
 30
0.0
 11
1793.8036
 21
1136.9502
 31
0.0
  0
LINE
  5
26D
330
20
100
AcDbEntity
  8
_0-1_LAYER004
  6
Continuous
 62
     7
100
AcDbLine
 10
1799.8035
 20
1145.9503
 30
0.0
 11
1793.8036
 21
1148.9504
 31
0.0
  0
LINE
  5
26E
330
20
100
AcDbEntity
  8
_0-1_LAYER004
  6
Continuous
 62
     7
100
AcDbLine
 10
1805.8177
 20
1173.3916
 30
0.0
 11
1802.9817
 21
1174.5102
 31
0.0
  0
LINE
  5
26F
330
20
100
AcDbEntity
  8
_0-1_LAYER004
  6
Continuous
 62
     7
100
AcDbLine
 10
1805.8177
 20
1173.3916
 30
0.0
 11
1810.5074
 21
1146.7983
 31
0.0
  0
LINE
  5
270
330
20
100
AcDbEntity
  8
_0-1_LAYER004
  6
Continuous
 62
     7
100
AcDbLine
 10
1810.5074
 20
1146.7983
 30
0.0
 11
1813.9491
 21
1138.5593
 31
0.0
  0
LINE
  5
271
330
20
100
AcDbEntity
  8
_0-1_LAYER004
  6
Continuous
 62
     7
100
AcDbLine
 10
1813.9491
 20
1138.5593
 30
0.0
 11
1814.1575
 21
1147.442
 31
0.0
  0
LINE
  5
272
330
20
100
AcDbEntity
  8
_0-1_LAYER004
  6
Continuous
 62
     7
100
AcDbLine
 10
1814.1575
 20
1147.442
 30
0.0
 11
1809.4676
 21
1174.0339
 31
0.0
  0
LINE
  5
273
330
20
100
AcDbEntity
  8
_0-1_LAYER004
  6
Continuous
 62
     7
100
AcDbLine
 10
1809.4676
 20
1174.0339
 30
0.0
 11
1811.7512
 21
1176.0565
 31
0.0
  0
LINE
  5
274
330
20
100
AcDbEntity
  8
_0-1_LAYER004
  6
Continuous
 62
     7
100
AcDbLine
 10
1811.7512
 20
1176.0565
 30
0.0
 11
1802.9817
 21
1174.5102
 31
0.0
  0
LINE
  5
275
330
20
100
AcDbEntity
  8
_0-1_LAYER004
  6
Continuous
 62
     7
100
AcDbLine
 10
1799.8035
 20
1145.9503
 30
0.0
 11
1823.8036
 21
1145.9503
 31
0.0
  0
LINE
  5
276
330
20
100
AcDbEntity
  8
_0-1_LAYER004
  6
Continuous
 62
     7
100
AcDbLine
 10
1823.8036
 20
1139.9503
 30
0.0
 11
1799.8035
 21
1139.9503
 31
0.0
  0
LINE
  5
277
330
20
100
AcDbEntity
  8
_0-1_LAYER004
  6
Continuous
 62
     7
100
AcDbLine
 10
1823.8036
 20
1147.2003
 30
0.0
 11
1842.0035
 21
1147.2015
 31
0.0
  0
LINE
  5
278
330
20
100
AcDbEntity
  8
_0-1_LAYER004
  6
Continuous
 62
     7
100
AcDbLine
 10
1842.0035
 20
1147.2015
 30
0.0
 11
1851.0974
 21
1148.8053
 31
0.0
  0
LINE
  5
279
330
20
100
AcDbEntity
  8
_0-1_LAYER004
  6
Continuous
 62
     7
100
AcDbLine
 10
1851.0974
 20
1148.8053
 30
0.0
 11
1851.3935
 21
1147.1313
 31
0.0
  0
LINE
  5
27A
330
20
100
AcDbEntity
  8
_0-1_LAYER004
  6
Continuous
 62
     7
100
AcDbLine
 10
1851.3935
 20
1147.1313
 30
0.0
 11
1853.0676
 21
1147.4263
 31
0.0
  0
LINE
  5
27B
330
20
100
AcDbEntity
  8
_0-1_LAYER004
  6
Continuous
 62
     7
100
AcDbLine
 10
1853.0676
 20
1147.4263
 30
0.0
 11
1852.771671530189
 21
1149.099330254855
 31
0.0
  0
LINE
  5
27C
330
20
100
AcDbEntity
  8
_0-1_LAYER004
  6
Continuous
 62
     7
100
AcDbLine
 10
1852.771671530189
 20
1149.099330254855
 30
0.0
 11
1855.4305
 21
1149.5683
 31
0.0
  0
LINE
  5
27D
330
20
100
AcDbEntity
  8
_0-1_LAYER004
  6
Continuous
 62
     7
100
AcDbLine
 10
1855.4305
 20
1149.5683
 30
0.0
 11
1855.7265
 21
1147.8954
 31
0.0
  0
LINE
  5
27E
330
20
100
AcDbEntity
  8
_0-1_LAYER004
  6
Continuous
 62
     7
100
AcDbLine
 10
1855.7265
 20
1147.8954
 30
0.0
 11
1857.3995
 21
1148.1903
 31
0.0
  0
LINE
  5
27F
330
20
100
AcDbEntity
  8
_0-1_LAYER004
  6
Continuous
 62
     7
100
AcDbLine
 10
1857.3995
 20
1148.1903
 30
0.0
 11
1857.1045
 21
1149.8644
 31
0.0
  0
LINE
  5
280
330
20
100
AcDbEntity
  8
_0-1_LAYER004
  6
Continuous
 62
     7
100
AcDbLine
 10
1857.1045
 20
1149.8644
 30
0.0
 11
1859.7635
 21
1150.3334
 31
0.0
  0
LINE
  5
281
330
20
100
AcDbEntity
  8
_0-1_LAYER004
  6
Continuous
 62
     7
100
AcDbLine
 10
1859.7635
 20
1150.3334
 30
0.0
 11
1860.0594
 21
1148.6593
 31
0.0
  0
LINE
  5
282
330
20
100
AcDbEntity
  8
_0-1_LAYER004
  6
Continuous
 62
     7
100
AcDbLine
 10
1860.0594
 20
1148.6593
 30
0.0
 11
1861.7336
 21
1148.9543
 31
0.0
  0
LINE
  5
283
330
20
100
AcDbEntity
  8
_0-1_LAYER004
  6
Continuous
 62
     7
100
AcDbLine
 10
1861.7336
 20
1148.9543
 30
0.0
 11
1861.4376
 21
1150.6272
 31
0.0
  0
LINE
  5
284
330
20
100
AcDbEntity
  8
_0-1_LAYER004
  6
Continuous
 62
     7
100
AcDbLine
 10
1861.4376
 20
1150.6272
 30
0.0
 11
1862.9154
 21
1150.8883
 31
0.0
  0
LINE
  5
285
330
20
100
AcDbEntity
  8
_0-1_LAYER004
  6
Continuous
 62
     7
100
AcDbLine
 10
1862.9154
 20
1150.8883
 30
0.0
 11
1864.647531362289
 21
1149.679405799645
 31
0.0
  0
LINE
  5
286
330
20
100
AcDbEntity
  8
_0-1_LAYER004
  6
Continuous
 62
     7
100
AcDbLine
 10
1864.647531362289
 20
1149.679405799645
 30
0.0
 11
1865.0526
 21
1147.4073
 31
0.0
  0
LINE
  5
287
330
20
100
AcDbEntity
  8
_0-1_LAYER004
  6
Continuous
 62
     7
100
AcDbLine
 10
1865.0526
 20
1147.4073
 30
0.0
 11
1839.7796
 21
1142.9514
 31
0.0
  0
LINE
  5
288
330
20
100
AcDbEntity
  8
_0-1_LAYER004
  6
Continuous
 62
     7
100
AcDbLine
 10
1839.7796
 20
1142.9514
 30
0.0
 11
1864.8775
 21
1138.5253
 31
0.0
  0
LINE
  5
289
330
20
100
AcDbEntity
  8
_0-1_LAYER004
  6
Continuous
 62
     7
100
AcDbLine
 10
1864.8775
 20
1138.5253
 30
0.0
 11
1864.474520768745
 21
1136.267140428788
 31
0.0
  0
LINE
  5
28A
330
20
100
AcDbEntity
  8
_0-1_LAYER004
  6
Continuous
 62
     7
100
AcDbLine
 10
1864.474520768745
 20
1136.267140428788
 30
0.0
 11
1862.735506819186
 21
1135.049779117268
 31
0.0
  0
LINE
  5
28B
330
20
100
AcDbEntity
  8
_0-1_LAYER004
  6
Continuous
 62
     7
100
AcDbLine
 10
1862.735506819186
 20
1135.049779117268
 30
0.0
 11
1861.2635
 21
1135.3054
 31
0.0
  0
LINE
  5
28C
330
20
100
AcDbEntity
  8
_0-1_LAYER004
  6
Continuous
 62
     7
100
AcDbLine
 10
1861.2635
 20
1135.3054
 30
0.0
 11
1861.5596
 21
1136.9783
 31
0.0
  0
LINE
  5
28D
330
20
100
AcDbEntity
  8
_0-1_LAYER004
  6
Continuous
 62
     7
100
AcDbLine
 10
1861.5596
 20
1136.9783
 30
0.0
 11
1859.8855
 21
1137.2733
 31
0.0
  0
LINE
  5
28E
330
20
100
AcDbEntity
  8
_0-1_LAYER004
  6
Continuous
 62
     7
100
AcDbLine
 10
1859.8855
 20
1137.2733
 30
0.0
 11
1859.5896
 21
1135.6003
 31
0.0
  0
LINE
  5
28F
330
20
100
AcDbEntity
  8
_0-1_LAYER004
  6
Continuous
 62
     7
100
AcDbLine
 10
1859.5896
 20
1135.6003
 30
0.0
 11
1856.9305
 21
1136.0694
 31
0.0
  0
LINE
  5
290
330
20
100
AcDbEntity
  8
_0-1_LAYER004
  6
Continuous
 62
     7
100
AcDbLine
 10
1856.9305
 20
1136.0694
 30
0.0
 11
1857.2265
 21
1137.7424
 31
0.0
  0
LINE
  5
291
330
20
100
AcDbEntity
  8
_0-1_LAYER004
  6
Continuous
 62
     7
100
AcDbLine
 10
1857.2265
 20
1137.7424
 30
0.0
 11
1855.5516
 21
1138.0374
 31
0.0
  0
LINE
  5
292
330
20
100
AcDbEntity
  8
_0-1_LAYER004
  6
Continuous
 62
     7
100
AcDbLine
 10
1855.5516
 20
1138.0374
 30
0.0
 11
1855.2565
 21
1136.3643
 31
0.0
  0
LINE
  5
293
330
20
100
AcDbEntity
  8
_0-1_LAYER004
  6
Continuous
 62
     7
100
AcDbLine
 10
1855.2565
 20
1136.3643
 30
0.0
 11
1852.5974
 21
1136.8333
 31
0.0
  0
LINE
  5
294
330
20
100
AcDbEntity
  8
_0-1_LAYER004
  6
Continuous
 62
     7
100
AcDbLine
 10
1852.5974
 20
1136.8333
 30
0.0
 11
1852.8925
 21
1138.5063
 31
0.0
  0
LINE
  5
295
330
20
100
AcDbEntity
  8
_0-1_LAYER004
  6
Continuous
 62
     7
100
AcDbLine
 10
1852.8925
 20
1138.5063
 30
0.0
 11
1851.2196
 21
1138.8013
 31
0.0
  0
LINE
  5
296
330
20
100
AcDbEntity
  8
_0-1_LAYER004
  6
Continuous
 62
     7
100
AcDbLine
 10
1851.2186
 20
1138.8013
 30
0.0
 11
1850.9235
 21
1137.1284
 31
0.0
  0
LINE
  5
297
330
20
100
AcDbEntity
  8
_0-1_LAYER004
  6
Continuous
 62
     7
100
AcDbLine
 10
1850.9235
 20
1137.1284
 30
0.0
 11
1842.0035
 21
1138.7003
 31
0.0
  0
LINE
  5
298
330
20
100
AcDbEntity
  8
_0-1_LAYER004
  6
Continuous
 62
     7
100
AcDbLine
 10
1842.0035
 20
1138.7003
 30
0.0
 11
1823.8036
 21
1138.7003
 31
0.0
  0
LINE
  5
299
330
20
100
AcDbEntity
  8
_0-1_LAYER004
  6
Continuous
 62
     7
100
AcDbLine
 10
1819.8036
 20
1102.9503
 30
0.0
 11
1812.3036
 21
1089.96
 31
0.0
  0
LINE
  5
29A
330
20
100
AcDbEntity
  8
_0-1_LAYER004
  6
Continuous
 62
     7
100
AcDbLine
 10
1823.8036
 20
1100.7397
 30
0.0
 11
1923.8036
 21
1000.7399
 31
0.0
  0
LINE
  5
29B
330
20
100
AcDbEntity
  8
_0-1_LAYER004
  6
Continuous
 62
     7
100
AcDbLine
 10
1923.8036
 20
996.4972000000001
 30
0.0
 11
1823.8036
 21
1096.4972
 31
0.0
  0
LINE
  5
29C
330
20
100
AcDbEntity
  8
_0-1_LAYER004
  6
Continuous
 62
     7
100
AcDbLine
 10
1786.9769
 20
1072.7639
 30
0.0
 11
1788.918
 21
1065.5194
 31
0.0
  0
LINE
  5
29D
330
20
100
AcDbEntity
  8
_0-1_LAYER004
  6
Continuous
 62
     7
100
AcDbLine
 10
1786.9769
 20
1072.7639
 30
0.0
 11
1792.2802
 21
1067.4606
 31
0.0
  0
LINE
  5
29E
330
20
100
AcDbEntity
  8
_0-1_LAYER004
  6
Continuous
 62
     7
100
AcDbLine
 10
1786.9769
 20
1072.7639
 30
0.0
 11
1934.3242
 21
817.5508999999998
 31
0.0
  0
LINE
  5
29F
330
20
100
AcDbEntity
  8
_0-1_LAYER004
  6
Continuous
 62
     7
100
AcDbLine
 10
1955.5561
 20
872.5300999999998
 30
0.0
 11
1891.5103
 21
983.4606
 31
0.0
  0
LINE
  5
2A0
330
20
100
AcDbEntity
  8
_0-1_LAYER004
  6
Continuous
 62
     7
100
AcDbLine
 10
1891.5103
 20
983.4606
 30
0.0
 11
1893.4515
 21
976.2162
 31
0.0
  0
LINE
  5
2A1
330
20
100
AcDbEntity
  8
_0-1_LAYER004
  6
Continuous
 62
     7
100
AcDbLine
 10
1891.5103
 20
983.4606
 30
0.0
 11
1896.8136
 21
978.1572999999999
 31
0.0
  0
LINE
  5
2A2
330
20
100
AcDbEntity
  8
_0-1_LAYER004
  6
Continuous
 62
     7
100
AcDbLine
 10
1730.6509
 20
977.5657
 30
0.0
 11
1726.9009
 21
971.0705
 31
0.0
  0
LINE
  5
2A3
330
20
100
AcDbEntity
  8
_0-1_LAYER004
  6
Continuous
 62
     7
100
AcDbLine
 10
1730.6509
 20
977.5657
 30
0.0
 11
1730.6509
 21
970.0656999999999
 31
0.0
  0
LINE
  5
2A4
330
20
100
AcDbEntity
  8
_0-1_LAYER004
  6
Continuous
 62
     7
100
AcDbLine
 10
1730.6509
 20
977.5657
 30
0.0
 11
1682.0566
 21
796.2095999999998
 31
0.0
  0
LINE
  5
2A5
330
20
100
AcDbEntity
  8
_0-1_LAYER004
  6
Continuous
 62
     7
100
AcDbLine
 10
1398.7958
 20
1018.9728
 30
0.0
 11
1402.5458
 21
1012.4776
 31
0.0
  0
LINE
  5
2A6
330
20
100
AcDbEntity
  8
_0-1_LAYER004
  6
Continuous
 62
     7
100
AcDbLine
 10
1402.5458
 20
1012.4776
 30
0.0
 11
1402.5458
 21
1019.9776
 31
0.0
  0
LINE
  5
2A7
330
20
100
AcDbEntity
  8
_0-1_LAYER004
  6
Continuous
 62
     7
100
AcDbLine
 10
1402.5458
 20
1012.4776
 30
0.0
 11
1375.4493
 21
1113.6031
 31
0.0
  0
LINE
  5
2A8
330
20
100
AcDbEntity
  8
_0-1_LAYER004
  6
Continuous
 62
     7
100
AcDbLine
 10
1298.619699999999
 20
992.0522999999999
 30
0.0
 11
1298.619699999999
 21
984.5523
 31
0.0
  0
LINE
  5
2A9
330
20
100
AcDbEntity
  8
_0-1_LAYER004
  6
Continuous
 62
     7
100
AcDbLine
 10
1298.619699999999
 20
984.5523
 30
0.0
 11
1294.869699999999
 21
991.0474999999999
 31
0.0
  0
LINE
  5
2AA
330
20
100
AcDbEntity
  8
_0-1_LAYER004
  6
Continuous
 62
     7
100
AcDbLine
 10
1298.619699999999
 20
984.5523
 30
0.0
 11
1208.7461
 21
1319.9654
 31
0.0
  0
LINE
  5
2AB
330
20
100
AcDbEntity
  8
_0-1_LAYER004
  6
Continuous
 62
     7
100
AcDbLine
 10
1923.8036
 20
1332.8274
 30
0.0
 11
1923.8036
 21
1072.4802
 31
0.0
  0
LINE
  5
2AC
330
20
100
AcDbEntity
  8
_0-1_LAYER004
  6
Continuous
 62
     7
100
AcDbLine
 10
1923.8036
 20
1212.7399
 30
0.0
 11
1823.8036
 21
1312.7397
 31
0.0
  0
LINE
  5
2AD
330
20
100
AcDbEntity
  8
_0-1_LAYER004
  6
Continuous
 62
     7
100
AcDbLine
 10
1823.8036
 20
1308.4972
 30
0.0
 11
1923.8036
 21
1208.4973
 31
0.0
  0
ARC
  5
2AE
330
20
100
AcDbEntity
  8
_0-1_LAYER004
  6
Continuous
 62
     7
100
AcDbCircle
 10
1804.304485590786
 20
1278.659826274477
 30
0.0
 40
22.09916510078845
100
AcDbArc
 50
337.8838201009518
 51
23.66620643415251
  0
ARC
  5
2AF
330
20
100
AcDbEntity
  8
_0-1_LAYER004
  6
Continuous
 62
     7
100
AcDbCircle
 10
1724.155047982261
 20
1122.203490716071
 30
0.0
 40
16.63479823046063
100
AcDbArc
 50
324.7700330805112
 51
11.57339352552393
  0
ARC
  5
2B0
330
20
100
AcDbEntity
  8
_0-1_LAYER004
  6
Continuous
 62
     7
100
AcDbCircle
 10
1679.655027827919
 20
1097.823472101097
 30
0.0
 40
60.183645344597
100
AcDbArc
 50
337.3862401098564
 51
357.9103922241612
  0
TEXT
  5
2B1
330
20
100
AcDbEntity
  8
_0-0_LAYER001
 62
     7
100
AcDbText
 10
1934.3242
 20
820.0508999999994
 30
0.0
 40
20.0
  1
　葺　土
100
AcDbText
  0
TEXT
  5
2B2
330
20
100
AcDbEntity
  8
_0-0_LAYER001
 62
     7
100
AcDbText
 10
1864.3418
 20
1398.429899999999
 30
0.0
 40
20.0
  1
シーリング
100
AcDbText
  0
TEXT
  5
2B3
330
20
100
AcDbEntity
  8
_0-0_LAYER001
 62
     7
100
AcDbText
 10
962.4329986012142
 20
1324.621729597125
 30
0.0
 40
20.0
  1
　瓦桟：１５ｘ３０以上　
100
AcDbText
  0
TEXT
  5
2B4
330
20
100
AcDbEntity
  8
_0-0_LAYER001
 62
     7
100
AcDbText
 10
991.7927102120318
 20
1293.86393648103
 30
0.0
 40
20.0
  1
下葺材：ルーフィング
100
AcDbText
  0
TEXT
  5
2B5
330
20
100
AcDbEntity
  8
_0-0_LAYER001
 62
     7
100
AcDbText
 10
807.2459515154633
 20
1263.106143364935
 30
0.0
 40
20.0
  1
　野地板：硬質木片セメントパネルt＝25　
100
AcDbText
  0
TEXT
  5
2B6
330
20
100
AcDbEntity
  8
_0-0_LAYER001
 62
     7
100
AcDbText
 10
892.5289233373622
 20
1233.746431754118
 30
0.0
 40
20.0
  1
　鋼製：C－100x50x20x2.3　@606　
100
AcDbText
  0
TEXT
  5
2B7
330
20
100
AcDbEntity
  8
_0-0_LAYER001
 62
     7
100
AcDbText
 10
1372.070879647385
 20
1341.398707660449
 30
0.0
 40
20.0
  1
雨押水切カラー鋼板0.35ｍｍ以上
100
AcDbText
  0
TEXT
  5
2B8
330
20
100
AcDbEntity
  8
_0-0_LAYER001
 62
     7
100
AcDbText
 10
1516.07327469092
 20
1209.979046164408
 30
0.0
 40
20.0
  1
のし瓦２段積み
100
AcDbText
  0
TEXT
  5
2B9
330
20
100
AcDbEntity
  8
_0-0_LAYER001
 62
     7
100
AcDbText
 10
1878.176384557672
 20
1365.166093250159
 30
0.0
 40
20.0
  1
下地材：40x30
100
AcDbText
  0
TEXT
  5
2BA
330
20
100
AcDbEntity
  8
_0-0_LAYER001
 62
     7
100
AcDbText
 10
2045.946165190916
 20
1138.676889395279
 30
0.0
 40
20.0
  1
水切り立上がり寸法
 50
90.0
100
AcDbText
  0
TEXT
  5
2BB
330
20
100
AcDbEntity
  8
_0-0_LAYER001
 62
     7
100
AcDbText
 10
2138.2195445392
 20
977.8975162884206
 30
0.0
 40
20.0
  1
下葺き材立上がり寸法
 50
90.0
100
AcDbText
  0
TEXT
  5
2BC
330
20
100
AcDbEntity
  8
_0-0_LAYER001
 62
     7
100
AcDbText
 10
2007.137649403901
 20
1216.037899477787
 30
0.0
 40
20.0
  1
90
 50
90.0
100
AcDbText
  0
TEXT
  5
2BD
330
20
100
AcDbEntity
  8
_0-0_LAYER001
 62
     7
100
AcDbText
 10
2005.800592673669
 20
1290.913076370751
 30
0.0
 40
20.0
  1
20
 50
90.0
100
AcDbText
  0
TEXT
  5
2BE
330
20
100
AcDbEntity
  8
_0-0_LAYER001
 62
     7
100
AcDbText
 10
2000.452365752744
 20
1028.849957245377
 30
0.0
 40
20.0
  1
130
 50
90.0
100
AcDbText
  0
TEXT
  5
2BF
330
20
100
AcDbEntity
  8
_0-0_LAYER001
 62
     7
100
AcDbText
 10
2090.035166678254
 20
1060.939318770933
 30
0.0
 40
20.0
  1
200
 50
90.0
100
AcDbText
  0
TEXT
  5
2C0
330
20
100
AcDbEntity
  8
_0-0_LAYER001
 62
     7
100
AcDbText
 10
1955.5561
 20
875.0300999999993
 30
0.0
 40
20.0
  1
外壁：ALCt＝100
100
AcDbText
  0
TEXT
  5
2C1
330
20
100
AcDbEntity
  8
_0-0_LAYER001
 62
     7
100
AcDbText
 10
1754.433927390146
 20
781.4944621525494
 30
0.0
 40
20.0
  1
120
100
AcDbText
  0
TEXT
  5
2C2
330
20
100
AcDbEntity
  8
_0-0_LAYER001
 62
     7
100
AcDbText
 10
1557.886588046116
 20
703.9451717991223
 30
0.0
 40
20.0
  1
295
100
AcDbText
  0
TEXT
  5
2C3
330
20
100
AcDbEntity
  8
_0-0_LAYER001
 62
     7
100
AcDbText
 10
1282.452901618426
 20
706.6192852595856
 30
0.0
 40
20.0
  1
255
100
AcDbText
  0
TEXT
  5
2C4
330
20
100
AcDbEntity
  8
_0-0_LAYER001
 62
     7
100
AcDbText
 10
1027.075066144209
 20
703.9451717991223
 30
0.0
 40
20.0
  1
255
100
AcDbText
  0
TEXT
  5
2C5
330
20
100
AcDbEntity
  8
_0-0_LAYER001
 62
     7
100
AcDbText
 10
1316.147619436304
 20
1120.501829826678
 30
0.0
 40
20.0
  1
桟　瓦
100
AcDbText
  0
TEXT
  5
2C6
330
20
100
AcDbEntity
  8
_0-0_LAYER001
 62
     7
100
AcDbText
 10
1573.394616407278
 20
1391.729641850423
 30
0.0
 40
20.0
  1
笠木：15x90
100
AcDbText
  0
TEXT
  5
2C7
330
20
100
AcDbEntity
  8
_0-0_LAYER001
 62
     7
100
AcDbText
 10
1762.135619619678
 20
1372.156500776545
 30
0.0
 40
20.0
  1
100
100
AcDbText
  0
TEXT
  5
2C8
330
20
100
AcDbEntity
  8
_0-0_LAYER001
 62
     7
100
AcDbText
 10
1404.226754268757
 20
801.739246623514
 30
0.0
 40
20.0
  1
捨谷カラー鋼板0.35ｍｍ以上
100
AcDbText
  0
LINE
  5
2C9
330
20
100
AcDbEntity
  8
_0-0_LAYER001
  6
Continuous
 62
     2
100
AcDbLine
 10
1682.0566
 20
796.2095999999998
 30
0.0
 11
1402.82867276348
 21
796.2095999999998
 31
0.0
  0
LINE
  5
2CA
330
20
100
AcDbEntity
  8
_0-1_LAYER004
  6
Continuous
 62
     7
100
AcDbLine
 10
1682.0566
 20
796.2095999999998
 30
0.0
 11
1402.82867276348
 21
796.2095999999998
 31
0.0
  0
LINE
  5
2CB
330
20
100
AcDbEntity
  8
_0-0_LAYER001
  6
Continuous
 62
     2
100
AcDbLine
 10
1232.3714
 20
1230.1369
 30
0.0
 11
919.0924719376262
 21
1230.1369
 31
0.0
  0
LINE
  5
2CC
330
20
100
AcDbEntity
  8
_0-1_LAYER004
  6
Continuous
 62
     7
100
AcDbLine
 10
1232.3714
 20
1230.1369
 30
0.0
 11
913.5001459165177
 21
1230.1369
 31
0.0
  0
LINE
  5
2CD
330
20
100
AcDbEntity
  8
_0-0_LAYER001
  6
Continuous
 62
     2
100
AcDbLine
 10
1224.6328
 20
1260.0035
 30
0.0
 11
829.6152555998959
 21
1260.0035
 31
0.0
  0
LINE
  5
2CE
330
20
100
AcDbEntity
  8
_0-1_LAYER004
  6
Continuous
 62
     7
100
AcDbLine
 10
1224.6328
 20
1260.0035
 30
0.0
 11
835.2075816210039
 21
1260.0035
 31
0.0
  0
LINE
  5
2CF
330
20
100
AcDbEntity
  8
_0-0_LAYER001
  6
Continuous
 62
     2
100
AcDbLine
 10
1214.8016
 20
1290.0988
 30
0.0
 11
1001.579280748971
 21
1290.0988
 31
0.0
  0
LINE
  5
2D0
330
20
100
AcDbEntity
  8
_0-1_LAYER004
  6
Continuous
 62
     7
100
AcDbLine
 10
1214.8016
 20
1290.0988
 30
0.0
 11
983.4042211803694
 21
1290.0988
 31
0.0
  0
LINE
  5
2D1
330
20
100
AcDbEntity
  8
_0-0_LAYER001
  6
Continuous
 62
     2
100
AcDbLine
 10
1208.7461
 20
1319.9654
 30
0.0
 11
987.5984656962007
 21
1319.9654
 31
0.0
  0
LINE
  5
2D2
330
20
100
AcDbEntity
  8
_0-1_LAYER004
  6
Continuous
 62
     7
100
AcDbLine
 10
983.4042211803694
 20
1319.9654
 30
0.0
 11
1208.7461
 21
1319.9654
 31
0.0
  0
LINE
  5
2D3
330
20
100
AcDbEntity
  8
_0-0_LAYER001
  6
Continuous
 62
     2
100
AcDbLine
 10
1672.7714
 20
1203.5141
 30
0.0
 11
1521.665600712028
 21
1203.5141
 31
0.0
  0
LINE
  5
2D4
330
20
100
AcDbEntity
  8
_0-1_LAYER004
  6
Continuous
 62
     7
100
AcDbLine
 10
1517.471356196197
 20
1203.5141
 30
0.0
 11
1672.7714
 21
1203.5141
 31
0.0
  0
LINE
  5
2D5
330
20
100
AcDbEntity
  8
_0-0_LAYER001
  6
Continuous
 62
     2
100
AcDbLine
 10
1693.324
 20
1339.9929
 30
0.0
 11
1359.488146099892
 21
1339.9929
 31
0.0
  0
LINE
  5
2D6
330
20
100
AcDbEntity
  8
_0-1_LAYER004
  6
Continuous
 62
     7
100
AcDbLine
 10
1693.324
 20
1339.9929
 30
0.0
 11
1367.876635131554
 21
1339.9929
 31
0.0
  0
LINE
  5
2D7
330
20
100
AcDbEntity
  8
_0-0_LAYER001
  6
Continuous
 62
     2
100
AcDbLine
 10
1864.3418
 20
1395.9299
 30
0.0
 11
1960.663193369017
 21
1395.9299
 31
0.0
  0
LINE
  5
2D8
330
20
100
AcDbEntity
  8
_0-1_LAYER004
  6
Continuous
 62
     7
100
AcDbLine
 10
1864.3418
 20
1395.9299
 30
0.0
 11
1971.847845411232
 21
1395.9299
 31
0.0
  0
ENDSEC
  0
SECTION
  2
OBJECTS
  0
DICTIONARY
  5
C
330
0
100
AcDbDictionary
281
     1
  3
ACAD_COLOR
350
1B
  3
ACAD_GROUP
350
D
  3
ACAD_LAYOUT
350
19
  3
ACAD_MATERIAL
350
1A
  3
ACAD_MLINESTYLE
350
16
  3
ACAD_PLOTSETTINGS
350
18
  3
ACAD_PLOTSTYLENAME
350
E
  0
DICTIONARY
  5
1B
102
{ACAD_REACTORS
330
C
102
}
330
C
100
AcDbDictionary
281
     1
  0
DICTIONARY
  5
D
102
{ACAD_REACTORS
330
C
102
}
330
C
100
AcDbDictionary
281
     1
  0
DICTIONARY
  5
19
102
{ACAD_REACTORS
330
C
102
}
330
C
100
AcDbDictionary
281
     1
  3
Model
350
23
  3
レイアウト1
350
1F
  0
DICTIONARY
  5
1A
102
{ACAD_REACTORS
330
C
102
}
330
C
100
AcDbDictionary
281
     1
  0
DICTIONARY
  5
16
102
{ACAD_REACTORS
330
C
102
}
330
C
100
AcDbDictionary
281
     1
  3
Standard
350
17
  0
DICTIONARY
  5
18
102
{ACAD_REACTORS
330
C
102
}
330
C
100
AcDbDictionary
281
     1
  0
ACDBDICTIONARYWDFLT
  5
E
102
{ACAD_REACTORS
330
C
102
}
330
C
100
AcDbDictionary
281
     1
  3
Normal
350
F
100
AcDbDictionaryWithDefault
340
F
  0
LAYOUT
  5
23
102
{ACAD_REACTORS
330
19
102
}
330
19
100
AcDbPlotSettings
  1

  2
Microsoft Office Document Image Writer
  4

  6

 40
0.0
 41
0.0
 42
0.0
 43
0.0
 44
0.0
 45
0.0
 46
0.0
 47
0.0
 48
0.0
 49
0.0
140
0.0
141
0.0
142
1.0
143
1.0
 70
  1712
 72
     0
 73
     0
 74
     0
  7

 75
     0
147
1.0
 76
     0
 77
     2
 78
   300
148
0.0
149
0.0
100
AcDbLayout
  1
Model
 70
     1
 71
     0
 10
0.0
 20
0.0
 11
12.0
 21
9.0
 12
0.0
 22
0.0
 32
0.0
 14
0.0
 24
0.0
 34
0.0
 15
0.0
 25
0.0
 35
0.0
146
0.0
 13
0.0
 23
0.0
 33
0.0
 16
1.0
 26
0.0
 36
0.0
 17
0.0
 27
1.0
 37
0.0
 76
     0
330
20
  0
LAYOUT
  5
1F
102
{ACAD_REACTORS
330
19
102
}
330
19
100
AcDbPlotSettings
  1

  2
Microsoft Office Document Image Writer
  4

  6

 40
0.0
 41
0.0
 42
0.0
 43
0.0
 44
0.0
 45
0.0
 46
0.0
 47
0.0
 48
0.0
 49
0.0
140
0.0
141
0.0
142
1.0
143
1.0
 70
   688
 72
     0
 73
     0
 74
     5
  7

 75
    16
147
1.0
 76
     0
 77
     2
 78
   300
148
0.0
149
0.0
100
AcDbLayout
  1
レイアウト1
 70
     1
 71
     1
 10
0.0
 20
0.0
 11
12.0
 21
9.0
 12
0.0
 22
0.0
 32
0.0
 14
1.000000000000000E+20
 24
1.000000000000000E+20
 34
1.000000000000000E+20
 15
-1.000000000000000E+20
 25
-1.000000000000000E+20
 35
-1.000000000000000E+20
146
0.0
 13
0.0
 23
0.0
 33
0.0
 16
1.0
 26
0.0
 36
0.0
 17
0.0
 27
1.0
 37
0.0
 76
     0
330
1C
  0
MLINESTYLE
  5
17
102
{ACAD_REACTORS
330
16
102
}
330
16
100
AcDbMlineStyle
  2
STANDARD
 70
     0
  3

 62
   256
 51
90.0
 52
90.0
 71
     2
 49
0.5
 62
   256
  6
BYLAYER
 49
-0.5
 62
   256
  6
BYLAYER
  0
ACDBPLACEHOLDER
  5
F
102
{ACAD_REACTORS
330
E
102
}
330
E
  0
ENDSEC
  0
EOF
