  0
SECTION
  2
HEADER
  9
$ACADVER
  1
AC1009
  9
$INSBASE
 10
0
 20
0
 30
0
  9
$EXTMIN
 10
0
 20
0
  9
$EXTMAX
 10
2970
 20
2100
  9
$LIMMIN
 10
0
 20
0
  9
$LIMMAX
 10
2970
 20
2100
  9
$LTSCALE
 40
10
  0
ENDSEC
  0
SECTION
  2
TABLES
  0
TABLE
  2
LTYPE
 70
     9
  0
LTYPE
  2
CONTINUOUS
 70
    64
  3
実線
 72
    65
 73
     0
 40
0.0
  0
LTYPE
  2
DASHED1
 70
    64
  3
--  --  --  --  --  --  --  --  
 72
    65
 73
     2
 40
2.5
 49
1.25
 49
-1.25
  0
LTYPE
  2
DASHED2
 70
    64
  3
----    ----    ----    ----    
 72
    65
 73
     2
 40
5.0
 49
2.5
 49
-2.5
  0
LTYPE
  2
DASHED3
 70
    64
  3
------  ------  ------  ------  
 72
    65
 73
     2
 40
5.0
 49
3.75
 49
-1.25
  0
LTYPE
  2
CENTER1
 70
    64
  3
----- - ----- - ----- - ----- - 
 72
    65
 73
     4
 40
10.0
 49
6.25
 49
-1.25
 49
1.25
 49
-1.25
  0
LTYPE
  2
CENTER2
 70
    64
  3
----------  --  ----------  --  
 72
    65
 73
     4
 40
20.0
 49
12.5
 49
-2.5
 49
2.5
 49
-2.5
  0
LTYPE
  2
PHANTOM1
 70
    64
  3
--- - - --- - - --- - - --- - - 
 72
    65
 73
     6
 40
10.0
 49
3.25
 49
-1.25
 49
1.25
 49
-1.25
 49
1.25
 49
-1.25
  0
LTYPE
  2
PHANTOM2
 70
    64
  3
--------  -  -  --------  -  -  
 72
    65
 73
     6
 40
20.0
 49
10.0
 49
-2.5
 49
1.25
 49
-2.5
 49
1.25
 49
-2.5
  0
LTYPE
  2
DOT
 70
    64
  3
-   -   -   -   -   -   -   -   
 72
    65
 73
     2
 40
2.5
 49
0.625
 49
-1.875
  0
LTYPE
  2
DUMMY
 70
    64
  3
ダミー
 72
    65
 73
     0
 40
0.0
  0
LTYPE
  2
RAND1
 70
    64
  3
ランダム線1
 72
    65
 73
     4
 40
10.0
 49
1.0
 49
-2.0
 49
3.0
 49
-4.0
  0
LTYPE
  2
RAND2
 70
    64
  3
ランダム線2
 72
    65
 73
     4
 40
14.0
 49
2.0
 49
-3.0
 49
4.0
 49
-5.0
  0
LTYPE
  2
RAND3
 70
    64
  3
ランダム線3
 72
    65
 73
     4
 40
18.0
 49
3.0
 49
-4.0
 49
5.0
 49
-6.0
  0
LTYPE
  2
RAND4
 70
    64
  3
ランダム線4
 72
    65
 73
     4
 40
22.0
 49
4.0
 49
-5.0
 49
6.0
 49
-7.0
  0
LTYPE
  2
RAND5
 70
    64
  3
ランダム線5
 72
    65
 73
     4
 40
26.0
 49
5.0
 49
-6.0
 49
7.0
 49
-8.0
  0
LTYPE
  2
LONG1
 70
    64
  3
----------  --  ----------  --  
 72
    65
 73
     4
 40
40.0
 49
32.5
 49
-2.5
 49
2.5
 49
-2.5
  0
LTYPE
  2
LONG2
 70
    64
  3
--------  -  -  --------  -  -  
 72
    65
 73
     6
 40
40.0
 49
30.0
 49
-2.5
 49
1.25
 49
-2.5
 49
1.25
 49
-2.5
  0
LTYPE
  2
LONG3
 70
    64
  3
+++++++++++++++..+++++++++++++++
 72
    65
 73
     2
 40
40.0
 49
37.5
 49
-2.5
  0
LTYPE
  2
LONG4
 70
    64
  3
+++++++++++++++..+++++++++++++++
 72
    65
 73
     2
 40
80.0
 49
75.0
 49
-5.0
  0
LTYPE
  2
LONG5
 70
    64
  3
----------  --  ----------  --  
 72
    65
 73
     4
 40
60.0
 49
37.5
 49
-7.5
 49
7.5
 49
-7.5
  0
LTYPE
  2
dashed
 70
   64
  3
-------   -------------   ------
 72
   65
 73
    2
 40
7.5
 49
6
 49
-1.5
  0
LTYPE
  2
dashed_spaced
 70
   64
  3
----        --------        ----
 72
   65
 73
    2
 40
12
 49
6
 49
-6
  0
LTYPE
  2
long_dashed_dotted
 70
   64
  3
------------- --- --------------
 72
   65
 73
    4
 40
15.25
 49
12
 49
-1.5
 49
0.25
 49
-1.5
  0
LTYPE
  2
long_dashed_double-dotted
 70
   64
  3
----------- --- --- ------------
 72
   65
 73
    6
 40
17
 49
12
 49
-1.5
 49
0.25
 49
-1.5
 49
0.25
 49
-1.5
  0
LTYPE
  2
long_dashed_triplicate-dotted
 70
   64
  3
--------- --- --- --- ----------
 72
   65
 73
    8
 40
18.75
 49
12
 49
-1.5
 49
0.25
 49
-1.5
 49
0.25
 49
-1.5
 49
0.25
 49
-1.5
  0
LTYPE
  2
dotted
 70
   64
  3
   -       -       -       -    
 72
   65
 73
    2
 40
1.75
 49
0.25
 49
-1.5
  0
LTYPE
  2
chain
 70
   64
  3
-------------- -- --------------
 72
   65
 73
    4
 40
18.5
 49
12
 49
-1.5
 49
3.5
 49
-1.5
  0
LTYPE
  2
chain_double_dash
 70
   64
  3
------------ -- -- -------------
 72
   65
 73
    6
 40
23.5
 49
12
 49
-1.5
 49
3.5
 49
-1.5
 49
3.5
 49
-1.5
  0
LTYPE
  2
dashed_dotted
 70
   64
  3
-----------     -     ----------
 72
   65
 73
    4
 40
9.25
 49
6
 49
-1.5
 49
0.25
 49
-1.5
  0
LTYPE
  2
double-dashed_dotted
 70
   64
  3
------   -----------   -   -----
 72
   65
 73
    6
 40
16.75
 49
6
 49
-1.5
 49
6
 49
-1.5
 49
0.25
 49
-1.5
  0
LTYPE
  2
dashed_double-dotted
 70
   64
  3
---------    -    -    ---------
 72
   65
 73
    6
 40
11
 49
6
 49
-1.5
 49
0.25
 49
-1.5
 49
0.25
 49
-1.5
  0
LTYPE
  2
double-dashed_double-dotted
 70
   64
  3
-----   ---------   -   -   ----
 72
   65
 73
    8
 40
18.5
 49
6
 49
-1.5
 49
6
 49
-1.5
 49
0.25
 49
-1.5
 49
0.25
 49
-1.5
  0
LTYPE
  2
dashed_triplicate-dotted
 70
   64
  3
-------    -    -    -    ------
 72
   65
 73
    8
 40
12.75
 49
6
 49
-1.5
 49
0.25
 49
-1.5
 49
0.25
 49
-1.5
 49
0.25
 49
-1.5
  0
LTYPE
  2
double-dashed_triplicate-dotted
 70
   64
  3
-----  ---------  -  -  -  -----
 72
   65
 73
   10
 40
20.25
 49
6
 49
-1.5
 49
6
 49
-1.5
 49
0.25
 49
-1.5
 49
0.25
 49
-1.5
 49
0.25
 49
-1.5
  0
LTYPE
  2
undefined
 70
   64
  3
--------------------------------
 72
   65
 73
    0
 40
0
  0
ENDTAB
  0
TABLE
  2
STYLE
  5
3
100
AcDbSymbolTable
 70
     1
  0
STYLE
  5
10
100
AcDbSymbolTableRecord
100
AcDbTextStyleTableRecord
  2
STANDARD
 70
     0
 40
0.0
 41
1.0
 50
0.0
 71
     0
 42
0.2
  3
txt
  4
bigfont.shx
  0
STYLE
  5
26
100
AcDbSymbolTableRecord
100
AcDbTextStyleTableRecord
  2
TATEGAKI
 70
    68
 40
0.0
 41
1.0
 50
0.0
 71
     0
 42
1.0
  3
txt
  4
bigfont.shx
  0
ENDTAB
  0
TABLE
  2
LAYER
 70
    3
  0
LAYER
  2
_0-0_LAYER001
 70
   64
 62
    7
  6
CONTINUOUS
  0
LAYER
  2
_0-1_LAYER004
 70
   64
 62
    7
  6
CONTINUOUS
  0
LAYER
  2
ADD_LINE
 70
   64
 62
    7
  6
CONTINUOUS
  0
ENDTAB
  0
ENDSEC
  0
SECTION
  2
BLOCKS
  0
ENDSEC
  0
SECTION
  2
ENTITIES
  0
LINE
  8
_0-0_LAYER001
  6
CONTINUOUS
 62
    2
 10
1803.6041
 20
964.47340000000008
 11
854.64329999999995
 21
964.47340000000008
  0
LINE
  8
_0-0_LAYER001
  6
CONTINUOUS
 62
    2
 10
854.64329999999995
 20
985.47340000000008
 11
1681.6041
 21
985.47340000000008
  0
CIRCLE
  8
_0-0_LAYER001
  6
CONTINUOUS
 62
    2
 10
1756.5156000000002
 20
1050.971
 40
0.8999999999999999
  0
CIRCLE
  8
_0-0_LAYER001
  6
CONTINUOUS
 62
    2
 10
1765.0311999999999
 20
1047.8171
 40
0.8999999999999999
  0
CIRCLE
  8
_0-0_LAYER001
  6
CONTINUOUS
 62
    2
 10
1746.7383
 20
1043.0862
 40
0.8999999999999999
  0
CIRCLE
  8
_0-0_LAYER001
  6
CONTINUOUS
 62
    2
 10
1730.6532000000002
 20
1048.1324999999999
 40
0.8999999999999999
  0
CIRCLE
  8
_0-0_LAYER001
  6
CONTINUOUS
 62
    2
 10
1759.5540999999998
 20
1035.0402999999999
 40
0.8999999999999999
  0
CIRCLE
  8
_0-0_LAYER001
  6
CONTINUOUS
 62
    2
 10
1743.4879999999998
 20
1055.4881
 40
0.8999999999999999
  0
CIRCLE
  8
_0-0_LAYER001
  6
CONTINUOUS
 62
    2
 10
1729.9778000000001
 20
1056.2183
 40
0.8999999999999999
  0
CIRCLE
  8
_0-0_LAYER001
  6
CONTINUOUS
 62
    2
 10
1736.9155000000001
 20
1037.2311
 40
0.8999999999999999
  0
LINE
  8
_0-0_LAYER001
  6
CONTINUOUS
 62
    2
 10
1710.0499
 20
1337.9286
 11
1710.0499
 21
1285.4286
  0
CIRCLE
  8
_0-0_LAYER001
  6
CONTINUOUS
 62
    2
 10
1710.0499
 20
1335.4286
 40
1.6999999999999997
  0
LINE
  8
_0-0_LAYER001
  6
CONTINUOUS
 62
    2
 10
1710.0499
 20
1335.4286
 11
1801.6041
 21
1335.4286
  0
CIRCLE
  8
_0-0_LAYER001
  6
CONTINUOUS
 62
    2
 10
1801.6041
 20
1335.4286
 40
1.6999999999999997
  0
LINE
  8
_0-0_LAYER001
  6
CONTINUOUS
 62
    2
 10
1801.6041
 20
1337.9286
 11
1801.6041
 21
1285.4286
  0
LINE
  8
_0-0_LAYER001
  6
CONTINUOUS
 62
    2
 10
1795.8973000000001
 20
1146.7179000000001
 11
1792.1473000000001
 21
1140.2227
  0
LINE
  8
_0-0_LAYER001
  6
CONTINUOUS
 62
    2
 10
1792.1473000000001
 20
1140.2227
 11
1792.1473000000001
 21
1147.7227
  0
LINE
  8
_0-0_LAYER001
  6
CONTINUOUS
 62
    2
 10
1792.1473000000001
 20
1140.2227
 11
1844.0859999999998
 21
1334.0606
  0
LINE
  8
_0-0_LAYER001
  6
CONTINUOUS
 62
    2
 10
1844.0859999999998
 20
1334.0606
 11
1991.0859999999998
 21
1334.0606
  0
LINE
  8
_0-0_LAYER001
  6
CONTINUOUS
 62
    2
 10
2082.3649999999998
 20
964.47340000000008
 11
2029.8649999999998
 21
964.47340000000008
  0
CIRCLE
  8
_0-0_LAYER001
  6
CONTINUOUS
 62
    2
 10
2079.8649999999998
 20
964.47340000000008
 40
1.6999999999999997
  0
LINE
  8
_0-0_LAYER001
  6
CONTINUOUS
 62
    2
 10
2079.8649999999998
 20
964.47340000000008
 11
2079.8649999999998
 21
1164.4734000000001
  0
CIRCLE
  8
_0-0_LAYER001
  6
CONTINUOUS
 62
    2
 10
2079.8649999999998
 20
1164.4734000000001
 40
1.6999999999999997
  0
LINE
  8
_0-0_LAYER001
  6
CONTINUOUS
 62
    2
 10
2082.3649999999998
 20
1164.4734000000001
 11
2029.8649999999998
 21
1164.4734000000001
  0
LINE
  8
_0-0_LAYER001
  6
CONTINUOUS
 62
    1
 10
1803.6041
 20
944.47340000000008
 11
854.64329999999995
 21
944.47340000000008
  0
LINE
  8
_0-0_LAYER001
  6
CONTINUOUS
 62
    1
 10
1803.6041
 20
949.47340000000008
 11
854.64329999999995
 21
949.47340000000008
  0
LINE
  8
_0-0_LAYER001
  6
CONTINUOUS
 62
    1
 10
1803.6041
 20
954.47340000000008
 11
854.64329999999995
 21
954.47340000000008
  0
LINE
  8
_0-0_LAYER001
  6
CONTINUOUS
 62
    1
 10
1803.6041
 20
959.47340000000008
 11
854.64329999999995
 21
959.47340000000008
  0
LINE
  8
_0-0_LAYER001
  6
CONTINUOUS
 62
    2
 10
1873.252
 20
977.13930000000005
 11
1871.3108000000002
 21
984.38380000000006
  0
LINE
  8
_0-0_LAYER001
  6
CONTINUOUS
 62
    2
 10
1871.3108000000002
 20
984.38380000000006
 11
1876.6140999999998
 21
979.08050000000003
  0
LINE
  8
_0-0_LAYER001
  6
CONTINUOUS
 62
    2
 10
1871.3108000000002
 20
984.38380000000006
 11
1935.3566000000001
 21
873.4532999999999
  0
CIRCLE
  8
_0-0_LAYER001
  6
CONTINUOUS
 62
    2
 10
1718.7136
 20
1022.3657000000001
 40
0.8999999999999999
  0
LINE
  8
_0-0_LAYER001
  6
CONTINUOUS
 62
    2
 10
1689.0725000000002
 20
1112.0126
 11
1712.6545000000001
 21
1120.5958000000001
  0
LINE
  8
_0-0_LAYER001
  6
CONTINUOUS
 62
    2
 10
1689.0725000000002
 20
1112.0126
 11
1694.9850999999999
 21
1113.0328999999999
  0
LINE
  8
_0-0_LAYER001
  6
CONTINUOUS
 62
    2
 10
1714.9713999999999
 20
1118.9736
 11
1803.6041
 21
1134.6018999999999
  0
LINE
  8
_0-0_LAYER001
  6
CONTINUOUS
 62
    2
 10
1712.3667999999998
 20
1133.7456999999999
 11
1800.9994000000002
 21
1149.374
  0
LINE
  8
_0-0_LAYER001
  6
CONTINUOUS
 62
    2
 10
1712.3667999999998
 20
1133.7456999999999
 11
1714.9713999999999
 21
1118.9736
  0
LINE
  8
_0-0_LAYER001
  6
CONTINUOUS
 62
    2
 10
1800.9994000000002
 20
1149.374
 11
1803.6041
 21
1134.6018999999999
  0
LINE
  8
_0-0_LAYER001
  6
CONTINUOUS
 62
    2
 10
1803.6041
 20
1134.6018999999999
 11
1712.3667999999998
 21
1133.7456999999999
  0
LINE
  8
_0-0_LAYER001
  6
CONTINUOUS
 62
    2
 10
1710.0499
 20
1135.3679
 11
1712.6545000000001
 21
1120.5958000000001
  0
LINE
  8
_0-0_LAYER001
  6
CONTINUOUS
 62
    2
 10
1851.6041
 20
1114.6018999999999
 11
1846.6041
 21
1117.6018999999999
  0
LINE
  8
_0-0_LAYER001
  6
CONTINUOUS
 62
    2
 10
1846.6041
 20
1111.6020000000001
 11
1851.6041
 21
1114.6018999999999
  0
LINE
  8
_0-0_LAYER001
  6
CONTINUOUS
 62
    2
 10
1845.5291000000002
 20
1111.6020000000001
 11
1848.3780999999999
 21
1116.538
  0
LINE
  8
_0-0_LAYER001
  6
CONTINUOUS
 62
    2
 10
1779.6039999999998
 20
1111.6020000000001
 11
1779.6039999999998
 21
1117.6018999999999
  0
LINE
  8
_0-0_LAYER001
  6
CONTINUOUS
 62
    2
 10
1773.6041
 20
1108.6018999999999
 11
1773.6041
 21
1120.6020000000001
  0
LINE
  8
_0-0_LAYER001
  6
CONTINUOUS
 62
    2
 10
1782.491
 20
1111.6020000000001
 11
1785.9540999999999
 21
1117.6018999999999
  0
LINE
  8
_0-0_LAYER001
  6
CONTINUOUS
 62
    2
 10
1773.6041
 20
1108.6018999999999
 11
1779.6039999999998
 21
1111.6020000000001
  0
LINE
  8
_0-0_LAYER001
  6
CONTINUOUS
 62
    2
 10
1779.6039999999998
 20
1117.6018999999999
 11
1773.6041
 21
1120.6020000000001
  0
LINE
  8
_0-0_LAYER001
  6
CONTINUOUS
 62
    2
 10
1846.6041
 20
1117.6018999999999
 11
1836.5889999999999
 21
1117.6018999999999
  0
LINE
  8
_0-0_LAYER001
  6
CONTINUOUS
 62
    2
 10
1827.9371000000001
 20
1113.1289999999999
 11
1829.8310999999999
 21
1116.4100000000001
  0
LINE
  8
_0-0_LAYER001
  6
CONTINUOUS
 62
    2
 10
1836.3211000000001
 20
1111.6510000000001
 11
1839.7561000000001
 21
1117.6018999999999
  0
LINE
  8
_0-0_LAYER001
  6
CONTINUOUS
 62
    2
 10
1846.6041
 20
1111.6020000000001
 11
1836.5972000000002
 21
1111.6020000000001
  0
LINE
  8
_0-0_LAYER001
  6
CONTINUOUS
 62
    2
 10
1844.4531000000002
 20
1121.325
 11
1844.8530999999998
 21
1119.0589
  0
LINE
  8
_0-0_LAYER001
  6
CONTINUOUS
 62
    2
 10
1844.2800999999999
 20
1107.9121
 11
1844.6779999999999
 21
1110.1769999999999
  0
LINE
  8
_0-0_LAYER001
  6
CONTINUOUS
 62
    2
 10
1839.8600000000001
 20
1120.3109999999999
 11
1841.5340999999999
 21
1120.6059
  0
LINE
  8
_0-0_LAYER001
  6
CONTINUOUS
 62
    2
 10
1835.5270999999998
 20
1119.547
 11
1837.1999999999998
 21
1119.8420000000001
  0
LINE
  8
_0-0_LAYER001
  6
CONTINUOUS
 62
    2
 10
1831.194
 20
1118.7828999999999
 11
1832.8670000000002
 21
1119.078
  0
LINE
  8
_0-0_LAYER001
  6
CONTINUOUS
 62
    2
 10
1830.8980000000001
 20
1120.4559999999999
 11
1821.8040000000001
 21
1118.8531
  0
LINE
  8
_0-0_LAYER001
  6
CONTINUOUS
 62
    2
 10
1835.2310000000002
 20
1121.2199000000001
 11
1832.5720000000001
 21
1120.7509
  0
LINE
  8
_0-0_LAYER001
  6
CONTINUOUS
 62
    2
 10
1839.5639999999999
 20
1121.9840999999999
 11
1836.9050999999999
 21
1121.5150000000001
  0
LINE
  8
_0-0_LAYER001
  6
CONTINUOUS
 62
    2
 10
1842.7159999999999
 20
1122.5399
 11
1841.2381
 21
1122.2789
  0
LINE
  8
_0-0_LAYER001
  6
CONTINUOUS
 62
    2
 10
1841.5340999999999
 20
1120.6059
 11
1841.2381
 21
1122.28
  0
LINE
  8
_0-0_LAYER001
  6
CONTINUOUS
 62
    2
 10
1839.8600000000001
 20
1120.3109999999999
 11
1839.5639999999999
 21
1121.9849999999999
  0
LINE
  8
_0-0_LAYER001
  6
CONTINUOUS
 62
    2
 10
1837.2011000000002
 20
1119.8420000000001
 11
1836.9050999999999
 21
1121.5160000000001
  0
LINE
  8
_0-0_LAYER001
  6
CONTINUOUS
 62
    2
 10
1835.5270999999998
 20
1119.547
 11
1835.2310000000002
 21
1121.2209
  0
LINE
  8
_0-0_LAYER001
  6
CONTINUOUS
 62
    2
 10
1832.8681000000001
 20
1119.078
 11
1832.5720000000001
 21
1120.7519
  0
LINE
  8
_0-0_LAYER001
  6
CONTINUOUS
 62
    2
 10
1831.194
 20
1118.7828999999999
 11
1830.8980000000001
 21
1120.4570000000001
  0
LINE
  8
_0-0_LAYER001
  6
CONTINUOUS
 62
    2
 10
1839.6851000000001
 20
1108.9249
 11
1841.3591000000001
 21
1108.6300000000001
  0
LINE
  8
_0-0_LAYER001
  6
CONTINUOUS
 62
    2
 10
1835.3521000000001
 20
1109.6890000000001
 11
1837.0261
 21
1109.394
  0
LINE
  8
_0-0_LAYER001
  6
CONTINUOUS
 62
    2
 10
1831.0191
 20
1110.453
 11
1832.6930000000002
 21
1110.1578999999999
  0
LINE
  8
_0-0_LAYER001
  6
CONTINUOUS
 62
    2
 10
1831.0201000000002
 20
1110.453
 11
1830.7240000000002
 21
1108.78
  0
LINE
  8
_0-0_LAYER001
  6
CONTINUOUS
 62
    2
 10
1832.694
 20
1110.1578999999999
 11
1832.3980000000001
 21
1108.4849999999999
  0
LINE
  8
_0-0_LAYER001
  6
CONTINUOUS
 62
    2
 10
1835.3530999999998
 20
1109.6890000000001
 11
1835.0571
 21
1108.0159000000001
  0
LINE
  8
_0-0_LAYER001
  6
CONTINUOUS
 62
    2
 10
1837.0270999999998
 20
1109.394
 11
1836.7310000000002
 21
1107.721
  0
LINE
  8
_0-0_LAYER001
  6
CONTINUOUS
 62
    2
 10
1839.6860000000001
 20
1108.9249
 11
1839.3901000000001
 21
1107.252
  0
LINE
  8
_0-0_LAYER001
  6
CONTINUOUS
 62
    2
 10
1841.3600999999999
 20
1108.6300000000001
 11
1841.0639999999999
 21
1106.9570000000001
  0
LINE
  8
_0-0_LAYER001
  6
CONTINUOUS
 62
    2
 10
1830.7240000000002
 20
1108.78
 11
1821.8040000000001
 21
1110.3518999999999
  0
LINE
  8
_0-0_LAYER001
  6
CONTINUOUS
 62
    2
 10
1835.0571
 20
1108.0159000000001
 11
1832.3980000000001
 21
1108.4849999999999
  0
LINE
  8
_0-0_LAYER001
  6
CONTINUOUS
 62
    2
 10
1839.3901000000001
 20
1107.252
 11
1836.7310000000002
 21
1107.721
  0
LINE
  8
_0-0_LAYER001
  6
CONTINUOUS
 62
    2
 10
1842.5412000000001
 20
1106.6959999999999
 11
1841.0639999999999
 21
1106.9559999999999
  0
LINE
  8
_0-0_LAYER001
  6
CONTINUOUS
 62
    2
 10
1819.5801000000001
 20
1114.6030000000001
 11
1844.8530999999998
 21
1119.0589
  0
LINE
  8
_0-0_LAYER001
  6
CONTINUOUS
 62
    2
 10
1819.5801000000001
 20
1114.6030000000001
 11
1844.6779999999999
 21
1110.1769999999999
  0
LINE
  8
_0-0_LAYER001
  6
CONTINUOUS
 62
    2
 10
1803.6041
 20
1118.8518999999999
 11
1821.8040000000001
 21
1118.8518999999999
  0
LINE
  8
_0-0_LAYER001
  6
CONTINUOUS
 62
    2
 10
1803.6041
 20
1110.3518999999999
 11
1821.8040000000001
 21
1110.3518999999999
  0
LINE
  8
_0-0_LAYER001
  6
CONTINUOUS
 62
    2
 10
1803.6041
 20
1110.3518999999999
 11
1803.6041
 21
1118.8518999999999
  0
LINE
  8
_0-0_LAYER001
  6
CONTINUOUS
 62
    2
 10
1773.6041
 20
1094.6018999999999
 11
1803.6041
 21
1094.6018999999999
  0
LINE
  8
_0-0_LAYER001
  6
CONTINUOUS
 62
    2
 10
1803.6041
 20
1117.6018999999999
 11
1779.6039999999998
 21
1117.6018999999999
  0
LINE
  8
_0-0_LAYER001
  6
CONTINUOUS
 62
    2
 10
1803.6041
 20
1111.6020000000001
 11
1779.6039999999998
 21
1111.6020000000001
  0
LINE
  8
_0-0_LAYER001
  6
CONTINUOUS
 62
    2
 10
1788.2141999999999
 20
1111.6020000000001
 11
1791.6772999999998
 21
1117.6018999999999
  0
LINE
  8
_0-0_LAYER001
  6
CONTINUOUS
 62
    2
 10
1793.9373000000001
 20
1111.6020000000001
 11
1797.4004
 21
1117.6018999999999
  0
LINE
  8
_0-0_LAYER001
  6
CONTINUOUS
 62
    2
 10
1799.6605
 20
1111.6020000000001
 11
1803.1235000000001
 21
1117.6018999999999
  0
LINE
  8
_0-0_LAYER001
  6
CONTINUOUS
 62
    2
 10
1773.6041
 20
1094.6018999999999
 11
1773.6041
 21
1129.3121000000001
  0
LINE
  8
_0-0_LAYER001
  6
CONTINUOUS
 62
    2
 10
1803.6041
 20
1094.6018999999999
 11
1777.1080999999999
 21
1129.9300000000001
  0
LINE
  8
_0-0_LAYER001
  6
CONTINUOUS
 62
    2
 10
1710.0499
 20
1135.3679
 11
1801.6041
 21
1151.5114000000001
  0
LINE
  8
_0-0_LAYER001
  6
CONTINUOUS
 62
    2
 10
1782.7822999999999
 20
1146.1618000000001
 11
1791.5517
 21
1147.7081000000001
  0
LINE
  8
_0-0_LAYER001
  6
CONTINUOUS
 62
    2
 10
1790.3078999999998
 20
1118.4499000000001
 11
1793.7496999999998
 21
1110.2109
  0
LINE
  8
_0-0_LAYER001
  6
CONTINUOUS
 62
    2
 10
1789.2682
 20
1145.6855
 11
1793.9580000000001
 21
1119.0936999999999
  0
LINE
  8
_0-0_LAYER001
  6
CONTINUOUS
 62
    2
 10
1793.7496999999998
 20
1110.2109
 11
1793.9580000000001
 21
1119.0936999999999
  0
LINE
  8
_0-0_LAYER001
  6
CONTINUOUS
 62
    2
 10
1785.6181999999999
 20
1145.0432000000001
 11
1782.7822999999999
 21
1146.1618000000001
  0
LINE
  8
_0-0_LAYER001
  6
CONTINUOUS
 62
    2
 10
1789.2682
 20
1145.6855
 11
1791.5517
 21
1147.7081000000001
  0
LINE
  8
_0-0_LAYER001
  6
CONTINUOUS
 62
    2
 10
1785.6181999999999
 20
1145.0432000000001
 11
1790.3078999999998
 21
1118.4499000000001
  0
ARC
  8
_0-0_LAYER001
  6
CONTINUOUS
 62
    2
 10
1842.9681
 20
1121.058
 40
1.5049999999999999
 50
10.451269999999999
 51
99.637527999999989
  0
ARC
  8
_0-0_LAYER001
  6
CONTINUOUS
 62
    2
 10
1842.8000999999999
 20
1108.1749
 40
1.4969999999999999
 50
259.83899000000008
 51
350.14733000000001
  0
CIRCLE
  8
_0-0_LAYER001
  6
CONTINUOUS
 62
    2
 10
1748.2901000000002
 20
1063.1611
 40
0.8999999999999999
  0
CIRCLE
  8
_0-0_LAYER001
  6
CONTINUOUS
 62
    2
 10
1728.0432000000001
 20
1038.6960999999999
 40
0.8999999999999999
  0
CIRCLE
  8
_0-0_LAYER001
  6
CONTINUOUS
 62
    2
 10
1731.6988999999999
 20
1027.4477999999999
 40
0.8999999999999999
  0
CIRCLE
  8
_0-0_LAYER001
  6
CONTINUOUS
 62
    2
 10
1721.5754000000002
 20
1051.3504
 40
0.8999999999999999
  0
CIRCLE
  8
_0-0_LAYER001
  6
CONTINUOUS
 62
    2
 10
1735.6358
 20
1096.9059999999999
 40
0.8999999999999999
  0
CIRCLE
  8
_0-0_LAYER001
  6
CONTINUOUS
 62
    2
 10
1747.4465
 20
1098.5933
 40
0.8999999999999999
  0
CIRCLE
  8
_0-0_LAYER001
  6
CONTINUOUS
 62
    2
 10
1766.0061999999998
 20
1102.5301999999999
 40
0.8999999999999999
  0
CIRCLE
  8
_0-0_LAYER001
  6
CONTINUOUS
 62
    2
 10
1782.8787000000002
 20
1055.2873
 40
0.8999999999999999
  0
CIRCLE
  8
_0-0_LAYER001
  6
CONTINUOUS
 62
    2
 10
1795.5329999999999
 20
1042.0706
 40
0.8999999999999999
  0
CIRCLE
  8
_0-0_LAYER001
  6
CONTINUOUS
 62
    2
 10
1788.7840000000001
 20
1042.633
 40
0.8999999999999999
  0
CIRCLE
  8
_0-0_LAYER001
  6
CONTINUOUS
 62
    2
 10
1790.4713000000002
 20
1061.4739
 40
0.8999999999999999
  0
CIRCLE
  8
_0-0_LAYER001
  6
CONTINUOUS
 62
    2
 10
1774.7235999999998
 20
1037.5712000000001
 40
0.8999999999999999
  0
LINE
  8
_0-0_LAYER001
  6
CONTINUOUS
 62
    2
 10
1801.6041
 20
1151.5114000000001
 11
1801.6041
 21
1250.0534
  0
LINE
  8
_0-0_LAYER001
  6
CONTINUOUS
 62
    2
 10
854.64329999999995
 20
970.47340000000008
 11
1681.6041
 21
970.47340000000008
  0
LINE
  8
_0-0_LAYER001
  6
CONTINUOUS
 62
    3
 10
1772.7928999999999
 20
1124.4444000000001
 11
1772.8038999999999
 21
1123.9786999999999
  0
LINE
  8
_0-0_LAYER001
  6
CONTINUOUS
 62
    3
 10
1772.8038999999999
 20
1123.9786999999999
 11
1772.8337000000001
 21
1122.7148
  0
LINE
  8
_0-0_LAYER001
  6
CONTINUOUS
 62
    3
 10
1772.8337000000001
 20
1122.7148
 11
1772.8775999999998
 21
1120.8522
  0
LINE
  8
_0-0_LAYER001
  6
CONTINUOUS
 62
    3
 10
1772.8775999999998
 20
1120.8522
 11
1772.9308999999998
 21
1118.5905
  0
LINE
  8
_0-0_LAYER001
  6
CONTINUOUS
 62
    3
 10
1772.9308999999998
 20
1118.5905
 11
1772.9888999999998
 21
1116.1292000000001
  0
LINE
  8
_0-0_LAYER001
  6
CONTINUOUS
 62
    3
 10
1772.9888999999998
 20
1116.1292000000001
 11
1773.0468999999998
 21
1113.6678999999999
  0
LINE
  8
_0-0_LAYER001
  6
CONTINUOUS
 62
    3
 10
1773.0468999999998
 20
1113.6678999999999
 11
1773.1001999999999
 21
1111.4061999999999
  0
LINE
  8
_0-0_LAYER001
  6
CONTINUOUS
 62
    3
 10
1773.1001999999999
 20
1111.4061999999999
 11
1773.1441
 21
1109.5436
  0
LINE
  8
_0-0_LAYER001
  6
CONTINUOUS
 62
    3
 10
1773.1441
 20
1109.5436
 11
1773.1738999999998
 21
1108.2797
  0
LINE
  8
_0-0_LAYER001
  6
CONTINUOUS
 62
    3
 10
1773.1738999999998
 20
1108.2797
 11
1773.1849000000002
 21
1107.8140000000001
  0
LINE
  8
_0-0_LAYER001
  6
CONTINUOUS
 62
    3
 10
1773.1849000000002
 20
1107.8140000000001
 11
1772.0372000000002
 21
1107.8069
  0
LINE
  8
_0-0_LAYER001
  6
CONTINUOUS
 62
    3
 10
1772.0372000000002
 20
1107.8069
 11
1768.6658000000002
 21
1107.6318000000001
  0
LINE
  8
_0-0_LAYER001
  6
CONTINUOUS
 62
    3
 10
1768.6658000000002
 20
1107.6318000000001
 11
1763.1777999999999
 21
1107.0585000000001
  0
LINE
  8
_0-0_LAYER001
  6
CONTINUOUS
 62
    3
 10
1763.1777999999999
 20
1107.0585000000001
 11
1755.6804999999999
 21
1105.8562999999999
  0
LINE
  8
_0-0_LAYER001
  6
CONTINUOUS
 62
    3
 10
1755.6804999999999
 20
1105.8562999999999
 11
1746.2811000000002
 21
1103.7950000000001
  0
LINE
  8
_0-0_LAYER001
  6
CONTINUOUS
 62
    3
 10
1746.2811000000002
 20
1103.7950000000001
 11
1735.0868
 21
1100.6441
  0
LINE
  8
_0-0_LAYER001
  6
CONTINUOUS
 62
    3
 10
1735.0868
 20
1100.6441
 11
1722.2049000000002
 21
1096.1731
  0
LINE
  8
_0-0_LAYER001
  6
CONTINUOUS
 62
    3
 10
1722.2049000000002
 20
1096.1731
 11
1707.7424999999998
 21
1090.1516999999999
  0
LINE
  8
_0-0_LAYER001
  6
CONTINUOUS
 62
    3
 10
1707.7424999999998
 20
1090.1516999999999
 11
1691.8069
 21
1082.3493000000001
  0
LINE
  8
_0-0_LAYER001
  6
CONTINUOUS
 62
    3
 10
1691.8069
 20
1082.3493000000001
 11
1674.5052999999998
 21
1072.5355999999999
  0
LINE
  8
_0-0_LAYER001
  6
CONTINUOUS
 62
    3
 10
1674.5052999999998
 20
1072.5355999999999
 11
1674.4874
 21
1073.2934
  0
LINE
  8
_0-0_LAYER001
  6
CONTINUOUS
 62
    3
 10
1674.4874
 20
1073.2934
 11
1674.4389999999999
 21
1075.3504
  0
LINE
  8
_0-0_LAYER001
  6
CONTINUOUS
 62
    3
 10
1674.4389999999999
 20
1075.3504
 11
1674.3674999999998
 21
1078.3816999999999
  0
LINE
  8
_0-0_LAYER001
  6
CONTINUOUS
 62
    3
 10
1674.3674999999998
 20
1078.3816999999999
 11
1674.2808
 21
1082.0626
  0
LINE
  8
_0-0_LAYER001
  6
CONTINUOUS
 62
    3
 10
1674.2808
 20
1082.0626
 11
1674.1864
 21
1086.0682999999999
  0
LINE
  8
_0-0_LAYER001
  6
CONTINUOUS
 62
    3
 10
1674.1864
 20
1086.0682999999999
 11
1674.0920000000001
 21
1090.0740000000001
  0
LINE
  8
_0-0_LAYER001
  6
CONTINUOUS
 62
    3
 10
1674.0920000000001
 20
1090.0740000000001
 11
1674.0052000000001
 21
1093.7548999999999
  0
LINE
  8
_0-0_LAYER001
  6
CONTINUOUS
 62
    3
 10
1674.0052000000001
 20
1093.7548999999999
 11
1673.9337999999998
 21
1096.7862
  0
LINE
  8
_0-0_LAYER001
  6
CONTINUOUS
 62
    3
 10
1673.9337999999998
 20
1096.7862
 11
1673.8852999999999
 21
1098.8432
  0
LINE
  8
_0-0_LAYER001
  6
CONTINUOUS
 62
    3
 10
1673.8852999999999
 20
1098.8432
 11
1673.8674999999998
 21
1099.6010000000001
  0
LINE
  8
_0-0_LAYER001
  6
CONTINUOUS
 62
    3
 10
1673.8674999999998
 20
1099.6010000000001
 11
1675.5203000000001
 21
1100.2263
  0
LINE
  8
_0-0_LAYER001
  6
CONTINUOUS
 62
    3
 10
1675.5203000000001
 20
1100.2263
 11
1680.1837999999998
 21
1101.9346
  0
LINE
  8
_0-0_LAYER001
  6
CONTINUOUS
 62
    3
 10
1680.1837999999998
 20
1101.9346
 11
1687.4155999999998
 21
1104.4746
  0
LINE
  8
_0-0_LAYER001
  6
CONTINUOUS
 62
    3
 10
1687.4155999999998
 20
1104.4746
 11
1696.7734
 21
1107.5953
  0
LINE
  8
_0-0_LAYER001
  6
CONTINUOUS
 62
    3
 10
1696.7734
 20
1107.5953
 11
1707.8148999999999
 21
1111.0454
  0
LINE
  8
_0-0_LAYER001
  6
CONTINUOUS
 62
    3
 10
1707.8148999999999
 20
1111.0454
 11
1720.0974999999999
 21
1114.5736999999999
  0
LINE
  8
_0-0_LAYER001
  6
CONTINUOUS
 62
    3
 10
1720.0974999999999
 20
1114.5736999999999
 11
1733.1790000000001
 21
1117.9289000000001
  0
LINE
  8
_0-0_LAYER001
  6
CONTINUOUS
 62
    3
 10
1733.1790000000001
 20
1117.9289000000001
 11
1746.6170000000002
 21
1120.8598999999999
  0
LINE
  8
_0-0_LAYER001
  6
CONTINUOUS
 62
    3
 10
1746.6170000000002
 20
1120.8598999999999
 11
1759.9690999999998
 21
1123.1155000000001
  0
LINE
  8
_0-0_LAYER001
  6
CONTINUOUS
 62
    3
 10
1772.7928999999999
 20
1124.4444000000001
 11
1759.8571999999999
 21
1123.0966000000001
  0
LINE
  8
_0-0_LAYER001
  6
CONTINUOUS
 62
    3
 10
1762.7928999999999
 20
1089.0986
 11
1762.8038999999999
 21
1088.6329000000001
  0
LINE
  8
_0-0_LAYER001
  6
CONTINUOUS
 62
    3
 10
1762.8038999999999
 20
1088.6329000000001
 11
1762.8337000000001
 21
1087.3689999999999
  0
LINE
  8
_0-0_LAYER001
  6
CONTINUOUS
 62
    3
 10
1762.8337000000001
 20
1087.3689999999999
 11
1762.8775999999998
 21
1085.5064
  0
LINE
  8
_0-0_LAYER001
  6
CONTINUOUS
 62
    3
 10
1762.8775999999998
 20
1085.5064
 11
1762.9308999999998
 21
1083.2447
  0
LINE
  8
_0-0_LAYER001
  6
CONTINUOUS
 62
    3
 10
1762.9308999999998
 20
1083.2447
 11
1762.9888999999998
 21
1080.7834
  0
LINE
  8
_0-0_LAYER001
  6
CONTINUOUS
 62
    3
 10
1762.9888999999998
 20
1080.7834
 11
1763.0468999999998
 21
1078.3221000000001
  0
LINE
  8
_0-0_LAYER001
  6
CONTINUOUS
 62
    3
 10
1763.0468999999998
 20
1078.3221000000001
 11
1763.1001999999999
 21
1076.0604000000001
  0
LINE
  8
_0-0_LAYER001
  6
CONTINUOUS
 62
    3
 10
1763.1001999999999
 20
1076.0604000000001
 11
1763.1441
 21
1074.1977999999999
  0
LINE
  8
_0-0_LAYER001
  6
CONTINUOUS
 62
    3
 10
1763.1441
 20
1074.1977999999999
 11
1763.1738999999998
 21
1072.9339
  0
LINE
  8
_0-0_LAYER001
  6
CONTINUOUS
 62
    3
 10
1763.1738999999998
 20
1072.9339
 11
1763.1849000000002
 21
1072.4682
  0
LINE
  8
_0-0_LAYER001
  6
CONTINUOUS
 62
    3
 10
1763.1849000000002
 20
1072.4682
 11
1762.0372000000002
 21
1072.4611
  0
LINE
  8
_0-0_LAYER001
  6
CONTINUOUS
 62
    3
 10
1762.0372000000002
 20
1072.4611
 11
1758.6658000000002
 21
1072.2860000000001
  0
LINE
  8
_0-0_LAYER001
  6
CONTINUOUS
 62
    3
 10
1758.6658000000002
 20
1072.2860000000001
 11
1753.1777999999999
 21
1071.7127
  0
LINE
  8
_0-0_LAYER001
  6
CONTINUOUS
 62
    3
 10
1753.1777999999999
 20
1071.7127
 11
1745.6804999999999
 21
1070.5105000000001
  0
LINE
  8
_0-0_LAYER001
  6
CONTINUOUS
 62
    3
 10
1745.6804999999999
 20
1070.5105000000001
 11
1736.2811000000002
 21
1068.4492
  0
LINE
  8
_0-0_LAYER001
  6
CONTINUOUS
 62
    3
 10
1736.2811000000002
 20
1068.4492
 11
1725.0868
 21
1065.2982999999999
  0
LINE
  8
_0-0_LAYER001
  6
CONTINUOUS
 62
    3
 10
1725.0868
 20
1065.2982999999999
 11
1712.2049000000002
 21
1060.8272999999999
  0
LINE
  8
_0-0_LAYER001
  6
CONTINUOUS
 62
    3
 10
1712.2049000000002
 20
1060.8272999999999
 11
1697.7424999999998
 21
1054.8059000000001
  0
LINE
  8
_0-0_LAYER001
  6
CONTINUOUS
 62
    3
 10
1697.7424999999998
 20
1054.8059000000001
 11
1681.8069
 21
1047.0035
  0
LINE
  8
_0-0_LAYER001
  6
CONTINUOUS
 62
    3
 10
1681.8069
 20
1047.0035
 11
1664.5052999999998
 21
1037.1898000000001
  0
LINE
  8
_0-0_LAYER001
  6
CONTINUOUS
 62
    3
 10
1664.5052999999998
 20
1037.1898000000001
 11
1664.4874
 21
1037.9476
  0
LINE
  8
_0-0_LAYER001
  6
CONTINUOUS
 62
    3
 10
1664.4874
 20
1037.9476
 11
1664.4389999999999
 21
1040.0046
  0
LINE
  8
_0-0_LAYER001
  6
CONTINUOUS
 62
    3
 10
1664.4389999999999
 20
1040.0046
 11
1664.3674999999998
 21
1043.0359000000001
  0
LINE
  8
_0-0_LAYER001
  6
CONTINUOUS
 62
    3
 10
1664.3674999999998
 20
1043.0359000000001
 11
1664.2808
 21
1046.7167999999999
  0
LINE
  8
_0-0_LAYER001
  6
CONTINUOUS
 62
    3
 10
1664.2808
 20
1046.7167999999999
 11
1664.1864
 21
1050.7225000000001
  0
LINE
  8
_0-0_LAYER001
  6
CONTINUOUS
 62
    3
 10
1664.1864
 20
1050.7225000000001
 11
1664.0920000000001
 21
1054.7282
  0
LINE
  8
_0-0_LAYER001
  6
CONTINUOUS
 62
    3
 10
1664.0920000000001
 20
1054.7282
 11
1664.0052000000001
 21
1058.4091000000001
  0
LINE
  8
_0-0_LAYER001
  6
CONTINUOUS
 62
    3
 10
1664.0052000000001
 20
1058.4091000000001
 11
1663.9337999999998
 21
1061.4404
  0
LINE
  8
_0-0_LAYER001
  6
CONTINUOUS
 62
    3
 10
1663.9337999999998
 20
1061.4404
 11
1663.8852999999999
 21
1063.4974
  0
LINE
  8
_0-0_LAYER001
  6
CONTINUOUS
 62
    3
 10
1663.8852999999999
 20
1063.4974
 11
1663.8674999999998
 21
1064.2552000000001
  0
LINE
  8
_0-0_LAYER001
  6
CONTINUOUS
 62
    3
 10
1663.8674999999998
 20
1064.2552000000001
 11
1665.5203000000001
 21
1064.8805
  0
LINE
  8
_0-0_LAYER001
  6
CONTINUOUS
 62
    3
 10
1665.5203000000001
 20
1064.8805
 11
1670.1837999999998
 21
1066.5887
  0
LINE
  8
_0-0_LAYER001
  6
CONTINUOUS
 62
    3
 10
1670.1837999999998
 20
1066.5887
 11
1677.4155999999998
 21
1069.1288
  0
LINE
  8
_0-0_LAYER001
  6
CONTINUOUS
 62
    3
 10
1677.4155999999998
 20
1069.1288
 11
1686.7734
 21
1072.2494999999999
  0
LINE
  8
_0-0_LAYER001
  6
CONTINUOUS
 62
    3
 10
1686.7734
 20
1072.2494999999999
 11
1697.8148999999999
 21
1075.6995999999999
  0
LINE
  8
_0-0_LAYER001
  6
CONTINUOUS
 62
    3
 10
1697.8148999999999
 20
1075.6995999999999
 11
1710.0974999999999
 21
1079.2279000000001
  0
LINE
  8
_0-0_LAYER001
  6
CONTINUOUS
 62
    3
 10
1710.0974999999999
 20
1079.2279000000001
 11
1723.1790000000001
 21
1082.5831000000001
  0
LINE
  8
_0-0_LAYER001
  6
CONTINUOUS
 62
    3
 10
1723.1790000000001
 20
1082.5831000000001
 11
1736.6170000000002
 21
1085.5141000000001
  0
LINE
  8
_0-0_LAYER001
  6
CONTINUOUS
 62
    3
 10
1736.6170000000002
 20
1085.5141000000001
 11
1749.9690999999998
 21
1087.7697000000001
  0
LINE
  8
_0-0_LAYER001
  6
CONTINUOUS
 62
    3
 10
1762.7928999999999
 20
1089.0986
 11
1749.8571999999999
 21
1087.7508
  0
ARC
  8
_0-0_LAYER001
  6
CONTINUOUS
 62
    2
 10
1696.8402000000001
 20
1093.7240999999999
 40
22.156131999999999
 50
325.90267999999998
 51
2.8501010000000186
  0
ARC
  8
_0-0_LAYER001
  6
CONTINUOUS
 62
    2
 10
1499.3346999999999
 20
1071.1980000000001
 40
220.95733000000001
 50
343.51909000000001
 51
358.02643999999998
  0
LINE
  8
_0-0_LAYER001
  6
CONTINUOUS
 62
    2
 10
1683.6041
 20
867.1232
 11
1683.6041
 21
919.6232
  0
CIRCLE
  8
_0-0_LAYER001
  6
CONTINUOUS
 62
    2
 10
1683.6041
 20
869.6232
 40
1.6999999999999997
  0
LINE
  8
_0-0_LAYER001
  6
CONTINUOUS
 62
    2
 10
1683.6041
 20
869.6232
 11
1803.6041
 21
869.6232
  0
CIRCLE
  8
_0-0_LAYER001
  6
CONTINUOUS
 62
    2
 10
1803.6041
 20
869.6232
 40
1.6999999999999997
  0
LINE
  8
_0-0_LAYER001
  6
CONTINUOUS
 62
    2
 10
1803.6041
 20
867.1232
 11
1803.6041
 21
919.6232
  0
LINE
  8
_0-0_LAYER001
  6
CONTINUOUS
 62
    2
 10
1724.1486
 20
962.24489999999992
 11
1727.8986
 21
968.74009999999998
  0
LINE
  8
_0-0_LAYER001
  6
CONTINUOUS
 62
    2
 10
1727.8986
 20
968.74009999999998
 11
1727.8986
 21
961.24009999999998
  0
LINE
  8
_0-0_LAYER001
  6
CONTINUOUS
 62
    2
 10
1727.8986
 20
968.74009999999998
 11
1678.3831
 21
783.94579999999996
  0
LINE
  8
_0-0_LAYER001
  6
CONTINUOUS
 62
    2
 10
1476.1104999999998
 20
1006.7222999999999
 11
1476.1104999999998
 21
999.2222999999999
  0
LINE
  8
_0-0_LAYER001
  6
CONTINUOUS
 62
    2
 10
1476.1104999999998
 20
999.2222999999999
 11
1472.3604999999998
 21
1005.7175
  0
LINE
  8
_0-0_LAYER001
  6
CONTINUOUS
 62
    2
 10
1476.1104999999998
 20
999.2222999999999
 11
1449.0140000000001
 21
1100.3478
  0
LINE
  8
_0-0_LAYER001
  6
CONTINUOUS
 62
    2
 10
1449.0140000000001
 20
1100.3478
 11
1408.5139999999999
 21
1100.3478
  0
LINE
  8
_0-0_LAYER001
  6
CONTINUOUS
 62
    2
 10
1720.2049999999999
 20
1144.8832
 11
1720.2049999999999
 21
1137.3832
  0
LINE
  8
_0-0_LAYER001
  6
CONTINUOUS
 62
    2
 10
1720.2049999999999
 20
1137.3832
 11
1716.4549999999999
 21
1143.8784000000001
  0
LINE
  8
_0-0_LAYER001
  6
CONTINUOUS
 62
    2
 10
1720.2049999999999
 20
1137.3832
 11
1673.1246000000001
 21
1313.0898
  0
LINE
  8
_0-0_LAYER001
  6
CONTINUOUS
 62
    2
 10
1682.9034999999999
 20
1088.9685999999999
 11
1682.9034999999999
 21
1081.4685999999999
  0
LINE
  8
_0-0_LAYER001
  6
CONTINUOUS
 62
    2
 10
1682.9034999999999
 20
1081.4685999999999
 11
1679.1534999999999
 21
1087.9638
  0
LINE
  8
_0-0_LAYER001
  6
CONTINUOUS
 62
    2
 10
1682.9034999999999
 20
1081.4685999999999
 11
1653.0961000000002
 21
1192.7112
  0
LINE
  8
_0-0_LAYER001
  6
CONTINUOUS
 62
    2
 10
1653.0961000000002
 20
1192.7112
 11
1539.0961000000002
 21
1192.7112
  0
LINE
  8
_0-0_LAYER001
  6
CONTINUOUS
 62
    2
 10
1813.2914999999998
 20
1278.9133999999999
 11
1809.5414999999998
 21
1272.4182000000001
  0
LINE
  8
_0-0_LAYER001
  6
CONTINUOUS
 62
    2
 10
1809.5414999999998
 20
1272.4182000000001
 11
1809.5414999999998
 21
1279.9182000000001
  0
LINE
  8
_0-0_LAYER001
  6
CONTINUOUS
 62
    2
 10
1809.5414999999998
 20
1272.4182000000001
 11
1836.1304
 21
1371.6496000000002
  0
LINE
  8
_0-0_LAYER001
  6
CONTINUOUS
 62
    2
 10
1740.4063999999998
 20
1139.7835
 11
1740.4063999999998
 21
1132.2835
  0
LINE
  8
_0-0_LAYER001
  6
CONTINUOUS
 62
    2
 10
1740.4063999999998
 20
1132.2835
 11
1736.6563999999998
 21
1138.7787000000001
  0
LINE
  8
_0-0_LAYER001
  6
CONTINUOUS
 62
    2
 10
1740.4063999999998
 20
1132.2835
 11
1679.5432000000001
 21
1359.4281000000001
  0
LINE
  8
_0-0_LAYER001
  6
CONTINUOUS
 62
    2
 10
1679.5432000000001
 20
1359.4281000000001
 11
1532.5432000000001
 21
1359.4281000000001
  0
LINE
  8
_0-0_LAYER001
  6
CONTINUOUS
 62
    2
 10
1770.4742000000001
 20
1052.0157999999999
 11
1768.5331000000001
 21
1059.2602999999999
  0
LINE
  8
_0-0_LAYER001
  6
CONTINUOUS
 62
    2
 10
1768.5331000000001
 20
1059.2602999999999
 11
1773.8364000000001
 21
1053.9570000000001
  0
LINE
  8
_0-0_LAYER001
  6
CONTINUOUS
 62
    2
 10
1768.5331000000001
 20
1059.2602999999999
 11
1915.4971999999998
 21
804.71090000000004
  0
LINE
  8
_0-0_LAYER001
  6
CONTINUOUS
 62
    2
 10
1915.4971999999998
 20
804.71090000000004
 11
1998.1529
 21
804.71090000000004
  0
LINE
  8
_0-0_LAYER001
  6
CONTINUOUS
 62
    2
 10
1765.6471999999999
 20
1124.8289
 11
1765.6471999999999
 21
1105.9840999999999
  0
LINE
  8
_0-0_LAYER001
  6
CONTINUOUS
 62
    2
 10
1765.6471999999999
 20
1105.9840999999999
 11
1776.3604
 21
1106.7584999999999
  0
LINE
  8
_0-0_LAYER001
  6
CONTINUOUS
 62
    2
 10
1776.3604
 20
1106.7584999999999
 11
1776.3604
 21
1125.3452
  0
LINE
  8
_0-0_LAYER001
  6
CONTINUOUS
 62
    2
 10
1765.6471999999999
 20
1124.8289
 11
1776.3604
 21
1125.3452
  0
LINE
  8
_0-0_LAYER001
  6
CONTINUOUS
 62
    2
 10
1758.5481
 20
1089.7208000000001
 11
1758.5481
 21
1072.2860000000001
  0
LINE
  8
_0-0_LAYER001
  6
CONTINUOUS
 62
    2
 10
1758.6658000000002
 20
1072.2860000000001
 11
1763.1849000000002
 21
1072.4682
  0
LINE
  8
_0-0_LAYER001
  6
CONTINUOUS
 62
    2
 10
1763.1849000000002
 20
1072.4682
 11
1779.1999999999998
 21
1096.3035
  0
LINE
  8
_0-0_LAYER001
  6
CONTINUOUS
 62
    2
 10
1758.5481
 20
1089.7208000000001
 11
1775.7150000000001
 21
1098.6269
  0
LINE
  8
_0-0_LAYER001
  6
CONTINUOUS
 62
    2
 10
1775.7150000000001
 20
1098.6269
 11
1779.1999999999998
 21
1096.3035
  0
LINE
  8
_0-0_LAYER001
  6
CONTINUOUS
 62
    2
 10
1993.1232
 20
964.47340000000008
 11
1940.6232
 21
964.47340000000008
  0
CIRCLE
  8
_0-0_LAYER001
  6
CONTINUOUS
 62
    2
 10
1990.6232
 20
964.47340000000008
 40
1.6999999999999997
  0
LINE
  8
_0-0_LAYER001
  6
CONTINUOUS
 62
    2
 10
1990.6232
 20
964.47340000000008
 11
1990.6232
 21
1094.4734000000001
  0
CIRCLE
  8
_0-0_LAYER001
  6
CONTINUOUS
 62
    2
 10
1990.6232
 20
1094.4734000000001
 40
1.6999999999999997
  0
LINE
  8
_0-0_LAYER001
  6
CONTINUOUS
 62
    2
 10
1993.1232
 20
1094.4734000000001
 11
1940.6232
 21
1094.4734000000001
  0
CIRCLE
  8
_0-0_LAYER001
  6
CONTINUOUS
 62
    2
 10
1990.6232
 20
1094.4734000000001
 40
1.6999999999999997
  0
LINE
  8
_0-0_LAYER001
  6
CONTINUOUS
 62
    2
 10
1990.6232
 20
1094.4734000000001
 11
1990.6232
 21
1151.4734000000001
  0
CIRCLE
  8
_0-0_LAYER001
  6
CONTINUOUS
 62
    2
 10
1990.6232
 20
1151.4734000000001
 40
1.6999999999999997
  0
LINE
  8
_0-0_LAYER001
  6
CONTINUOUS
 62
    2
 10
1993.1232
 20
1151.4734000000001
 11
1940.6232
 21
1151.4734000000001
  0
CIRCLE
  8
_0-0_LAYER001
  6
CONTINUOUS
 62
    2
 10
1990.6232
 20
1151.4734000000001
 40
1.6999999999999997
  0
LINE
  8
_0-0_LAYER001
  6
CONTINUOUS
 62
    2
 10
1990.6232
 20
1151.4734000000001
 11
1990.6232
 21
1251.4734000000001
  0
CIRCLE
  8
_0-0_LAYER001
  6
CONTINUOUS
 62
    2
 10
1990.6232
 20
1251.4734000000001
 40
1.6999999999999997
  0
LINE
  8
_0-0_LAYER001
  6
CONTINUOUS
 62
    2
 10
1993.1232
 20
1251.4734000000001
 11
1940.6232
 21
1251.4734000000001
  0
CIRCLE
  8
_0-0_LAYER001
  6
CONTINUOUS
 62
    2
 10
1990.6232
 20
1251.4734000000001
 40
1.6999999999999997
  0
LINE
  8
_0-0_LAYER001
  6
CONTINUOUS
 62
    2
 10
1990.6232
 20
1251.4734000000001
 11
1990.6232
 21
1266.0534
  0
CIRCLE
  8
_0-0_LAYER001
  6
CONTINUOUS
 62
    2
 10
1990.6232
 20
1266.0534
 40
1.6999999999999997
  0
LINE
  8
_0-0_LAYER001
  6
CONTINUOUS
 62
    2
 10
1993.1232
 20
1266.0534
 11
1940.6232
 21
1266.0534
  0
LINE
  8
_0-0_LAYER001
  6
CONTINUOUS
 62
    2
 10
1803.6041
 20
1270.8534999999999
 11
1803.6041
 21
1356.2150999999999
  0
LINE
  8
_0-0_LAYER001
  6
CONTINUOUS
 62
    2
 10
1681.6041
 20
985.47340000000008
 11
1681.6041
 21
970.47340000000008
  0
LINE
  8
_0-0_LAYER001
  6
CONTINUOUS
 62
    2
 10
1683.6041
 20
968.47340000000008
 11
1799.6041
 21
968.47340000000008
  0
LINE
  8
_0-0_LAYER001
  6
DASHED3
 62
    2
 10
854.64329999999995
 20
966.47340000000008
 11
1801.6041
 21
966.47340000000008
  0
LINE
  8
_0-0_LAYER001
  6
CONTINUOUS
 62
    2
 10
1803.6041
 20
939.47340000000008
 11
854.64329999999995
 21
939.47340000000008
  0
LINE
  8
_0-0_LAYER001
  6
CONTINUOUS
 62
    2
 10
1803.6041
 20
989.47340000000008
 11
1803.6041
 21
939.47340000000008
  0
LINE
  8
_0-0_LAYER001
  6
CONTINUOUS
 62
    2
 10
1803.6041
 20
939.47340000000008
 11
1903.6041
 21
939.47340000000008
  0
LINE
  8
_0-0_LAYER001
  6
CONTINUOUS
 62
    2
 10
1793.6041
 20
839.47340000000008
 11
854.64329999999995
 21
839.47340000000008
  0
LINE
  8
_0-0_LAYER001
  6
CONTINUOUS
 62
    2
 10
1793.6041
 20
939.47340000000008
 11
1793.6041
 21
839.47340000000008
  0
LINE
  8
_0-0_LAYER001
  6
DASHED1
 62
    1
 10
1793.6041
 20
842.6733999999999
 11
854.64329999999995
 21
842.6733999999999
  0
LINE
  8
_0-0_LAYER001
  6
DASHED1
 62
    1
 10
1793.6041
 20
936.27340000000004
 11
854.64329999999995
 21
936.27340000000004
  0
LINE
  8
_0-0_LAYER001
  6
DASHED1
 62
    1
 10
1793.6041
 20
919.47340000000008
 11
854.64329999999995
 21
919.47340000000008
  0
LINE
  8
_0-0_LAYER001
  6
DASHED1
 62
    1
 10
1793.6041
 20
859.47340000000008
 11
854.64329999999995
 21
859.47340000000008
  0
LINE
  8
_0-0_LAYER001
  6
CONTINUOUS
 62
    2
 10
1903.6041
 20
993.83680000000004
 11
1803.6041
 21
1093.8367000000001
  0
LINE
  8
_0-0_LAYER001
  6
CONTINUOUS
 62
    2
 10
1903.6041
 20
989.59410000000003
 11
1803.6041
 21
1089.5942
  0
LINE
  8
_0-0_LAYER001
  6
CONTINUOUS
 62
    2
 10
1903.6041
 20
1205.8368
 11
1803.6041
 21
1305.8366000000001
  0
LINE
  8
_0-0_LAYER001
  6
CONTINUOUS
 62
    2
 10
1903.6041
 20
1201.5942
 11
1803.6041
 21
1301.5941
  0
LINE
  8
_0-0_LAYER001
  6
CONTINUOUS
 62
    2
 10
1903.6041
 20
1325.9242999999997
 11
1903.6041
 21
1065.5771
  0
LINE
  8
_0-0_LAYER001
  6
CONTINUOUS
 62
    2
 10
1903.6041
 20
1068.4721999999999
 11
1903.6041
 21
939.47340000000008
  0
LINE
  8
_0-0_LAYER001
  6
CONTINUOUS
 62
    2
 10
1683.6041
 20
986.21620000000007
 11
1683.6041
 21
968.47340000000008
  0
LINE
  8
_0-0_LAYER001
  6
CONTINUOUS
 62
    2
 10
1683.6041
 20
986.21620000000007
 11
1668.6041
 21
986.21620000000007
  0
LINE
  8
_0-0_LAYER001
  6
CONTINUOUS
 62
    2
 10
1677.6044000000002
 20
985.21620000000007
 11
1679.2341000000001
 21
986.21620000000007
  0
LINE
  8
_0-0_LAYER001
  6
CONTINUOUS
 62
    2
 10
1672.9742000000001
 20
986.21630000000005
 11
1679.2341000000001
 21
986.21620000000007
  0
LINE
  8
_0-0_LAYER001
  6
CONTINUOUS
 62
    2
 10
1674.6044000000002
 20
985.21630000000005
 11
1672.9742000000001
 21
986.21630000000005
  0
LINE
  8
_0-0_LAYER001
  6
CONTINUOUS
 62
    2
 10
1674.6044000000002
 20
972.88640000000009
 11
1676.1039999999998
 21
966.21620000000007
  0
LINE
  8
_0-0_LAYER001
  6
CONTINUOUS
 62
    2
 10
1674.6044000000002
 20
985.21630000000005
 11
1674.6044000000002
 21
972.88640000000009
  0
LINE
  8
_0-0_LAYER001
  6
CONTINUOUS
 62
    2
 10
1676.1039999999998
 20
966.21620000000007
 11
1677.6044999999999
 21
973.69520000000011
  0
LINE
  8
_0-0_LAYER001
  6
CONTINUOUS
 62
    2
 10
1677.6044000000002
 20
985.21620000000007
 11
1677.6044999999999
 21
973.69520000000011
  0
LINE
  8
_0-0_LAYER001
  6
CONTINUOUS
 62
    2
 10
1801.0041000000001
 20
1250.0534
 11
1798.2247000000002
 21
1234.7030999999999
  0
LINE
  8
_0-0_LAYER001
  6
CONTINUOUS
 62
    2
 10
1819.2040999999999
 20
1250.0534
 11
1819.2040999999999
 21
1270.8534999999999
  0
LINE
  8
_0-0_LAYER001
  6
CONTINUOUS
 62
    2
 10
1817.1241
 20
1252.1333999999999
 11
1817.1241
 21
1267.7335
  0
LINE
  8
_0-0_LAYER001
  6
CONTINUOUS
 62
    2
 10
1817.1241
 20
1252.1333999999999
 11
1806.0291999999999
 21
1263.2283
  0
LINE
  8
_0-0_LAYER001
  6
CONTINUOUS
 62
    2
 10
1812.7118
 20
1252.1333999999999
 11
1806.1352999999999
 21
1258.71
  0
LINE
  8
_0-0_LAYER001
  6
CONTINUOUS
 62
    2
 10
1808.2993999999999
 20
1252.1333999999999
 11
1805.5028000000002
 21
1254.9301
  0
LINE
  8
_0-0_LAYER001
  6
CONTINUOUS
 62
    2
 10
1805.8380000000002
 20
1256.4474
 11
1817.1241
 21
1267.7334000000001
  0
LINE
  8
_0-0_LAYER001
  6
CONTINUOUS
 62
    2
 10
1806.1911
 20
1261.2128
 11
1815.8317999999999
 21
1270.8534999999999
  0
LINE
  8
_0-0_LAYER001
  6
CONTINUOUS
 62
    2
 10
1805.7022999999999
 20
1265.1364000000001
 11
1811.4193
 21
1270.8534999999999
  0
LINE
  8
_0-0_LAYER001
  6
CONTINUOUS
 62
    2
 10
1810.3489
 20
1252.1333999999999
 11
1815.4758000000002
 21
1257.2603999999999
  0
LINE
  8
_0-0_LAYER001
  6
CONTINUOUS
 62
    2
 10
1814.7611999999999
 20
1252.1333999999999
 11
1816.8092999999999
 21
1254.1814999999999
  0
LINE
  8
_0-0_LAYER001
  6
CONTINUOUS
 62
    2
 10
1815.2105999999999
 20
1258.4592
 11
1804.3456000000001
 21
1269.3243
  0
LINE
  8
_0-0_LAYER001
  6
CONTINUOUS
 62
    2
 10
1815.2764999999999
 20
1262.8058000000001
 11
1807.2289000000001
 21
1270.8534999999999
  0
LINE
  8
_0-0_LAYER001
  6
CONTINUOUS
 62
    2
 10
1805.9364999999998
 20
1252.1333999999999
 11
1815.0718000000002
 21
1261.2688000000001
  0
LINE
  8
_0-0_LAYER001
  6
CONTINUOUS
 62
    2
 10
1804.6777000000002
 20
1268.5243
 11
1807.0068000000001
 21
1270.8534999999999
  0
LINE
  8
_0-0_LAYER001
  6
CONTINUOUS
 62
    2
 10
1816.4324000000001
 20
1266.0624
 11
1811.6414
 21
1270.8534999999999
  0
LINE
  8
_0-0_LAYER001
  6
CONTINUOUS
 62
    2
 10
1817.1241
 20
1269.7829999999999
 11
1816.0538000000001
 21
1270.8534999999999
  0
LINE
  8
_0-0_LAYER001
  6
CONTINUOUS
 62
    2
 10
1817.1241
 20
1267.7334000000001
 11
1817.1241
 21
1270.8534999999999
  0
LINE
  8
_0-0_LAYER001
  6
CONTINUOUS
 62
    2
 10
1801.6041
 20
1171.3829000000001
 11
1801.6041
 21
1249.3891000000001
  0
LINE
  8
_0-0_LAYER001
  6
CONTINUOUS
 62
    2
 10
1817.1241
 20
1252.1333999999999
 11
1799.2040999999999
 21
1252.1333999999999
  0
LINE
  8
_0-0_LAYER001
  6
CONTINUOUS
 62
    2
 10
1799.2040999999999
 20
1219.6534999999999
 11
1799.2040999999999
 21
1252.1333999999999
  0
LINE
  8
_0-0_LAYER001
  6
CONTINUOUS
 62
    2
 10
1799.6041
 20
1094.6018999999999
 11
1799.6041
 21
968.47340000000008
  0
LINE
  8
_0-0_LAYER001
  6
CONTINUOUS
 62
    2
 10
1799.6041
 20
1094.6018999999999
 11
1792.1041
 21
1081.6116
  0
LINE
  8
_0-0_LAYER001
  6
DASHED3
 62
    2
 10
1801.6041
 20
1164.4734000000001
 11
1801.6041
 21
966.47340000000008
  0
LINE
  8
_0-0_LAYER001
  6
CONTINUOUS
 62
    2
 10
1803.6041
 20
1233.7828
 11
1803.6041
 21
964.47340000000008
  0
LINE
  8
_0-0_LAYER001
  6
CONTINUOUS
 62
    2
 10
1819.2040999999999
 20
1250.0534
 11
1803.6041
 21
1250.0534
  0
LINE
  8
_0-0_LAYER001
  6
CONTINUOUS
 62
    2
 10
1819.2040999999999
 20
1270.8534999999999
 11
1803.6041
 21
1270.8534999999999
  0
LINE
  8
_0-0_LAYER001
  6
CONTINUOUS
 62
    2
 10
1803.6041
 20
1163.22
 11
1803.6041
 21
1250.1638
  0
LINE
  8
_0-0_LAYER001
  6
CONTINUOUS
 62
    2
 10
1903.6041
 20
829.47340000000008
 11
854.64329999999995
 21
829.47340000000008
  0
CIRCLE
  8
_0-0_LAYER001
  6
CONTINUOUS
 62
    2
 10
1771.7941999999998
 20
1092.3100999999999
 40
0.8999999999999999
  0
CIRCLE
  8
_0-0_LAYER001
  6
CONTINUOUS
 62
    2
 10
1779.0482000000002
 20
1078.4328
 40
0.8999999999999999
  0
CIRCLE
  8
_0-0_LAYER001
  6
CONTINUOUS
 62
    2
 10
1787.5639000000001
 20
1075.2788
 40
0.8999999999999999
  0
CIRCLE
  8
_0-0_LAYER001
  6
CONTINUOUS
 62
    2
 10
1769.2710000000002
 20
1070.5479
 40
0.8999999999999999
  0
CIRCLE
  8
_0-0_LAYER001
  6
CONTINUOUS
 62
    2
 10
1755.0783000000001
 20
1094.8332
 40
0.8999999999999999
  0
CIRCLE
  8
_0-0_LAYER001
  6
CONTINUOUS
 62
    2
 10
1735.8391999999999
 20
1090.7330999999999
 40
0.8999999999999999
  0
ARC
  8
_0-0_LAYER001
  6
CONTINUOUS
 62
    2
 10
1784.1043
 20
1260.4534000000001
 40
22.099882999999998
 50
337.88465000000002
 51
28.072639999999978
  0
CIRCLE
  8
_0-0_LAYER001
  6
CONTINUOUS
 62
    2
 10
1791.9456
 20
1083.6801
 40
0.8999999999999999
  0
CIRCLE
  8
_0-0_LAYER001
  6
CONTINUOUS
 62
    2
 10
1782.0868
 20
1062.502
 40
0.8999999999999999
  0
CIRCLE
  8
_0-0_LAYER001
  6
CONTINUOUS
 62
    2
 10
1766.0207
 20
1082.9498000000001
 40
0.8999999999999999
  0
CIRCLE
  8
_0-0_LAYER001
  6
CONTINUOUS
 62
    2
 10
1759.4481999999998
 20
1064.6929
 40
0.8999999999999999
  0
CIRCLE
  8
_0-0_LAYER001
  6
CONTINUOUS
 62
    2
 10
1728.0462000000002
 20
1086.9664
 40
0.8999999999999999
  0
ARC
  8
_0-0_LAYER001
  6
CONTINUOUS
 62
    4
 10
911.17589999999996
 20
1199.4571000000001
 40
214.38050999999999
 50
254.71014000000002
 51
268.38173000000006
  0
ARC
  8
_0-0_LAYER001
  6
CONTINUOUS
 62
    4
 10
965.64509999999996
 20
1015.9546
 40
52.178303999999997
 50
215.53766999999999
 51
234.46232000000001
  0
ARC
  8
_0-0_LAYER001
  6
CONTINUOUS
 62
    4
 10
939.31639999999993
 20
978.25080000000003
 40
6.2695089999999993
 50
234.10575000000003
 51
303.29033000000004
  0
ARC
  8
_0-0_LAYER001
  6
CONTINUOUS
 62
    4
 10
907.85560000000009
 20
1022.2568000000001
 40
58.841383
 50
213.2508
 51
234.31144
  0
ARC
  8
_0-0_LAYER001
  6
CONTINUOUS
 62
    4
 10
877.98000000000002
 20
981.09950000000003
 40
7.947610000000001
 50
234.52014000000003
 51
301.23766000000001
  0
ARC
  8
_0-0_LAYER001
  6
CONTINUOUS
 62
    4
 10
861.47849999999994
 20
1013.5688
 40
44.132803000000003
 50
297.62160999999998
 51
318.23129999999998
  0
ARC
  8
_0-0_LAYER001
  6
CONTINUOUS
 62
    4
 10
911.17589999999996
 20
1199.4571000000001
 40
199.38050999999999
 50
253.52830999999998
 51
268.38173
  0
ARC
  8
_0-0_LAYER001
  6
CONTINUOUS
 62
    4
 10
911.17589999999996
 20
1199.4571000000001
 40
199.38050999999999
 50
253.52830999999998
 51
268.38173
  0
ARC
  8
_0-0_LAYER001
  6
CONTINUOUS
 62
    4
 10
911.17589999999996
 20
1199.4571000000001
 40
197.38050999999999
 50
253.35657999999998
 51
268.38172999999995
  0
ARC
  8
_0-0_LAYER001
  6
CONTINUOUS
 62
    4
 10
911.17589999999996
 20
1199.4571000000001
 40
182.38050999999999
 50
251.94252000000006
 51
268.38173000000006
  0
ARC
  8
_0-0_LAYER001
  6
CONTINUOUS
 62
    4
 10
911.17589999999996
 20
1199.4571000000001
 40
214.38050999999999
 50
254.71014000000002
 51
268.38173000000006
  0
ARC
  8
_0-0_LAYER001
  6
CONTINUOUS
 62
    4
 10
887.78739999999993
 20
1016.0717999999999
 40
69.674484000000007
 50
321.65733
 51
337.34946000000002
  0
ARC
  8
_0-0_LAYER001
  6
CONTINUOUS
 62
    4
 10
901.63229999999999
 20
1292.3443
 40
307.27562
 50
270.90795000000003
 51
293.21983
  0
ARC
  8
_0-0_LAYER001
  6
CONTINUOUS
 62
    4
 10
901.63229999999999
 20
1292.3443
 40
275.27562
 50
270.90795000000003
 51
287.11988000000002
  0
ARC
  8
_0-0_LAYER001
  6
CONTINUOUS
 62
    4
 10
901.63229999999999
 20
1292.3443
 40
292.27562
 50
270.90795000000003
 51
292.69346000000002
  0
LINE
  8
_0-0_LAYER001
  6
CONTINUOUS
 62
    4
 10
1014.3924999999999
 20
1025.1207999999999
 11
1014.3924999999999
 21
1022.6960999999999
  0
LINE
  8
_0-0_LAYER001
  6
CONTINUOUS
 62
    4
 10
1022.7788
 20
1009.9584
 11
1022.7788
 21
1028.2656999999999
  0
LINE
  8
_0-0_LAYER001
  6
CONTINUOUS
 62
    4
 10
1014.3924999999999
 20
1025.1207999999999
 11
1022.7788
 21
1028.2656999999999
  0
ARC
  8
_0-0_LAYER001
  6
CONTINUOUS
 62
    4
 10
901.63229999999999
 20
1292.3443
 40
290.27562
 50
270.90795000000003
 51
286.23334
  0
LINE
  8
_0-0_LAYER001
  6
CONTINUOUS
 62
    4
 10
982.77880000000005
 20
1013.6416999999999
 11
982.77880000000005
 21
1029.3008
  0
ARC
  8
_0-0_LAYER001
  6
CONTINUOUS
 62
    4
 10
1166.0627999999999
 20
1199.0607
 40
214.38050999999999
 50
231.7756
 51
268.38173
  0
LINE
  8
_0-0_LAYER001
  6
CONTINUOUS
 62
    4
 10
986.6712
 20
1014.6555000000001
 11
1022.8612000000001
 21
1030.8117
  0
ARC
  8
_0-0_LAYER001
  6
CONTINUOUS
 62
    4
 10
1220.5319999999999
 20
1015.5581999999999
 40
52.178303999999997
 50
215.53766999999999
 51
234.46232000000001
  0
ARC
  8
_0-0_LAYER001
  6
CONTINUOUS
 62
    4
 10
1194.2032999999999
 20
977.85439999999994
 40
6.2695089999999993
 50
234.10575000000003
 51
303.29033000000004
  0
ARC
  8
_0-0_LAYER001
  6
CONTINUOUS
 62
    4
 10
1162.7426
 20
1021.8605
 40
58.841383
 50
213.2508
 51
234.31144
  0
ARC
  8
_0-0_LAYER001
  6
CONTINUOUS
 62
    4
 10
1132.8669
 20
980.70309999999995
 40
7.947610000000001
 50
234.52014000000003
 51
301.23766000000001
  0
ARC
  8
_0-0_LAYER001
  6
CONTINUOUS
 62
    4
 10
1116.3653999999999
 20
1013.1723999999999
 40
44.132803000000003
 50
297.62160999999998
 51
318.23129999999998
  0
LINE
  8
_0-0_LAYER001
  6
CONTINUOUS
 62
    4
 10
986.6712
 20
1013.2356
 11
982.66579999999999
 21
1011.3535999999999
  0
LINE
  8
_0-0_LAYER001
  6
CONTINUOUS
 62
    4
 10
986.6712
 20
1014.6555000000001
 11
986.6712
 21
1013.2356
  0
LINE
  8
_0-0_LAYER001
  6
CONTINUOUS
 62
    4
 10
986.14560000000006
 20
1031.3994
 11
982.78269999999998
 21
1030.0732
  0
LINE
  8
_0-0_LAYER001
  6
CONTINUOUS
 62
    4
 10
986.14560000000006
 20
1032.8880999999999
 11
986.14560000000006
 21
1031.3994
  0
ARC
  8
_0-0_LAYER001
  6
CONTINUOUS
 62
    4
 10
1166.0627999999999
 20
1199.0607
 40
199.38050999999999
 50
231.7756
 51
268.38173
  0
ARC
  8
_0-0_LAYER001
  6
CONTINUOUS
 62
    4
 10
1166.0627999999999
 20
1199.0607
 40
199.38050999999999
 50
231.7756
 51
268.38173
  0
ARC
  8
_0-0_LAYER001
  6
CONTINUOUS
 62
    4
 10
1166.0627999999999
 20
1199.0607
 40
197.38050999999999
 50
231.7756
 51
268.38173
  0
LINE
  8
_0-0_LAYER001
  6
CONTINUOUS
 62
    4
 10
986.40059999999994
 20
1033.1125
 11
1016.6805999999999
 21
1047.1599000000001
  0
LINE
  8
_0-0_LAYER001
  6
CONTINUOUS
 62
    4
 10
1017.9292
 20
1045.5990999999999
 11
983.279
 21
1029.9909
  0
ARC
  8
_0-0_LAYER001
  6
CONTINUOUS
 62
    4
 10
1166.0627999999999
 20
1199.0607
 40
182.38050999999999
 50
231.7756
 51
268.38173
  0
LINE
  8
_0-0_LAYER001
  6
CONTINUOUS
 62
    4
 10
982.66579999999999
 20
1011.3535999999999
 11
982.66579999999999
 21
1047.9154000000001
  0
LINE
  8
_0-0_LAYER001
  6
CONTINUOUS
 62
    4
 10
982.66579999999999
 20
1047.9154000000001
 11
1010.3679999999999
 21
1060.7670000000001
  0
ARC
  8
_0-0_LAYER001
  6
CONTINUOUS
 62
    4
 10
1166.0627999999999
 20
1199.0607
 40
214.38050999999999
 50
231.7756
 51
268.38173
  0
ARC
  8
_0-0_LAYER001
  6
CONTINUOUS
 62
    4
 10
1027.4768999999999
 20
1021.6677
 40
27.732966999999999
 50
54.176177000000003
 51
112.93031000000001
  0
ARC
  8
_0-0_LAYER001
  6
CONTINUOUS
 62
    4
 10
1027.8248000000001
 20
1023.9411
 40
40.679594999999999
 50
51.535313000000002
 51
115.27963000000001
  0
ARC
  8
_0-0_LAYER001
  6
CONTINUOUS
 62
    4
 10
1027.4634000000001
 20
1021.1697999999999
 40
26.213477999999995
 50
54.56426900000001
 51
111.2666
  0
ARC
  8
_0-0_LAYER001
  6
CONTINUOUS
 62
    4
 10
1027.9742000000001
 20
1018.7084
 40
13.076713
 50
65.553432000000001
 51
112.83269999999999
  0
ARC
  8
_0-0_LAYER001
  6
CONTINUOUS
 62
    4
 10
1142.6742999999999
 20
1015.6755000000001
 40
69.674484000000007
 50
321.65733
 51
337.34946000000002
  0
ARC
  8
_0-0_LAYER001
  6
CONTINUOUS
 62
    4
 10
1156.5192
 20
1291.9480000000001
 40
307.27562
 50
270.90795000000003
 51
293.21983
  0
ARC
  8
_0-0_LAYER001
  6
CONTINUOUS
 62
    4
 10
1156.5192
 20
1291.9480000000001
 40
275.27562
 50
270.90795000000003
 51
287.11988000000002
  0
ARC
  8
_0-0_LAYER001
  6
CONTINUOUS
 62
    4
 10
1156.5192
 20
1291.9480000000001
 40
292.27562
 50
270.90795000000003
 51
292.69346000000002
  0
ARC
  8
_0-0_LAYER001
  6
CONTINUOUS
 62
    4
 10
1156.5192
 20
1291.9480000000001
 40
290.27562
 50
270.90795000000003
 51
286.23334
  0
ARC
  8
_0-0_LAYER001
  6
CONTINUOUS
 62
    4
 10
1420.6986999999999
 20
1201.4970000000001
 40
214.38050999999999
 50
231.7756
 51
268.38173
  0
LINE
  8
_0-0_LAYER001
  6
CONTINUOUS
 62
    4
 10
1241.307
 20
1017.0916999999999
 11
1277.4970000000001
 21
1033.248
  0
ARC
  8
_0-0_LAYER001
  6
CONTINUOUS
 62
    4
 10
1475.1678999999999
 20
1017.9945
 40
52.178303999999997
 50
215.53766999999999
 51
234.46232000000001
  0
ARC
  8
_0-0_LAYER001
  6
CONTINUOUS
 62
    4
 10
1448.8391000000001
 20
980.29070000000002
 40
6.2695089999999993
 50
234.10575000000003
 51
303.29033000000004
  0
ARC
  8
_0-0_LAYER001
  6
CONTINUOUS
 62
    4
 10
1417.3784000000001
 20
1024.2967000000001
 40
58.841383
 50
213.2508
 51
234.31144
  0
ARC
  8
_0-0_LAYER001
  6
CONTINUOUS
 62
    4
 10
1387.5027
 20
983.13940000000002
 40
7.947610000000001
 50
234.52014000000003
 51
301.23766000000001
  0
ARC
  8
_0-0_LAYER001
  6
CONTINUOUS
 62
    4
 10
1371.0012000000002
 20
1015.6087
 40
44.132803000000003
 50
297.62160999999998
 51
318.23129999999998
  0
LINE
  8
_0-0_LAYER001
  6
CONTINUOUS
 62
    4
 10
1241.307
 20
1015.6719000000001
 11
1237.3016
 21
1013.7898
  0
LINE
  8
_0-0_LAYER001
  6
CONTINUOUS
 62
    4
 10
1241.307
 20
1017.0916999999999
 11
1241.307
 21
1015.6719000000001
  0
LINE
  8
_0-0_LAYER001
  6
CONTINUOUS
 62
    4
 10
1240.7815000000001
 20
1033.8357000000001
 11
1237.4185
 21
1032.5094999999999
  0
LINE
  8
_0-0_LAYER001
  6
CONTINUOUS
 62
    4
 10
1240.7815000000001
 20
1035.3244
 11
1240.7815000000001
 21
1033.8357000000001
  0
ARC
  8
_0-0_LAYER001
  6
CONTINUOUS
 62
    4
 10
1420.6986999999999
 20
1201.4970000000001
 40
199.38050999999999
 50
231.7756
 51
268.38173
  0
ARC
  8
_0-0_LAYER001
  6
CONTINUOUS
 62
    4
 10
1420.6986999999999
 20
1201.4970000000001
 40
199.38050999999999
 50
231.7756
 51
268.38173
  0
ARC
  8
_0-0_LAYER001
  6
CONTINUOUS
 62
    4
 10
1420.6986999999999
 20
1201.4970000000001
 40
197.38050999999999
 50
231.7756
 51
268.38173
  0
LINE
  8
_0-0_LAYER001
  6
CONTINUOUS
 62
    4
 10
1241.0364999999999
 20
1035.5488
 11
1271.3163999999999
 21
1049.5962
  0
LINE
  8
_0-0_LAYER001
  6
CONTINUOUS
 62
    4
 10
1272.5651
 20
1048.0354
 11
1237.9148
 21
1032.4272000000001
  0
ARC
  8
_0-0_LAYER001
  6
CONTINUOUS
 62
    4
 10
1420.6986999999999
 20
1201.4970000000001
 40
182.38050999999999
 50
231.7756
 51
268.38173
  0
LINE
  8
_0-0_LAYER001
  6
CONTINUOUS
 62
    4
 10
1237.3016
 20
1013.7898
 11
1237.3016
 21
1050.3516999999999
  0
LINE
  8
_0-0_LAYER001
  6
CONTINUOUS
 62
    4
 10
1237.3016
 20
1050.3516999999999
 11
1265.0038999999999
 21
1063.2032999999999
  0
ARC
  8
_0-0_LAYER001
  6
CONTINUOUS
 62
    4
 10
1420.6986999999999
 20
1201.4970000000001
 40
214.38050999999999
 50
231.7756
 51
268.38173
  0
ARC
  8
_0-0_LAYER001
  6
CONTINUOUS
 62
    4
 10
1282.1126999999999
 20
1024.104
 40
27.732966999999999
 50
54.176177000000003
 51
112.93031000000001
  0
ARC
  8
_0-0_LAYER001
  6
CONTINUOUS
 62
    4
 10
1282.4605999999999
 20
1026.3774000000001
 40
40.679594999999999
 50
51.535313000000002
 51
115.27963000000001
  0
ARC
  8
_0-0_LAYER001
  6
CONTINUOUS
 62
    4
 10
1282.0992000000001
 20
1023.6061
 40
26.213477999999995
 50
54.56426900000001
 51
111.2666
  0
ARC
  8
_0-0_LAYER001
  6
CONTINUOUS
 62
    4
 10
1282.6099999999999
 20
1021.1447000000001
 40
13.076713
 50
65.553432000000001
 51
112.83269999999999
  0
ARC
  8
_0-0_LAYER001
  6
CONTINUOUS
 62
    4
 10
1397.3100999999999
 20
1018.1117999999999
 40
69.674484000000007
 50
321.65733
 51
337.34946000000002
  0
ARC
  8
_0-0_LAYER001
  6
CONTINUOUS
 62
    4
 10
1411.1550999999999
 20
1294.3842999999997
 40
307.27562
 50
270.90795000000003
 51
293.21983
  0
ARC
  8
_0-0_LAYER001
  6
CONTINUOUS
 62
    4
 10
1675.5855999999999
 20
1201.5087000000001
 40
214.38050999999999
 50
231.7756
 51
268.38173
  0
LINE
  8
_0-0_LAYER001
  6
CONTINUOUS
 62
    4
 10
1496.1939000000002
 20
1017.1034999999999
 11
1532.384
 21
1033.2598
  0
ARC
  8
_0-0_LAYER001
  6
CONTINUOUS
 62
    4
 10
1730.0547999999999
 20
1018.0063
 40
52.178303999999997
 50
215.53766999999999
 51
234.46232000000001
  0
ARC
  8
_0-0_LAYER001
  6
CONTINUOUS
 62
    4
 10
1703.7260000000001
 20
980.30250000000001
 40
6.2695089999999993
 50
234.10575000000003
 51
303.29033000000004
  0
ARC
  8
_0-0_LAYER001
  6
CONTINUOUS
 62
    4
 10
1672.2653
 20
1024.3085000000001
 40
58.841383
 50
213.2508
 51
234.31144
  0
ARC
  8
_0-0_LAYER001
  6
CONTINUOUS
 62
    4
 10
1642.3897000000002
 20
983.15120000000002
 40
7.947610000000001
 50
234.52014000000003
 51
301.23766000000001
  0
ARC
  8
_0-0_LAYER001
  6
CONTINUOUS
 62
    4
 10
1625.8881000000001
 20
1015.6204
 40
44.132803000000003
 50
297.62160999999998
 51
318.23129999999998
  0
LINE
  8
_0-0_LAYER001
  6
CONTINUOUS
 62
    4
 10
1786.5230999999999
 20
1049.9613999999999
 11
1778.8022000000001
 21
1046.9588000000001
  0
LINE
  8
_0-0_LAYER001
  6
CONTINUOUS
 62
    4
 10
1496.1939000000002
 20
1017.1034999999999
 11
1496.1939000000002
 21
1015.6837
  0
LINE
  8
_0-0_LAYER001
  6
CONTINUOUS
 62
    4
 10
1495.6684
 20
1033.8474000000001
 11
1492.3054000000002
 21
1032.5211999999999
  0
LINE
  8
_0-0_LAYER001
  6
CONTINUOUS
 62
    4
 10
1495.6684
 20
1035.3361
 11
1495.6684
 21
1033.8474000000001
  0
ARC
  8
_0-0_LAYER001
  6
CONTINUOUS
 62
    4
 10
1675.5855999999999
 20
1201.5087000000001
 40
199.38050999999999
 50
231.7756
 51
268.38173
  0
ARC
  8
_0-0_LAYER001
  6
CONTINUOUS
 62
    4
 10
1675.5855999999999
 20
1201.5087000000001
 40
199.38050999999999
 50
231.7756
 51
268.38173
  0
ARC
  8
_0-0_LAYER001
  6
CONTINUOUS
 62
    4
 10
1675.5855999999999
 20
1201.5087000000001
 40
197.38050999999999
 50
231.7756
 51
268.38173
  0
LINE
  8
_0-0_LAYER001
  6
CONTINUOUS
 62
    4
 10
1495.9234000000001
 20
1035.5606
 11
1526.2033000000001
 21
1049.6079999999999
  0
ARC
  8
_0-0_LAYER001
  6
CONTINUOUS
 62
    4
 10
1675.5855999999999
 20
1201.5087000000001
 40
182.38050999999999
 50
231.7756
 51
268.38173
  0
LINE
  8
_0-0_LAYER001
  6
CONTINUOUS
 62
    4
 10
1492.1885000000002
 20
1050.3634
 11
1519.8908000000001
 21
1063.2149999999999
  0
ARC
  8
_0-0_LAYER001
  6
CONTINUOUS
 62
    4
 10
1675.5855999999999
 20
1201.5087000000001
 40
214.38050999999999
 50
231.7756
 51
268.38173
  0
ARC
  8
_0-0_LAYER001
  6
CONTINUOUS
 62
    4
 10
1536.9996000000001
 20
1024.1158
 40
27.732966999999999
 50
54.176177000000003
 51
112.93031000000001
  0
ARC
  8
_0-0_LAYER001
  6
CONTINUOUS
 62
    4
 10
1537.3474999999999
 20
1026.3891000000001
 40
40.679594999999999
 50
51.535313000000002
 51
115.27963000000001
  0
ARC
  8
_0-0_LAYER001
  6
CONTINUOUS
 62
    4
 10
1536.9861000000001
 20
1023.6179
 40
26.213477999999995
 50
54.56426900000001
 51
111.2666
  0
ARC
  8
_0-0_LAYER001
  6
CONTINUOUS
 62
    4
 10
1537.4969000000001
 20
1021.1565000000001
 40
13.076713
 50
65.553432000000001
 51
112.83269999999999
  0
LINE
  8
_0-0_LAYER001
  6
CONTINUOUS
 62
    4
 10
1747.1885000000002
 20
1015.6934000000001
 11
1747.1885000000002
 21
1031.3525
  0
ARC
  8
_0-0_LAYER001
  6
CONTINUOUS
 62
    4
 10
1666.0419999999999
 20
1294.3959999999997
 40
290.27562
 50
270.90795000000003
 51
294.66739000000001
  0
ARC
  8
_0-0_LAYER001
  6
CONTINUOUS
 62
    4
 10
1666.0419999999999
 20
1294.3959999999997
 40
275.27562
 50
270.90795000000003
 51
294.18137000000002
  0
LINE
  8
_0-0_LAYER001
  6
CONTINUOUS
 62
    4
 10
1778.8022000000001
 20
1046.9588000000001
 11
1778.8022000000001
 21
1043.2748999999999
  0
ARC
  8
_0-0_LAYER001
  6
CONTINUOUS
 62
    4
 10
1666.0419999999999
 20
1294.3959999999997
 40
292.27562
 50
270.90795000000003
 51
294.48746
  0
ARC
  8
_0-0_LAYER001
  6
CONTINUOUS
 62
    4
 10
1652.1970000000001
 20
1018.1234999999999
 40
69.674484000000007
 50
321.65733
 51
337.34946000000002
  0
ARC
  8
_0-0_LAYER001
  6
CONTINUOUS
 62
    4
 10
1666.0419999999999
 20
1294.3959999999997
 40
307.27562
 50
270.90795000000003
 51
293.21983
  0
LINE
  8
_0-0_LAYER001
  6
CONTINUOUS
 62
    4
 10
1787.1885000000002
 20
1012.0101
 11
1787.1885000000002
 21
1050.3634
  0
ARC
  8
_0-0_LAYER001
  6
CONTINUOUS
 62
    4
 10
1411.1550999999999
 20
1294.3842999999997
 40
275.27562
 50
270.90795000000003
 51
287.11988000000002
  0
ARC
  8
_0-0_LAYER001
  6
CONTINUOUS
 62
    4
 10
1411.1550999999999
 20
1294.3842999999997
 40
290.27562
 50
270.90795000000003
 51
286.21008999999998
  0
LINE
  8
_0-0_LAYER001
  6
CONTINUOUS
 62
    4
 10
1492.1885000000002
 20
1015.6487
 11
1492.1885000000002
 21
1050.3634
  0
LINE
  8
_0-0_LAYER001
  6
CONTINUOUS
 62
    4
 10
1496.1939000000002
 20
1015.6837
 11
1492.3015999999998
 21
1013.8547000000001
  0
LINE
  8
_0-0_LAYER001
  6
CONTINUOUS
 62
    4
 10
1492.3015999999998
 20
1013.8547000000001
 11
1492.3015999999998
 21
1031.3407999999999
  0
ARC
  8
_0-0_LAYER001
  6
CONTINUOUS
 62
    4
 10
1411.1550999999999
 20
1294.3842999999997
 40
292.27562
 50
270.90795000000003
 51
292.69346000000002
  0
LINE
  8
_0-0_LAYER001
  6
CONTINUOUS
 62
    4
 10
1523.9151999999999
 20
1027.1608000000001
 11
1523.9151999999999
 21
1024.7361000000001
  0
LINE
  8
_0-0_LAYER001
  6
CONTINUOUS
 62
    4
 10
1532.3015999999998
 20
1011.9983999999999
 11
1532.3015999999998
 21
1030.3055999999999
  0
LINE
  8
_0-0_LAYER001
  6
CONTINUOUS
 62
    4
 10
1523.9151999999999
 20
1027.1608000000001
 11
1532.3015999999998
 21
1030.3055999999999
  0
LINE
  8
_0-0_LAYER001
  6
CONTINUOUS
 62
    4
 10
1492.5938000000001
 20
1031.7977000000001
 11
1527.6399000000001
 21
1048.1802
  0
LINE
  8
_0-0_LAYER001
  6
CONTINUOUS
 62
    4
 10
1269.4164000000001
 20
1024.7851000000001
 11
1269.4164000000001
 21
1022.5999999999999
  0
LINE
  8
_0-0_LAYER001
  6
CONTINUOUS
 62
    4
 10
1269.4164000000001
 20
1025.4094
 11
1269.4164000000001
 21
1022.5999999999999
  0
LINE
  8
_0-0_LAYER001
  6
CONTINUOUS
 62
    4
 10
1269.4164000000001
 20
1025.7216000000001
 11
1277.5327
 21
1028.8432
  0
LINE
  8
_0-0_LAYER001
  6
CONTINUOUS
 62
    4
 10
1277.5327
 20
1010.1134
 11
1277.5327
 21
1028.8432
  0
LINE
  8
_0-0_LAYER001
  6
CONTINUOUS
 62
    2
 10
982.66650000000004
 20
710.85030000000006
 11
982.66650000000004
 21
763.35030000000006
  0
CIRCLE
  8
_0-0_LAYER001
  6
CONTINUOUS
 62
    2
 10
982.66650000000004
 20
713.35030000000006
 40
1.6999999999999997
  0
LINE
  8
_0-0_LAYER001
  6
CONTINUOUS
 62
    2
 10
982.66650000000004
 20
713.35030000000006
 11
1237.6665
 21
713.35030000000006
  0
CIRCLE
  8
_0-0_LAYER001
  6
CONTINUOUS
 62
    2
 10
1237.6665
 20
713.35030000000006
 40
1.6999999999999997
  0
LINE
  8
_0-0_LAYER001
  6
CONTINUOUS
 62
    2
 10
1237.6665
 20
710.85030000000006
 11
1237.6665
 21
763.35030000000006
  0
CIRCLE
  8
_0-0_LAYER001
  6
CONTINUOUS
 62
    2
 10
1237.6665
 20
713.35030000000006
 40
1.6999999999999997
  0
LINE
  8
_0-0_LAYER001
  6
CONTINUOUS
 62
    2
 10
1237.6665
 20
713.35030000000006
 11
1492.6664999999998
 21
713.35030000000006
  0
CIRCLE
  8
_0-0_LAYER001
  6
CONTINUOUS
 62
    2
 10
1492.6664999999998
 20
713.35030000000006
 40
1.6999999999999997
  0
LINE
  8
_0-0_LAYER001
  6
CONTINUOUS
 62
    2
 10
1492.6664999999998
 20
710.85030000000006
 11
1492.6664999999998
 21
763.35030000000006
  0
CIRCLE
  8
_0-0_LAYER001
  6
CONTINUOUS
 62
    2
 10
1492.6664999999998
 20
713.35030000000006
 40
1.6999999999999997
  0
LINE
  8
_0-0_LAYER001
  6
CONTINUOUS
 62
    2
 10
1492.6664999999998
 20
713.35030000000006
 11
1788.7275
 21
713.35030000000006
  0
CIRCLE
  8
_0-0_LAYER001
  6
CONTINUOUS
 62
    2
 10
1788.7275
 20
713.35030000000006
 40
1.6999999999999997
  0
LINE
  8
_0-0_LAYER001
  6
CONTINUOUS
 62
    2
 10
1788.7275
 20
710.85030000000006
 11
1788.7275
 21
763.35030000000006
  0
LINE
  8
_0-0_LAYER001
  6
CONTINUOUS
 62
    2
 10
1253.9172000000001
 20
1309.9717000000001
 11
1049.0944999999999
 21
1309.9717000000001
  0
LINE
  8
_0-0_LAYER001
  6
CONTINUOUS
 62
    2
 10
1343.7907999999998
 20
982.05860000000007
 11
1343.7907999999998
 21
974.55860000000007
  0
LINE
  8
_0-0_LAYER001
  6
CONTINUOUS
 62
    2
 10
1343.7907999999998
 20
974.55860000000007
 11
1340.0407999999998
 21
981.05379999999991
  0
LINE
  8
_0-0_LAYER001
  6
CONTINUOUS
 62
    2
 10
1343.7907999999998
 20
974.55860000000007
 11
1253.9172000000001
 21
1309.9717000000001
  0
LINE
  8
_0-1_LAYER004
  6
CONTINUOUS
 62
    7
 10
1049.0944999999999
 20
1309.9717000000001
 11
1253.9172000000001
 21
1309.9717000000001
  0
LINE
  8
_0-1_LAYER004
  6
CONTINUOUS
 62
    7
 10
1532.5432000000001
 20
1359.4281000000001
 11
1679.5432000000001
 21
1359.4281000000001
  0
LINE
  8
_0-1_LAYER004
  6
CONTINUOUS
 62
    7
 10
1539.0961000000002
 20
1192.7112
 11
1653.0961000000002
 21
1192.7112
  0
LINE
  8
_0-1_LAYER004
  6
CONTINUOUS
 62
    7
 10
1449.0140000000001
 20
1100.3478
 11
1408.5139999999999
 21
1100.3478
  0
LINE
  8
_0-1_LAYER004
  6
CONTINUOUS
 62
    7
 10
1844.0859999999998
 20
1334.0606
 11
1991.0859999999998
 21
1334.0606
  0
LINE
  8
_0-1_LAYER004
  6
CONTINUOUS
 62
    7
 10
1710.0499
 20
1337.1286
 11
1710.0499
 21
1285.4286
  0
LINE
  8
_0-1_LAYER004
  6
CONTINUOUS
 62
    7
 10
1710.0499
 20
1335.4286
 11
1801.6041
 21
1335.4286
  0
LINE
  8
_0-1_LAYER004
  6
CONTINUOUS
 62
    7
 10
1801.6041
 20
1337.1286
 11
1801.6041
 21
1285.4286
  0
LINE
  8
_0-1_LAYER004
  6
CONTINUOUS
 62
    7
 10
1803.6041
 20
1356.2150999999999
 11
1803.6041
 21
1270.8534999999999
  0
LINE
  8
_0-1_LAYER004
  6
CONTINUOUS
 62
    7
 10
1903.6041
 20
1325.9242999999997
 11
1903.6041
 21
939.47340000000008
  0
LINE
  8
_0-1_LAYER004
  6
CONTINUOUS
 62
    7
 10
1903.6041
 20
939.47340000000008
 11
854.64329999999995
 21
939.47340000000008
  0
LINE
  8
_0-1_LAYER004
  6
CONTINUOUS
 62
    7
 10
854.64329999999995
 20
964.47340000000008
 11
1803.6041
 21
964.47340000000008
  0
LINE
  8
_0-1_LAYER004
  6
CONTINUOUS
 62
    7
 10
1803.6041
 20
939.47340000000008
 11
1803.6041
 21
1250.0534
  0
LINE
  8
_0-1_LAYER004
  6
CONTINUOUS
 62
    7
 10
1803.6041
 20
1250.0534
 11
1819.2040999999999
 21
1250.0534
  0
LINE
  8
_0-1_LAYER004
  6
CONTINUOUS
 62
    7
 10
1819.2040999999999
 20
1250.0534
 11
1819.2040999999999
 21
1270.8534999999999
  0
LINE
  8
_0-1_LAYER004
  6
CONTINUOUS
 62
    7
 10
1819.2040999999999
 20
1270.8534999999999
 11
1803.6041
 21
1270.8534999999999
  0
LINE
  8
_0-1_LAYER004
  6
CONTINUOUS
 62
    7
 10
1817.1241
 20
1269.7829999999999
 11
1817.1241
 21
1252.1333999999999
  0
LINE
  8
_0-1_LAYER004
  6
CONTINUOUS
 62
    7
 10
1817.1241
 20
1252.1333999999999
 11
1799.2040999999999
 21
1252.1333999999999
  0
LINE
  8
_0-1_LAYER004
  6
CONTINUOUS
 62
    7
 10
1799.2040999999999
 20
1252.1333999999999
 11
1799.2040999999999
 21
1219.6534999999999
  0
LINE
  8
_0-1_LAYER004
  6
CONTINUOUS
 62
    7
 10
1801.6041
 20
1250.0534
 11
1801.6041
 21
1151.5114000000001
  0
LINE
  8
_0-1_LAYER004
  6
CONTINUOUS
 62
    7
 10
1801.6041
 20
1151.5114000000001
 11
1801.6041
 21
966.47340000000008
  0
LINE
  8
_0-1_LAYER004
  6
CONTINUOUS
 62
    7
 10
1801.6041
 20
966.47340000000008
 11
854.64329999999995
 21
966.47340000000008
  0
LINE
  8
_0-1_LAYER004
  6
CONTINUOUS
 62
    7
 10
854.64329999999995
 20
970.47340000000008
 11
1675.1468926988696
 21
970.47340000000008
  0
LINE
  8
_0-1_LAYER004
  6
CONTINUOUS
 62
    7
 10
1675.1468926988696
 20
970.47340000000008
 11
1681.6041
 21
970.47340000000008
  0
LINE
  8
_0-1_LAYER004
  6
CONTINUOUS
 62
    7
 10
1681.6041
 20
970.47340000000008
 11
1681.6041
 21
986.21620000000007
  0
LINE
  8
_0-1_LAYER004
  6
CONTINUOUS
 62
    7
 10
1681.6041
 20
985.47340000000008
 11
873.3670740283178
 21
985.47340000000008
  0
LINE
  8
_0-1_LAYER004
  6
CONTINUOUS
 62
    7
 10
873.3670740283178
 20
985.47340000000008
 11
854.64329999999995
 21
985.47340000000008
  0
LINE
  8
_0-1_LAYER004
  6
CONTINUOUS
 62
    7
 10
854.64329999999995
 20
829.47340000000008
 11
1901.2005702446359
 21
829.47340000000008
  0
LINE
  8
_0-1_LAYER004
  6
CONTINUOUS
 62
    7
 10
1793.6041
 20
842.6733999999999
 11
1793.6041
 21
939.47340000000008
  0
LINE
  8
_0-1_LAYER004
  6
CONTINUOUS
 62
    7
 10
1793.6041
 20
839.47340000000008
 11
854.64329999999995
 21
839.47340000000008
  0
LINE
  8
_0-1_LAYER004
  6
CONTINUOUS
 62
    7
 10
982.66650000000004
 20
763.35030000000006
 11
982.66650000000004
 21
713.35030000000006
  0
LINE
  8
_0-1_LAYER004
  6
CONTINUOUS
 62
    7
 10
982.66650000000004
 20
710.85030000000006
 11
982.66650000000004
 21
715.05030000000011
  0
LINE
  8
_0-1_LAYER004
  6
CONTINUOUS
 62
    7
 10
982.66650000000004
 20
713.35030000000006
 11
1788.7275
 21
713.35030000000006
  0
LINE
  8
_0-1_LAYER004
  6
CONTINUOUS
 62
    7
 10
1788.7275
 20
710.85030000000006
 11
1788.7275
 21
763.35030000000006
  0
LINE
  8
_0-1_LAYER004
  6
CONTINUOUS
 62
    7
 10
1492.6664999999998
 20
710.85030000000006
 11
1492.6664999999998
 21
763.35030000000006
  0
LINE
  8
_0-1_LAYER004
  6
CONTINUOUS
 62
    7
 10
1492.6664999999998
 20
763.35030000000006
 11
1492.6664999999998
 21
715.05030000000011
  0
LINE
  8
_0-1_LAYER004
  6
CONTINUOUS
 62
    7
 10
1237.6665
 20
710.85030000000006
 11
1237.6665
 21
763.35030000000006
  0
LINE
  8
_0-1_LAYER004
  6
CONTINUOUS
 62
    7
 10
1683.6041
 20
919.6232
 11
1683.6041
 21
867.1232
  0
LINE
  8
_0-1_LAYER004
  6
CONTINUOUS
 62
    7
 10
1683.6041
 20
869.6232
 11
1801.9040999999997
 21
869.6232
  0
LINE
  8
_0-1_LAYER004
  6
CONTINUOUS
 62
    7
 10
1803.6041
 20
867.1232
 11
1803.6041
 21
919.6232
  0
LINE
  8
_0-1_LAYER004
  6
CONTINUOUS
 62
    7
 10
1683.6041
 20
986.21620000000007
 11
1683.6041
 21
968.47340000000008
  0
LINE
  8
_0-1_LAYER004
  6
CONTINUOUS
 62
    7
 10
1683.6041
 20
968.47340000000008
 11
1799.6041
 21
968.47340000000008
  0
LINE
  8
_0-1_LAYER004
  6
CONTINUOUS
 62
    7
 10
1683.6041
 20
986.21620000000007
 11
1698.3710066422741
 21
986.21620000000007
  0
LINE
  8
_0-1_LAYER004
  6
CONTINUOUS
 62
    7
 10
1799.6041
 20
968.47340000000008
 11
1799.6041
 21
1094.6018999999999
  0
LINE
  8
_0-1_LAYER004
  6
CONTINUOUS
 62
    7
 10
1803.6041
 20
1094.6018999999999
 11
1773.6041
 21
1094.6018999999999
  0
LINE
  8
_0-1_LAYER004
  6
CONTINUOUS
 62
    7
 10
1773.6041
 20
1094.6018999999999
 11
1773.6041
 21
1129.3121000000001
  0
LINE
  8
_0-1_LAYER004
  6
CONTINUOUS
 62
    7
 10
1765.6471999999999
 20
1124.8289
 11
1776.3604
 21
1124.8289
  0
LINE
  8
_0-1_LAYER004
  6
CONTINUOUS
 62
    7
 10
1776.3604
 20
1124.8289
 11
1776.3604
 21
1106.7584999999999
  0
LINE
  8
_0-1_LAYER004
  6
CONTINUOUS
 62
    7
 10
1776.3604
 20
1106.7584999999999
 11
1765.6471999999999
 21
1106.7584999999999
  0
LINE
  8
_0-1_LAYER004
  6
CONTINUOUS
 62
    7
 10
1765.6471999999999
 20
1107.316464107143
 11
1765.6471999999999
 21
1124.8289
  0
LINE
  8
_0-1_LAYER004
  6
CONTINUOUS
 62
    7
 10
1779.6039999999998
 20
1117.6018999999999
 11
1779.6039999999998
 21
1111.6020000000001
  0
LINE
  8
_0-1_LAYER004
  6
CONTINUOUS
 62
    7
 10
1779.6039999999998
 20
1111.6020000000001
 11
1803.6041
 21
1111.6020000000001
  0
LINE
  8
_0-1_LAYER004
  6
CONTINUOUS
 62
    7
 10
1803.6041
 20
1110.3518999999999
 11
1821.8040000000001
 21
1110.3518999999999
  0
LINE
  8
_0-1_LAYER004
  6
CONTINUOUS
 62
    7
 10
1821.8040000000001
 20
1110.3518999999999
 11
1803.6041
 21
1110.3518999999999
  0
LINE
  8
_0-1_LAYER004
  6
CONTINUOUS
 62
    7
 10
1803.6041
 20
1117.6018999999999
 11
1779.6039999999998
 21
1117.6018999999999
  0
LINE
  8
_0-1_LAYER004
  6
CONTINUOUS
 62
    7
 10
1803.6041
 20
1118.8518999999999
 11
1821.8040000000001
 21
1118.8518999999999
  0
LINE
  8
_0-1_LAYER004
  6
CONTINUOUS
 62
    7
 10
1801.6041
 20
1151.5114000000001
 11
1710.0499
 21
1135.3679
  0
LINE
  8
_0-1_LAYER004
  6
CONTINUOUS
 62
    7
 10
1710.0499
 20
1135.3679
 11
1712.6545000000001
 21
1120.5958000000001
  0
LINE
  8
_0-1_LAYER004
  6
CONTINUOUS
 62
    7
 10
1712.6545000000001
 20
1120.5958000000001
 11
1689.0725000000002
 21
1112.0126
  0
LINE
  8
_0-1_LAYER004
  6
CONTINUOUS
 62
    7
 10
1689.0725000000002
 20
1112.0126
 11
1694.9850999999999
 21
1113.0328999999999
  0
LINE
  8
_0-1_LAYER004
  6
CONTINUOUS
 62
    7
 10
1712.3667999999998
 20
1133.7456999999999
 11
1714.9713999999999
 21
1118.9736
  0
LINE
  8
_0-1_LAYER004
  6
CONTINUOUS
 62
    7
 10
1714.9713999999999
 20
1118.9736
 11
1803.6041
 21
1134.6018999999999
  0
LINE
  8
_0-1_LAYER004
  6
CONTINUOUS
 62
    7
 10
1800.9994000000002
 20
1149.374
 11
1712.3667999999998
 21
1133.7456999999999
  0
LINE
  8
_0-1_LAYER004
  6
CONTINUOUS
 62
    7
 10
1712.3667999999998
 20
1133.7456999999999
 11
1803.6041
 21
1134.6018999999999
  0
LINE
  8
_0-1_LAYER004
  6
CONTINUOUS
 62
    7
 10
1777.1080999999999
 20
1129.9300000000001
 11
1803.6041
 21
1094.6018999999999
  0
LINE
  8
_0-1_LAYER004
  6
CONTINUOUS
 62
    7
 10
1775.7150000000001
 20
1098.6269
 11
1779.1999999999998
 21
1096.3035
  0
LINE
  8
_0-1_LAYER004
  6
CONTINUOUS
 62
    7
 10
1758.5481
 20
1089.7208000000001
 11
1775.7150000000001
 21
1098.6269
  0
LINE
  8
_0-1_LAYER004
  6
CONTINUOUS
 62
    7
 10
1775.7150000000001
 20
1098.6269
 11
1779.1999999999998
 21
1096.3035
  0
LINE
  8
_0-1_LAYER004
  6
CONTINUOUS
 62
    7
 10
1779.6039999999998
 20
1111.6020000000001
 11
1773.6041
 21
1106.7584999999999
  0
LINE
  8
_0-1_LAYER004
  6
CONTINUOUS
 62
    7
 10
1779.6039999999998
 20
1117.6018999999999
 11
1773.6041
 21
1120.6020000000001
  0
LINE
  8
_0-1_LAYER004
  6
CONTINUOUS
 62
    7
 10
1782.7822999999999
 20
1146.1618000000001
 11
1785.6181999999999
 21
1145.0432000000001
  0
LINE
  8
_0-1_LAYER004
  6
CONTINUOUS
 62
    7
 10
1785.6181999999999
 20
1145.0432000000001
 11
1790.3078999999998
 21
1118.4499000000001
  0
LINE
  8
_0-1_LAYER004
  6
CONTINUOUS
 62
    7
 10
1790.3078999999998
 20
1118.4499000000001
 11
1793.7496999999998
 21
1110.2109
  0
LINE
  8
_0-1_LAYER004
  6
CONTINUOUS
 62
    7
 10
1793.7496999999998
 20
1110.2109
 11
1793.9580000000001
 21
1119.0936999999999
  0
LINE
  8
_0-1_LAYER004
  6
CONTINUOUS
 62
    7
 10
1793.9580000000001
 20
1119.0936999999999
 11
1789.2682
 21
1145.6855
  0
LINE
  8
_0-1_LAYER004
  6
CONTINUOUS
 62
    7
 10
1789.2682
 20
1145.6855
 11
1791.5517
 21
1147.7081000000001
  0
LINE
  8
_0-1_LAYER004
  6
CONTINUOUS
 62
    7
 10
1792.1473000000001
 20
1140.2227
 11
1795.8973000000001
 21
1146.7179000000001
  0
LINE
  8
_0-1_LAYER004
  6
CONTINUOUS
 62
    7
 10
1740.4063999999998
 20
1138.6898320764594
 11
1740.4063999999998
 21
1132.2835
  0
LINE
  8
_0-1_LAYER004
  6
CONTINUOUS
 62
    7
 10
1740.4063999999998
 20
1132.2835
 11
1736.6563999999998
 21
1138.7787000000001
  0
LINE
  8
_0-1_LAYER004
  6
CONTINUOUS
 62
    7
 10
1720.2049999999999
 20
1144.8832
 11
1720.2049999999999
 21
1137.3832
  0
LINE
  8
_0-1_LAYER004
  6
CONTINUOUS
 62
    7
 10
1720.2049999999999
 20
1137.3832
 11
1716.4549999999999
 21
1143.8784000000001
  0
LINE
  8
_0-1_LAYER004
  6
CONTINUOUS
 62
    7
 10
1682.9034999999999
 20
1088.9685999999999
 11
1682.9034999999999
 21
1081.4685999999999
  0
LINE
  8
_0-1_LAYER004
  6
CONTINUOUS
 62
    7
 10
1682.9034999999999
 20
1081.4685999999999
 11
1679.1534999999999
 21
1087.9638
  0
LINE
  8
_0-1_LAYER004
  6
CONTINUOUS
 62
    7
 10
1682.9034999999999
 20
1081.4685999999999
 11
1653.0961000000002
 21
1192.7112
  0
LINE
  8
_0-1_LAYER004
  6
CONTINUOUS
 62
    7
 10
1720.2049999999999
 20
1137.3832
 11
1673.1246000000001
 21
1313.0898
  0
LINE
  8
_0-1_LAYER004
  6
CONTINUOUS
 62
    7
 10
1836.1304
 20
1371.6496000000002
 11
1809.5414999999998
 21
1272.4182000000001
  0
LINE
  8
_0-1_LAYER004
  6
CONTINUOUS
 62
    7
 10
1809.5414999999998
 20
1272.4182000000001
 11
1813.2914999999998
 21
1278.9133999999999
  0
LINE
  8
_0-1_LAYER004
  6
CONTINUOUS
 62
    7
 10
1809.5414999999998
 20
1272.4182000000001
 11
1809.5414999999998
 21
1279.9182000000001
  0
LINE
  8
_0-1_LAYER004
  6
CONTINUOUS
 62
    7
 10
1801.6041
 20
1250.0534
 11
1799.2040999999999
 21
1240.1122112542262
  0
LINE
  8
_0-1_LAYER004
  6
CONTINUOUS
 62
    7
 10
1844.0859999999998
 20
1334.0606
 11
1792.1473000000001
 21
1140.2227
  0
LINE
  8
_0-1_LAYER004
  6
CONTINUOUS
 62
    7
 10
1803.6041
 20
1134.6018999999999
 11
1800.9994000000002
 21
1149.374
  0
LINE
  8
_0-1_LAYER004
  6
CONTINUOUS
 62
    7
 10
1792.1473000000001
 20
1147.7227
 11
1792.1473000000001
 21
1140.2227
  0
LINE
  8
_0-1_LAYER004
  6
CONTINUOUS
 62
    7
 10
1821.8040000000001
 20
1118.8531
 11
1830.8980000000001
 21
1120.4570000000001
  0
LINE
  8
_0-1_LAYER004
  6
CONTINUOUS
 62
    7
 10
1830.8980000000001
 20
1120.4570000000001
 11
1831.194
 21
1118.7828999999999
  0
LINE
  8
_0-1_LAYER004
  6
CONTINUOUS
 62
    7
 10
1831.194
 20
1118.7828999999999
 11
1832.8670000000002
 21
1119.078
  0
LINE
  8
_0-1_LAYER004
  6
CONTINUOUS
 62
    7
 10
1832.8670000000002
 20
1119.078
 11
1832.5720000000001
 21
1120.7519
  0
LINE
  8
_0-1_LAYER004
  6
CONTINUOUS
 62
    7
 10
1832.5720000000001
 20
1120.7519
 11
1835.2310000000002
 21
1121.2199000000001
  0
LINE
  8
_0-1_LAYER004
  6
CONTINUOUS
 62
    7
 10
1835.2310000000002
 20
1121.2199000000001
 11
1835.5270999999998
 21
1119.547
  0
LINE
  8
_0-1_LAYER004
  6
CONTINUOUS
 62
    7
 10
1835.5270999999998
 20
1119.547
 11
1837.2011000000002
 21
1119.8420000000001
  0
LINE
  8
_0-1_LAYER004
  6
CONTINUOUS
 62
    7
 10
1837.2011000000002
 20
1119.8420000000001
 11
1836.9050999999999
 21
1121.5160000000001
  0
LINE
  8
_0-1_LAYER004
  6
CONTINUOUS
 62
    7
 10
1836.9050999999999
 20
1121.5160000000001
 11
1839.5639999999999
 21
1121.9849999999999
  0
LINE
  8
_0-1_LAYER004
  6
CONTINUOUS
 62
    7
 10
1839.5639999999999
 20
1121.9849999999999
 11
1839.8600000000001
 21
1120.3109999999999
  0
LINE
  8
_0-1_LAYER004
  6
CONTINUOUS
 62
    7
 10
1839.8600000000001
 20
1120.3109999999999
 11
1841.5340999999999
 21
1120.6059
  0
LINE
  8
_0-1_LAYER004
  6
CONTINUOUS
 62
    7
 10
1841.5340999999999
 20
1120.6059
 11
1841.2382886033777
 21
1122.2789333077214
  0
LINE
  8
_0-1_LAYER004
  6
CONTINUOUS
 62
    7
 10
1841.2382886033777
 20
1122.2789333077214
 11
1842.7161411389075
 21
1122.5417593242562
  0
LINE
  8
_0-1_LAYER004
  6
CONTINUOUS
 62
    7
 10
1842.7161411389075
 20
1122.5417593242562
 11
1844.4481313622896
 21
1121.3310057996453
  0
LINE
  8
_0-1_LAYER004
  6
CONTINUOUS
 62
    7
 10
1844.4531000000002
 20
1121.325
 11
1844.8530999999998
 21
1119.0589
  0
LINE
  8
_0-1_LAYER004
  6
CONTINUOUS
 62
    7
 10
1844.8530999999998
 20
1119.0589
 11
1819.5801000000001
 21
1114.6030000000001
  0
LINE
  8
_0-1_LAYER004
  6
CONTINUOUS
 62
    7
 10
1819.5801000000001
 20
1114.6030000000001
 11
1844.6779999999999
 21
1110.1769999999999
  0
LINE
  8
_0-1_LAYER004
  6
CONTINUOUS
 62
    7
 10
1844.6779999999999
 20
1110.1769999999999
 11
1844.2800999999999
 21
1107.9121
  0
LINE
  8
_0-1_LAYER004
  6
CONTINUOUS
 62
    7
 10
1844.2800999999999
 20
1107.9121
 11
1842.5412000000001
 21
1106.6959999999999
  0
LINE
  8
_0-1_LAYER004
  6
CONTINUOUS
 62
    7
 10
1842.5412000000001
 20
1106.6959999999999
 11
1841.0639999999999
 21
1106.9570000000001
  0
LINE
  8
_0-1_LAYER004
  6
CONTINUOUS
 62
    7
 10
1841.0639999999999
 20
1106.9570000000001
 11
1841.3591000000001
 21
1108.6300000000001
  0
LINE
  8
_0-1_LAYER004
  6
CONTINUOUS
 62
    7
 10
1841.3591000000001
 20
1108.6300000000001
 11
1839.6851000000001
 21
1108.9249
  0
LINE
  8
_0-1_LAYER004
  6
CONTINUOUS
 62
    7
 10
1839.6851000000001
 20
1108.9249
 11
1839.3901000000001
 21
1107.252
  0
LINE
  8
_0-1_LAYER004
  6
CONTINUOUS
 62
    7
 10
1839.3901000000001
 20
1107.252
 11
1836.7310000000002
 21
1107.721
  0
LINE
  8
_0-1_LAYER004
  6
CONTINUOUS
 62
    7
 10
1836.7310000000002
 20
1107.721
 11
1837.0261
 21
1109.394
  0
LINE
  8
_0-1_LAYER004
  6
CONTINUOUS
 62
    7
 10
1837.0261
 20
1109.394
 11
1835.3530999999998
 21
1109.6890000000001
  0
LINE
  8
_0-1_LAYER004
  6
CONTINUOUS
 62
    7
 10
1835.3530999999998
 20
1109.6890000000001
 11
1835.0571
 21
1108.0159000000001
  0
LINE
  8
_0-1_LAYER004
  6
CONTINUOUS
 62
    7
 10
1835.0571
 20
1108.0159000000001
 11
1832.3980000000001
 21
1108.4849999999999
  0
LINE
  8
_0-1_LAYER004
  6
CONTINUOUS
 62
    7
 10
1832.3980000000001
 20
1108.4849999999999
 11
1832.6930000000002
 21
1110.1578999999999
  0
LINE
  8
_0-1_LAYER004
  6
CONTINUOUS
 62
    7
 10
1832.6930000000002
 20
1110.1578999999999
 11
1831.0201000000002
 21
1110.453
  0
LINE
  8
_0-1_LAYER004
  6
CONTINUOUS
 62
    7
 10
1831.0201000000002
 20
1110.453
 11
1830.7240000000002
 21
1108.78
  0
LINE
  8
_0-1_LAYER004
  6
CONTINUOUS
 62
    7
 10
1830.7240000000002
 20
1108.78
 11
1821.8040000000001
 21
1110.3518999999999
  0
LINE
  8
_0-1_LAYER004
  6
CONTINUOUS
 62
    7
 10
1779.1999999999998
 20
1096.3035
 11
1763.1849000000002
 21
1072.4682
  0
LINE
  8
_0-1_LAYER004
  6
CONTINUOUS
 62
    7
 10
1763.1849000000002
 20
1072.4682
 11
1758.6658000000002
 21
1072.2860000000001
  0
LINE
  8
_0-1_LAYER004
  6
CONTINUOUS
 62
    7
 10
1758.5481
 20
1072.2860000000001
 11
1758.6658000000002
 21
1072.2860000000001
  0
LINE
  8
_0-1_LAYER004
  6
CONTINUOUS
 62
    7
 10
1758.5481
 20
1072.2860000000001
 11
1758.5481
 21
1089.7208000000001
  0
LINE
  8
_0-1_LAYER004
  6
CONTINUOUS
 62
    7
 10
1998.1529
 20
804.71090000000004
 11
1915.4971999999998
 21
804.71090000000004
  0
LINE
  8
_0-1_LAYER004
  6
CONTINUOUS
 62
    7
 10
1915.4971999999998
 20
804.71090000000004
 11
1768.5331000000001
 21
1059.2602999999999
  0
LINE
  8
_0-1_LAYER004
  6
CONTINUOUS
 62
    7
 10
1768.5331000000001
 20
1059.2602999999999
 11
1770.4742000000001
 21
1052.0157999999999
  0
LINE
  8
_0-1_LAYER004
  6
CONTINUOUS
 62
    7
 10
1768.5331000000001
 20
1059.2602999999999
 11
1773.8364000000001
 21
1053.9570000000001
  0
LINE
  8
_0-1_LAYER004
  6
CONTINUOUS
 62
    7
 10
1799.6041
 20
1094.6018999999999
 11
1792.1041
 21
1081.6116
  0
LINE
  8
_0-1_LAYER004
  6
CONTINUOUS
 62
    7
 10
1803.6041
 20
1089.5942
 11
1903.6041
 21
989.59410000000003
  0
LINE
  8
_0-1_LAYER004
  6
CONTINUOUS
 62
    7
 10
1903.6041
 20
993.83680000000004
 11
1803.6041
 21
1093.8367000000001
  0
LINE
  8
_0-1_LAYER004
  6
CONTINUOUS
 62
    7
 10
1871.3108000000002
 20
984.38380000000006
 11
1873.252
 21
977.13930000000005
  0
LINE
  8
_0-1_LAYER004
  6
CONTINUOUS
 62
    7
 10
1871.3108000000002
 20
984.38380000000006
 11
1876.6140999999998
 21
979.08050000000003
  0
LINE
  8
_0-1_LAYER004
  6
CONTINUOUS
 62
    7
 10
1871.3108000000002
 20
984.38380000000006
 11
1935.3566000000001
 21
873.4532999999999
  0
LINE
  8
_0-1_LAYER004
  6
CONTINUOUS
 62
    7
 10
1940.6232
 20
964.47340000000008
 11
1993.1232
 21
964.47340000000008
  0
LINE
  8
_0-1_LAYER004
  6
CONTINUOUS
 62
    7
 10
1990.6232
 20
964.47340000000008
 11
1990.6232
 21
1266.0534
  0
LINE
  8
_0-1_LAYER004
  6
CONTINUOUS
 62
    7
 10
1992.3232000000003
 20
1266.0534
 11
1940.6232
 21
1266.0534
  0
LINE
  8
_0-1_LAYER004
  6
CONTINUOUS
 62
    7
 10
1992.3232000000003
 20
1251.4734000000001
 11
1940.6232
 21
1251.4734000000001
  0
LINE
  8
_0-1_LAYER004
  6
CONTINUOUS
 62
    7
 10
1993.1232
 20
1151.4734000000001
 11
1940.6232
 21
1151.4734000000001
  0
LINE
  8
_0-1_LAYER004
  6
CONTINUOUS
 62
    7
 10
1940.6232
 20
1094.4734000000001
 11
1992.3232000000003
 21
1094.4734000000001
  0
LINE
  8
_0-1_LAYER004
  6
CONTINUOUS
 62
    7
 10
2029.8649999999998
 20
1164.4734000000001
 11
2082.3649999999998
 21
1164.4734000000001
  0
LINE
  8
_0-1_LAYER004
  6
CONTINUOUS
 62
    7
 10
2082.3649999999998
 20
1164.4734000000001
 11
2079.8649999999998
 21
1164.4734000000001
  0
LINE
  8
_0-1_LAYER004
  6
CONTINUOUS
 62
    7
 10
2079.8649999999998
 20
1164.4734000000001
 11
2079.8649999999998
 21
964.47340000000008
  0
LINE
  8
_0-1_LAYER004
  6
CONTINUOUS
 62
    7
 10
2082.3649999999998
 20
964.47340000000008
 11
2029.8649999999998
 21
964.47340000000008
  0
LINE
  8
_0-1_LAYER004
  6
CONTINUOUS
 62
    7
 10
1903.6041
 20
1205.8368
 11
1803.6041
 21
1305.8366000000001
  0
LINE
  8
_0-1_LAYER004
  6
CONTINUOUS
 62
    7
 10
1803.6041
 20
1301.5941
 11
1903.6041
 21
1201.5942
  0
ARC
  8
_0-1_LAYER004
  6
CONTINUOUS
 62
    7
 10
1784.1040266715709
 20
1260.4533711249551
 40
22.100125348777034
 50
337.88498612799583
 51
28.072692281151685
  0
LINE
  8
_0-1_LAYER004
  6
CONTINUOUS
 62
    7
 10
1740.4063999999998
 20
1132.2835
 11
1679.5432000000001
 21
1359.4281000000001
  0
ARC
  8
_0-1_LAYER004
  6
CONTINUOUS
 62
    7
 10
1704.465619685594
 20
1088.7697338060111
 40
15.518927255734393
 50
333.41250629390436
 51
20.561918697729084
  0
ARC
  8
_0-1_LAYER004
  6
CONTINUOUS
 62
    7
 10
1625.4567591920352
 20
1049.7027314074442
 40
95.301947547793716
 50
334.9849914640759
 51
8.7548038276121467
  0
LINE
  8
_0-1_LAYER004
  6
CONTINUOUS
 62
    7
 10
1449.0140000000001
 20
1100.3478
 11
1476.1104999999998
 21
999.2222999999999
  0
LINE
  8
_0-1_LAYER004
  6
CONTINUOUS
 62
    7
 10
1476.1104999999998
 20
999.2222999999999
 11
1476.1104999999998
 21
1006.7222999999999
  0
LINE
  8
_0-1_LAYER004
  6
CONTINUOUS
 62
    7
 10
1476.1104999999998
 20
999.2222999999999
 11
1472.3604999999998
 21
1005.7175
  0
LINE
  8
_0-1_LAYER004
  6
CONTINUOUS
 62
    7
 10
1727.7446209077473
 20
968.47340000000008
 11
1724.1486
 21
962.24489999999992
  0
LINE
  8
_0-1_LAYER004
  6
CONTINUOUS
 62
    7
 10
1727.8271379264945
 20
968.47340000000008
 11
1727.8986
 21
961.24009999999998
  0
LINE
  8
_0-1_LAYER004
  6
CONTINUOUS
 62
    7
 10
1727.7446209077473
 20
968.47340000000008
 11
1678.3831
 21
783.94579999999996
  0
LINE
  8
_0-1_LAYER004
  6
CONTINUOUS
 62
    7
 10
1253.9172000000001
 20
1309.9717000000001
 11
1343.7907999999998
 21
974.55860000000007
  0
LINE
  8
_0-1_LAYER004
  6
CONTINUOUS
 62
    7
 10
1343.7907999999998
 20
974.55860000000007
 11
1343.7907999999998
 21
982.05860000000007
  0
LINE
  8
_0-1_LAYER004
  6
CONTINUOUS
 62
    7
 10
1343.7907999999998
 20
974.55860000000007
 11
1340.0407999999998
 21
981.05379999999991
  0
TEXT
  8
_0-0_LAYER001
 62
    7
 10
1539.0961000000002
 20
1195.2112
 40
20
 41
1
 50
0
  1
熨斗瓦２段積み
  0
TEXT
  8
_0-0_LAYER001
 62
    7
 10
1915.4972000000002
 20
807.21090000000004
 40
20
 41
1
 50
0
  1
　葺　土
  0
TEXT
  8
_0-0_LAYER001
 62
    7
 10
1404.1893796176012
 20
1109.4167321593206
 40
20
 41
1
 50
0
  1
桟　瓦
  0
TEXT
  8
_0-0_LAYER001
 62
    7
 10
1011.1549096571043
 20
1315.6307145883129
 40
20
 41
1
 50
0
  1
　瓦桟：１５ｘ３０以上　
  0
TEXT
  8
_0-0_LAYER001
 62
    7
 10
1036.406856138208
 20
1284.0657814869335
 40
20
 41
1
 50
0
  1
下葺材：ルーフィング
  0
TEXT
  8
_0-0_LAYER001
 62
    7
 10
858.38063344642683
 20
1253.763445709609
 40
20
 41
1
 50
0
  1
　野地板：硬質木片セメントパネルt＝25　
  0
TEXT
  8
_0-0_LAYER001
 62
    7
 10
935.39907021379327
 20
1224.7237072563396
 40
20
 41
1
 50
0
  1
　鋼製：C－100x50x20x2.3　@606　
  0
TEXT
  8
_0-0_LAYER001
 62
    7
 10
1547.7587723805586
 20
1367.3972048745759
 40
20
 41
1
 50
0
  1
笠木：15x90
  0
TEXT
  8
_0-0_LAYER001
 62
    7
 10
1349.5309925038944
 20
1319.4185065604784
 40
20
 41
1
 50
0
  1
雨押水切カラー鋼板0.35ｍｍ以上
  0
TEXT
  8
_0-0_LAYER001
 62
    7
 10
1738.410968312892
 20
1344.6704530415823
 40
20
 41
1
 50
0
  1
100
  0
TEXT
  8
_0-0_LAYER001
 62
    7
 10
1835.6309622651411
 20
1377.4979834670171
 40
20
 41
1
 50
0
  1
シーリング
  0
TEXT
  8
_0-0_LAYER001
 62
    7
 10
1850.7821301538036
 20
1340.8826610694168
 40
20
 41
1
 50
0
  1
下地材：40x30
  0
TEXT
  8
_0-0_LAYER001
 62
    7
 10
2025.0205608734195
 20
1111.0899480913727
 40
20
 41
1
 50
90
  1
水切り立上がり寸法
  0
TEXT
  8
_0-0_LAYER001
 62
    7
 10
2115.9275682053926
 20
973.46683976935742
 40
20
 41
1
 50
90
  1
下葺き材立上がり寸法
  0
TEXT
  8
_0-0_LAYER001
 62
    7
 10
2064.9522325732414
 20
1052.0057807048797
 40
20
 41
1
 50
90
  1
200
  0
TEXT
  8
_0-0_LAYER001
 62
    7
 10
1982.0422157156474
 20
1190.5839517382858
 40
20
 41
1
 50
90
  1
90
  0
TEXT
  8
_0-0_LAYER001
 62
    7
 10
1979.6733580911452
 20
1275.8628262203822
 40
20
 41
1
 50
90
  1
20
  0
TEXT
  8
_0-0_LAYER001
 62
    7
 10
1977.3045004666424
 20
1113.5960789419491
 40
20
 41
1
 50
90
  1
57
  0
TEXT
  8
_0-0_LAYER001
 62
    7
 10
1977.3045004666424
 20
1016.4729163373402
 40
20
 41
1
 50
90
  1
130
  0
TEXT
  8
_0-0_LAYER001
 62
    7
 10
1732.1277363306162
 20
881.44803174068716
 40
20
 41
1
 50
0
  1
120
  0
TEXT
  8
_0-0_LAYER001
 62
    7
 10
1631.4512872892524
 20
736.94771664602513
 40
20
 41
1
 50
0
  1
295
  0
TEXT
  8
_0-0_LAYER001
 62
    7
 10
1357.8482316591942
 20
729.84114377251615
 40
20
 41
1
 50
0
  1
255
  0
TEXT
  8
_0-0_LAYER001
 62
    7
 10
1100.8271794006541
 20
727.47228614801418
 40
20
 41
1
 50
0
  1
255
  0
TEXT
  8
_0-0_LAYER001
 62
    7
 10
1400.034885466102
 20
787.86503313324488
 40
20
 41
1
 50
0
  1
捨谷カラー鋼板0.35ｍｍ以上
  0
LINE
  8
_0-0_LAYER001
  6
CONTINUOUS
 62
    2
 10
1935.3566000000001
 20
873.4532999999999
 11
2160.1184745473247
 21
873.4532999999999
  0
LINE
  8
_0-1_LAYER004
  6
CONTINUOUS
 62
    7
 10
2122.2405548256688
 20
873.4532999999999
 11
1935.3566000000001
 21
873.4532999999999
  0
TEXT
  8
_0-0_LAYER001
 62
    7
 10
1958.1029026984945
 20
880.03463778927357
 40
20
 41
1
 50
0
  1
外壁：ALCt＝100
  0
LINE
  8
_0-0_LAYER001
  6
CONTINUOUS
 62
    2
 10
1277.5425
 20
1220.1432
 11
950.55023810245541
 21
1220.1432
  0
LINE
  8
_0-1_LAYER004
  6
CONTINUOUS
 62
    7
 10
1277.5425
 20
1220.1432
 11
950.55023810245541
 21
1220.1432
  0
LINE
  8
_0-0_LAYER001
  6
CONTINUOUS
 62
    2
 10
1269.8039000000001
 20
1250.0098
 11
877.31959330725454
 21
1250.0098
  0
LINE
  8
_0-1_LAYER004
  6
CONTINUOUS
 62
    7
 10
1269.8039000000001
 20
1250.0098
 11
877.31959330725454
 21
1250.0098
  0
LINE
  8
_0-0_LAYER001
  6
CONTINUOUS
 62
    2
 10
1259.9727
 20
1280.1051000000002
 11
1026.3060775457668
 21
1280.1051000000002
  0
LINE
  8
_0-1_LAYER004
  6
CONTINUOUS
 62
    7
 10
1259.9727
 20
1280.1051000000002
 11
1031.3564668419874
 21
1280.1051000000002
  0
LINE
  8
_0-0_LAYER001
  6
CONTINUOUS
 62
    2
 10
1673.1246000000001
 20
1313.0898
 11
1341.9554085595632
 21
1313.0898
  0
LINE
  8
_0-1_LAYER004
  6
CONTINUOUS
 62
    7
 10
1673.1246000000001
 20
1313.0898
 11
1341.9554085595632
 21
1313.0898
  0
LINE
  8
_0-0_LAYER001
  6
CONTINUOUS
 62
    2
 10
1836.1304
 20
1371.6496000000002
 11
1922.7501776249494
 21
1371.6496000000002
  0
LINE
  8
_0-1_LAYER004
  6
CONTINUOUS
 62
    7
 10
1836.1304
 20
1371.6496000000002
 11
1932.8509562173906
 21
1371.6496000000002
  0
LINE
  8
_0-0_LAYER001
  6
CONTINUOUS
 62
    2
 10
1678.3831
 20
783.94579999999996
 11
1402.5600801142123
 21
783.94579999999996
  0
LINE
  8
_0-1_LAYER004
  6
CONTINUOUS
 62
    7
 10
1389.9341068736603
 20
783.94579999999996
 11
1678.3831
 21
783.94579999999996
  0
ENDSEC
  0
EOF
