  0
SECTION
  2
HEADER
  9
$ACADVER
  1
AC1009
  9
$INSBASE
 10
0
 20
0
 30
0
  9
$EXTMIN
 10
0
 20
0
  9
$EXTMAX
 10
2970
 20
2100
  9
$LIMMIN
 10
0
 20
0
  9
$LIMMAX
 10
2970
 20
2100
  9
$LTSCALE
 40
10
  0
ENDSEC
  0
SECTION
  2
TABLES
  0
TABLE
  2
LTYPE
 70
     9
  0
LTYPE
  2
CONTINUOUS
 70
    64
  3
実線
 72
    65
 73
     0
 40
0.0
  0
LTYPE
  2
DASHED1
 70
    64
  3
--  --  --  --  --  --  --  --  
 72
    65
 73
     2
 40
2.5
 49
1.25
 49
-1.25
  0
LTYPE
  2
DASHED2
 70
    64
  3
----    ----    ----    ----    
 72
    65
 73
     2
 40
5.0
 49
2.5
 49
-2.5
  0
LTYPE
  2
DASHED3
 70
    64
  3
------  ------  ------  ------  
 72
    65
 73
     2
 40
5.0
 49
3.75
 49
-1.25
  0
LTYPE
  2
CENTER1
 70
    64
  3
----- - ----- - ----- - ----- - 
 72
    65
 73
     4
 40
10.0
 49
6.25
 49
-1.25
 49
1.25
 49
-1.25
  0
LTYPE
  2
CENTER2
 70
    64
  3
----------  --  ----------  --  
 72
    65
 73
     4
 40
20.0
 49
12.5
 49
-2.5
 49
2.5
 49
-2.5
  0
LTYPE
  2
PHANTOM1
 70
    64
  3
--- - - --- - - --- - - --- - - 
 72
    65
 73
     6
 40
10.0
 49
3.25
 49
-1.25
 49
1.25
 49
-1.25
 49
1.25
 49
-1.25
  0
LTYPE
  2
PHANTOM2
 70
    64
  3
--------  -  -  --------  -  -  
 72
    65
 73
     6
 40
20.0
 49
10.0
 49
-2.5
 49
1.25
 49
-2.5
 49
1.25
 49
-2.5
  0
LTYPE
  2
DOT
 70
    64
  3
-   -   -   -   -   -   -   -   
 72
    65
 73
     2
 40
2.5
 49
0.625
 49
-1.875
  0
LTYPE
  2
DUMMY
 70
    64
  3
ダミー
 72
    65
 73
     0
 40
0.0
  0
LTYPE
  2
RAND1
 70
    64
  3
ランダム線1
 72
    65
 73
     4
 40
10.0
 49
1.0
 49
-2.0
 49
3.0
 49
-4.0
  0
LTYPE
  2
RAND2
 70
    64
  3
ランダム線2
 72
    65
 73
     4
 40
14.0
 49
2.0
 49
-3.0
 49
4.0
 49
-5.0
  0
LTYPE
  2
RAND3
 70
    64
  3
ランダム線3
 72
    65
 73
     4
 40
18.0
 49
3.0
 49
-4.0
 49
5.0
 49
-6.0
  0
LTYPE
  2
RAND4
 70
    64
  3
ランダム線4
 72
    65
 73
     4
 40
22.0
 49
4.0
 49
-5.0
 49
6.0
 49
-7.0
  0
LTYPE
  2
RAND5
 70
    64
  3
ランダム線5
 72
    65
 73
     4
 40
26.0
 49
5.0
 49
-6.0
 49
7.0
 49
-8.0
  0
LTYPE
  2
LONG1
 70
    64
  3
----------  --  ----------  --  
 72
    65
 73
     4
 40
40.0
 49
32.5
 49
-2.5
 49
2.5
 49
-2.5
  0
LTYPE
  2
LONG2
 70
    64
  3
--------  -  -  --------  -  -  
 72
    65
 73
     6
 40
40.0
 49
30.0
 49
-2.5
 49
1.25
 49
-2.5
 49
1.25
 49
-2.5
  0
LTYPE
  2
LONG3
 70
    64
  3
+++++++++++++++..+++++++++++++++
 72
    65
 73
     2
 40
40.0
 49
37.5
 49
-2.5
  0
LTYPE
  2
LONG4
 70
    64
  3
+++++++++++++++..+++++++++++++++
 72
    65
 73
     2
 40
80.0
 49
75.0
 49
-5.0
  0
LTYPE
  2
LONG5
 70
    64
  3
----------  --  ----------  --  
 72
    65
 73
     4
 40
60.0
 49
37.5
 49
-7.5
 49
7.5
 49
-7.5
  0
LTYPE
  2
dashed
 70
   64
  3
-------   -------------   ------
 72
   65
 73
    2
 40
7.5
 49
6
 49
-1.5
  0
LTYPE
  2
dashed_spaced
 70
   64
  3
----        --------        ----
 72
   65
 73
    2
 40
12
 49
6
 49
-6
  0
LTYPE
  2
long_dashed_dotted
 70
   64
  3
------------- --- --------------
 72
   65
 73
    4
 40
15.25
 49
12
 49
-1.5
 49
0.25
 49
-1.5
  0
LTYPE
  2
long_dashed_double-dotted
 70
   64
  3
----------- --- --- ------------
 72
   65
 73
    6
 40
17
 49
12
 49
-1.5
 49
0.25
 49
-1.5
 49
0.25
 49
-1.5
  0
LTYPE
  2
long_dashed_triplicate-dotted
 70
   64
  3
--------- --- --- --- ----------
 72
   65
 73
    8
 40
18.75
 49
12
 49
-1.5
 49
0.25
 49
-1.5
 49
0.25
 49
-1.5
 49
0.25
 49
-1.5
  0
LTYPE
  2
dotted
 70
   64
  3
   -       -       -       -    
 72
   65
 73
    2
 40
1.75
 49
0.25
 49
-1.5
  0
LTYPE
  2
chain
 70
   64
  3
-------------- -- --------------
 72
   65
 73
    4
 40
18.5
 49
12
 49
-1.5
 49
3.5
 49
-1.5
  0
LTYPE
  2
chain_double_dash
 70
   64
  3
------------ -- -- -------------
 72
   65
 73
    6
 40
23.5
 49
12
 49
-1.5
 49
3.5
 49
-1.5
 49
3.5
 49
-1.5
  0
LTYPE
  2
dashed_dotted
 70
   64
  3
-----------     -     ----------
 72
   65
 73
    4
 40
9.25
 49
6
 49
-1.5
 49
0.25
 49
-1.5
  0
LTYPE
  2
double-dashed_dotted
 70
   64
  3
------   -----------   -   -----
 72
   65
 73
    6
 40
16.75
 49
6
 49
-1.5
 49
6
 49
-1.5
 49
0.25
 49
-1.5
  0
LTYPE
  2
dashed_double-dotted
 70
   64
  3
---------    -    -    ---------
 72
   65
 73
    6
 40
11
 49
6
 49
-1.5
 49
0.25
 49
-1.5
 49
0.25
 49
-1.5
  0
LTYPE
  2
double-dashed_double-dotted
 70
   64
  3
-----   ---------   -   -   ----
 72
   65
 73
    8
 40
18.5
 49
6
 49
-1.5
 49
6
 49
-1.5
 49
0.25
 49
-1.5
 49
0.25
 49
-1.5
  0
LTYPE
  2
dashed_triplicate-dotted
 70
   64
  3
-------    -    -    -    ------
 72
   65
 73
    8
 40
12.75
 49
6
 49
-1.5
 49
0.25
 49
-1.5
 49
0.25
 49
-1.5
 49
0.25
 49
-1.5
  0
LTYPE
  2
double-dashed_triplicate-dotted
 70
   64
  3
-----  ---------  -  -  -  -----
 72
   65
 73
   10
 40
20.25
 49
6
 49
-1.5
 49
6
 49
-1.5
 49
0.25
 49
-1.5
 49
0.25
 49
-1.5
 49
0.25
 49
-1.5
  0
LTYPE
  2
undefined
 70
   64
  3
--------------------------------
 72
   65
 73
    0
 40
0
  0
ENDTAB
  0
TABLE
  2
STYLE
  5
3
100
AcDbSymbolTable
 70
     1
  0
STYLE
  5
10
100
AcDbSymbolTableRecord
100
AcDbTextStyleTableRecord
  2
STANDARD
 70
     0
 40
0.0
 41
1.0
 50
0.0
 71
     0
 42
0.2
  3
txt
  4
bigfont.shx
  0
STYLE
  5
26
100
AcDbSymbolTableRecord
100
AcDbTextStyleTableRecord
  2
TATEGAKI
 70
    68
 40
0.0
 41
1.0
 50
0.0
 71
     0
 42
1.0
  3
txt
  4
bigfont.shx
  0
ENDTAB
  0
TABLE
  2
LAYER
 70
    4
  0
LAYER
  2
_0-0_LAYER000
 70
   64
 62
    7
  6
CONTINUOUS
  0
LAYER
  2
_0-1_LAYER001
 70
   64
 62
    7
  6
CONTINUOUS
  0
LAYER
  2
_0-2_ADD_LINE
 70
   64
 62
    7
  6
CONTINUOUS
  0
LAYER
  2
ADD_LINE
 70
   64
 62
    7
  6
CONTINUOUS
  0
ENDTAB
  0
ENDSEC
  0
SECTION
  2
BLOCKS
  0
ENDSEC
  0
SECTION
  2
ENTITIES
  0
LINE
  8
_0-1_LAYER001
  6
DASHED1
 62
    2
 10
1410.268
 20
939.77220000000011
 11
1148.5920000000001
 21
1057.5262
  0
LINE
  8
_0-1_LAYER001
  6
CONTINUOUS
 62
    2
 10
1410.268
 20
938.1273000000001
 11
1400.0089
 21
915.3293000000001
  0
LINE
  8
_0-1_LAYER001
  6
CONTINUOUS
 62
    2
 10
1410.268
 20
938.1273000000001
 11
1420.5270999999998
 21
915.3293000000001
  0
LINE
  8
_0-1_LAYER001
  6
CONTINUOUS
 62
    2
 10
1515.7338
 20
985.80799999999999
 11
1506.6134000000002
 21
981.70399999999995
  0
LINE
  8
_0-1_LAYER001
  6
CONTINUOUS
 62
    2
 10
1516.9636999999998
 20
983.07150000000001
 11
1507.8452000000002
 21
978.9688000000001
  0
LINE
  8
_0-1_LAYER001
  6
CONTINUOUS
 62
    2
 10
1506.6134000000002
 20
981.70399999999995
 11
1507.8452000000002
 21
978.9688000000001
  0
LINE
  8
_0-1_LAYER001
  6
CONTINUOUS
 62
    2
 10
1515.7338
 20
985.80799999999999
 11
1516.9636999999998
 21
983.07150000000001
  0
LINE
  8
_0-1_LAYER001
  6
CONTINUOUS
 62
    2
 10
1511.1736999999998
 20
983.75600000000009
 11
1512.4045000000001
 21
981.01950000000011
  0
LINE
  8
_0-1_LAYER001
  6
CONTINUOUS
 62
    2
 10
1531.692
 20
938.16039999999998
 11
1527.5697
 21
942.44659999999999
  0
LINE
  8
_0-1_LAYER001
  6
CONTINUOUS
 62
    2
 10
1531.692
 20
938.16039999999998
 11
1531.2175000000002
 21
944.08739999999989
  0
LINE
  8
_0-1_LAYER001
  6
CONTINUOUS
 62
    2
 10
1516.0596999999998
 20
965.00810000000001
 11
1521.6875
 21
968.69959999999992
  0
LINE
  8
_0-1_LAYER001
  6
CONTINUOUS
 62
    2
 10
1518.1116999999999
 20
960.44890000000009
 11
1523.7406000000001
 21
964.13940000000002
  0
LINE
  8
_0-1_LAYER001
  6
CONTINUOUS
 62
    2
 10
1520.1646000000001
 20
955.8886
 11
1525.7921999999999
 21
959.5802000000001
  0
LINE
  8
_0-1_LAYER001
  6
CONTINUOUS
 62
    2
 10
1516.0601999999999
 20
965.00749999999994
 11
1521.6878999999999
 21
968.70010000000002
  0
LINE
  8
_0-1_LAYER001
  6
CONTINUOUS
 62
    2
 10
1518.1120999999998
 20
960.44929999999999
 11
1523.7397999999998
 21
964.1407999999999
  0
LINE
  8
_0-1_LAYER001
  6
CONTINUOUS
 62
    2
 10
1520.1639
 20
955.8889999999999
 11
1525.7928000000002
 21
959.58079999999995
  0
LINE
  8
_0-1_LAYER001
  6
CONTINUOUS
 62
    2
 10
1522.2168000000001
 20
951.32989999999995
 11
1527.8436999999999
 21
955.02050000000008
  0
LINE
  8
_0-1_LAYER001
  6
CONTINUOUS
 62
    2
 10
1524.2678000000001
 20
946.76960000000008
 11
1529.8955999999998
 21
950.46139999999991
  0
LINE
  8
_0-1_LAYER001
  6
CONTINUOUS
 62
    2
 10
1525.8038000000001
 20
943.35760000000005
 11
1531.4312
 21
947.0492999999999
  0
LINE
  8
_0-1_LAYER001
  6
CONTINUOUS
 62
    2
 10
1515.4594000000002
 20
979.10719999999992
 11
1531.2175000000002
 21
944.08739999999989
  0
LINE
  8
_0-1_LAYER001
  6
CONTINUOUS
 62
    2
 10
1516.9636999999998
 20
983.07150000000001
 11
1515.4594000000002
 21
979.10719999999992
  0
LINE
  8
_0-1_LAYER001
  6
CONTINUOUS
 62
    2
 10
1511.8128000000002
 20
977.46340000000009
 11
1527.5697
 21
942.44659999999999
  0
LINE
  8
_0-1_LAYER001
  6
CONTINUOUS
 62
    2
 10
1507.8452000000002
 20
978.9688000000001
 11
1511.8126999999999
 21
977.46329999999989
  0
LINE
  8
_0-1_LAYER001
  6
CONTINUOUS
 62
    2
 10
1429.3357000000001
 20
919.29320000000007
 11
2031.7505999999998
 21
1190.3794
  0
LINE
  8
_0-1_LAYER001
  6
CONTINUOUS
 62
    2
 10
1410.268
 20
787.34690000000001
 11
2077.9166
 21
1087.7881
  0
LINE
  8
_0-1_LAYER001
  6
CONTINUOUS
 62
    2
 10
1575.0837999999999
 20
894.41159999999991
 11
1577.1808999999998
 21
895.35529999999994
  0
LINE
  8
_0-1_LAYER001
  6
CONTINUOUS
 62
    2
 10
1550.46
 20
949.1262999999999
 11
1552.5578999999998
 21
950.06989999999996
  0
LINE
  8
_0-1_LAYER001
  6
CONTINUOUS
 62
    2
 10
1544.3045999999999
 20
962.80580000000009
 11
1550.46
 21
949.1262999999999
  0
LINE
  8
_0-1_LAYER001
  6
CONTINUOUS
 62
    2
 10
1504.2581
 20
947.74559999999997
 11
1540.7338
 21
964.15969999999993
  0
LINE
  8
_0-1_LAYER001
  6
CONTINUOUS
 62
    2
 10
1539.7912000000001
 20
966.25669999999991
 11
1503.3136
 21
949.84159999999997
  0
LINE
  8
_0-1_LAYER001
  6
CONTINUOUS
 62
    2
 10
1546.4023000000002
 20
963.74939999999992
 11
1552.5578999999998
 21
950.06989999999996
  0
LINE
  8
_0-1_LAYER001
  6
CONTINUOUS
 62
    2
 10
1537.7393999999999
 20
861.15660000000003
 11
1500.8062
 21
943.23039999999992
  0
LINE
  8
_0-1_LAYER001
  6
CONTINUOUS
 62
    2
 10
1580.8292000000001
 20
875.06459999999993
 11
1544.3505
 21
858.64920000000006
  0
LINE
  8
_0-1_LAYER001
  6
CONTINUOUS
 62
    2
 10
1583.3364999999999
 20
881.67560000000003
 11
1577.1808999999998
 21
895.35529999999994
  0
LINE
  8
_0-1_LAYER001
  6
CONTINUOUS
 62
    2
 10
1581.2397000000001
 20
880.73209999999995
 11
1575.0837999999999
 21
894.41159999999991
  0
LINE
  8
_0-1_LAYER001
  6
CONTINUOUS
 62
    2
 10
1543.4079999999999
 20
860.74630000000002
 11
1579.8856000000001
 21
877.16149999999993
  0
LINE
  8
_0-1_LAYER001
  6
CONTINUOUS
 62
    2
 10
1539.8373999999999
 20
862.10030000000006
 11
1502.9043000000001
 21
944.17509999999993
  0
LINE
  8
_0-1_LAYER001
  6
CONTINUOUS
 62
    2
 10
1543.8957
 20
847.47970000000009
 11
1506.9616999999998
 21
929.55240000000003
  0
LINE
  8
_0-1_LAYER001
  6
CONTINUOUS
 62
    2
 10
1502.6304
 20
922.12020000000007
 11
1530.5358999999999
 21
860.11020000000008
  0
LINE
  8
_0-1_LAYER001
  6
CONTINUOUS
 62
    2
 10
1505.1377000000002
 20
928.7324000000001
 11
1506.9616999999998
 21
929.55240000000003
  0
LINE
  8
_0-1_LAYER001
  6
CONTINUOUS
 62
    2
 10
1463.5092
 20
818.9815000000001
 11
1525.5203000000001
 21
846.88709999999992
  0
LINE
  8
_0-1_LAYER001
  6
CONTINUOUS
 62
    2
 10
1521.3699999999999
 20
903.13879999999995
 11
1524.1062999999999
 21
904.36969999999997
  0
LINE
  8
_0-1_LAYER001
  6
CONTINUOUS
 62
    2
 10
1514.8040999999998
 20
917.72890000000007
 11
1517.5403000000001
 21
918.95990000000006
  0
LINE
  8
_0-1_LAYER001
  6
CONTINUOUS
 62
    2
 10
1530.6718000000001
 20
889.78070000000002
 11
1517.5403000000001
 21
918.95990000000006
  0
LINE
  8
_0-1_LAYER001
  6
CONTINUOUS
 62
    2
 10
1527.9355
 20
888.54870000000005
 11
1530.6718000000001
 21
889.78070000000002
  0
LINE
  8
_0-1_LAYER001
  6
CONTINUOUS
 62
    2
 10
1529.9430000000002
 20
915.76819999999998
 11
1540.6120999999998
 21
920.57020000000011
  0
LINE
  8
_0-1_LAYER001
  6
CONTINUOUS
 62
    2
 10
1536.5084000000002
 20
901.17910000000006
 11
1547.1777000000002
 21
905.97990000000004
  0
LINE
  8
_0-1_LAYER001
  6
CONTINUOUS
 62
    2
 10
1535.0904
 20
901.71759999999995
 11
1526.9490000000001
 21
898.05439999999999
  0
LINE
  8
_0-1_LAYER001
  6
CONTINUOUS
 62
    2
 10
1529.4043999999999
 20
914.35210000000006
 11
1521.2640999999999
 21
910.68820000000005
  0
LINE
  8
_0-1_LAYER001
  6
CONTINUOUS
 62
    2
 10
1526.5623999999998
 20
920.67049999999995
 11
1518.4200000000001
 21
917.00630000000001
  0
LINE
  8
_0-1_LAYER001
  6
CONTINUOUS
 62
    2
 10
1528.2997
 20
919.41879999999992
 11
1526.5623999999998
 21
920.67049999999995
  0
LINE
  8
_0-1_LAYER001
  6
CONTINUOUS
 62
    2
 10
1538.1493
 20
897.53230000000008
 11
1528.2997
 21
919.41879999999992
  0
LINE
  8
_0-1_LAYER001
  6
CONTINUOUS
 62
    2
 10
1537.9335000000001
 20
895.39910000000009
 11
1529.7921999999999
 21
891.73520000000008
  0
LINE
  8
_0-1_LAYER001
  6
CONTINUOUS
 62
    2
 10
1538.1493
 20
897.53230000000008
 11
1537.9335000000001
 21
895.39910000000009
  0
LINE
  8
_0-1_LAYER001
  6
CONTINUOUS
 62
    2
 10
1548.1815999999999
 20
908.62490000000003
 11
1547.1777000000002
 21
905.97990000000004
  0
LINE
  8
_0-1_LAYER001
  6
CONTINUOUS
 62
    2
 10
1543.2568000000001
 20
919.56709999999998
 11
1548.1815999999999
 21
908.62490000000003
  0
LINE
  8
_0-1_LAYER001
  6
CONTINUOUS
 62
    2
 10
1540.6120999999998
 20
920.57020000000011
 11
1543.2568000000001
 21
919.56709999999998
  0
LINE
  8
_0-1_LAYER001
  6
CONTINUOUS
 62
    2
 10
1540.6120999999998
 20
920.57020000000011
 11
1547.1777000000002
 21
905.97990000000004
  0
LINE
  8
_0-1_LAYER001
  6
CONTINUOUS
 62
    2
 10
1540.6120999999998
 20
920.57020000000011
 11
1544.6044000000002
 21
904.82199999999989
  0
LINE
  8
_0-1_LAYER001
  6
CONTINUOUS
 62
    2
 10
1535.0558999999998
 20
918.06960000000004
 11
1539.0493999999999
 21
902.32150000000001
  0
LINE
  8
_0-1_LAYER001
  6
CONTINUOUS
 62
    2
 10
1501.9047999999998
 20
901.97559999999999
 11
1510.0459000000001
 21
905.6386
  0
LINE
  8
_0-1_LAYER001
  6
CONTINUOUS
 62
    2
 10
1507.5906
 20
889.34089999999992
 11
1515.732
 21
893.00500000000011
  0
LINE
  8
_0-1_LAYER001
  6
CONTINUOUS
 62
    2
 10
1510.4328999999998
 20
883.02269999999999
 11
1518.5749999999998
 21
886.6866
  0
LINE
  8
_0-1_LAYER001
  6
CONTINUOUS
 62
    2
 10
1508.6952999999999
 20
884.27420000000006
 11
1510.4328999999998
 21
883.02269999999999
  0
LINE
  8
_0-1_LAYER001
  6
CONTINUOUS
 62
    2
 10
1498.8458000000001
 20
906.16080000000011
 11
1508.6952999999999
 21
884.27420000000006
  0
LINE
  8
_0-1_LAYER001
  6
CONTINUOUS
 62
    2
 10
1499.0614999999998
 20
908.29379999999992
 11
1507.2026999999998
 21
911.95779999999991
  0
LINE
  8
_0-1_LAYER001
  6
CONTINUOUS
 62
    2
 10
1498.8458000000001
 20
906.16080000000011
 11
1499.0614999999998
 21
908.29379999999992
  0
LINE
  8
_0-1_LAYER001
  6
CONTINUOUS
 62
    2
 10
1461.0019000000002
 20
812.37030000000004
 11
1461.8227999999999
 21
810.54649999999992
  0
LINE
  8
_0-1_LAYER001
  6
CONTINUOUS
 62
    2
 10
1461.8227999999999
 20
810.54649999999992
 11
1543.8959
 21
847.47929999999997
  0
LINE
  8
_0-1_LAYER001
  6
CONTINUOUS
 62
    2
 10
1544.3507
 20
968.30850000000009
 11
1543.3247999999999
 21
970.58819999999992
  0
LINE
  8
_0-1_LAYER001
  6
CONTINUOUS
 62
    2
 10
1544.3507
 20
968.30850000000009
 11
1410.268
 21
907.97129999999993
  0
LINE
  8
_0-1_LAYER001
  6
CONTINUOUS
 62
    2
 10
1429.3357000000001
 20
919.29310000000009
 11
1410.268
 21
910.71270000000004
  0
ARC
  8
_0-1_LAYER001
  6
CONTINUOUS
 62
    2
 10
1541.8422
 20
961.69740000000002
 40
2.7000000000000002
 50
24.240387000000002
 51
114.23249
  0
ARC
  8
_0-1_LAYER001
  6
CONTINUOUS
 62
    2
 10
1505.3663999999999
 20
945.28340000000003
 40
2.7000000000000002
 50
114.23249
 51
204.21280999999999
  0
ARC
  8
_0-1_LAYER001
  6
CONTINUOUS
 62
    2
 10
1505.3643999999999
 20
945.28240000000005
 40
4.9989999999999997
 50
114.2201
 51
204.23075000000003
  0
ARC
  8
_0-1_LAYER001
  6
CONTINUOUS
 62
    2
 10
1541.8431999999998
 20
961.69869999999992
 40
4.9989999999999997
 50
24.224366
 51
114.24137000000002
  0
ARC
  8
_0-1_LAYER001
  6
CONTINUOUS
 62
    2
 10
1542.2984999999999
 20
863.20740000000001
 40
4.9989999999999997
 50
204.20947000000001
 51
294.23500999999999
  0
ARC
  8
_0-1_LAYER001
  6
CONTINUOUS
 62
    2
 10
1578.7782000000002
 20
879.6237000000001
 40
4.9989999999999997
 50
294.21372000000002
 51
24.245652
  0
ARC
  8
_0-1_LAYER001
  6
CONTINUOUS
 62
    2
 10
1578.7770999999998
 20
879.62380000000007
 40
2.7000000000000002
 50
294.22068000000002
 51
24.240386999999998
  0
ARC
  8
_0-1_LAYER001
  6
CONTINUOUS
 62
    2
 10
1542.2993999999999
 20
863.20839999999998
 40
2.7000000000000002
 50
204.21281000000002
 51
294.22068000000002
  0
ARC
  8
_0-1_LAYER001
  6
CONTINUOUS
 62
    2
 10
1521.4144999999999
 20
856.00739999999996
 40
10.001999
 50
294.23667
 51
24.223908000000026
  0
ARC
  8
_0-1_LAYER001
  6
CONTINUOUS
 62
    2
 10
1507.1886
 20
924.17219999999998
 40
4.9989999999999997
 50
114.2201
 51
204.23075000000003
  0
ARC
  8
_0-1_LAYER001
  6
CONTINUOUS
 62
    2
 10
1465.5599000000002
 20
814.4221
 40
4.9989999999999997
 50
114.2201
 51
204.23075000000003
  0
ARC
  8
_0-1_LAYER001
  6
CONTINUOUS
 62
    2
 10
1523.3510000000001
 20
915.43550000000005
 40
6.1470010000000013
 50
349.86246999999997
 51
23.869750999999997
  0
ARC
  8
_0-1_LAYER001
  6
CONTINUOUS
 62
    2
 10
1531.8771000000002
 20
896.46270000000004
 40
6.1580000000000004
 50
24.600936999999995
 51
58.555587999999993
  0
ARC
  8
_0-1_LAYER001
  6
CONTINUOUS
 62
    2
 10
1512.3427999999999
 20
899.0788
 40
22.898997999999999
 50
6.6165019999999997
 51
41.83201600000001
  0
ARC
  8
_0-1_LAYER001
  6
CONTINUOUS
 62
    2
 10
1513.645
 20
888.26029999999992
 40
6.1479999999999997
 50
169.87801999999999
 51
203.89276000000001
  0
ARC
  8
_0-1_LAYER001
  6
CONTINUOUS
 62
    2
 10
1505.1113999999998
 20
907.22199999999998
 40
6.1479999999999997
 50
204.55376999999996
 51
238.55602999999996
  0
ARC
  8
_0-1_LAYER001
  6
CONTINUOUS
 62
    2
 10
1524.6876999999999
 20
904.63159999999993
 40
22.936000999999997
 50
186.64733000000001
 51
221.80410000000003
  0
LINE
  8
_0-1_LAYER001
  6
CONTINUOUS
 62
    2
 10
1410.268
 20
938.1273000000001
 11
2021.4915000000001
 21
1213.1774
  0
LINE
  8
_0-1_LAYER001
  6
DASHED3
 62
    2
 10
1410.268
 20
940.86879999999996
 11
2020.4656
 21
1215.4572000000001
  0
LINE
  8
_0-1_LAYER001
  6
CONTINUOUS
 62
    2
 10
1410.268
 20
938.1273000000001
 11
795.26050000000009
 21
1214.8802000000001
  0
LINE
  8
_0-1_LAYER001
  6
DASHED3
 62
    2
 10
1410.268
 20
940.86879999999996
 11
796.28639999999996
 21
1217.1600000000001
  0
LINE
  8
_0-1_LAYER001
  6
CONTINUOUS
 62
    2
 10
1391.2003999999999
 20
919.29320000000007
 11
785.0014000000001
 21
1192.0822000000001
  0
LINE
  8
_0-1_LAYER001
  6
CONTINUOUS
 62
    2
 10
1410.268
 20
787.34690000000001
 11
738.83539999999994
 21
1089.4909
  0
LINE
  8
_0-1_LAYER001
  6
CONTINUOUS
 62
    2
 10
1245.4522999999999
 20
894.41159999999991
 11
1243.3552
 21
895.35529999999994
  0
LINE
  8
_0-1_LAYER001
  6
CONTINUOUS
 62
    2
 10
1270.076
 20
949.1262999999999
 11
1267.9782
 21
950.06989999999996
  0
LINE
  8
_0-1_LAYER001
  6
CONTINUOUS
 62
    2
 10
1276.2315000000001
 20
962.80580000000009
 11
1270.076
 21
949.1262999999999
  0
LINE
  8
_0-1_LAYER001
  6
CONTINUOUS
 62
    2
 10
1316.2779
 20
947.74559999999997
 11
1279.8022000000001
 21
964.15969999999993
  0
LINE
  8
_0-1_LAYER001
  6
CONTINUOUS
 62
    2
 10
1280.7447999999999
 20
966.25669999999991
 11
1317.2224000000001
 21
949.84159999999997
  0
LINE
  8
_0-1_LAYER001
  6
CONTINUOUS
 62
    2
 10
1274.1338000000001
 20
963.74939999999992
 11
1267.9782
 21
950.06989999999996
  0
LINE
  8
_0-1_LAYER001
  6
CONTINUOUS
 62
    2
 10
1282.7965999999997
 20
861.15660000000003
 11
1319.7298000000001
 21
943.23039999999992
  0
LINE
  8
_0-1_LAYER001
  6
CONTINUOUS
 62
    2
 10
1239.7068999999999
 20
875.06459999999993
 11
1276.1856
 21
858.64920000000006
  0
LINE
  8
_0-1_LAYER001
  6
CONTINUOUS
 62
    2
 10
1237.1995999999999
 20
881.67560000000003
 11
1243.3552
 21
895.35529999999994
  0
LINE
  8
_0-1_LAYER001
  6
CONTINUOUS
 62
    2
 10
1239.2963999999999
 20
880.73209999999995
 11
1245.4522999999999
 21
894.41159999999991
  0
LINE
  8
_0-1_LAYER001
  6
CONTINUOUS
 62
    2
 10
1277.1279999999999
 20
860.74630000000002
 11
1240.6505
 21
877.16149999999993
  0
LINE
  8
_0-1_LAYER001
  6
CONTINUOUS
 62
    2
 10
1280.6986000000002
 20
862.10030000000006
 11
1317.6318000000001
 21
944.17509999999993
  0
LINE
  8
_0-1_LAYER001
  6
CONTINUOUS
 62
    2
 10
1276.6404
 20
847.47970000000009
 11
1313.5744
 21
929.55240000000003
  0
LINE
  8
_0-1_LAYER001
  6
CONTINUOUS
 62
    2
 10
1317.9057
 20
922.12020000000007
 11
1290.0001
 21
860.11020000000008
  0
LINE
  8
_0-1_LAYER001
  6
CONTINUOUS
 62
    2
 10
1315.3982999999998
 20
928.7324000000001
 11
1313.5744
 21
929.55240000000003
  0
LINE
  8
_0-1_LAYER001
  6
CONTINUOUS
 62
    2
 10
1357.0269000000003
 20
818.9815000000001
 11
1295.0156999999999
 21
846.88709999999992
  0
LINE
  8
_0-1_LAYER001
  6
CONTINUOUS
 62
    2
 10
1299.1660999999999
 20
903.13879999999995
 11
1296.4297999999999
 21
904.36969999999997
  0
LINE
  8
_0-1_LAYER001
  6
CONTINUOUS
 62
    2
 10
1305.7319000000002
 20
917.72890000000007
 11
1302.9956999999999
 21
918.95990000000006
  0
LINE
  8
_0-1_LAYER001
  6
CONTINUOUS
 62
    2
 10
1289.8642999999997
 20
889.78070000000002
 11
1302.9956999999999
 21
918.95990000000006
  0
LINE
  8
_0-1_LAYER001
  6
CONTINUOUS
 62
    2
 10
1292.6006000000002
 20
888.54870000000005
 11
1289.8642999999997
 21
889.78070000000002
  0
LINE
  8
_0-1_LAYER001
  6
CONTINUOUS
 62
    2
 10
1290.5931
 20
915.76819999999998
 11
1279.924
 21
920.57020000000011
  0
LINE
  8
_0-1_LAYER001
  6
CONTINUOUS
 62
    2
 10
1284.0277000000001
 20
901.17910000000006
 11
1273.3584000000001
 21
905.97990000000004
  0
LINE
  8
_0-1_LAYER001
  6
CONTINUOUS
 62
    2
 10
1285.4457
 20
901.71759999999995
 11
1293.587
 21
898.05439999999999
  0
LINE
  8
_0-1_LAYER001
  6
CONTINUOUS
 62
    2
 10
1291.1316999999999
 20
914.35210000000006
 11
1299.2719
 21
910.68820000000005
  0
LINE
  8
_0-1_LAYER001
  6
CONTINUOUS
 62
    2
 10
1293.9737
 20
920.67049999999995
 11
1302.1161000000002
 21
917.00630000000001
  0
LINE
  8
_0-1_LAYER001
  6
CONTINUOUS
 62
    2
 10
1292.2363999999998
 20
919.41879999999992
 11
1293.9737
 21
920.67049999999995
  0
LINE
  8
_0-1_LAYER001
  6
CONTINUOUS
 62
    2
 10
1282.3867999999998
 20
897.53230000000008
 11
1292.2363999999998
 21
919.41879999999992
  0
LINE
  8
_0-1_LAYER001
  6
CONTINUOUS
 62
    2
 10
1282.6025999999999
 20
895.39910000000009
 11
1290.7438
 21
891.73520000000008
  0
LINE
  8
_0-1_LAYER001
  6
CONTINUOUS
 62
    2
 10
1282.3867999999998
 20
897.53230000000008
 11
1282.6025999999999
 21
895.39910000000009
  0
LINE
  8
_0-1_LAYER001
  6
CONTINUOUS
 62
    2
 10
1272.3544999999999
 20
908.62490000000003
 11
1273.3584000000001
 21
905.97990000000004
  0
LINE
  8
_0-1_LAYER001
  6
CONTINUOUS
 62
    2
 10
1277.2791999999999
 20
919.56709999999998
 11
1272.3544999999999
 21
908.62490000000003
  0
LINE
  8
_0-1_LAYER001
  6
CONTINUOUS
 62
    2
 10
1279.924
 20
920.57020000000011
 11
1277.2791999999999
 21
919.56709999999998
  0
LINE
  8
_0-1_LAYER001
  6
CONTINUOUS
 62
    2
 10
1279.924
 20
920.57020000000011
 11
1273.3584000000001
 21
905.97990000000004
  0
LINE
  8
_0-1_LAYER001
  6
CONTINUOUS
 62
    2
 10
1279.924
 20
920.57020000000011
 11
1275.9317000000001
 21
904.82199999999989
  0
LINE
  8
_0-1_LAYER001
  6
CONTINUOUS
 62
    2
 10
1285.4802
 20
918.06960000000004
 11
1281.4866999999999
 21
902.32150000000001
  0
LINE
  8
_0-1_LAYER001
  6
CONTINUOUS
 62
    2
 10
1318.6313
 20
901.97559999999999
 11
1310.4901
 21
905.6386
  0
LINE
  8
_0-1_LAYER001
  6
CONTINUOUS
 62
    2
 10
1312.9455000000003
 20
889.34089999999992
 11
1304.8041000000001
 21
893.00500000000011
  0
LINE
  8
_0-1_LAYER001
  6
CONTINUOUS
 62
    2
 10
1310.1031
 20
883.02269999999999
 11
1301.9611
 21
886.6866
  0
LINE
  8
_0-1_LAYER001
  6
CONTINUOUS
 62
    2
 10
1311.8407999999999
 20
884.27420000000006
 11
1310.1031
 21
883.02269999999999
  0
LINE
  8
_0-1_LAYER001
  6
CONTINUOUS
 62
    2
 10
1321.6903
 20
906.16080000000011
 11
1311.8407999999999
 21
884.27420000000006
  0
LINE
  8
_0-1_LAYER001
  6
CONTINUOUS
 62
    2
 10
1321.4746
 20
908.29379999999992
 11
1313.3332999999998
 21
911.95779999999991
  0
LINE
  8
_0-1_LAYER001
  6
CONTINUOUS
 62
    2
 10
1321.6903
 20
906.16080000000011
 11
1321.4746
 21
908.29379999999992
  0
LINE
  8
_0-1_LAYER001
  6
CONTINUOUS
 62
    2
 10
1359.5342000000001
 20
812.37030000000004
 11
1358.7132999999999
 21
810.54649999999992
  0
LINE
  8
_0-1_LAYER001
  6
CONTINUOUS
 62
    2
 10
1358.7132999999999
 20
810.54649999999992
 11
1276.6402
 21
847.47929999999997
  0
LINE
  8
_0-1_LAYER001
  6
CONTINUOUS
 62
    2
 10
1304.8023000000001
 20
985.80799999999999
 11
1313.9227000000001
 21
981.70399999999995
  0
LINE
  8
_0-1_LAYER001
  6
CONTINUOUS
 62
    2
 10
1303.5723000000003
 20
983.07150000000001
 11
1312.6908000000001
 21
978.9688000000001
  0
LINE
  8
_0-1_LAYER001
  6
CONTINUOUS
 62
    2
 10
1313.9227000000001
 20
981.70399999999995
 11
1312.6908000000001
 21
978.9688000000001
  0
LINE
  8
_0-1_LAYER001
  6
CONTINUOUS
 62
    2
 10
1304.8023000000001
 20
985.80799999999999
 11
1303.5723000000003
 21
983.07150000000001
  0
LINE
  8
_0-1_LAYER001
  6
CONTINUOUS
 62
    2
 10
1309.3624
 20
983.75600000000009
 11
1308.1315999999997
 21
981.01950000000011
  0
LINE
  8
_0-1_LAYER001
  6
CONTINUOUS
 62
    2
 10
1288.8441
 20
938.16039999999998
 11
1292.9663
 21
942.44659999999999
  0
LINE
  8
_0-1_LAYER001
  6
CONTINUOUS
 62
    2
 10
1288.8441
 20
938.16039999999998
 11
1289.3186000000001
 21
944.08739999999989
  0
LINE
  8
_0-1_LAYER001
  6
CONTINUOUS
 62
    2
 10
1304.4763
 20
965.00810000000001
 11
1298.8486
 21
968.69959999999992
  0
LINE
  8
_0-1_LAYER001
  6
CONTINUOUS
 62
    2
 10
1302.4244000000001
 20
960.44890000000009
 11
1296.7955000000002
 21
964.13940000000002
  0
LINE
  8
_0-1_LAYER001
  6
CONTINUOUS
 62
    2
 10
1300.3714
 20
955.8886
 11
1294.7438999999999
 21
959.5802000000001
  0
LINE
  8
_0-1_LAYER001
  6
CONTINUOUS
 62
    2
 10
1304.4757999999999
 20
965.00749999999994
 11
1298.8481999999999
 21
968.70010000000002
  0
LINE
  8
_0-1_LAYER001
  6
CONTINUOUS
 62
    2
 10
1302.4239
 20
960.44929999999999
 11
1296.7963
 21
964.1407999999999
  0
LINE
  8
_0-1_LAYER001
  6
CONTINUOUS
 62
    2
 10
1300.3721
 20
955.8889999999999
 11
1294.7433000000001
 21
959.58079999999995
  0
LINE
  8
_0-1_LAYER001
  6
CONTINUOUS
 62
    2
 10
1298.3193000000001
 20
951.32989999999995
 11
1292.6923999999999
 21
955.02050000000008
  0
LINE
  8
_0-1_LAYER001
  6
CONTINUOUS
 62
    2
 10
1296.2682999999997
 20
946.76960000000008
 11
1290.6405
 21
950.46139999999991
  0
LINE
  8
_0-1_LAYER001
  6
CONTINUOUS
 62
    2
 10
1294.7323000000001
 20
943.35760000000005
 11
1289.1049
 21
947.0492999999999
  0
LINE
  8
_0-1_LAYER001
  6
CONTINUOUS
 62
    2
 10
1305.0766000000001
 20
979.10719999999992
 11
1289.3186000000001
 21
944.08739999999989
  0
LINE
  8
_0-1_LAYER001
  6
CONTINUOUS
 62
    2
 10
1303.5723000000003
 20
983.07150000000001
 11
1305.0766000000001
 21
979.10719999999992
  0
LINE
  8
_0-1_LAYER001
  6
CONTINUOUS
 62
    2
 10
1308.7233000000001
 20
977.46340000000009
 11
1292.9663
 21
942.44659999999999
  0
LINE
  8
_0-1_LAYER001
  6
CONTINUOUS
 62
    2
 10
1312.6908000000001
 20
978.9688000000001
 11
1308.7234000000001
 21
977.46329999999989
  0
LINE
  8
_0-1_LAYER001
  6
CONTINUOUS
 62
    2
 10
1276.1854000000001
 20
968.30850000000009
 11
1277.2112
 21
970.58819999999992
  0
LINE
  8
_0-1_LAYER001
  6
CONTINUOUS
 62
    2
 10
1276.1854000000001
 20
968.30850000000009
 11
1410.268
 21
907.97129999999993
  0
LINE
  8
_0-1_LAYER001
  6
CONTINUOUS
 62
    2
 10
1391.2003999999999
 20
919.29310000000009
 11
1410.268
 21
910.71270000000004
  0
ARC
  8
_0-1_LAYER001
  6
CONTINUOUS
 62
    2
 10
1278.6939
 20
961.69740000000002
 40
2.7000000000000002
 50
65.767509000000004
 51
155.75961000000001
  0
ARC
  8
_0-1_LAYER001
  6
CONTINUOUS
 62
    2
 10
1315.1695999999997
 20
945.28340000000003
 40
2.7000000000000002
 50
335.78717999999998
 51
65.767509000000032
  0
ARC
  8
_0-1_LAYER001
  6
CONTINUOUS
 62
    2
 10
1315.1717000000003
 20
945.28240000000005
 40
4.9989999999999997
 50
335.76924000000002
 51
65.779899
  0
ARC
  8
_0-1_LAYER001
  6
CONTINUOUS
 62
    2
 10
1278.6929
 20
961.69869999999992
 40
4.9989999999999997
 50
65.758628999999999
 51
155.77563000000001
  0
ARC
  8
_0-1_LAYER001
  6
CONTINUOUS
 62
    2
 10
1278.2375999999999
 20
863.20740000000001
 40
4.9989999999999997
 50
245.76498000000004
 51
335.79052000000007
  0
ARC
  8
_0-1_LAYER001
  6
CONTINUOUS
 62
    2
 10
1241.7579000000001
 20
879.6237000000001
 40
4.9989999999999997
 50
155.75434000000001
 51
245.78626999999997
  0
ARC
  8
_0-1_LAYER001
  6
CONTINUOUS
 62
    2
 10
1241.759
 20
879.62380000000007
 40
2.7000000000000002
 50
155.75961000000001
 51
245.77931000000004
  0
ARC
  8
_0-1_LAYER001
  6
CONTINUOUS
 62
    2
 10
1278.2366999999999
 20
863.20839999999998
 40
2.7000000000000002
 50
245.77931000000001
 51
335.78717999999998
  0
ARC
  8
_0-1_LAYER001
  6
CONTINUOUS
 62
    2
 10
1299.1215
 20
856.00739999999996
 40
10.001999
 50
155.77609000000001
 51
245.76331999999996
  0
ARC
  8
_0-1_LAYER001
  6
CONTINUOUS
 62
    2
 10
1313.3475000000001
 20
924.17219999999998
 40
4.9989999999999997
 50
335.76924000000002
 51
65.779899
  0
ARC
  8
_0-1_LAYER001
  6
CONTINUOUS
 62
    2
 10
1354.9762000000001
 20
814.4221
 40
4.9989999999999997
 50
335.76924000000002
 51
65.779899
  0
ARC
  8
_0-1_LAYER001
  6
CONTINUOUS
 62
    2
 10
1297.1850999999997
 20
915.43550000000005
 40
6.1470010000000013
 50
156.13023999999999
 51
190.13751999999999
  0
ARC
  8
_0-1_LAYER001
  6
CONTINUOUS
 62
    2
 10
1288.6590000000001
 20
896.46270000000004
 40
6.1580000000000004
 50
121.44441
 51
155.39905999999999
  0
ARC
  8
_0-1_LAYER001
  6
CONTINUOUS
 62
    2
 10
1308.1932000000002
 20
899.0788
 40
22.898997999999999
 50
138.16798
 51
173.38349000000002
  0
ARC
  8
_0-1_LAYER001
  6
CONTINUOUS
 62
    2
 10
1306.8911000000001
 20
888.26029999999992
 40
6.1479999999999997
 50
336.10723000000002
 51
10.121978999999994
  0
ARC
  8
_0-1_LAYER001
  6
CONTINUOUS
 62
    2
 10
1315.4247
 20
907.22199999999998
 40
6.1479999999999997
 50
301.44396
 51
335.44621999999998
  0
ARC
  8
_0-1_LAYER001
  6
CONTINUOUS
 62
    2
 10
1295.8484000000001
 20
904.63159999999993
 40
22.936000999999997
 50
318.19589000000002
 51
353.35266000000001
  0
LINE
  8
_0-1_LAYER001
  6
CONTINUOUS
 62
    2
 10
1579.9213
 20
1018.3356000000001
 11
1616.3980999999999
 21
1034.7501
  0
LINE
  8
_0-1_LAYER001
  6
CONTINUOUS
 62
    2
 10
1616.3980999999999
 20
1034.7501
 11
1604.0871999999999
 21
1062.1078
  0
LINE
  8
_0-1_LAYER001
  6
CONTINUOUS
 62
    2
 10
1604.0871999999999
 20
1062.1078
 11
1567.6104
 21
1045.6931999999999
  0
LINE
  8
_0-1_LAYER001
  6
CONTINUOUS
 62
    2
 10
1567.6104
 20
1045.6931999999999
 11
1579.9213
 21
1018.3356000000001
  0
LINE
  8
_0-1_LAYER001
  6
CONTINUOUS
 62
    2
 10
1604.0871999999999
 20
1062.1078
 11
1579.9213
 21
1018.3356000000001
  0
LINE
  8
_0-1_LAYER001
  6
CONTINUOUS
 62
    2
 10
1616.3980999999999
 20
1034.7501
 11
1567.6104
 21
1045.6931999999999
  0
LINE
  8
_0-1_LAYER001
  6
CONTINUOUS
 62
    2
 10
1240.6148000000001
 20
1018.3356000000001
 11
1204.1378999999999
 21
1034.7501
  0
LINE
  8
_0-1_LAYER001
  6
CONTINUOUS
 62
    2
 10
1204.1378999999999
 20
1034.7501
 11
1216.4487999999999
 21
1062.1078
  0
LINE
  8
_0-1_LAYER001
  6
CONTINUOUS
 62
    2
 10
1216.4487999999999
 20
1062.1078
 11
1252.9257
 21
1045.6931999999999
  0
LINE
  8
_0-1_LAYER001
  6
CONTINUOUS
 62
    2
 10
1252.9257
 20
1045.6931999999999
 11
1240.6148000000001
 21
1018.3356000000001
  0
LINE
  8
_0-1_LAYER001
  6
CONTINUOUS
 62
    2
 10
1216.4487999999999
 20
1062.1078
 11
1240.6148000000001
 21
1018.3356000000001
  0
LINE
  8
_0-1_LAYER001
  6
CONTINUOUS
 62
    2
 10
1204.1378999999999
 20
1034.7501
 11
1252.9257
 21
1045.6931999999999
  0
LINE
  8
_0-1_LAYER001
  6
CONTINUOUS
 62
    2
 10
1593.1765999999998
 20
1058.1463000000001
 11
1585.6660000000002
 21
1058.0289
  0
LINE
  8
_0-1_LAYER001
  6
CONTINUOUS
 62
    2
 10
1410.268
 20
941.9251999999999
 11
1253.3874000000001
 21
1012.5214000000001
  0
LINE
  8
_0-1_LAYER001
  6
CONTINUOUS
 62
    2
 10
1410.268
 20
941.9251999999999
 11
1567.1487000000002
 21
1012.5214000000001
  0
LINE
  8
_0-1_LAYER001
  6
CONTINUOUS
 62
    2
 10
1567.1487000000002
 20
1012.5214000000001
 11
1565.7386000000001
 21
1045.7992999999999
  0
LINE
  8
_0-1_LAYER001
  6
CONTINUOUS
 62
    2
 10
1565.7386000000001
 20
1045.7992999999999
 11
1593.1765999999998
 21
1058.1463000000001
  0
LINE
  8
_0-1_LAYER001
  6
CONTINUOUS
 62
    2
 10
1253.3874000000001
 20
1012.5214000000001
 11
1254.7974999999999
 21
1045.7992999999999
  0
LINE
  8
_0-1_LAYER001
  6
CONTINUOUS
 62
    2
 10
1254.7974999999999
 20
1045.7992999999999
 11
1227.3595
 21
1058.1463000000001
  0
LINE
  8
_0-1_LAYER001
  6
DASHED1
 62
    2
 10
1410.268
 20
939.77220000000011
 11
1671.9441000000002
 21
1057.5262
  0
LINE
  8
_0-1_LAYER001
  6
CONTINUOUS
 62
    2
 10
1037.7384999999999
 20
811.1844000000001
 11
1061.779
 21
811.03060000000005
  0
LINE
  8
_0-1_LAYER001
  6
CONTINUOUS
 62
    2
 10
1037.6233999999999
 20
810.92849999999999
 11
1053.6960999999999
 21
793.04999999999995
  0
LINE
  8
_0-1_LAYER001
  6
CONTINUOUS
 62
    2
 10
1782.7975999999999
 20
811.1844000000001
 11
1758.7570999999998
 21
811.03060000000005
  0
LINE
  8
_0-1_LAYER001
  6
CONTINUOUS
 62
    2
 10
1782.9126999999999
 20
810.92849999999999
 11
1766.8400000000001
 21
793.04999999999995
  0
LINE
  8
_0-1_LAYER001
  6
CONTINUOUS
 62
    2
 10
1081.8932
 20
909.30639999999994
 11
1037.7384999999999
 21
811.1844000000001
  0
LINE
  8
_0-1_LAYER001
  6
CONTINUOUS
 62
    2
 10
1740.9149000000002
 20
904.25739999999996
 11
1782.9128000000001
 21
810.92849999999999
  0
LINE
  8
_0-1_LAYER001
  6
CONTINUOUS
 62
    2
 10
1040.704
 20
1193.0586000000001
 11
1036.954
 21
1186.5634
  0
LINE
  8
_0-1_LAYER001
  6
CONTINUOUS
 62
    2
 10
1036.954
 20
1186.5634
 11
1036.954
 21
1194.0634
  0
LINE
  8
_0-1_LAYER001
  6
CONTINUOUS
 62
    2
 10
1036.954
 20
1186.5634
 11
1066.4024999999999
 21
1296.4668999999999
  0
LINE
  8
_0-1_LAYER001
  6
CONTINUOUS
 62
    1
 10
1402.0607999999997
 20
919.88889999999992
 11
787.05320000000006
 21
1196.6418000000001
  0
LINE
  8
_0-1_LAYER001
  6
CONTINUOUS
 62
    1
 10
1404.1125999999999
 20
924.44849999999997
 11
789.10500000000002
 21
1201.2013999999999
  0
LINE
  8
_0-1_LAYER001
  6
CONTINUOUS
 62
    1
 10
1406.1643999999999
 20
929.00810000000001
 11
791.15679999999998
 21
1205.761
  0
LINE
  8
_0-1_LAYER001
  6
CONTINUOUS
 62
    1
 10
1408.2161999999998
 20
933.56770000000006
 11
793.20869999999991
 21
1210.3206
  0
LINE
  8
_0-1_LAYER001
  6
CONTINUOUS
 62
    1
 10
1412.3199
 20
933.56770000000006
 11
2023.5434
 21
1208.6178
  0
LINE
  8
_0-1_LAYER001
  6
CONTINUOUS
 62
    1
 10
1414.3716999999997
 20
929.00810000000001
 11
2025.5952000000002
 21
1204.0581999999999
  0
LINE
  8
_0-1_LAYER001
  6
CONTINUOUS
 62
    1
 10
1416.4235000000003
 20
924.44849999999997
 11
2027.6469999999999
 21
1199.4985999999999
  0
LINE
  8
_0-1_LAYER001
  6
CONTINUOUS
 62
    1
 10
1418.4753000000001
 20
919.88889999999992
 11
2029.6988000000001
 21
1194.9390000000001
  0
LINE
  8
_0-1_LAYER001
  6
CONTINUOUS
 62
    2
 10
1782.7975999999999
 20
811.1844000000001
 11
1491.8243000000002
 21
680.24669999999992
  0
LINE
  8
_0-1_LAYER001
  6
CONTINUOUS
 62
    2
 10
1037.7384999999999
 20
811.1844000000001
 11
1324.3377
 21
682.21499999999992
  0
LINE
  8
_0-1_LAYER001
  6
CONTINUOUS
 62
    2
 10
1385.5702999999999
 20
962.30539999999996
 11
1381.8202999999999
 21
955.8101999999999
  0
LINE
  8
_0-1_LAYER001
  6
CONTINUOUS
 62
    2
 10
1381.8202999999999
 20
955.8101999999999
 11
1381.8202999999999
 21
963.3101999999999
  0
LINE
  8
_0-1_LAYER001
  6
CONTINUOUS
 62
    2
 10
1381.8202999999999
 20
955.8101999999999
 11
1467.8977
 21
1277.0554
  0
LINE
  8
_0-1_LAYER001
  6
CONTINUOUS
 62
    2
 10
1142.5289
 20
800.36650000000009
 11
1164.0730000000001
 21
848.24240000000009
  0
CIRCLE
  8
_0-1_LAYER001
  6
CONTINUOUS
 62
    2
 10
1143.5547999999999
 20
802.64630000000011
 40
1.6999999999999997
  0
LINE
  8
_0-1_LAYER001
  6
CONTINUOUS
 62
    2
 10
1143.5547999999999
 20
802.64630000000011
 11
1325.9392
 21
720.57349999999997
  0
CIRCLE
  8
_0-1_LAYER001
  6
CONTINUOUS
 62
    2
 10
1325.9392
 20
720.57349999999997
 40
1.6999999999999997
  0
LINE
  8
_0-1_LAYER001
  6
CONTINUOUS
 62
    2
 10
1324.9133000000002
 20
718.29369999999994
 11
1346.4573999999998
 21
766.16959999999995
  0
LINE
  8
_0-1_LAYER001
  6
CONTINUOUS
 62
    2
 10
1494.3108000000002
 20
721.20920000000001
 11
1472.7667000000001
 21
769.08510000000001
  0
CIRCLE
  8
_0-1_LAYER001
  6
CONTINUOUS
 62
    2
 10
1493.2849000000001
 20
723.48900000000003
 40
1.6999999999999997
  0
LINE
  8
_0-1_LAYER001
  6
CONTINUOUS
 62
    2
 10
1493.2849000000001
 20
723.48900000000003
 11
1675.6693
 21
805.56179999999995
  0
CIRCLE
  8
_0-1_LAYER001
  6
CONTINUOUS
 62
    2
 10
1675.6693
 20
805.56179999999995
 40
1.6999999999999997
  0
LINE
  8
_0-1_LAYER001
  6
CONTINUOUS
 62
    2
 10
1676.6952000000001
 20
803.28199999999993
 11
1655.1511
 21
851.15789999999993
  0
LINE
  8
_0-1_LAYER001
  6
CONTINUOUS
 62
    2
 10
1156.3438000000001
 20
831.06639999999993
 11
1167.6288
 21
856.14419999999996
  0
CIRCLE
  8
_0-1_LAYER001
  6
CONTINUOUS
 62
    2
 10
1157.3697
 20
833.34619999999995
 40
1.6999999999999997
  0
LINE
  8
_0-1_LAYER001
  6
CONTINUOUS
 62
    2
 10
1157.3697
 20
833.34619999999995
 11
1225.7638999999999
 21
802.56889999999999
  0
CIRCLE
  8
_0-1_LAYER001
  6
CONTINUOUS
 62
    2
 10
1225.7638999999999
 20
802.56889999999999
 40
1.6999999999999997
  0
LINE
  8
_0-1_LAYER001
  6
CONTINUOUS
 62
    2
 10
1224.7380000000001
 20
800.28909999999996
 11
1236.0229999999999
 21
825.36689999999999
  0
LINE
  8
_0-1_LAYER001
  6
CONTINUOUS
 62
    2
 10
1594.6700000000001
 20
802.7958000000001
 11
1583.3850000000002
 21
827.8735999999999
  0
CIRCLE
  8
_0-1_LAYER001
  6
CONTINUOUS
 62
    2
 10
1593.6441
 20
805.07559999999989
 40
1.6999999999999997
  0
LINE
  8
_0-1_LAYER001
  6
CONTINUOUS
 62
    2
 10
1593.6441
 20
805.07559999999989
 11
1662.0383000000002
 21
835.85290000000009
  0
CIRCLE
  8
_0-1_LAYER001
  6
CONTINUOUS
 62
    2
 10
1662.0383000000002
 20
835.85290000000009
 40
1.6999999999999997
  0
LINE
  8
_0-1_LAYER001
  6
CONTINUOUS
 62
    2
 10
1663.0641999999998
 20
833.57310000000007
 11
1651.7791999999999
 21
858.65090000000009
  0
POINT
  8
_0-0_LAYER000
 62
    7
 10
1769.8779
 20
1106.6848
  0
POINT
  8
_0-0_LAYER000
 62
    7
 10
1975.9668000000001
 20
1198.7647999999999
  0
LINE
  8
_0-1_LAYER001
  6
CONTINUOUS
 62
    2
 10
1947.5738000000001
 20
1186.5105000000001
 11
1974.9315000000001
 21
1198.8214
  0
LINE
  8
_0-1_LAYER001
  6
CONTINUOUS
 62
    2
 10
1968.7759999999998
 20
1212.5002999999999
 11
1941.4182999999998
 21
1200.1893
  0
LINE
  8
_0-1_LAYER001
  6
CONTINUOUS
 62
    2
 10
1974.9315000000001
 20
1198.8214
 11
1968.7759999999998
 21
1212.5002999999999
  0
LINE
  8
_0-1_LAYER001
  6
CONTINUOUS
 62
    2
 10
1941.4182999999998
 20
1200.1893
 11
1947.5738000000001
 21
1186.5105000000001
  0
LINE
  8
_0-1_LAYER001
  6
CONTINUOUS
 62
    2
 10
1968.7759999999998
 20
1212.5002999999999
 11
1947.5738000000001
 21
1186.5105000000001
  0
LINE
  8
_0-1_LAYER001
  6
CONTINUOUS
 62
    2
 10
1741.8063000000002
 20
1093.915
 11
1769.1639
 21
1106.2258999999999
  0
LINE
  8
_0-1_LAYER001
  6
CONTINUOUS
 62
    2
 10
1763.0084000000002
 20
1119.9048
 11
1735.6507999999999
 21
1107.5938000000001
  0
LINE
  8
_0-1_LAYER001
  6
CONTINUOUS
 62
    2
 10
1769.1639
 20
1106.2258999999999
 11
1763.0084000000002
 21
1119.9048
  0
LINE
  8
_0-1_LAYER001
  6
CONTINUOUS
 62
    2
 10
1735.6507999999999
 20
1107.5938000000001
 11
1741.8063000000002
 21
1093.915
  0
LINE
  8
_0-1_LAYER001
  6
CONTINUOUS
 62
    2
 10
1763.0084000000002
 20
1119.9048
 11
1741.8063000000002
 21
1093.915
  0
ARC
  8
_0-1_LAYER001
  6
CONTINUOUS
 62
    4
 10
1708.1617000000001
 20
1126.0236
 40
10
 50
109.94091000000002
 51
199.94091
  0
ARC
  8
_0-1_LAYER001
  6
CONTINUOUS
 62
    4
 10
1913.8739
 20
1218.7408
 40
10
 50
109.94091000000002
 51
199.94091
  0
ARC
  8
_0-1_LAYER001
  6
CONTINUOUS
 62
    4
 10
1502.4495000000002
 20
1033.3063999999999
 40
10
 50
109.94091000000002
 51
199.94091
  0
LINE
  8
_0-1_LAYER001
  6
CONTINUOUS
 62
    4
 10
1479.8058000000001
 20
1066.3984
 11
1495.4364
 21
1023.3155999999999
  0
ARC
  8
_0-1_LAYER001
  6
CONTINUOUS
 62
    4
 10
1498.6066999999998
 20
1073.2194999999999
 40
20
 50
109.94091000000002
 51
199.94091
  0
LINE
  8
_0-1_LAYER001
  6
CONTINUOUS
 62
    4
 10
1916.2613000000001
 20
1212.1605
 11
2003.0322999999999
 21
1243.6413
  0
LINE
  8
_0-1_LAYER001
  6
CONTINUOUS
 62
    4
 10
1982.5544
 20
1205.3623
 11
1974.0940000000001
 21
1202.2927999999999
  0
LINE
  8
_0-1_LAYER001
  6
CONTINUOUS
 62
    4
 10
1764.2892000000002
 20
1120.8561
 11
1768.3818000000001
 21
1109.5755999999999
  0
LINE
  8
_0-1_LAYER001
  6
CONTINUOUS
 62
    4
 10
1776.8422
 20
1112.6451
 11
1768.3818000000001
 21
1109.5755999999999
  0
LINE
  8
_0-1_LAYER001
  6
CONTINUOUS
 62
    4
 10
1491.7856999999999
 20
1092.0204000000001
 11
1684.4949000000001
 21
1161.9358
  0
ARC
  8
_0-1_LAYER001
  6
CONTINUOUS
 62
    4
 10
1691.5079999999998
 20
1171.9266
 40
10
 50
109.94091000000002
 51
199.94091
  0
LINE
  8
_0-1_LAYER001
  6
CONTINUOUS
 62
    4
 10
1682.1075000000001
 20
1168.5161000000001
 11
1701.1486
 21
1116.0328
  0
LINE
  8
_0-1_LAYER001
  6
CONTINUOUS
 62
    4
 10
1691.3159000000001
 20
1143.1349
 11
1701.1486
 21
1116.0328
  0
LINE
  8
_0-1_LAYER001
  6
CONTINUOUS
 62
    4
 10
1766.9517999999998
 20
1139.9064000000001
 11
1776.8422
 21
1112.6451
  0
LINE
  8
_0-1_LAYER001
  6
CONTINUOUS
 62
    4
 10
1499.0390000000002
 20
1042.7067999999999
 11
1970.0014000000001
 21
1213.5734
  0
LINE
  8
_0-1_LAYER001
  6
CONTINUOUS
 62
    4
 10
1970.0014000000001
 20
1213.5734
 11
1974.0940000000001
 21
1202.2927999999999
  0
LINE
  8
_0-1_LAYER001
  6
CONTINUOUS
 62
    4
 10
1688.0974999999999
 20
1181.3271
 11
1890.2071000000001
 21
1254.653
  0
ARC
  8
_0-1_LAYER001
  6
CONTINUOUS
 62
    4
 10
1897.2202000000002
 20
1264.6439
 40
10
 50
109.94091000000002
 51
199.94091
  0
LINE
  8
_0-1_LAYER001
  6
CONTINUOUS
 62
    4
 10
1887.8197
 20
1261.2333000000001
 11
1906.8607999999999
 21
1208.75
  0
LINE
  8
_0-1_LAYER001
  6
CONTINUOUS
 62
    4
 10
1887.8197
 20
1261.2333000000001
 11
1906.8607999999999
 21
1208.75
  0
LINE
  8
_0-1_LAYER001
  6
CONTINUOUS
 62
    4
 10
1704.7512000000002
 20
1135.4241
 11
1972.6640000000002
 21
1232.6235999999999
  0
LINE
  8
_0-1_LAYER001
  6
CONTINUOUS
 62
    4
 10
1972.6640000000002
 20
1232.6235999999999
 11
1982.5544
 21
1205.3623
  0
LINE
  8
_0-1_LAYER001
  6
CONTINUOUS
 62
    4
 10
1893.8096999999998
 20
1274.0443
 11
1976.2020000000002
 21
1303.9365
  0
LINE
  8
_0-1_LAYER001
  6
CONTINUOUS
 62
    4
 10
1910.4634000000001
 20
1228.1413
 11
1996.1037000000001
 21
1259.2118
  0
LINE
  8
_0-1_LAYER001
  6
CONTINUOUS
 62
    4
 10
1764.2892000000002
 20
1120.8561
 11
1495.4364
 21
1023.3155999999999
  0
LINE
  8
_0-1_LAYER001
  6
CONTINUOUS
 62
    2
 10
877.52890000000002
 20
1255.7248
 11
871.73099999999999
 21
1239.7439999999999
  0
LINE
  8
_0-1_LAYER001
  6
CONTINUOUS
 62
    2
 10
1092.6415
 20
1159.5971
 11
1086.8436999999999
 21
1143.6162999999999
  0
LINE
  8
_0-1_LAYER001
  6
CONTINUOUS
 62
    2
 10
1335.9556
 20
1053.2378000000001
 11
1086.8436999999999
 21
1143.6162999999999
  0
ARC
  8
_0-1_LAYER001
  6
CONTINUOUS
 62
    4
 10
1319.3643
 20
1059.1812
 40
17.623681999999999
 50
340.29127000000005
 51
57.209820000000029
  0
ARC
  8
_0-1_LAYER001
  6
CONTINUOUS
 62
    4
 10
1334.7402999999999
 20
1079.2094
 40
10
 50
340.05907999999999
 51
70.059082999999987
  0
LINE
  8
_0-1_LAYER001
  6
CONTINUOUS
 62
    4
 10
1325.0997000000002
 20
1023.3155999999999
 11
1344.1407999999999
 21
1075.7989
  0
LINE
  8
_0-1_LAYER001
  6
CONTINUOUS
 62
    4
 10
1325.0997000000002
 20
1023.3155999999999
 11
1046.8463999999999
 21
1124.2665999999999
  0
LINE
  8
_0-1_LAYER001
  6
CONTINUOUS
 62
    4
 10
1329.3013999999998
 20
1073.7362000000001
 11
1055.0398
 21
1173.2391
  0
LINE
  8
_0-1_LAYER001
  6
CONTINUOUS
 62
    4
 10
1338.1507999999999
 20
1088.6098
 11
1126.6407999999999
 21
1165.3462999999999
  0
LINE
  8
_0-1_LAYER001
  6
CONTINUOUS
 62
    2
 10
1055.0398
 20
1173.2391
 11
871.73099999999999
 21
1239.7439999999999
  0
ARC
  8
_0-1_LAYER001
  6
CONTINUOUS
 62
    4
 10
1104.2516000000001
 20
1155.3089
 40
17.623681999999999
 50
340.29127000000005
 51
57.209820000000029
  0
POINT
  8
_0-0_LAYER000
 62
    7
 10
1041.2578000000001
 20
1110.0953
  0
POINT
  8
_0-0_LAYER000
 62
    7
 10
825.76829999999995
 20
1205.5858000000001
  0
LINE
  8
_0-1_LAYER001
  6
CONTINUOUS
 62
    2
 10
854.16129999999998
 20
1193.3315
 11
826.80369999999994
 21
1205.6424999999999
  0
LINE
  8
_0-1_LAYER001
  6
CONTINUOUS
 62
    2
 10
860.31680000000006
 20
1207.0102999999999
 11
854.16129999999998
 21
1193.3315
  0
LINE
  8
_0-1_LAYER001
  6
CONTINUOUS
 62
    2
 10
1069.3293000000001
 20
1097.3254999999999
 11
1041.9717000000001
 21
1109.6365000000001
  0
LINE
  8
_0-1_LAYER001
  6
CONTINUOUS
 62
    2
 10
1048.1271999999999
 20
1123.3153
 11
1075.4848
 21
1111.0043000000001
  0
LINE
  8
_0-1_LAYER001
  6
CONTINUOUS
 62
    2
 10
1041.9717000000001
 20
1109.6365000000001
 11
1048.1271999999999
 21
1123.3153
  0
LINE
  8
_0-1_LAYER001
  6
CONTINUOUS
 62
    2
 10
1075.4848
 20
1111.0043000000001
 11
1069.3293000000001
 21
1097.3254999999999
  0
LINE
  8
_0-1_LAYER001
  6
CONTINUOUS
 62
    2
 10
1048.1271999999999
 20
1123.3153
 11
1069.3293000000001
 21
1097.3254999999999
  0
LINE
  8
_0-1_LAYER001
  6
CONTINUOUS
 62
    4
 10
819.18069999999989
 20
1212.1832999999999
 11
827.64110000000005
 21
1209.1138000000001
  0
LINE
  8
_0-1_LAYER001
  6
CONTINUOUS
 62
    4
 10
1046.8463999999999
 20
1124.2665999999999
 11
1042.7538
 21
1112.9861000000001
  0
LINE
  8
_0-1_LAYER001
  6
CONTINUOUS
 62
    4
 10
1034.2934
 20
1116.0555999999999
 11
1042.7538
 21
1112.9861000000001
  0
ARC
  8
_0-1_LAYER001
  6
CONTINUOUS
 62
    4
 10
1119.6277
 20
1175.3371
 40
10
 50
340.05907999999999
 51
70.059082999999987
  0
LINE
  8
_0-1_LAYER001
  6
CONTINUOUS
 62
    4
 10
1120.8429000000001
 20
1149.3655000000001
 11
1129.0281
 21
1171.9266
  0
LINE
  8
_0-1_LAYER001
  6
CONTINUOUS
 62
    4
 10
1055.0398
 20
1173.2391
 11
1034.2934
 21
1116.0555999999999
  0
ARC
  8
_0-1_LAYER001
  6
CONTINUOUS
 62
    4
 10
889.1389999999999
 20
1251.4367
 40
17.623681999999999
 50
340.29127000000005
 51
57.209820000000029
  0
LINE
  8
_0-1_LAYER001
  6
CONTINUOUS
 62
    4
 10
1044.1839
 20
1143.3169
 11
831.7337
 21
1220.3943999999999
  0
LINE
  8
_0-1_LAYER001
  6
CONTINUOUS
 62
    2
 10
832.95920000000001
 20
1219.3213000000001
 11
860.31680000000006
 21
1207.0102999999999
  0
LINE
  8
_0-1_LAYER001
  6
CONTINUOUS
 62
    2
 10
826.80369999999994
 20
1205.6424999999999
 11
832.95920000000001
 21
1219.3213000000001
  0
LINE
  8
_0-1_LAYER001
  6
CONTINUOUS
 62
    2
 10
832.95920000000001
 20
1219.3213000000001
 11
854.16129999999998
 21
1193.3315
  0
LINE
  8
_0-1_LAYER001
  6
CONTINUOUS
 62
    4
 10
1114.1886999999999
 20
1169.8639000000001
 11
839.92710000000011
 21
1269.3668
  0
LINE
  8
_0-1_LAYER001
  6
CONTINUOUS
 62
    4
 10
831.7337
 20
1220.3943999999999
 11
827.64110000000005
 21
1209.1138000000001
  0
LINE
  8
_0-1_LAYER001
  6
CONTINUOUS
 62
    4
 10
1123.0382
 20
1184.7375999999999
 11
911.52809999999999
 21
1261.4739999999999
  0
ARC
  8
_0-1_LAYER001
  6
CONTINUOUS
 62
    4
 10
904.5150000000001
 20
1271.4648999999999
 40
10
 50
340.05907999999999
 51
70.059082999999987
  0
LINE
  8
_0-1_LAYER001
  6
CONTINUOUS
 62
    4
 10
905.73019999999997
 20
1245.4933000000001
 11
913.91550000000007
 21
1268.0544
  0
LINE
  8
_0-1_LAYER001
  6
CONTINUOUS
 62
    4
 10
839.92710000000011
 20
1269.3668
 11
819.18069999999989
 21
1212.1832999999999
  0
LINE
  8
_0-1_LAYER001
  6
CONTINUOUS
 62
    4
 10
829.07120000000009
 20
1239.4446
 11
789.4063000000001
 21
1253.8351
  0
LINE
  8
_0-1_LAYER001
  6
CONTINUOUS
 62
    4
 10
899.07600000000002
 20
1265.9917
 11
809.13090000000011
 21
1298.624
  0
LINE
  8
_0-1_LAYER001
  6
CONTINUOUS
 62
    4
 10
907.92550000000006
 20
1280.8652999999999
 11
815.99790000000007
 21
1314.2168999999999
  0
LINE
  8
_0-1_LAYER001
  6
CONTINUOUS
 62
    2
 10
839.92710000000011
 20
1269.3668
 11
802.26389999999992
 21
1283.0311999999999
  0
LINE
  8
_0-1_LAYER001
  6
CONTINUOUS
 62
    2
 10
977.49219999999991
 20
1443.2919999999999
 11
959.58699999999999
 21
1393.9395999999999
  0
CIRCLE
  8
_0-1_LAYER001
  6
CONTINUOUS
 62
    2
 10
976.6395
 20
1440.9418000000001
 40
1.6999999999999997
  0
LINE
  8
_0-1_LAYER001
  6
CONTINUOUS
 62
    2
 10
976.6395
 20
1440.9418000000001
 11
1197.5500999999999
 21
1360.7949000000003
  0
CIRCLE
  8
_0-1_LAYER001
  6
CONTINUOUS
 62
    2
 10
1197.5500999999999
 20
1360.7949000000003
 40
1.6999999999999997
  0
LINE
  8
_0-1_LAYER001
  6
CONTINUOUS
 62
    2
 10
1198.4027000000001
 20
1363.145
 11
1180.4974999999999
 21
1313.7925999999998
  0
LINE
  8
_0-1_LAYER001
  6
CONTINUOUS
 62
    2
 10
1188.1712
 20
1334.9436000000001
 11
1170.2660000000001
 21
1285.5913
  0
CIRCLE
  8
_0-1_LAYER001
  6
CONTINUOUS
 62
    2
 10
1187.3185000000001
 20
1332.5934999999999
 40
1.6999999999999997
  0
LINE
  8
_0-1_LAYER001
  6
CONTINUOUS
 62
    2
 10
1187.3185000000001
 20
1332.5934999999999
 11
1408.2291
 21
1252.4466
  0
CIRCLE
  8
_0-1_LAYER001
  6
CONTINUOUS
 62
    2
 10
1408.2291
 20
1252.4466
 40
1.6999999999999997
  0
LINE
  8
_0-1_LAYER001
  6
CONTINUOUS
 62
    2
 10
1409.0816999999997
 20
1254.7967000000001
 11
1391.1765
 21
1205.4443000000001
  0
LINE
  8
_0-1_LAYER001
  6
CONTINUOUS
 62
    2
 10
1225.5486000000001
 20
1047.3315
 11
1221.7986000000001
 21
1040.8362999999999
  0
LINE
  8
_0-1_LAYER001
  6
CONTINUOUS
 62
    2
 10
1221.7986000000001
 20
1040.8362999999999
 11
1221.7986000000001
 21
1048.3362999999999
  0
LINE
  8
_0-1_LAYER001
  6
CONTINUOUS
 62
    2
 10
1221.7986000000001
 20
1040.8362999999999
 11
1258.6587
 21
1178.4000000000001
  0
LINE
  8
_0-1_LAYER001
  6
CONTINUOUS
 62
    2
 10
1813.4636999999998
 20
907.08449999999993
 11
2018.2864
 21
907.08449999999993
  0
LINE
  8
_0-1_LAYER001
  6
CONTINUOUS
 62
    2
 10
1761.2015000000001
 20
1099.1637000000001
 11
1761.2015000000001
 21
1106.6637000000001
  0
LINE
  8
_0-1_LAYER001
  6
CONTINUOUS
 62
    2
 10
1761.2015000000001
 20
1106.6637000000001
 11
1764.9515000000001
 21
1100.1685
  0
LINE
  8
_0-1_LAYER001
  6
CONTINUOUS
 62
    2
 10
1761.2015000000001
 20
1106.6637000000001
 11
1838.8094000000001
 21
817.02729999999997
  0
LINE
  8
_0-1_LAYER001
  6
CONTINUOUS
 62
   18
 10
785.0014000000001
 20
1192.0822000000001
 11
1410.268
 21
910.71270000000004
  0
LINE
  8
_0-1_LAYER001
  6
CONTINUOUS
 62
   18
 10
1410.268
 20
910.71270000000004
 11
2031.7505999999998
 21
1190.3794
  0
LINE
  8
_0-1_LAYER001
  6
CONTINUOUS
 62
   18
 10
2021.4915000000001
 20
1213.1774
 11
1410.268
 21
938.1273000000001
  0
LINE
  8
_0-1_LAYER001
  6
CONTINUOUS
 62
   18
 10
1410.268
 20
938.1273000000001
 11
1420.5270999999998
 21
915.3293000000001
  0
LINE
  8
_0-1_LAYER001
  6
CONTINUOUS
 62
   18
 10
1400.0089
 20
915.3293000000001
 11
1410.268
 21
938.1273000000001
  0
LINE
  8
_0-1_LAYER001
  6
CONTINUOUS
 62
   18
 10
1410.268
 20
938.1273000000001
 11
795.26050000000009
 21
1214.8802000000001
  0
LINE
  8
_0-1_LAYER001
  6
CONTINUOUS
 62
   18
 10
2020.4656
 20
1215.4572000000001
 11
1410.268
 21
940.86879999999996
  0
LINE
  8
_0-1_LAYER001
  6
CONTINUOUS
 62
   18
 10
1410.268
 20
940.86879999999996
 11
796.28639999999996
 21
1217.1600000000001
  0
LINE
  8
_0-1_LAYER001
  6
CONTINUOUS
 62
   18
 10
826.80369999999994
 20
1205.6424999999999
 11
854.16129999999998
 21
1193.3315
  0
LINE
  8
_0-1_LAYER001
  6
CONTINUOUS
 62
   18
 10
854.16129999999998
 20
1193.3315
 11
832.95920000000001
 21
1219.3213000000001
  0
LINE
  8
_0-1_LAYER001
  6
CONTINUOUS
 62
   18
 10
832.95920000000001
 20
1219.3213000000001
 11
826.80369999999994
 21
1205.6424999999999
  0
LINE
  8
_0-1_LAYER001
  6
CONTINUOUS
 62
   18
 10
832.95920000000001
 20
1219.3213000000001
 11
860.31680000000006
 21
1207.0102999999999
  0
LINE
  8
_0-1_LAYER001
  6
CONTINUOUS
 62
   18
 10
860.31680000000006
 20
1207.0102999999999
 11
854.16129999999998
 21
1193.3315
  0
LINE
  8
_0-1_LAYER001
  6
CONTINUOUS
 62
   18
 10
1041.9717000000001
 20
1109.6365000000001
 11
1048.1271999999999
 21
1123.3153
  0
LINE
  8
_0-1_LAYER001
  6
CONTINUOUS
 62
   18
 10
1048.1271999999999
 20
1123.3153
 11
1075.4848
 21
1111.0043000000001
  0
LINE
  8
_0-1_LAYER001
  6
CONTINUOUS
 62
   18
 10
1075.4848
 20
1111.0043000000001
 11
1069.3293000000001
 21
1097.3254999999999
  0
LINE
  8
_0-1_LAYER001
  6
CONTINUOUS
 62
   18
 10
1069.3293000000001
 20
1097.3254999999999
 11
1048.1271999999999
 21
1123.3153
  0
LINE
  8
_0-1_LAYER001
  6
CONTINUOUS
 62
   18
 10
1041.9717000000001
 20
1109.6365000000001
 11
1069.3293000000001
 21
1097.3254999999999
  0
LINE
  8
_0-1_LAYER001
  6
CONTINUOUS
 62
   18
 10
1216.4487999999999
 20
1062.1078
 11
1204.1378999999999
 21
1034.7501
  0
LINE
  8
_0-1_LAYER001
  6
CONTINUOUS
 62
   18
 10
1204.1378999999999
 20
1034.7501
 11
1240.6148000000001
 21
1018.3356000000001
  0
LINE
  8
_0-1_LAYER001
  6
CONTINUOUS
 62
   18
 10
1240.6148000000001
 20
1018.3356000000001
 11
1252.9257
 21
1045.6931999999999
  0
LINE
  8
_0-1_LAYER001
  6
CONTINUOUS
 62
   18
 10
1252.9257
 20
1045.6931999999999
 11
1216.4487999999999
 21
1062.1078
  0
LINE
  8
_0-1_LAYER001
  6
CONTINUOUS
 62
   18
 10
1216.4487999999999
 20
1062.1078
 11
1240.6148000000001
 21
1018.3356000000001
  0
LINE
  8
_0-1_LAYER001
  6
CONTINUOUS
 62
   18
 10
1252.9257
 20
1045.6931999999999
 11
1204.1378999999999
 21
1034.7501
  0
LINE
  8
_0-1_LAYER001
  6
CONTINUOUS
 62
   18
 10
1227.3595
 20
1058.1463000000001
 11
1254.7974999999999
 21
1045.7992999999999
  0
LINE
  8
_0-1_LAYER001
  6
CONTINUOUS
 62
   18
 10
1254.7974999999999
 20
1045.7992999999999
 11
1253.3874000000001
 21
1012.5214000000001
  0
LINE
  8
_0-1_LAYER001
  6
CONTINUOUS
 62
   18
 10
1253.3874000000001
 20
1012.5214000000001
 11
1410.268
 21
941.9251999999999
  0
LINE
  8
_0-1_LAYER001
  6
CONTINUOUS
 62
   18
 10
1410.268
 20
941.9251999999999
 11
1567.1487000000002
 21
1012.5214000000001
  0
LINE
  8
_0-1_LAYER001
  6
CONTINUOUS
 62
   18
 10
1567.1487000000002
 20
1012.5214000000001
 11
1565.7386000000001
 21
1045.7992999999999
  0
LINE
  8
_0-1_LAYER001
  6
CONTINUOUS
 62
   18
 10
1565.7386000000001
 20
1045.7992999999999
 11
1593.1765999999998
 21
1058.1463000000001
  0
LINE
  8
_0-1_LAYER001
  6
CONTINUOUS
 62
   18
 10
1593.1765999999998
 20
1058.1463000000001
 11
1585.6660000000002
 21
1058.0289
  0
LINE
  8
_0-1_LAYER001
  6
CONTINUOUS
 62
   18
 10
1567.6104
 20
1045.6931999999999
 11
1604.0871999999999
 21
1062.1078
  0
LINE
  8
_0-1_LAYER001
  6
CONTINUOUS
 62
   18
 10
1604.0871999999999
 20
1062.1078
 11
1592.0042254374744
 21
1040.2216555093839
  0
LINE
  8
_0-1_LAYER001
  6
CONTINUOUS
 62
   18
 10
1592.0042254374744
 20
1040.2216555093839
 11
1567.6104
 21
1045.6931999999999
  0
LINE
  8
_0-1_LAYER001
  6
CONTINUOUS
 62
   18
 10
1567.6104
 20
1045.6931999999999
 11
1579.9213
 21
1018.3356000000001
  0
LINE
  8
_0-1_LAYER001
  6
CONTINUOUS
 62
   18
 10
1579.9213
 20
1018.3356000000001
 11
1592.0042254374744
 21
1040.2216555093839
  0
LINE
  8
_0-1_LAYER001
  6
CONTINUOUS
 62
   18
 10
1592.0042254374744
 20
1040.2216555093839
 11
1616.3980999999999
 21
1034.7501
  0
LINE
  8
_0-1_LAYER001
  6
CONTINUOUS
 62
   18
 10
1616.3980999999999
 20
1034.7501
 11
1579.9213
 21
1018.3356000000001
  0
LINE
  8
_0-1_LAYER001
  6
CONTINUOUS
 62
   18
 10
1604.0871999999999
 20
1062.1078
 11
1616.3980999999999
 21
1034.7501
  0
LINE
  8
_0-1_LAYER001
  6
CONTINUOUS
 62
   18
 10
1671.9441000000002
 20
1057.5262
 11
1410.268
 21
939.77220000000011
  0
LINE
  8
_0-1_LAYER001
  6
CONTINUOUS
 62
   18
 10
1410.268
 20
939.77220000000011
 11
1148.5920000000001
 21
1057.5262
  0
LINE
  8
_0-1_LAYER001
  6
CONTINUOUS
 62
   18
 10
1221.7986000000001
 20
1048.3362999999999
 11
1221.7986000000001
 21
1040.8362999999999
  0
LINE
  8
_0-1_LAYER001
  6
CONTINUOUS
 62
   18
 10
1221.7986000000001
 20
1040.8362999999999
 11
1225.0670552038553
 21
1046.4974387306879
  0
LINE
  8
_0-1_LAYER001
  6
CONTINUOUS
 62
   18
 10
1225.5486000000001
 20
1047.3315
 11
1225.0670552038553
 21
1046.4974387306879
  0
LINE
  8
_0-1_LAYER001
  6
CONTINUOUS
 62
   18
 10
1227.3595
 20
1058.1463000000001
 11
1235.6230262039289
 21
1057.7078645614638
  0
LINE
  8
_0-1_LAYER001
  6
CONTINUOUS
 62
   18
 10
1221.7986000000001
 20
1040.8362999999999
 11
1258.6587
 21
1178.4000000000001
  0
LINE
  8
_0-1_LAYER001
  6
CONTINUOUS
 62
   18
 10
1391.1765
 20
1205.4443000000001
 11
1408.8088661743222
 21
1254.0446835970349
  0
LINE
  8
_0-1_LAYER001
  6
CONTINUOUS
 62
   18
 10
1408.2290793319239
 20
1252.446607498428
 11
1187.3185000000001
 21
1332.5934999999999
  0
LINE
  8
_0-1_LAYER001
  6
CONTINUOUS
 62
   18
 10
1170.2660000000001
 20
1285.5913
 11
1198.1298661743224
 21
1362.3929835970348
  0
LINE
  8
_0-1_LAYER001
  6
CONTINUOUS
 62
   18
 10
1197.5500999999999
 20
1360.7949000000003
 11
976.63953564002236
 21
1440.9417870697139
  0
LINE
  8
_0-1_LAYER001
  6
CONTINUOUS
 62
   18
 10
977.21932248231394
 20
1442.5398631680266
 11
959.58699999999999
 21
1393.9395999999999
  0
LINE
  8
_0-1_LAYER001
  6
CONTINUOUS
 62
   18
 10
1066.4024999999999
 20
1296.4668999999999
 11
1036.954
 21
1186.5634
  0
LINE
  8
_0-1_LAYER001
  6
CONTINUOUS
 62
   18
 10
1036.954
 20
1186.5634
 11
1036.954
 21
1194.0634
  0
LINE
  8
_0-1_LAYER001
  6
CONTINUOUS
 62
   18
 10
1036.954
 20
1186.5634
 11
1040.704
 21
1193.0586000000001
  0
LINE
  8
_0-1_LAYER001
  6
CONTINUOUS
 62
   18
 10
1381.8202999999999
 20
963.3101999999999
 11
1381.8202999999999
 21
955.8101999999999
  0
LINE
  8
_0-1_LAYER001
  6
CONTINUOUS
 62
   18
 10
1381.8202999999999
 20
955.8101999999999
 11
1385.5702999999999
 21
962.30539999999996
  0
LINE
  8
_0-1_LAYER001
  6
CONTINUOUS
 62
   18
 10
1381.8202999999999
 20
955.8101999999999
 11
1467.8977
 21
1277.0554
  0
LINE
  8
_0-1_LAYER001
  6
CONTINUOUS
 62
   18
 10
1735.6507999999999
 20
1107.5938000000001
 11
1741.8063000000002
 21
1093.915
  0
LINE
  8
_0-1_LAYER001
  6
CONTINUOUS
 62
   18
 10
1769.1639
 20
1106.2258999999999
 11
1763.0084000000002
 21
1119.9048
  0
LINE
  8
_0-1_LAYER001
  6
CONTINUOUS
 62
   18
 10
1763.0084000000002
 20
1119.9048
 11
1735.6507999999999
 21
1107.5938000000001
  0
LINE
  8
_0-1_LAYER001
  6
CONTINUOUS
 62
   18
 10
1741.8063000000002
 20
1093.915
 11
1763.0084000000002
 21
1119.9048
  0
LINE
  8
_0-1_LAYER001
  6
CONTINUOUS
 62
   18
 10
1741.8063000000002
 20
1093.915
 11
1769.8779
 21
1106.6848
  0
LINE
  8
_0-1_LAYER001
  6
CONTINUOUS
 62
   18
 10
1761.2015000000001
 20
1106.6637000000001
 11
1761.2015000000001
 21
1099.1637000000001
  0
LINE
  8
_0-1_LAYER001
  6
CONTINUOUS
 62
   18
 10
1761.2015000000001
 20
1106.6637000000001
 11
1764.8105442954877
 21
1100.4126427978529
  0
LINE
  8
_0-1_LAYER001
  6
CONTINUOUS
 62
   18
 10
1761.2015000000001
 20
1106.6637000000001
 11
1838.8094000000001
 21
817.02729999999997
  0
LINE
  8
_0-1_LAYER001
  6
CONTINUOUS
 62
   18
 10
2018.2864
 20
907.08449999999993
 11
1814.6786271693754
 21
907.08449999999993
  0
LINE
  8
_0-1_LAYER001
  6
CONTINUOUS
 62
   18
 10
1410.268
 20
907.97129999999993
 11
1544.3507
 21
968.30850000000009
  0
LINE
  8
_0-1_LAYER001
  6
CONTINUOUS
 62
   18
 10
1544.3507
 20
968.30850000000009
 11
1543.3248152031438
 21
970.58816621638812
  0
LINE
  8
_0-1_LAYER001
  6
CONTINUOUS
 62
   18
 10
1410.268
 20
907.97129999999993
 11
1276.1854000000001
 21
968.30850000000009
  0
LINE
  8
_0-1_LAYER001
  6
CONTINUOUS
 62
   18
 10
1276.1854000000001
 20
968.30850000000009
 11
1277.2111850259635
 21
970.58816672225453
  0
LINE
  8
_0-1_LAYER001
  6
CONTINUOUS
 62
   18
 10
1410.268
 20
787.34690000000001
 11
2077.9166
 21
1087.7881
  0
LINE
  8
_0-1_LAYER001
  6
CONTINUOUS
 62
   18
 10
1410.268
 20
787.34690000000001
 11
738.83539999999994
 21
1089.4909
  0
LINE
  8
_0-1_LAYER001
  6
CONTINUOUS
 62
   18
 10
1081.8932
 20
909.30639999999994
 11
1037.7384999999999
 21
811.1844000000001
  0
LINE
  8
_0-1_LAYER001
  6
CONTINUOUS
 62
   18
 10
1037.7384999999999
 20
811.1844000000001
 11
1061.779
 21
811.03060000000005
  0
LINE
  8
_0-1_LAYER001
  6
CONTINUOUS
 62
   18
 10
1037.7384999999999
 20
811.1844000000001
 11
1053.6960999999999
 21
793.04999999999995
  0
LINE
  8
_0-1_LAYER001
  6
CONTINUOUS
 62
   18
 10
1037.7384999999999
 20
811.1844000000001
 11
1324.3377
 21
682.21499999999992
  0
LINE
  8
_0-1_LAYER001
  6
CONTINUOUS
 62
   18
 10
1167.6288
 20
856.14419999999996
 11
1142.5289
 21
800.36650000000009
  0
LINE
  8
_0-1_LAYER001
  6
CONTINUOUS
 62
   18
 10
1142.5289
 20
800.36650000000009
 11
1143.5548061380157
 21
802.64629723789903
  0
LINE
  8
_0-1_LAYER001
  6
CONTINUOUS
 62
   18
 10
1143.5548061380157
 20
802.64629723789903
 11
1324.388932868646
 21
721.27111867910969
  0
LINE
  8
_0-1_LAYER001
  6
CONTINUOUS
 62
   18
 10
1324.388932868646
 20
721.27111867910969
 11
1325.9392
 21
720.57349999999997
  0
LINE
  8
_0-1_LAYER001
  6
CONTINUOUS
 62
   18
 10
1325.2415876676041
 20
719.02323001264654
 11
1346.4573999999998
 21
766.16959999999995
  0
LINE
  8
_0-1_LAYER001
  6
CONTINUOUS
 62
   18
 10
1225.7638999999999
 20
802.56889999999999
 11
1236.0229999999999
 21
825.36689999999999
  0
LINE
  8
_0-1_LAYER001
  6
CONTINUOUS
 62
   18
 10
1225.0662881226408
 20
801.01862980788269
 11
1225.7638999999999
 21
802.56889999999999
  0
LINE
  8
_0-1_LAYER001
  6
CONTINUOUS
 62
   18
 10
1225.7638999999999
 20
802.56889999999999
 11
1157.3697075600126
 21
833.34619659800421
  0
LINE
  8
_0-1_LAYER001
  6
CONTINUOUS
 62
   18
 10
1472.7667000000001
 20
769.08510000000001
 11
1493.9825123323958
 21
721.93873001264649
  0
LINE
  8
_0-1_LAYER001
  6
CONTINUOUS
 62
   18
 10
1493.2849000000001
 20
723.48900000000003
 11
1675.6693
 21
805.56179999999995
  0
LINE
  8
_0-1_LAYER001
  6
CONTINUOUS
 62
   18
 10
1676.3669123323959
 20
804.01153001264629
 11
1651.7791999999999
 21
858.65090000000009
  0
LINE
  8
_0-1_LAYER001
  6
CONTINUOUS
 62
   18
 10
1662.0383000000002
 20
835.85290000000009
 11
1593.6441
 21
805.07559999999989
  0
LINE
  8
_0-1_LAYER001
  6
CONTINUOUS
 62
   18
 10
1594.3417118773596
 20
803.52532980788283
 11
1583.3850000000002
 21
827.8735999999999
  0
LINE
  8
_0-1_LAYER001
  6
CONTINUOUS
 62
   18
 10
1740.9149000000002
 20
904.25739999999996
 11
1782.9128000000001
 21
810.92849999999999
  0
LINE
  8
_0-1_LAYER001
  6
CONTINUOUS
 62
   18
 10
1758.7570999999998
 20
811.03060000000005
 11
1782.7975999999999
 21
811.1844000000001
  0
LINE
  8
_0-1_LAYER001
  6
CONTINUOUS
 62
   18
 10
1782.7975999999999
 20
811.1844000000001
 11
1766.8400000000001
 21
793.04999999999995
  0
LINE
  8
_0-1_LAYER001
  6
CONTINUOUS
 62
   18
 10
1782.7975999999999
 20
811.1844000000001
 11
1491.8243000000002
 21
680.24669999999992
  0
TEXT
  8
_0-2_ADD_LINE
 62
    7
 10
1685.8939188082982
 20
1100.732191076534
 40
20
 41
1
 50
0
  1
：
  0
TEXT
  8
_0-2_ADD_LINE
 62
    7
 10
1355.463984220698
 20
1137.7360852015699
 40
15
 41
0.5
 50
0
  1
　
  0
TEXT
  8
_0-2_ADD_LINE
 62
    7
 10
1820.888251428137
 20
878.21862207845493
 40
20
 41
1
 50
0
  1
下葺材：ルーフィング
  0
TEXT
  8
_0-2_ADD_LINE
 62
    7
 10
1851.4932850448429
 20
820.4091141357884
 40
20
 41
1
 50
0
  1
　鋼製：C100x50x20x2.3
  0
TEXT
  8
_0-2_ADD_LINE
 62
    7
 10
1069.3646481734718
 20
1301.5882537762191
 40
20
 41
1
 50
0
  1
桟　瓦
  0
TEXT
  8
_0-1_LAYER001
 62
    7
 10
1834.4904885911174
 20
851.01414775249418
 40
20
 41
1
 50
0
  1
　野地板：硬質木片セメントパネルｔ＝25
  0
TEXT
  8
_0-2_ADD_LINE
 62
    7
 10
1574.3477028491179
 20
764.29988583849445
 40
20
 41
1
 50
24.227686999999985
  1
200
  0
TEXT
  8
_0-1_LAYER001
 62
    7
 10
1611.7538550473139
 20
823.80967342653344
 40
20
 41
1
 50
24.227686999999968
  1
75
  0
TEXT
  8
_0-1_LAYER001
 62
    7
 10
1230.8912144838637
 20
774.50156371072978
 40
20
 41
1
 50
-24.227700000000016
  1
200
  0
TEXT
  8
_0-2_ADD_LINE
 62
    7
 10
1191.7847826402951
 20
828.91051236265116
 40
20
 41
1
 50
-24.227700000000059
  1
75
  0
TEXT
  8
_0-1_LAYER001
 62
    7
 10
1099.9696817901777
 20
1415.5069900161793
 40
20
 41
1
 50
-19.94091700000002
  1
235
  0
TEXT
  8
_0-2_ADD_LINE
 62
    7
 10
1278.4990445542949
 20
1315.1904909391992
 40
20
 41
1
 50
-19.940916999999981
  1
235
  0
TEXT
  8
_0-1_LAYER001
 62
    7
 10
1470.6306444813924
 20
1282.8851776771207
 40
20
 41
1
 50
0
  1
谷樋カラー鋼板0.35ｍｍ以上
  0
TEXT
  8
_0-1_LAYER001
 62
    7
 10
1300.6026799441381
 20
641.87975137167109
 40
20
 41
1
 50
0
  1
この範囲ルーフィング２枚貼り
  0
TEXT
  8
_0-2_ADD_LINE
 62
    7
 10
1815.7874124920193
 20
913.92449463127844
 40
20
 41
1
 50
0
  1
瓦桟：15x30以上
  0
LINE
  8
_0-1_LAYER001
  6
CONTINUOUS
 62
    2
 10
1467.8977
 20
1277.0554
 11
1766.4793027762155
 21
1277.0554
  0
LINE
  8
_0-1_LAYER001
  6
CONTINUOUS
 62
   18
 10
1467.8977
 20
1277.0554
 11
1757.9779045493528
 21
1277.0554
  0
LINE
  8
_0-1_LAYER001
  6
CONTINUOUS
 62
    2
 10
1066.4024999999999
 20
1296.4668999999999
 11
1137.3758339883736
 21
1296.4668999999999
  0
LINE
  8
_0-1_LAYER001
  6
CONTINUOUS
 62
   18
 10
1066.4024999999999
 20
1296.4668999999999
 11
1139.0761136337462
 21
1296.4668999999999
  0
LINE
  8
_0-1_LAYER001
  6
CONTINUOUS
 62
    2
 10
1838.8094000000001
 20
817.02729999999997
 11
2103.1346725599797
 21
817.02729999999997
  0
LINE
  8
_0-1_LAYER001
  6
CONTINUOUS
 62
   18
 10
1838.8094000000001
 20
817.02729999999997
 11
2091.2327150423716
 21
817.02729999999997
  0
LINE
  8
_0-1_LAYER001
  6
CONTINUOUS
 62
    2
 10
1831.6361999999999
 20
846.89380000000006
 11
2262.960959224999
 21
846.89380000000006
  0
LINE
  8
_0-1_LAYER001
  6
CONTINUOUS
 62
   18
 10
2257.8601202888813
 20
846.89380000000006
 11
1831.6361999999999
 21
846.89380000000006
  0
LINE
  8
_0-1_LAYER001
  6
CONTINUOUS
 62
    2
 10
1822.0931
 20
876.98910000000001
 11
2036.8237663904504
 21
876.98910000000001
  0
LINE
  8
_0-1_LAYER001
  6
CONTINUOUS
 62
   18
 10
1822.0931
 20
876.98910000000001
 11
2040.2243256811953
 21
876.98910000000001
  0
TEXT
  8
_0-2_ADD_LINE
 62
    7
 10
1268.2973666820596
 20
1185.9692378908858
 40
20
 41
1
 50
0
  1
桟木40x30
  0
LINE
  8
_0-1_LAYER001
  6
CONTINUOUS
 62
    2
 10
1258.6587
 20
1178.4000000000001
 11
1372.0144250497851
 21
1178.4000000000001
  0
LINE
  8
_0-1_LAYER001
  6
CONTINUOUS
 62
   18
 10
1258.6587
 20
1178.4000000000001
 11
1366.9135861136672
 21
1178.4000000000001
  0
ENDSEC
  0
EOF
