  0
SECTION
  2
HEADER
  9
$ACADVER
  1
AC1009
  9
$INSBASE
 10
0
 20
0
 30
0
  9
$EXTMIN
 10
0
 20
0
  9
$EXTMAX
 10
2970
 20
2100
  9
$LIMMIN
 10
0
 20
0
  9
$LIMMAX
 10
2970
 20
2100
  9
$LTSCALE
 40
10
  0
ENDSEC
  0
SECTION
  2
TABLES
  0
TABLE
  2
LTYPE
 70
     9
  0
LTYPE
  2
CONTINUOUS
 70
    64
  3
実線
 72
    65
 73
     0
 40
0.0
  0
LTYPE
  2
DASHED1
 70
    64
  3
--  --  --  --  --  --  --  --  
 72
    65
 73
     2
 40
2.5
 49
1.25
 49
-1.25
  0
LTYPE
  2
DASHED2
 70
    64
  3
----    ----    ----    ----    
 72
    65
 73
     2
 40
5.0
 49
2.5
 49
-2.5
  0
LTYPE
  2
DASHED3
 70
    64
  3
------  ------  ------  ------  
 72
    65
 73
     2
 40
5.0
 49
3.75
 49
-1.25
  0
LTYPE
  2
CENTER1
 70
    64
  3
----- - ----- - ----- - ----- - 
 72
    65
 73
     4
 40
10.0
 49
6.25
 49
-1.25
 49
1.25
 49
-1.25
  0
LTYPE
  2
CENTER2
 70
    64
  3
----------  --  ----------  --  
 72
    65
 73
     4
 40
20.0
 49
12.5
 49
-2.5
 49
2.5
 49
-2.5
  0
LTYPE
  2
PHANTOM1
 70
    64
  3
--- - - --- - - --- - - --- - - 
 72
    65
 73
     6
 40
10.0
 49
3.25
 49
-1.25
 49
1.25
 49
-1.25
 49
1.25
 49
-1.25
  0
LTYPE
  2
PHANTOM2
 70
    64
  3
--------  -  -  --------  -  -  
 72
    65
 73
     6
 40
20.0
 49
10.0
 49
-2.5
 49
1.25
 49
-2.5
 49
1.25
 49
-2.5
  0
LTYPE
  2
DOT
 70
    64
  3
-   -   -   -   -   -   -   -   
 72
    65
 73
     2
 40
2.5
 49
0.625
 49
-1.875
  0
LTYPE
  2
DUMMY
 70
    64
  3
ダミー
 72
    65
 73
     0
 40
0.0
  0
LTYPE
  2
RAND1
 70
    64
  3
ランダム線1
 72
    65
 73
     4
 40
10.0
 49
1.0
 49
-2.0
 49
3.0
 49
-4.0
  0
LTYPE
  2
RAND2
 70
    64
  3
ランダム線2
 72
    65
 73
     4
 40
14.0
 49
2.0
 49
-3.0
 49
4.0
 49
-5.0
  0
LTYPE
  2
RAND3
 70
    64
  3
ランダム線3
 72
    65
 73
     4
 40
18.0
 49
3.0
 49
-4.0
 49
5.0
 49
-6.0
  0
LTYPE
  2
RAND4
 70
    64
  3
ランダム線4
 72
    65
 73
     4
 40
22.0
 49
4.0
 49
-5.0
 49
6.0
 49
-7.0
  0
LTYPE
  2
RAND5
 70
    64
  3
ランダム線5
 72
    65
 73
     4
 40
26.0
 49
5.0
 49
-6.0
 49
7.0
 49
-8.0
  0
LTYPE
  2
LONG1
 70
    64
  3
----------  --  ----------  --  
 72
    65
 73
     4
 40
40.0
 49
32.5
 49
-2.5
 49
2.5
 49
-2.5
  0
LTYPE
  2
LONG2
 70
    64
  3
--------  -  -  --------  -  -  
 72
    65
 73
     6
 40
40.0
 49
30.0
 49
-2.5
 49
1.25
 49
-2.5
 49
1.25
 49
-2.5
  0
LTYPE
  2
LONG3
 70
    64
  3
+++++++++++++++..+++++++++++++++
 72
    65
 73
     2
 40
40.0
 49
37.5
 49
-2.5
  0
LTYPE
  2
LONG4
 70
    64
  3
+++++++++++++++..+++++++++++++++
 72
    65
 73
     2
 40
80.0
 49
75.0
 49
-5.0
  0
LTYPE
  2
LONG5
 70
    64
  3
----------  --  ----------  --  
 72
    65
 73
     4
 40
60.0
 49
37.5
 49
-7.5
 49
7.5
 49
-7.5
  0
LTYPE
  2
dashed
 70
   64
  3
-------   -------------   ------
 72
   65
 73
    2
 40
7.5
 49
6
 49
-1.5
  0
LTYPE
  2
dashed_spaced
 70
   64
  3
----        --------        ----
 72
   65
 73
    2
 40
12
 49
6
 49
-6
  0
LTYPE
  2
long_dashed_dotted
 70
   64
  3
------------- --- --------------
 72
   65
 73
    4
 40
15.25
 49
12
 49
-1.5
 49
0.25
 49
-1.5
  0
LTYPE
  2
long_dashed_double-dotted
 70
   64
  3
----------- --- --- ------------
 72
   65
 73
    6
 40
17
 49
12
 49
-1.5
 49
0.25
 49
-1.5
 49
0.25
 49
-1.5
  0
LTYPE
  2
long_dashed_triplicate-dotted
 70
   64
  3
--------- --- --- --- ----------
 72
   65
 73
    8
 40
18.75
 49
12
 49
-1.5
 49
0.25
 49
-1.5
 49
0.25
 49
-1.5
 49
0.25
 49
-1.5
  0
LTYPE
  2
dotted
 70
   64
  3
   -       -       -       -    
 72
   65
 73
    2
 40
1.75
 49
0.25
 49
-1.5
  0
LTYPE
  2
chain
 70
   64
  3
-------------- -- --------------
 72
   65
 73
    4
 40
18.5
 49
12
 49
-1.5
 49
3.5
 49
-1.5
  0
LTYPE
  2
chain_double_dash
 70
   64
  3
------------ -- -- -------------
 72
   65
 73
    6
 40
23.5
 49
12
 49
-1.5
 49
3.5
 49
-1.5
 49
3.5
 49
-1.5
  0
LTYPE
  2
dashed_dotted
 70
   64
  3
-----------     -     ----------
 72
   65
 73
    4
 40
9.25
 49
6
 49
-1.5
 49
0.25
 49
-1.5
  0
LTYPE
  2
double-dashed_dotted
 70
   64
  3
------   -----------   -   -----
 72
   65
 73
    6
 40
16.75
 49
6
 49
-1.5
 49
6
 49
-1.5
 49
0.25
 49
-1.5
  0
LTYPE
  2
dashed_double-dotted
 70
   64
  3
---------    -    -    ---------
 72
   65
 73
    6
 40
11
 49
6
 49
-1.5
 49
0.25
 49
-1.5
 49
0.25
 49
-1.5
  0
LTYPE
  2
double-dashed_double-dotted
 70
   64
  3
-----   ---------   -   -   ----
 72
   65
 73
    8
 40
18.5
 49
6
 49
-1.5
 49
6
 49
-1.5
 49
0.25
 49
-1.5
 49
0.25
 49
-1.5
  0
LTYPE
  2
dashed_triplicate-dotted
 70
   64
  3
-------    -    -    -    ------
 72
   65
 73
    8
 40
12.75
 49
6
 49
-1.5
 49
0.25
 49
-1.5
 49
0.25
 49
-1.5
 49
0.25
 49
-1.5
  0
LTYPE
  2
double-dashed_triplicate-dotted
 70
   64
  3
-----  ---------  -  -  -  -----
 72
   65
 73
   10
 40
20.25
 49
6
 49
-1.5
 49
6
 49
-1.5
 49
0.25
 49
-1.5
 49
0.25
 49
-1.5
 49
0.25
 49
-1.5
  0
LTYPE
  2
undefined
 70
   64
  3
--------------------------------
 72
   65
 73
    0
 40
0
  0
ENDTAB
  0
TABLE
  2
STYLE
  5
3
100
AcDbSymbolTable
 70
     1
  0
STYLE
  5
10
100
AcDbSymbolTableRecord
100
AcDbTextStyleTableRecord
  2
STANDARD
 70
     0
 40
0.0
 41
1.0
 50
0.0
 71
     0
 42
0.2
  3
txt
  4
bigfont.shx
  0
STYLE
  5
26
100
AcDbSymbolTableRecord
100
AcDbTextStyleTableRecord
  2
TATEGAKI
 70
    68
 40
0.0
 41
1.0
 50
0.0
 71
     0
 42
1.0
  3
txt
  4
bigfont.shx
  0
ENDTAB
  0
TABLE
  2
LAYER
 70
    5
  0
LAYER
  2
_0-0_LAYER001
 70
   64
 62
    7
  6
CONTINUOUS
  0
LAYER
  2
_0-1_LAYER003
 70
   64
 62
    7
  6
CONTINUOUS
  0
LAYER
  2
_0-2_LAYER004
 70
   64
 62
    7
  6
CONTINUOUS
  0
LAYER
  2
_0-3_LAYER007
 70
   64
 62
    7
  6
CONTINUOUS
  0
LAYER
  2
ADD_LINE
 70
   64
 62
    7
  6
CONTINUOUS
  0
ENDTAB
  0
ENDSEC
  0
SECTION
  2
BLOCKS
  0
ENDSEC
  0
SECTION
  2
ENTITIES
  0
LINE
  8
_0-0_LAYER001
  6
CONTINUOUS
 62
    2
 10
1797.0461
 20
1089.3202000000001
 11
1807.0470999999998
 21
1089.3195000000001
  0
LINE
  8
_0-0_LAYER001
  6
CONTINUOUS
 62
    2
 10
1797.0468999999998
 20
1086.3200999999999
 11
1807.0459000000001
 21
1086.3196
  0
LINE
  8
_0-0_LAYER001
  6
CONTINUOUS
 62
    2
 10
1807.0470999999998
 20
1089.3195000000001
 11
1807.0459000000001
 21
1086.3196
  0
LINE
  8
_0-0_LAYER001
  6
CONTINUOUS
 62
    2
 10
1797.0461
 20
1089.3202000000001
 11
1797.0468999999998
 21
1086.3200999999999
  0
LINE
  8
_0-0_LAYER001
  6
CONTINUOUS
 62
    2
 10
1802.0466999999999
 20
1089.3199
 11
1802.0466999999999
 21
1086.3195000000001
  0
LINE
  8
_0-0_LAYER001
  6
CONTINUOUS
 62
    2
 10
1802.0403999999999
 20
1044.3197
 11
1804.0412000000001
 21
1049.9197999999999
  0
LINE
  8
_0-0_LAYER001
  6
CONTINUOUS
 62
    2
 10
1802.0403999999999
 20
1044.3197
 11
1800.0410999999999
 21
1049.9195999999999
  0
LINE
  8
_0-0_LAYER001
  6
CONTINUOUS
 62
    2
 10
1805.2824999999998
 20
1070.2177999999999
 11
1798.6356000000001
 21
1071.2754
  0
LINE
  8
_0-0_LAYER001
  6
CONTINUOUS
 62
    2
 10
1805.2806
 20
1070.2179000000001
 11
1798.6336000000001
 21
1071.2755999999999
  0
LINE
  8
_0-0_LAYER001
  6
CONTINUOUS
 62
    2
 10
1805.2800000000002
 20
1070.2177999999999
 11
1798.6332000000002
 21
1071.2755999999999
  0
LINE
  8
_0-0_LAYER001
  6
CONTINUOUS
 62
    2
 10
1805.2782000000002
 20
1060.2173
 11
1798.6325999999999
 21
1061.2744
  0
LINE
  8
_0-0_LAYER001
  6
CONTINUOUS
 62
    2
 10
1805.2779999999998
 20
1051.4753000000001
 11
1798.6311000000001
 21
1052.5328999999999
  0
LINE
  8
_0-0_LAYER001
  6
CONTINUOUS
 62
    2
 10
1800.0437999999999
 20
1083.3219999999999
 11
1800.0410999999999
 21
1049.9195999999999
  0
LINE
  8
_0-0_LAYER001
  6
CONTINUOUS
 62
    2
 10
1797.0468999999998
 20
1086.3200999999999
 11
1800.0455000000002
 21
1083.3219999999999
  0
LINE
  8
_0-0_LAYER001
  6
CONTINUOUS
 62
    2
 10
1804.0439000000001
 20
1083.3191999999999
 11
1804.0412000000001
 21
1049.9197999999999
  0
LINE
  8
_0-0_LAYER001
  6
CONTINUOUS
 62
    2
 10
1807.0459000000001
 20
1086.3196
 11
1804.0455999999999
 21
1083.3191999999999
  0
LINE
  8
_0-0_LAYER001
  6
CONTINUOUS
 62
    2
 10
1842.0050999999999
 20
932.96479999999997
 11
1837.3463000000002
 21
923.79279999999994
  0
LINE
  8
_0-0_LAYER001
  6
CONTINUOUS
 62
    2
 10
1844.9313000000002
 20
929.06310000000008
 11
1842.0050999999999
 21
932.96479999999997
  0
LINE
  8
_0-0_LAYER001
  6
CONTINUOUS
 62
    2
 10
1837.3463000000002
 20
923.79279999999994
 11
1835.0405000000001
 21
929.06310000000008
  0
LINE
  8
_0-0_LAYER001
  6
CONTINUOUS
 62
    2
 10
1875.3294999999998
 20
929.06310000000008
 11
1844.9313000000002
 21
929.06310000000008
  0
LINE
  8
_0-0_LAYER001
  6
CONTINUOUS
 62
    2
 10
1835.0405000000001
 20
929.06310000000008
 11
1804.4283
 21
929.06310000000008
  0
LINE
  8
_0-1_LAYER003
  6
CONTINUOUS
 62
    2
 10
1806.8339000000001
 20
1109.7988
 11
1806.8339000000001
 21
1094.7988
  0
LINE
  8
_0-1_LAYER003
  6
CONTINUOUS
 62
    2
 10
1224.6275000000001
 20
1089.3198
 11
1827.0412999999999
 21
1089.3198
  0
LINE
  8
_0-1_LAYER003
  6
CONTINUOUS
 62
    2
 10
1853.9823999999999
 20
992.5293999999999
 11
1852.0412999999999
 21
999.77379999999994
  0
LINE
  8
_0-1_LAYER003
  6
CONTINUOUS
 62
    2
 10
1852.0412999999999
 20
999.77379999999994
 11
1857.3445999999999
 21
994.4704999999999
  0
LINE
  8
_0-1_LAYER003
  6
CONTINUOUS
 62
    2
 10
1852.0412999999999
 20
999.77379999999994
 11
1915.1817000000001
 21
890.41129999999998
  0
LINE
  8
_0-1_LAYER003
  6
CONTINUOUS
 62
    2
 10
1915.1817000000001
 20
890.41129999999998
 11
1963.1817000000001
 21
890.41129999999998
  0
LINE
  8
_0-1_LAYER003
  6
CONTINUOUS
 62
    2
 10
1209.6556
 20
1133.4333999999999
 11
1204.3523
 21
1128.1300000000001
  0
LINE
  8
_0-1_LAYER003
  6
CONTINUOUS
 62
    2
 10
1204.3523
 20
1128.1300000000001
 11
1206.2934
 21
1135.3744999999999
  0
LINE
  8
_0-1_LAYER003
  6
CONTINUOUS
 62
    2
 10
1204.3523
 20
1128.1300000000001
 11
1264.4575
 21
1232.2354
  0
LINE
  8
_0-1_LAYER003
  6
CONTINUOUS
 62
    2
 10
1264.4575
 20
1232.2354
 11
1304.9575
 21
1232.2354
  0
LINE
  8
_0-1_LAYER003
  6
CONTINUOUS
 62
    2
 10
1672.4196000000002
 20
1150.6436000000001
 11
1667.1163000000001
 21
1145.3403000000001
  0
LINE
  8
_0-1_LAYER003
  6
CONTINUOUS
 62
    2
 10
1667.1163000000001
 20
1145.3403000000001
 11
1669.0574000000001
 21
1152.5847000000001
  0
LINE
  8
_0-1_LAYER003
  6
CONTINUOUS
 62
    2
 10
1667.1163000000001
 20
1145.3403000000001
 11
1716.3290999999999
 21
1230.5793000000001
  0
LINE
  8
_0-1_LAYER003
  6
CONTINUOUS
 62
    2
 10
1716.3290999999999
 20
1230.5793000000001
 11
1764.3290999999999
 21
1230.5793000000001
  0
LINE
  8
_0-0_LAYER001
  6
CONTINUOUS
 62
    1
 10
1006.8181999999999
 20
1069.3198
 11
1827.0412999999999
 21
1069.3198
  0
LINE
  8
_0-0_LAYER001
  6
CONTINUOUS
 62
    1
 10
1006.8181999999999
 20
1074.3198
 11
1827.0412999999999
 21
1074.3198
  0
LINE
  8
_0-0_LAYER001
  6
CONTINUOUS
 62
    1
 10
1006.8181999999999
 20
1079.3198
 11
1827.0412999999999
 21
1079.3198
  0
LINE
  8
_0-0_LAYER001
  6
CONTINUOUS
 62
    1
 10
1006.8181999999999
 20
1084.3198
 11
1827.0412999999999
 21
1084.3198
  0
LINE
  8
_0-3_LAYER007
  6
CONTINUOUS
 62
    2
 10
1806.8339000000001
 20
1109.7988
 11
1006.8181999999999
 21
1109.7988
  0
LINE
  8
_0-2_LAYER004
  6
CONTINUOUS
 62
    2
 10
1806.8339000000001
 20
1094.7988
 11
1006.8181999999999
 21
1094.7988
  0
LINE
  8
_0-2_LAYER004
  6
DASHED3
 62
    2
 10
1822.5565999999999
 20
1090.0988
 11
1006.8181999999999
 21
1090.0988
  0
LINE
  8
_0-0_LAYER001
  6
CONTINUOUS
 62
    2
 10
1177.2462
 20
854.00649999999996
 11
1382.0688999999998
 21
854.00649999999996
  0
LINE
  8
_0-0_LAYER001
  6
CONTINUOUS
 62
    2
 10
1110.9663
 20
1098.4005999999999
 11
1110.9663
 21
1105.9005999999999
  0
LINE
  8
_0-0_LAYER001
  6
CONTINUOUS
 62
    2
 10
1110.9663
 20
1105.9005999999999
 11
1114.7163
 21
1099.4054000000001
  0
LINE
  8
_0-0_LAYER001
  6
CONTINUOUS
 62
    2
 10
1110.9663
 20
1105.9005999999999
 11
1202.5918999999999
 21
763.94929999999999
  0
LINE
  8
_0-0_LAYER001
  6
CONTINUOUS
 62
    2
 10
1202.5918999999999
 20
763.94929999999999
 11
1594.9470000000001
 21
763.94929999999999
  0
LINE
  8
_0-0_LAYER001
  6
CONTINUOUS
 62
    2
 10
1195.4186999999999
 20
793.81580000000008
 11
1532.7379000000001
 21
793.81580000000008
  0
LINE
  8
_0-0_LAYER001
  6
CONTINUOUS
 62
    2
 10
1185.8756000000001
 20
823.91110000000003
 11
1528.6403
 21
823.91110000000003
  0
LINE
  8
_0-0_LAYER001
  6
CONTINUOUS
 62
    2
 10
1940.5252999999998
 20
1064.3198
 11
1902.8654999999999
 21
1064.3198
  0
CIRCLE
  8
_0-0_LAYER001
  6
CONTINUOUS
 62
    2
 10
1938.0252999999998
 20
1064.3198
 40
1.6999999999999997
  0
LINE
  8
_0-0_LAYER001
  6
CONTINUOUS
 62
    2
 10
1938.0252999999998
 20
1064.3198
 11
1938.0252999999998
 21
1089.3198
  0
CIRCLE
  8
_0-0_LAYER001
  6
CONTINUOUS
 62
    2
 10
1938.0252999999998
 20
1089.3198
 40
1.6999999999999997
  0
LINE
  8
_0-0_LAYER001
  6
CONTINUOUS
 62
    2
 10
1940.5252999999998
 20
1089.3198
 11
1902.8654999999999
 21
1089.3198
  0
LINE
  8
_0-0_LAYER001
  6
CONTINUOUS
 62
    2
 10
1940.5252999999998
 20
1089.3198
 11
1898.0252999999998
 21
1089.3198
  0
CIRCLE
  8
_0-0_LAYER001
  6
CONTINUOUS
 62
    2
 10
1938.0252999999998
 20
1089.3198
 40
1.6999999999999997
  0
LINE
  8
_0-0_LAYER001
  6
CONTINUOUS
 62
    2
 10
1938.0252999999998
 20
1089.3198
 11
1938.0252999999998
 21
1125.3198
  0
CIRCLE
  8
_0-0_LAYER001
  6
CONTINUOUS
 62
    2
 10
1938.0252999999998
 20
1125.3198
 40
1.6999999999999997
  0
LINE
  8
_0-0_LAYER001
  6
CONTINUOUS
 62
    2
 10
1940.5252999999998
 20
1125.3198
 11
1898.0252999999998
 21
1125.3198
  0
LINE
  8
_0-0_LAYER001
  6
CONTINUOUS
 62
    4
 10
1573.9571000000001
 20
1147.4434000000001
 11
1573.9571000000001
 21
1164.6407999999999
  0
LINE
  8
_0-0_LAYER001
  6
DASHED1
 62
    2
 10
1829.5354000000002
 20
1151.6177
 11
1845.5354000000002
 21
1151.6177
  0
LINE
  8
_0-0_LAYER001
  6
DASHED1
 62
    2
 10
1845.5354000000002
 20
1151.6177
 11
1845.5354000000002
 21
1148.6177
  0
LINE
  8
_0-0_LAYER001
  6
DASHED1
 62
    2
 10
1829.5354000000002
 20
1151.6177
 11
1829.5354000000002
 21
1148.6177
  0
LINE
  8
_0-0_LAYER001
  6
DASHED1
 62
    2
 10
1829.5354000000002
 20
1148.6177
 11
1845.5354000000002
 21
1148.6177
  0
LINE
  8
_0-0_LAYER001
  6
DASHED1
 62
    2
 10
1840.5354000000002
 20
1093.7217000000001
 11
1837.4852000000001
 21
1079.2127
  0
LINE
  8
_0-0_LAYER001
  6
DASHED1
 62
    2
 10
1840.5354000000002
 20
1148.6177
 11
1840.5354000000002
 21
1093.7217000000001
  0
LINE
  8
_0-0_LAYER001
  6
DASHED1
 62
    2
 10
1837.4852000000001
 20
1079.2127
 11
1834.5354000000002
 21
1093.4702
  0
LINE
  8
_0-0_LAYER001
  6
DASHED1
 62
    2
 10
1834.5354000000002
 20
1148.6177
 11
1834.5354000000002
 21
1093.4702
  0
LINE
  8
_0-0_LAYER001
  6
CONTINUOUS
 62
    4
 10
1434.2305000000001
 20
1103.604
 11
1425.6950000000002
 21
1118.1374000000001
  0
LINE
  8
_0-0_LAYER001
  6
CONTINUOUS
 62
    4
 10
1442.3984
 20
1102.9537
 11
1450.7046
 21
1113.0192
  0
ARC
  8
_0-0_LAYER001
  6
CONTINUOUS
 62
    4
 10
1438.5419000000002
 20
1106.1360999999999
 40
5
 50
210.42578
 51
320.47001
  0
LINE
  8
_0-0_LAYER001
  6
CONTINUOUS
 62
    4
 10
1518.3440000000001
 20
1102.4838999999999
 11
1511.0185999999999
 21
1113.7899
  0
LINE
  8
_0-0_LAYER001
  6
CONTINUOUS
 62
    4
 10
1526.8535000000002
 20
1102.6738
 11
1535.7919999999999
 21
1117.9195
  0
ARC
  8
_0-0_LAYER001
  6
CONTINUOUS
 62
    4
 10
1522.5401999999999
 20
1105.2027
 40
5
 50
212.93986000000001
 51
329.61716000000001
  0
LINE
  8
_0-0_LAYER001
  6
CONTINUOUS
 62
    4
 10
1566.1356000000001
 20
1142.2313999999999
 11
1568.5637000000002
 21
1142.6352999999999
  0
LINE
  8
_0-0_LAYER001
  6
CONTINUOUS
 62
    4
 10
1561.9465
 20
1141.5352
 11
1566.1356000000001
 21
1142.2313999999999
  0
LINE
  8
_0-0_LAYER001
  6
CONTINUOUS
 62
    4
 10
1557.7527
 20
1140.8396
 11
1561.9465
 21
1141.5352
  0
LINE
  8
_0-0_LAYER001
  6
CONTINUOUS
 62
    4
 10
1553.5538999999999
 20
1140.1456000000001
 11
1557.7527
 21
1140.8396
  0
LINE
  8
_0-0_LAYER001
  6
CONTINUOUS
 62
    4
 10
1549.3499000000002
 20
1139.4541999999999
 11
1553.5538999999999
 21
1140.1456000000001
  0
LINE
  8
_0-0_LAYER001
  6
CONTINUOUS
 62
    4
 10
1545.1430999999998
 20
1138.7665
 11
1549.3499000000002
 21
1139.4541999999999
  0
LINE
  8
_0-0_LAYER001
  6
CONTINUOUS
 62
    4
 10
1542.6907999999999
 20
1138.3679999999999
 11
1545.1430999999998
 21
1138.7665
  0
LINE
  8
_0-0_LAYER001
  6
CONTINUOUS
 62
    4
 10
1537.9580000000001
 20
1137.6056000000001
 11
1542.6907999999999
 21
1138.3679999999999
  0
LINE
  8
_0-0_LAYER001
  6
CONTINUOUS
 62
    4
 10
1529.7536
 20
1136.3217
 11
1537.9580000000001
 21
1137.6056000000001
  0
LINE
  8
_0-0_LAYER001
  6
CONTINUOUS
 62
    4
 10
1521.4461000000001
 20
1135.1018999999999
 11
1529.7536
 21
1136.3217
  0
LINE
  8
_0-0_LAYER001
  6
CONTINUOUS
 62
    4
 10
1513.0378000000001
 20
1133.9855
 11
1521.4461000000001
 21
1135.1018999999999
  0
LINE
  8
_0-0_LAYER001
  6
CONTINUOUS
 62
    4
 10
1504.5252
 20
1133.0120999999999
 11
1513.0378000000001
 21
1133.9855
  0
LINE
  8
_0-0_LAYER001
  6
CONTINUOUS
 62
    4
 10
1495.9661000000001
 20
1132.2281
 11
1504.5252
 21
1133.0120999999999
  0
LINE
  8
_0-0_LAYER001
  6
CONTINUOUS
 62
    4
 10
1490.9045999999998
 20
1131.8701000000001
 11
1495.9661000000001
 21
1132.2281
  0
LINE
  8
_0-0_LAYER001
  6
CONTINUOUS
 62
    4
 10
1488.1019999999999
 20
1131.7085
 11
1490.9045999999998
 21
1131.8701000000001
  0
LINE
  8
_0-0_LAYER001
  6
CONTINUOUS
 62
    4
 10
1483.3809999999999
 20
1131.5045
 11
1488.1019999999999
 21
1131.7085
  0
LINE
  8
_0-0_LAYER001
  6
CONTINUOUS
 62
    4
 10
1478.5517
 20
1131.3991000000001
 11
1483.3809999999999
 21
1131.5045
  0
LINE
  8
_0-0_LAYER001
  6
CONTINUOUS
 62
    4
 10
1473.6500999999998
 20
1131.4145000000001
 11
1478.5517
 21
1131.3991000000001
  0
LINE
  8
_0-0_LAYER001
  6
CONTINUOUS
 62
    4
 10
1468.6790999999998
 20
1131.5723
 11
1473.6500999999998
 21
1131.4145000000001
  0
LINE
  8
_0-0_LAYER001
  6
CONTINUOUS
 62
    4
 10
1463.7217000000001
 20
1131.8901000000001
 11
1468.6790999999998
 21
1131.5723
  0
LINE
  8
_0-0_LAYER001
  6
CONTINUOUS
 62
    4
 10
1460.6700000000001
 20
1132.1714999999999
 11
1463.7217000000001
 21
1131.8901000000001
  0
LINE
  8
_0-0_LAYER001
  6
CONTINUOUS
 62
    4
 10
1456.7411999999999
 20
1132.6337000000001
 11
1460.6700000000001
 21
1132.1714999999999
  0
LINE
  8
_0-0_LAYER001
  6
CONTINUOUS
 62
    4
 10
1450.2271999999998
 20
1133.6563000000001
 11
1456.7411999999999
 21
1132.6337000000001
  0
LINE
  8
_0-0_LAYER001
  6
CONTINUOUS
 62
    4
 10
1443.6806000000001
 20
1135.0083999999999
 11
1450.2271999999998
 21
1133.6563000000001
  0
LINE
  8
_0-0_LAYER001
  6
CONTINUOUS
 62
    4
 10
1437.2177000000001
 20
1136.6642999999999
 11
1443.6806000000001
 21
1135.0083999999999
  0
LINE
  8
_0-0_LAYER001
  6
CONTINUOUS
 62
    4
 10
1430.8517000000002
 20
1138.615
 11
1437.2177000000001
 21
1136.6642999999999
  0
LINE
  8
_0-0_LAYER001
  6
CONTINUOUS
 62
    4
 10
1424.6869999999999
 20
1140.8199999999999
 11
1430.8517000000002
 21
1138.615
  0
LINE
  8
_0-0_LAYER001
  6
CONTINUOUS
 62
    4
 10
1421.0003000000002
 20
1142.2917
 11
1424.6869999999999
 21
1140.8199999999999
  0
LINE
  8
_0-0_LAYER001
  6
CONTINUOUS
 62
    4
 10
1416.636
 20
1144.1841999999999
 11
1421.0003000000002
 21
1142.2917
  0
LINE
  8
_0-0_LAYER001
  6
CONTINUOUS
 62
    4
 10
1409.567
 20
1147.5992000000001
 11
1416.636
 21
1144.1841999999999
  0
LINE
  8
_0-0_LAYER001
  6
CONTINUOUS
 62
    4
 10
1402.6740999999997
 20
1151.3288
 11
1409.567
 21
1147.5992000000001
  0
LINE
  8
_0-0_LAYER001
  6
CONTINUOUS
 62
    4
 10
1396.0371
 20
1155.2625
 11
1402.6740999999997
 21
1151.3288
  0
LINE
  8
_0-0_LAYER001
  6
CONTINUOUS
 62
    4
 10
1389.6278000000002
 20
1159.345
 11
1396.0371
 21
1155.2625
  0
LINE
  8
_0-0_LAYER001
  6
CONTINUOUS
 62
    4
 10
1383.4436000000001
 20
1163.5071
 11
1389.6278000000002
 21
1159.345
  0
LINE
  8
_0-0_LAYER001
  6
CONTINUOUS
 62
    4
 10
1379.9011999999998
 20
1165.9708000000001
 11
1383.4436000000001
 21
1163.5071
  0
LINE
  8
_0-0_LAYER001
  6
CONTINUOUS
 62
    4
 10
1377.6692
 20
1167.5443
 11
1379.9011999999998
 21
1165.9708000000001
  0
LINE
  8
_0-0_LAYER001
  6
CONTINUOUS
 62
    4
 10
1374.0455999999999
 20
1170.0835
 11
1377.6692
 21
1167.5443
  0
LINE
  8
_0-0_LAYER001
  6
CONTINUOUS
 62
    4
 10
1370.6759999999999
 20
1172.3489999999999
 11
1374.0455999999999
 21
1170.0835
  0
LINE
  8
_0-0_LAYER001
  6
CONTINUOUS
 62
    4
 10
1367.5610000000001
 20
1174.2760000000001
 11
1370.6759999999999
 21
1172.3489999999999
  0
LINE
  8
_0-0_LAYER001
  6
CONTINUOUS
 62
    4
 10
1364.6938
 20
1175.8317999999999
 11
1367.5610000000001
 21
1174.2760000000001
  0
LINE
  8
_0-0_LAYER001
  6
CONTINUOUS
 62
    4
 10
1361.8626999999997
 20
1177.1002000000001
 11
1364.6938
 21
1175.8317999999999
  0
LINE
  8
_0-0_LAYER001
  6
CONTINUOUS
 62
    4
 10
1360.3995
 20
1177.6324
 11
1361.8626999999997
 21
1177.1002000000001
  0
LINE
  8
_0-0_LAYER001
  6
CONTINUOUS
 62
    4
 10
1360.2184
 20
1177.6903
 11
1360.3995
 21
1177.6324
  0
LINE
  8
_0-0_LAYER001
  6
CONTINUOUS
 62
    4
 10
1359.4301
 20
1177.9183
 11
1360.2184
 21
1177.6903
  0
LINE
  8
_0-0_LAYER001
  6
CONTINUOUS
 62
    4
 10
1358.7728999999999
 20
1178.0809999999999
 11
1359.4301
 21
1177.9183
  0
LINE
  8
_0-0_LAYER001
  6
CONTINUOUS
 62
    4
 10
1358.1911
 20
1178.1990000000001
 11
1358.7728999999999
 21
1178.0809999999999
  0
LINE
  8
_0-0_LAYER001
  6
CONTINUOUS
 62
    4
 10
1358.1511
 20
1178.2050999999999
 11
1358.1911
 21
1178.1990000000001
  0
LINE
  8
_0-0_LAYER001
  6
CONTINUOUS
 62
    4
 10
1562.1248999999998
 20
1123.0438999999999
 11
1563.7390999999998
 21
1123.3124
  0
LINE
  8
_0-0_LAYER001
  6
CONTINUOUS
 62
    4
 10
1557.9364
 20
1122.3478
 11
1562.1248999999998
 21
1123.0438999999999
  0
LINE
  8
_0-0_LAYER001
  6
CONTINUOUS
 62
    4
 10
1553.7435
 20
1121.6523999999999
 11
1557.9364
 21
1122.3478
  0
LINE
  8
_0-0_LAYER001
  6
CONTINUOUS
 62
    4
 10
1549.5459999999998
 20
1120.9585999999999
 11
1553.7435
 21
1121.6523999999999
  0
LINE
  8
_0-0_LAYER001
  6
CONTINUOUS
 62
    4
 10
1545.3436999999999
 20
1120.2674
 11
1549.5459999999998
 21
1120.9585999999999
  0
LINE
  8
_0-0_LAYER001
  6
CONTINUOUS
 62
    4
 10
1541.1388000000002
 20
1119.5800999999999
 11
1545.3436999999999
 21
1120.2674
  0
LINE
  8
_0-0_LAYER001
  6
CONTINUOUS
 62
    4
 10
1538.6887000000002
 20
1119.1819
 11
1541.1388000000002
 21
1119.5800999999999
  0
LINE
  8
_0-0_LAYER001
  6
CONTINUOUS
 62
    4
 10
1533.9618
 20
1118.4204
 11
1538.6887000000002
 21
1119.1819
  0
LINE
  8
_0-0_LAYER001
  6
CONTINUOUS
 62
    4
 10
1525.7710999999999
 20
1117.1387
 11
1533.9618
 21
1118.4204
  0
LINE
  8
_0-0_LAYER001
  6
CONTINUOUS
 62
    4
 10
1517.4866000000002
 20
1115.9222
 11
1525.7710999999999
 21
1117.1387
  0
LINE
  8
_0-0_LAYER001
  6
CONTINUOUS
 62
    4
 10
1509.1100000000001
 20
1114.8100999999999
 11
1517.4866000000002
 21
1115.9222
  0
LINE
  8
_0-0_LAYER001
  6
CONTINUOUS
 62
    4
 10
1500.6378
 20
1113.8413
 11
1509.1100000000001
 21
1114.8100999999999
  0
LINE
  8
_0-0_LAYER001
  6
CONTINUOUS
 62
    4
 10
1492.1217000000001
 20
1113.0612000000001
 11
1500.6378
 21
1113.8413
  0
LINE
  8
_0-0_LAYER001
  6
CONTINUOUS
 62
    4
 10
1487.0938999999998
 20
1112.7056
 11
1492.1217000000001
 21
1113.0612000000001
  0
LINE
  8
_0-0_LAYER001
  6
CONTINUOUS
 62
    4
 10
1484.3186999999998
 20
1112.5455999999999
 11
1487.0938999999998
 21
1112.7056
  0
LINE
  8
_0-0_LAYER001
  6
CONTINUOUS
 62
    4
 10
1479.6334000000002
 20
1112.3432
 11
1484.3186999999998
 21
1112.5455999999999
  0
LINE
  8
_0-0_LAYER001
  6
CONTINUOUS
 62
    4
 10
1474.8503999999998
 20
1112.2388000000001
 11
1479.6334000000002
 21
1112.3432
  0
LINE
  8
_0-0_LAYER001
  6
CONTINUOUS
 62
    4
 10
1470.0023999999999
 20
1112.2539999999999
 11
1474.8503999999998
 21
1112.2388000000001
  0
LINE
  8
_0-0_LAYER001
  6
CONTINUOUS
 62
    4
 10
1465.0922
 20
1112.4099000000001
 11
1470.0023999999999
 21
1112.2539999999999
  0
LINE
  8
_0-0_LAYER001
  6
CONTINUOUS
 62
    4
 10
1460.1949
 20
1112.7238
 11
1465.0922
 21
1112.4099000000001
  0
LINE
  8
_0-0_LAYER001
  6
CONTINUOUS
 62
    4
 10
1457.1961999999999
 20
1113.0002999999999
 11
1460.1949
 21
1112.7238
  0
LINE
  8
_0-0_LAYER001
  6
CONTINUOUS
 62
    4
 10
1453.3305999999998
 20
1113.4550999999999
 11
1457.1961999999999
 21
1113.0002999999999
  0
LINE
  8
_0-0_LAYER001
  6
CONTINUOUS
 62
    4
 10
1446.9022
 20
1114.4643000000001
 11
1453.3305999999998
 21
1113.4550999999999
  0
LINE
  8
_0-0_LAYER001
  6
CONTINUOUS
 62
    4
 10
1440.4486999999999
 20
1115.7972
 11
1446.9022
 21
1114.4643000000001
  0
LINE
  8
_0-0_LAYER001
  6
CONTINUOUS
 62
    4
 10
1434.0765999999999
 20
1117.4297999999999
 11
1440.4486999999999
 21
1115.7972
  0
LINE
  8
_0-0_LAYER001
  6
CONTINUOUS
 62
    4
 10
1427.7991999999999
 20
1119.3533
 11
1434.0765999999999
 21
1117.4297999999999
  0
LINE
  8
_0-0_LAYER001
  6
CONTINUOUS
 62
    4
 10
1421.7121999999999
 20
1121.5305000000001
 11
1427.7991999999999
 21
1119.3533
  0
LINE
  8
_0-0_LAYER001
  6
CONTINUOUS
 62
    4
 10
1418.0864999999999
 20
1122.9779000000001
 11
1421.7121999999999
 21
1121.5305000000001
  0
LINE
  8
_0-0_LAYER001
  6
CONTINUOUS
 62
    4
 10
1413.7865999999999
 20
1124.8425
 11
1418.0864999999999
 21
1122.9779000000001
  0
LINE
  8
_0-0_LAYER001
  6
CONTINUOUS
 62
    4
 10
1406.7958000000001
 20
1128.2197000000001
 11
1413.7865999999999
 21
1124.8425
  0
LINE
  8
_0-0_LAYER001
  6
CONTINUOUS
 62
    4
 10
1399.9775999999999
 20
1131.9088999999999
 11
1406.7958000000001
 21
1128.2197000000001
  0
LINE
  8
_0-0_LAYER001
  6
CONTINUOUS
 62
    4
 10
1393.4019000000001
 20
1135.8062
 11
1399.9775999999999
 21
1131.9088999999999
  0
LINE
  8
_0-0_LAYER001
  6
CONTINUOUS
 62
    4
 10
1387.0409
 20
1139.8579
 11
1393.4019000000001
 21
1135.8062
  0
LINE
  8
_0-0_LAYER001
  6
CONTINUOUS
 62
    4
 10
1380.8904000000002
 20
1143.9974
 11
1387.0409
 21
1139.8579
  0
LINE
  8
_0-0_LAYER001
  6
CONTINUOUS
 62
    4
 10
1377.3658
 20
1146.4486999999999
 11
1380.8904000000002
 21
1143.9974
  0
LINE
  8
_0-0_LAYER001
  6
CONTINUOUS
 62
    4
 10
1375.1367
 20
1148.0201999999999
 11
1377.3658
 21
1146.4486999999999
  0
LINE
  8
_0-0_LAYER001
  6
CONTINUOUS
 62
    4
 10
1371.4949999999999
 20
1150.5719999999999
 11
1375.1367
 21
1148.0201999999999
  0
LINE
  8
_0-0_LAYER001
  6
CONTINUOUS
 62
    4
 10
1368.0779000000002
 20
1152.8695
 11
1371.4949999999999
 21
1150.5719999999999
  0
LINE
  8
_0-0_LAYER001
  6
CONTINUOUS
 62
    4
 10
1364.8822
 20
1154.8463999999999
 11
1368.0779000000002
 21
1152.8695
  0
LINE
  8
_0-0_LAYER001
  6
CONTINUOUS
 62
    4
 10
1361.8983000000001
 20
1156.4655
 11
1364.8822
 21
1154.8463999999999
  0
LINE
  8
_0-0_LAYER001
  6
CONTINUOUS
 62
    4
 10
1358.9317000000001
 20
1157.7945999999999
 11
1361.8983000000001
 21
1156.4655
  0
LINE
  8
_0-0_LAYER001
  6
CONTINUOUS
 62
    4
 10
1358.1818000000001
 20
1158.0673999999999
 11
1358.9317000000001
 21
1157.7945999999999
  0
LINE
  8
_0-0_LAYER001
  6
CONTINUOUS
 62
    4
 10
1358.5147999999999
 20
1178.1105
 11
1358.3388
 21
1157.9371000000001
  0
LINE
  8
_0-0_LAYER001
  6
CONTINUOUS
 62
    4
 10
1558.8404999999998
 20
1112.6226999999999
 11
1556.5949999999998
 21
1121.1960999999999
  0
ARC
  8
_0-0_LAYER001
  6
CONTINUOUS
 62
    4
 10
1561.7426
 20
1113.3828000000001
 40
3
 50
194.67639000000003
 51
270.00000000000006
  0
LINE
  8
_0-0_LAYER001
  6
CONTINUOUS
 62
    4
 10
1565.1851000000001
 20
1110.3785
 11
1561.7671999999998
 21
1110.3785
  0
LINE
  8
_0-0_LAYER001
  6
CONTINUOUS
 62
    4
 10
1568.1442000000002
 20
1112.8852999999999
 11
1570.0783000000001
 21
1124.4893999999999
  0
ARC
  8
_0-0_LAYER001
  6
CONTINUOUS
 62
    4
 10
1565.1851000000001
 20
1113.3785
 40
3
 50
270
 51
350.53766999999999
  0
LINE
  8
_0-0_LAYER001
  6
CONTINUOUS
 62
    4
 10
1311.4186999999997
 20
1187.5007000000001
 11
1312.2326
 21
1187.8072999999999
  0
LINE
  8
_0-0_LAYER001
  6
CONTINUOUS
 62
    4
 10
1312.2326
 20
1187.8072999999999
 11
1315.7818
 21
1189.1469
  0
LINE
  8
_0-0_LAYER001
  6
CONTINUOUS
 62
    4
 10
1315.7818
 20
1189.1469
 11
1319.3385000000001
 21
1190.4957999999999
  0
LINE
  8
_0-0_LAYER001
  6
CONTINUOUS
 62
    4
 10
1319.3385000000001
 20
1190.4957999999999
 11
1322.9070999999999
 21
1191.8598
  0
LINE
  8
_0-0_LAYER001
  6
CONTINUOUS
 62
    4
 10
1322.9070999999999
 20
1191.8598
 11
1326.4924999999998
 21
1193.2448999999999
  0
LINE
  8
_0-0_LAYER001
  6
CONTINUOUS
 62
    4
 10
1326.4924999999998
 20
1193.2448999999999
 11
1330.0992000000001
 21
1194.6569
  0
LINE
  8
_0-0_LAYER001
  6
CONTINUOUS
 62
    4
 10
1330.0992000000001
 20
1194.6569
 11
1332.2027
 21
1195.4905000000001
  0
LINE
  8
_0-0_LAYER001
  6
CONTINUOUS
 62
    4
 10
1332.2027
 20
1195.4905000000001
 11
1334.2820999999999
 21
1196.3194000000001
  0
LINE
  8
_0-0_LAYER001
  6
CONTINUOUS
 62
    4
 10
1334.2820999999999
 20
1196.3194000000001
 11
1337.8886
 21
1197.7208000000001
  0
LINE
  8
_0-0_LAYER001
  6
CONTINUOUS
 62
    4
 10
1337.8886
 20
1197.7208000000001
 11
1341.5212999999999
 21
1199.0035
  0
LINE
  8
_0-0_LAYER001
  6
CONTINUOUS
 62
    4
 10
1341.5212999999999
 20
1199.0035
 11
1345.1793
 21
1200.0702000000001
  0
LINE
  8
_0-0_LAYER001
  6
CONTINUOUS
 62
    4
 10
1345.1793
 20
1200.0702000000001
 11
1348.8614000000002
 21
1200.8234
  0
LINE
  8
_0-0_LAYER001
  6
CONTINUOUS
 62
    4
 10
1348.8614000000002
 20
1200.8234
 11
1352.5667000000001
 21
1201.1659
  0
LINE
  8
_0-0_LAYER001
  6
CONTINUOUS
 62
    4
 10
1352.5667000000001
 20
1201.1659
 11
1354.7258999999999
 21
1201.1379999999999
  0
LINE
  8
_0-0_LAYER001
  6
CONTINUOUS
 62
    4
 10
1354.7258999999999
 20
1201.1379999999999
 11
1355.5751
 21
1201.0766000000001
  0
LINE
  8
_0-0_LAYER001
  6
CONTINUOUS
 62
    4
 10
1355.5751
 20
1201.0766000000001
 11
1357.0393999999999
 21
1200.9060999999999
  0
LINE
  8
_0-0_LAYER001
  6
CONTINUOUS
 62
    4
 10
1357.0393999999999
 20
1200.9060999999999
 11
1358.5005000000001
 21
1200.6593
  0
LINE
  8
_0-0_LAYER001
  6
CONTINUOUS
 62
    4
 10
1358.5005000000001
 20
1200.6593
 11
1359.9541999999999
 21
1200.3433
  0
LINE
  8
_0-0_LAYER001
  6
CONTINUOUS
 62
    4
 10
1359.9541999999999
 20
1200.3433
 11
1361.3964000000001
 21
1199.9648
  0
LINE
  8
_0-0_LAYER001
  6
CONTINUOUS
 62
    4
 10
1361.3964000000001
 20
1199.9648
 11
1362.8227999999999
 21
1199.5307
  0
LINE
  8
_0-0_LAYER001
  6
CONTINUOUS
 62
    4
 10
1362.8227999999999
 20
1199.5307
 11
1363.6412999999998
 21
1199.2561000000001
  0
LINE
  8
_0-0_LAYER001
  6
CONTINUOUS
 62
    4
 10
1363.6412999999998
 20
1199.2561000000001
 11
1366.1394999999998
 21
1198.3078
  0
LINE
  8
_0-0_LAYER001
  6
CONTINUOUS
 62
    4
 10
1366.1394999999998
 20
1198.3078
 11
1370.2983999999997
 21
1196.3742999999999
  0
LINE
  8
_0-0_LAYER001
  6
CONTINUOUS
 62
    4
 10
1370.2983999999997
 20
1196.3742999999999
 11
1374.3022000000001
 21
1194.1288999999999
  0
LINE
  8
_0-0_LAYER001
  6
CONTINUOUS
 62
    4
 10
1374.3022000000001
 20
1194.1288999999999
 11
1378.1891000000001
 21
1191.6486
  0
LINE
  8
_0-0_LAYER001
  6
CONTINUOUS
 62
    4
 10
1378.1891000000001
 20
1191.6486
 11
1381.9971
 21
1189.0105000000001
  0
LINE
  8
_0-0_LAYER001
  6
CONTINUOUS
 62
    4
 10
1381.9971
 20
1189.0105000000001
 11
1385.7644
 21
1186.2914000000001
  0
LINE
  8
_0-0_LAYER001
  6
CONTINUOUS
 62
    4
 10
1385.7644
 20
1186.2914000000001
 11
1387.9457
 21
1184.7076
  0
LINE
  8
_0-0_LAYER001
  6
CONTINUOUS
 62
    4
 10
1387.9457
 20
1184.7076
 11
1391.2772999999997
 21
1182.3208
  0
LINE
  8
_0-0_LAYER001
  6
CONTINUOUS
 62
    4
 10
1391.2772999999997
 20
1182.3208
 11
1397.0695000000001
 21
1178.3037999999999
  0
LINE
  8
_0-0_LAYER001
  6
CONTINUOUS
 62
    4
 10
1397.0695000000001
 20
1178.3037999999999
 11
1402.9417000000001
 21
1174.4472000000001
  0
LINE
  8
_0-0_LAYER001
  6
CONTINUOUS
 62
    4
 10
1402.9417000000001
 20
1174.4472000000001
 11
1408.9158
 21
1170.7927
  0
LINE
  8
_0-0_LAYER001
  6
CONTINUOUS
 62
    4
 10
1408.9158
 20
1170.7927
 11
1415.0139999999999
 21
1167.3822
  0
LINE
  8
_0-0_LAYER001
  6
CONTINUOUS
 62
    4
 10
1415.0139999999999
 20
1167.3822
 11
1421.2583
 21
1164.2574
  0
LINE
  8
_0-0_LAYER001
  6
CONTINUOUS
 62
    4
 10
1421.2583
 20
1164.2574
 11
1424.9556000000002
 21
1162.5924
  0
LINE
  8
_0-0_LAYER001
  6
CONTINUOUS
 62
    4
 10
1424.9556000000002
 20
1162.5924
 11
1428.0147999999999
 21
1161.3213000000001
  0
LINE
  8
_0-0_LAYER001
  6
CONTINUOUS
 62
    4
 10
1428.0147999999999
 20
1161.3213000000001
 11
1433.3753999999999
 21
1159.3190999999999
  0
LINE
  8
_0-0_LAYER001
  6
CONTINUOUS
 62
    4
 10
1433.3753999999999
 20
1159.3190999999999
 11
1438.8310999999999
 21
1157.5636999999999
  0
LINE
  8
_0-0_LAYER001
  6
CONTINUOUS
 62
    4
 10
1438.8310999999999
 20
1157.5636999999999
 11
1444.366
 21
1156.0628999999999
  0
LINE
  8
_0-0_LAYER001
  6
CONTINUOUS
 62
    4
 10
1444.366
 20
1156.0628999999999
 11
1449.9643000000001
 21
1154.8249000000001
  0
LINE
  8
_0-0_LAYER001
  6
CONTINUOUS
 62
    4
 10
1449.9643000000001
 20
1154.8249000000001
 11
1455.6100999999999
 21
1153.8577
  0
LINE
  8
_0-0_LAYER001
  6
CONTINUOUS
 62
    4
 10
1455.6100999999999
 20
1153.8577
 11
1458.9000000000001
 21
1153.4239
  0
LINE
  8
_0-0_LAYER001
  6
CONTINUOUS
 62
    4
 10
1458.9000000000001
 20
1153.4239
 11
1461.4193
 21
1153.1560999999999
  0
LINE
  8
_0-0_LAYER001
  6
CONTINUOUS
 62
    4
 10
1461.4193
 20
1153.1560999999999
 11
1465.7714000000001
 21
1152.8161
  0
LINE
  8
_0-0_LAYER001
  6
CONTINUOUS
 62
    4
 10
1465.7714000000001
 20
1152.8161
 11
1470.1316000000002
 21
1152.6166000000001
  0
LINE
  8
_0-0_LAYER001
  6
CONTINUOUS
 62
    4
 10
1470.1316000000002
 20
1152.6166000000001
 11
1474.4967999999999
 21
1152.5419999999999
  0
LINE
  8
_0-0_LAYER001
  6
CONTINUOUS
 62
    4
 10
1474.4967999999999
 20
1152.5419999999999
 11
1478.8638999999998
 21
1152.5762999999999
  0
LINE
  8
_0-0_LAYER001
  6
CONTINUOUS
 62
    4
 10
1478.8638999999998
 20
1152.5762999999999
 11
1483.2298000000001
 21
1152.7039
  0
LINE
  8
_0-0_LAYER001
  6
CONTINUOUS
 62
    4
 10
1483.2298000000001
 20
1152.7039
 11
1485.7602999999999
 21
1152.8144
  0
LINE
  8
_0-0_LAYER001
  6
CONTINUOUS
 62
    4
 10
1485.7602999999999
 20
1152.8144
 11
1490.4893999999999
 21
1153.0826
  0
LINE
  8
_0-0_LAYER001
  6
CONTINUOUS
 62
    4
 10
1490.4893999999999
 20
1153.0826
 11
1498.6275999999998
 21
1153.7136
  0
LINE
  8
_0-0_LAYER001
  6
CONTINUOUS
 62
    4
 10
1498.6275999999998
 20
1153.7136
 11
1506.7483000000002
 21
1154.5274999999999
  0
LINE
  8
_0-0_LAYER001
  6
CONTINUOUS
 62
    4
 10
1506.7483000000002
 20
1154.5274999999999
 11
1514.8542000000002
 21
1155.4887000000001
  0
LINE
  8
_0-0_LAYER001
  6
CONTINUOUS
 62
    4
 10
1514.8542000000002
 20
1155.4887000000001
 11
1522.9476
 21
1156.5618999999999
  0
LINE
  8
_0-0_LAYER001
  6
CONTINUOUS
 62
    4
 10
1522.9476
 20
1156.5618999999999
 11
1531.0311999999999
 21
1157.7114999999999
  0
LINE
  8
_0-0_LAYER001
  6
CONTINUOUS
 62
    4
 10
1531.0311999999999
 20
1157.7114999999999
 11
1535.7161000000001
 21
1158.3993
  0
LINE
  8
_0-0_LAYER001
  6
CONTINUOUS
 62
    4
 10
1535.7161000000001
 20
1158.3993
 11
1538.1509999999998
 21
1158.7601
  0
LINE
  8
_0-0_LAYER001
  6
CONTINUOUS
 62
    4
 10
1538.1509999999998
 20
1158.7601
 11
1542.3479000000002
 21
1159.3860999999999
  0
LINE
  8
_0-0_LAYER001
  6
CONTINUOUS
 62
    4
 10
1542.3479000000002
 20
1159.3860999999999
 11
1546.5437000000002
 21
1160.0162
  0
LINE
  8
_0-0_LAYER001
  6
CONTINUOUS
 62
    4
 10
1546.5437000000002
 20
1160.0162
 11
1550.7386000000001
 21
1160.6495
  0
LINE
  8
_0-0_LAYER001
  6
CONTINUOUS
 62
    4
 10
1550.7386000000001
 20
1160.6495
 11
1554.9326999999998
 21
1161.2851000000001
  0
LINE
  8
_0-0_LAYER001
  6
CONTINUOUS
 62
    4
 10
1554.9326999999998
 20
1161.2851000000001
 11
1559.1264999999999
 21
1161.9221
  0
LINE
  8
_0-0_LAYER001
  6
CONTINUOUS
 62
    4
 10
1559.1264999999999
 20
1161.9221
 11
1561.5587999999998
 21
1162.2918
  0
LINE
  8
_0-0_LAYER001
  6
CONTINUOUS
 62
    4
 10
1316.5219
 20
1170.1882000000001
 11
1318.5838000000001
 21
1170.9650999999999
  0
LINE
  8
_0-0_LAYER001
  6
CONTINUOUS
 62
    4
 10
1318.5838000000001
 20
1170.9650999999999
 11
1322.1514
 21
1172.3116
  0
LINE
  8
_0-0_LAYER001
  6
CONTINUOUS
 62
    4
 10
1322.1514
 20
1172.3116
 11
1325.7433000000001
 21
1173.6738
  0
LINE
  8
_0-0_LAYER001
  6
CONTINUOUS
 62
    4
 10
1325.7433000000001
 20
1173.6738
 11
1329.3637000000001
 21
1175.0576000000001
  0
LINE
  8
_0-0_LAYER001
  6
CONTINUOUS
 62
    4
 10
1329.3637000000001
 20
1175.0576000000001
 11
1333.0165999999999
 21
1176.4688000000001
  0
LINE
  8
_0-0_LAYER001
  6
CONTINUOUS
 62
    4
 10
1333.0165999999999
 20
1176.4688000000001
 11
1336.6958
 21
1177.9092000000001
  0
LINE
  8
_0-0_LAYER001
  6
CONTINUOUS
 62
    4
 10
1336.6958
 20
1177.9092000000001
 11
1338.8510000000001
 21
1178.7633000000001
  0
LINE
  8
_0-0_LAYER001
  6
CONTINUOUS
 62
    4
 10
1338.8510000000001
 20
1178.7633000000001
 11
1340.8746000000001
 21
1179.5699
  0
LINE
  8
_0-0_LAYER001
  6
CONTINUOUS
 62
    4
 10
1340.8746000000001
 20
1179.5699
 11
1344.1464999999998
 21
1180.8413
  0
LINE
  8
_0-0_LAYER001
  6
CONTINUOUS
 62
    4
 10
1344.1464999999998
 20
1180.8413
 11
1347.0416
 21
1181.8635999999999
  0
LINE
  8
_0-0_LAYER001
  6
CONTINUOUS
 62
    4
 10
1347.0416
 20
1181.8635999999999
 11
1349.5097000000001
 21
1182.5833
  0
LINE
  8
_0-0_LAYER001
  6
CONTINUOUS
 62
    4
 10
1349.5097000000001
 20
1182.5833
 11
1351.5014999999999
 21
1182.9907000000001
  0
LINE
  8
_0-0_LAYER001
  6
CONTINUOUS
 62
    4
 10
1351.5014999999999
 20
1182.9907000000001
 11
1353.2808
 21
1183.1551999999999
  0
LINE
  8
_0-0_LAYER001
  6
CONTINUOUS
 62
    4
 10
1353.2808
 20
1183.1551999999999
 11
1353.9603
 21
1183.1464000000001
  0
LINE
  8
_0-0_LAYER001
  6
CONTINUOUS
 62
    4
 10
1353.9603
 20
1183.1464000000001
 11
1353.8842
 21
1183.1519000000001
  0
LINE
  8
_0-0_LAYER001
  6
CONTINUOUS
 62
    4
 10
1353.8842
 20
1183.1519000000001
 11
1354.4978000000001
 21
1183.0804000000001
  0
LINE
  8
_0-0_LAYER001
  6
CONTINUOUS
 62
    4
 10
1354.4978000000001
 20
1183.0804000000001
 11
1355.0881999999999
 21
1182.9807000000001
  0
LINE
  8
_0-0_LAYER001
  6
CONTINUOUS
 62
    4
 10
1355.0881999999999
 20
1182.9807000000001
 11
1355.7556999999999
 21
1182.8356000000001
  0
LINE
  8
_0-0_LAYER001
  6
CONTINUOUS
 62
    4
 10
1355.7556999999999
 20
1182.8356000000001
 11
1356.4892
 21
1182.6431
  0
LINE
  8
_0-0_LAYER001
  6
CONTINUOUS
 62
    4
 10
1356.4892
 20
1182.6431
 11
1357.3384000000001
 21
1182.3846000000001
  0
LINE
  8
_0-0_LAYER001
  6
CONTINUOUS
 62
    4
 10
1357.3384000000001
 20
1182.3846000000001
 11
1357.5825
 21
1182.3027
  0
LINE
  8
_0-0_LAYER001
  6
CONTINUOUS
 62
    4
 10
1357.5825
 20
1182.3027
 11
1359.1424000000002
 21
1181.7107000000001
  0
LINE
  8
_0-0_LAYER001
  6
CONTINUOUS
 62
    4
 10
1359.1424000000002
 20
1181.7107000000001
 11
1362.0900999999999
 21
1180.3402000000001
  0
LINE
  8
_0-0_LAYER001
  6
CONTINUOUS
 62
    4
 10
1362.0900999999999
 20
1180.3402000000001
 11
1365.0512000000001
 21
1178.6795999999999
  0
LINE
  8
_0-0_LAYER001
  6
CONTINUOUS
 62
    4
 10
1365.0512000000001
 20
1178.6795999999999
 11
1368.2188999999998
 21
1176.6583000000001
  0
LINE
  8
_0-0_LAYER001
  6
CONTINUOUS
 62
    4
 10
1368.2188999999998
 20
1176.6583000000001
 11
1371.6035999999999
 21
1174.3134
  0
LINE
  8
_0-0_LAYER001
  6
CONTINUOUS
 62
    4
 10
1371.6035999999999
 20
1174.3134
 11
1375.2093
 21
1171.7109
  0
LINE
  8
_0-0_LAYER001
  6
CONTINUOUS
 62
    4
 10
1375.2093
 20
1171.7109
 11
1377.4163000000001
 21
1170.1085
  0
LINE
  8
_0-0_LAYER001
  6
CONTINUOUS
 62
    4
 10
1377.4163000000001
 20
1170.1085
 11
1380.9063000000001
 21
1167.6081999999999
  0
LINE
  8
_0-0_LAYER001
  6
CONTINUOUS
 62
    4
 10
1380.9063000000001
 20
1167.6081999999999
 11
1386.9983999999999
 21
1163.3832
  0
LINE
  8
_0-0_LAYER001
  6
CONTINUOUS
 62
    4
 10
1386.9983999999999
 20
1163.3832
 11
1393.3022000000001
 21
1159.2430999999999
  0
LINE
  8
_0-0_LAYER001
  6
CONTINUOUS
 62
    4
 10
1393.3022000000001
 20
1159.2430999999999
 11
1399.8228999999997
 21
1155.2543000000001
  0
LINE
  8
_0-0_LAYER001
  6
CONTINUOUS
 62
    4
 10
1399.8228999999997
 20
1155.2543000000001
 11
1406.5888
 21
1151.4703
  0
LINE
  8
_0-0_LAYER001
  6
CONTINUOUS
 62
    4
 10
1406.5888
 20
1151.4703
 11
1413.5319
 21
1147.9958999999999
  0
LINE
  8
_0-0_LAYER001
  6
CONTINUOUS
 62
    4
 10
1413.5319
 20
1147.9958999999999
 11
1417.8053
 21
1146.0714
  0
LINE
  8
_0-0_LAYER001
  6
CONTINUOUS
 62
    4
 10
1417.8053
 20
1146.0714
 11
1421.4104
 21
1144.5735
  0
LINE
  8
_0-0_LAYER001
  6
CONTINUOUS
 62
    4
 10
1421.4104
 20
1144.5735
 11
1427.4665
 21
1142.3116
  0
LINE
  8
_0-0_LAYER001
  6
CONTINUOUS
 62
    4
 10
1427.4665
 20
1142.3116
 11
1433.7163
 21
1140.3006
  0
LINE
  8
_0-0_LAYER001
  6
CONTINUOUS
 62
    4
 10
1433.7163
 20
1140.3006
 11
1440.0650999999998
 21
1138.5790999999999
  0
LINE
  8
_0-0_LAYER001
  6
CONTINUOUS
 62
    4
 10
1440.0650999999998
 20
1138.5790999999999
 11
1446.4992999999999
 21
1137.1563000000001
  0
LINE
  8
_0-0_LAYER001
  6
CONTINUOUS
 62
    4
 10
1446.4992999999999
 20
1137.1563000000001
 11
1452.913
 21
1136.0574999999999
  0
LINE
  8
_0-0_LAYER001
  6
CONTINUOUS
 62
    4
 10
1452.913
 20
1136.0574999999999
 11
1456.7718
 21
1135.5488
  0
LINE
  8
_0-0_LAYER001
  6
CONTINUOUS
 62
    4
 10
1456.7718
 20
1135.5488
 11
1459.7664
 21
1135.2303999999999
  0
LINE
  8
_0-0_LAYER001
  6
CONTINUOUS
 62
    4
 10
1459.7664
 20
1135.2303999999999
 11
1464.6588999999999
 21
1134.8480999999999
  0
LINE
  8
_0-0_LAYER001
  6
CONTINUOUS
 62
    4
 10
1464.6588999999999
 20
1134.8480999999999
 11
1469.5664000000002
 21
1134.6235999999999
  0
LINE
  8
_0-0_LAYER001
  6
CONTINUOUS
 62
    4
 10
1469.5664000000002
 20
1134.6235999999999
 11
1474.4137999999998
 21
1134.5408
  0
LINE
  8
_0-0_LAYER001
  6
CONTINUOUS
 62
    4
 10
1474.4137999999998
 20
1134.5408
 11
1479.1977000000002
 21
1134.5784000000001
  0
LINE
  8
_0-0_LAYER001
  6
CONTINUOUS
 62
    4
 10
1479.1977000000002
 20
1134.5784000000001
 11
1483.8852999999999
 21
1134.7154
  0
LINE
  8
_0-0_LAYER001
  6
CONTINUOUS
 62
    4
 10
1483.8852999999999
 20
1134.7154
 11
1486.6624999999999
 21
1134.8366000000001
  0
LINE
  8
_0-0_LAYER001
  6
CONTINUOUS
 62
    4
 10
1486.6624999999999
 20
1134.8366000000001
 11
1491.6948000000002
 21
1135.1220000000001
  0
LINE
  8
_0-0_LAYER001
  6
CONTINUOUS
 62
    4
 10
1491.6948000000002
 20
1135.1220000000001
 11
1500.221
 21
1135.7831000000001
  0
LINE
  8
_0-0_LAYER001
  6
CONTINUOUS
 62
    4
 10
1500.221
 20
1135.7831000000001
 11
1508.7058999999999
 21
1136.6334999999999
  0
LINE
  8
_0-0_LAYER001
  6
CONTINUOUS
 62
    4
 10
1508.7058999999999
 20
1136.6334999999999
 11
1517.0972000000002
 21
1137.6286
  0
LINE
  8
_0-0_LAYER001
  6
CONTINUOUS
 62
    4
 10
1517.0972000000002
 20
1137.6286
 11
1525.3978999999999
 21
1138.7292
  0
LINE
  8
_0-0_LAYER001
  6
CONTINUOUS
 62
    4
 10
1525.3978999999999
 20
1138.7292
 11
1533.6055999999999
 21
1139.8965000000001
  0
LINE
  8
_0-0_LAYER001
  6
CONTINUOUS
 62
    4
 10
1533.6055999999999
 20
1139.8965000000001
 11
1538.3427999999999
 21
1140.5918999999999
  0
LINE
  8
_0-0_LAYER001
  6
CONTINUOUS
 62
    4
 10
1538.3427999999999
 20
1140.5918999999999
 11
1540.7981
 21
1140.9558
  0
LINE
  8
_0-0_LAYER001
  6
CONTINUOUS
 62
    4
 10
1540.7981
 20
1140.9558
 11
1545.0122000000001
 21
1141.5844
  0
LINE
  8
_0-0_LAYER001
  6
CONTINUOUS
 62
    4
 10
1545.0122000000001
 20
1141.5844
 11
1549.2238000000002
 21
1142.2167999999999
  0
LINE
  8
_0-0_LAYER001
  6
CONTINUOUS
 62
    4
 10
1549.2238000000002
 20
1142.2167999999999
 11
1553.4304999999999
 21
1142.8518999999999
  0
LINE
  8
_0-0_LAYER001
  6
CONTINUOUS
 62
    4
 10
1553.4304999999999
 20
1142.8518999999999
 11
1557.6327000000001
 21
1143.4887000000001
  0
LINE
  8
_0-0_LAYER001
  6
CONTINUOUS
 62
    4
 10
1557.6327000000001
 20
1143.4887000000001
 11
1561.8305999999998
 21
1144.1264000000001
  0
LINE
  8
_0-0_LAYER001
  6
CONTINUOUS
 62
    4
 10
1561.8305999999998
 20
1144.1264000000001
 11
1563.4483
 21
1144.3723
  0
LINE
  8
_0-0_LAYER001
  6
CONTINUOUS
 62
    4
 10
1310.9929999999999
 20
1187.3382999999999
 11
1311.4190000000003
 21
1187.5014000000001
  0
ARC
  8
_0-0_LAYER001
  6
CONTINUOUS
 62
    4
 10
1312.0657000000001
 20
1184.5365999999999
 40
3
 50
110.94902000000002
 51
178.70000000000002
  0
LINE
  8
_0-0_LAYER001
  6
CONTINUOUS
 62
    4
 10
1308.9571000000001
 20
1168.7655999999999
 11
1308.9571000000001
 21
1184.4881
  0
LINE
  8
_0-0_LAYER001
  6
CONTINUOUS
 62
    4
 10
1310.3110999999999
 20
1167.8304000000001
 11
1316.4858999999999
 21
1170.1675
  0
ARC
  8
_0-0_LAYER001
  6
CONTINUOUS
 62
    4
 10
1309.9571000000001
 20
1168.7655999999999
 40
1
 50
180
 51
290.73165999999998
  0
LINE
  8
_0-0_LAYER001
  6
CONTINUOUS
 62
    4
 10
1561.6837
 20
1162.3271999999999
 11
1606.1379999999999
 21
1171.9751000000001
  0
LINE
  8
_0-0_LAYER001
  6
CONTINUOUS
 62
    4
 10
1568.4288999999999
 20
1142.4935
 11
1607.1007
 21
1151.5435
  0
LINE
  8
_0-0_LAYER001
  6
CONTINUOUS
 62
    4
 10
1607.1007
 20
1152.4999
 11
1607.1007
 21
1151.5435
  0
ARC
  8
_0-0_LAYER001
  6
CONTINUOUS
 62
    4
 10
1608.1007
 20
1152.4999
 40
1
 50
102.72435
 51
180
  0
LINE
  8
_0-0_LAYER001
  6
CONTINUOUS
 62
    4
 10
1612.9177
 20
1154.6128000000001
 11
1607.8804
 21
1153.4754
  0
ARC
  8
_0-0_LAYER001
  6
CONTINUOUS
 62
    4
 10
1613.1379999999999
 20
1153.6374000000001
 40
1
 50
0
 51
102.72435
  0
LINE
  8
_0-0_LAYER001
  6
CONTINUOUS
 62
    4
 10
1613.3499999999999
 20
1155.1213
 11
1563.2161000000001
 21
1144.2407000000001
  0
ARC
  8
_0-0_LAYER001
  6
CONTINUOUS
 62
    4
 10
1613.1379999999999
 20
1156.0985000000001
 40
1
 50
282.24497000000002
 51
0
  0
LINE
  8
_0-0_LAYER001
  6
CONTINUOUS
 62
    4
 10
1613.3557999999998
 20
1134.3806
 11
1563.7718
 21
1123.3126999999999
  0
LINE
  8
_0-0_LAYER001
  6
CONTINUOUS
 62
    4
 10
1614.1379999999999
 20
1135.3565000000001
 11
1614.1379999999999
 21
1153.6374000000001
  0
ARC
  8
_0-0_LAYER001
  6
CONTINUOUS
 62
    4
 10
1613.1379999999999
 20
1135.3565000000001
 40
1
 50
282.58296000000001
 51
0.0000000000000254
  0
LINE
  8
_0-0_LAYER001
  6
CONTINUOUS
 62
    4
 10
1606.1379999999999
 20
1173.4321
 11
1606.1379999999999
 21
1171.9751000000001
  0
ARC
  8
_0-0_LAYER001
  6
CONTINUOUS
 62
    4
 10
1607.1379999999999
 20
1173.4321
 40
1
 50
101.73308
 51
180
  0
LINE
  8
_0-0_LAYER001
  6
CONTINUOUS
 62
    4
 10
1612.9346
 20
1175.6574000000001
 11
1606.9346
 21
1174.4112
  0
LINE
  8
_0-0_LAYER001
  6
CONTINUOUS
 62
    4
 10
1614.1379999999999
 20
1174.6783
 11
1614.1379999999999
 21
1156.0985000000001
  0
ARC
  8
_0-0_LAYER001
  6
CONTINUOUS
 62
    4
 10
1613.1379999999999
 20
1174.6783
 40
1
 50
0
 51
101.73308
  0
LINE
  8
_0-0_LAYER001
  6
CONTINUOUS
 62
    4
 10
1169.4073000000001
 20
1103.7883999999999
 11
1160.8719000000001
 21
1118.3217
  0
LINE
  8
_0-0_LAYER001
  6
CONTINUOUS
 62
    4
 10
1177.5752
 20
1103.1380999999999
 11
1185.8814
 21
1113.2036000000001
  0
ARC
  8
_0-0_LAYER001
  6
CONTINUOUS
 62
    4
 10
1173.7188000000001
 20
1106.3205
 40
5
 50
210.42578
 51
320.47001
  0
LINE
  8
_0-0_LAYER001
  6
CONTINUOUS
 62
    4
 10
1253.5208
 20
1102.6682000000001
 11
1246.1955
 21
1113.9743000000001
  0
LINE
  8
_0-0_LAYER001
  6
CONTINUOUS
 62
    4
 10
1262.0304000000001
 20
1102.8580999999999
 11
1270.9688000000001
 21
1118.1038000000001
  0
ARC
  8
_0-0_LAYER001
  6
CONTINUOUS
 62
    4
 10
1257.7170000000001
 20
1105.3869999999999
 40
5
 50
212.93986000000001
 51
329.61716000000001
  0
LINE
  8
_0-0_LAYER001
  6
CONTINUOUS
 62
    4
 10
1301.3123999999998
 20
1142.4158
 11
1303.7405000000001
 21
1142.8197
  0
LINE
  8
_0-0_LAYER001
  6
CONTINUOUS
 62
    4
 10
1297.1233999999999
 20
1141.7194999999999
 11
1301.3123999999998
 21
1142.4158
  0
LINE
  8
_0-0_LAYER001
  6
CONTINUOUS
 62
    4
 10
1292.9295999999999
 20
1141.0239999999999
 11
1297.1233999999999
 21
1141.7194999999999
  0
LINE
  8
_0-0_LAYER001
  6
CONTINUOUS
 62
    4
 10
1288.7308000000003
 20
1140.3299999999999
 11
1292.9295999999999
 21
1141.0239999999999
  0
LINE
  8
_0-0_LAYER001
  6
CONTINUOUS
 62
    4
 10
1284.5268000000001
 20
1139.6385
 11
1288.7308000000003
 21
1140.3299999999999
  0
LINE
  8
_0-0_LAYER001
  6
CONTINUOUS
 62
    4
 10
1280.3199
 20
1138.9509
 11
1284.5268000000001
 21
1139.6385
  0
LINE
  8
_0-0_LAYER001
  6
CONTINUOUS
 62
    4
 10
1277.8676
 20
1138.5524
 11
1280.3199
 21
1138.9509
  0
LINE
  8
_0-0_LAYER001
  6
CONTINUOUS
 62
    4
 10
1273.1349
 20
1137.7899
 11
1277.8676
 21
1138.5524
  0
LINE
  8
_0-0_LAYER001
  6
CONTINUOUS
 62
    4
 10
1264.9304
 20
1136.5060000000001
 11
1273.1349
 21
1137.7899
  0
LINE
  8
_0-0_LAYER001
  6
CONTINUOUS
 62
    4
 10
1256.6229000000001
 20
1135.2862
 11
1264.9304
 21
1136.5060000000001
  0
LINE
  8
_0-0_LAYER001
  6
CONTINUOUS
 62
    4
 10
1248.2147
 20
1134.1697999999999
 11
1256.6229000000001
 21
1135.2862
  0
LINE
  8
_0-0_LAYER001
  6
CONTINUOUS
 62
    4
 10
1239.7021
 20
1133.1964
 11
1248.2147
 21
1134.1697999999999
  0
LINE
  8
_0-0_LAYER001
  6
CONTINUOUS
 62
    4
 10
1231.1429000000001
 20
1132.4123999999999
 11
1239.7021
 21
1133.1964
  0
LINE
  8
_0-0_LAYER001
  6
CONTINUOUS
 62
    4
 10
1226.0814
 20
1132.0544
 11
1231.1429000000001
 21
1132.4123999999999
  0
LINE
  8
_0-0_LAYER001
  6
CONTINUOUS
 62
    4
 10
1223.2788
 20
1131.8928000000001
 11
1226.0814
 21
1132.0544
  0
LINE
  8
_0-0_LAYER001
  6
CONTINUOUS
 62
    4
 10
1218.5578
 20
1131.6889000000001
 11
1223.2788
 21
1131.8928000000001
  0
LINE
  8
_0-0_LAYER001
  6
CONTINUOUS
 62
    4
 10
1213.7285999999999
 20
1131.5834
 11
1218.5578
 21
1131.6889000000001
  0
LINE
  8
_0-0_LAYER001
  6
CONTINUOUS
 62
    4
 10
1208.827
 20
1131.5988
 11
1213.7285999999999
 21
1131.5834
  0
LINE
  8
_0-0_LAYER001
  6
CONTINUOUS
 62
    4
 10
1203.8559
 20
1131.7566999999999
 11
1208.827
 21
1131.5988
  0
LINE
  8
_0-0_LAYER001
  6
CONTINUOUS
 62
    4
 10
1198.8985
 20
1132.0744
 11
1203.8559
 21
1131.7566999999999
  0
LINE
  8
_0-0_LAYER001
  6
CONTINUOUS
 62
    4
 10
1195.8469
 20
1132.3558
 11
1198.8985
 21
1132.0744
  0
LINE
  8
_0-0_LAYER001
  6
CONTINUOUS
 62
    4
 10
1191.9179999999999
 20
1132.8181
 11
1195.8469
 21
1132.3558
  0
LINE
  8
_0-0_LAYER001
  6
CONTINUOUS
 62
    4
 10
1185.4041
 20
1133.8406
 11
1191.9179999999999
 21
1132.8181
  0
LINE
  8
_0-0_LAYER001
  6
CONTINUOUS
 62
    4
 10
1178.8575000000001
 20
1135.1928
 11
1185.4041
 21
1133.8406
  0
LINE
  8
_0-0_LAYER001
  6
CONTINUOUS
 62
    4
 10
1172.3945000000001
 20
1136.8486
 11
1178.8575000000001
 21
1135.1928
  0
LINE
  8
_0-0_LAYER001
  6
CONTINUOUS
 62
    4
 10
1166.0286000000001
 20
1138.7994000000001
 11
1172.3945000000001
 21
1136.8486
  0
LINE
  8
_0-0_LAYER001
  6
CONTINUOUS
 62
    4
 10
1159.8638000000001
 20
1141.0043000000001
 11
1166.0286000000001
 21
1138.7994000000001
  0
LINE
  8
_0-0_LAYER001
  6
CONTINUOUS
 62
    4
 10
1156.1772000000001
 20
1142.4761000000001
 11
1159.8638000000001
 21
1141.0043000000001
  0
LINE
  8
_0-0_LAYER001
  6
CONTINUOUS
 62
    4
 10
1151.8128999999999
 20
1144.3686
 11
1156.1772000000001
 21
1142.4761000000001
  0
LINE
  8
_0-0_LAYER001
  6
CONTINUOUS
 62
    4
 10
1144.7438
 20
1147.7836
 11
1151.8128999999999
 21
1144.3686
  0
LINE
  8
_0-0_LAYER001
  6
CONTINUOUS
 62
    4
 10
1137.8510000000001
 20
1151.5132000000001
 11
1144.7438
 21
1147.7836
  0
LINE
  8
_0-0_LAYER001
  6
CONTINUOUS
 62
    4
 10
1131.2139999999999
 20
1155.4468999999999
 11
1137.8510000000001
 21
1151.5132000000001
  0
LINE
  8
_0-0_LAYER001
  6
CONTINUOUS
 62
    4
 10
1124.8045999999999
 20
1159.5292999999999
 11
1131.2139999999999
 21
1155.4468999999999
  0
LINE
  8
_0-0_LAYER001
  6
CONTINUOUS
 62
    4
 10
1118.6204
 20
1163.6913999999999
 11
1124.8045999999999
 21
1159.5292999999999
  0
LINE
  8
_0-0_LAYER001
  6
CONTINUOUS
 62
    4
 10
1115.0780999999999
 20
1166.1551999999999
 11
1118.6204
 21
1163.6913999999999
  0
LINE
  8
_0-0_LAYER001
  6
CONTINUOUS
 62
    4
 10
1112.8461
 20
1167.7285999999999
 11
1115.0780999999999
 21
1166.1551999999999
  0
LINE
  8
_0-0_LAYER001
  6
CONTINUOUS
 62
    4
 10
1109.2225000000001
 20
1170.2678000000001
 11
1112.8461
 21
1167.7285999999999
  0
LINE
  8
_0-0_LAYER001
  6
CONTINUOUS
 62
    4
 10
1105.8529000000001
 20
1172.5333000000001
 11
1109.2225000000001
 21
1170.2678000000001
  0
LINE
  8
_0-0_LAYER001
  6
CONTINUOUS
 62
    4
 10
1102.7379000000001
 20
1174.4603999999999
 11
1105.8529000000001
 21
1172.5333000000001
  0
LINE
  8
_0-0_LAYER001
  6
CONTINUOUS
 62
    4
 10
1099.8706
 20
1176.0161000000001
 11
1102.7379000000001
 21
1174.4603999999999
  0
LINE
  8
_0-0_LAYER001
  6
CONTINUOUS
 62
    4
 10
1097.0395000000001
 20
1177.2846
 11
1099.8706
 21
1176.0161000000001
  0
LINE
  8
_0-0_LAYER001
  6
CONTINUOUS
 62
    4
 10
1095.5762999999999
 20
1177.8167000000001
 11
1097.0395000000001
 21
1177.2846
  0
LINE
  8
_0-0_LAYER001
  6
CONTINUOUS
 62
    4
 10
1095.3951999999999
 20
1177.8747000000001
 11
1095.5762999999999
 21
1177.8167000000001
  0
LINE
  8
_0-0_LAYER001
  6
CONTINUOUS
 62
    4
 10
1094.6069
 20
1178.1025999999999
 11
1095.3951999999999
 21
1177.8747000000001
  0
LINE
  8
_0-0_LAYER001
  6
CONTINUOUS
 62
    4
 10
1093.9498000000001
 20
1178.2653
 11
1094.6069
 21
1178.1025999999999
  0
LINE
  8
_0-0_LAYER001
  6
CONTINUOUS
 62
    4
 10
1093.3679999999999
 20
1178.3833
 11
1093.9498000000001
 21
1178.2653
  0
LINE
  8
_0-0_LAYER001
  6
CONTINUOUS
 62
    4
 10
1093.3279
 20
1178.3895
 11
1093.3679999999999
 21
1178.3833
  0
LINE
  8
_0-0_LAYER001
  6
CONTINUOUS
 62
    4
 10
1297.3018
 20
1123.2283
 11
1298.9159
 21
1123.4967999999999
  0
LINE
  8
_0-0_LAYER001
  6
CONTINUOUS
 62
    4
 10
1293.1132
 20
1122.5320999999999
 11
1297.3018
 21
1123.2283
  0
LINE
  8
_0-0_LAYER001
  6
CONTINUOUS
 62
    4
 10
1288.9203
 20
1121.8367000000001
 11
1293.1132
 21
1122.5320999999999
  0
LINE
  8
_0-0_LAYER001
  6
CONTINUOUS
 62
    4
 10
1284.7228
 20
1121.1429000000001
 11
1288.9203
 21
1121.8367000000001
  0
LINE
  8
_0-0_LAYER001
  6
CONTINUOUS
 62
    4
 10
1280.5205000000001
 20
1120.4518
 11
1284.7228
 21
1121.1429000000001
  0
LINE
  8
_0-0_LAYER001
  6
CONTINUOUS
 62
    4
 10
1276.3155999999999
 20
1119.7644
 11
1280.5205000000001
 21
1120.4518
  0
LINE
  8
_0-0_LAYER001
  6
CONTINUOUS
 62
    4
 10
1273.8656000000001
 20
1119.3662999999999
 11
1276.3155999999999
 21
1119.7644
  0
LINE
  8
_0-0_LAYER001
  6
CONTINUOUS
 62
    4
 10
1269.1386
 20
1118.6048000000001
 11
1273.8656000000001
 21
1119.3662999999999
  0
LINE
  8
_0-0_LAYER001
  6
CONTINUOUS
 62
    4
 10
1260.9480000000001
 20
1117.3230000000001
 11
1269.1386
 21
1118.6048000000001
  0
LINE
  8
_0-0_LAYER001
  6
CONTINUOUS
 62
    4
 10
1252.6635000000001
 20
1116.1066000000001
 11
1260.9480000000001
 21
1117.3230000000001
  0
LINE
  8
_0-0_LAYER001
  6
CONTINUOUS
 62
    4
 10
1244.2868000000001
 20
1114.9944
 11
1252.6635000000001
 21
1116.1066000000001
  0
LINE
  8
_0-0_LAYER001
  6
CONTINUOUS
 62
    4
 10
1235.8146999999999
 20
1114.0255999999999
 11
1244.2868000000001
 21
1114.9944
  0
LINE
  8
_0-0_LAYER001
  6
CONTINUOUS
 62
    4
 10
1227.2986000000001
 20
1113.2456
 11
1235.8146999999999
 21
1114.0255999999999
  0
LINE
  8
_0-0_LAYER001
  6
CONTINUOUS
 62
    4
 10
1222.2707
 20
1112.8900000000001
 11
1227.2986000000001
 21
1113.2456
  0
LINE
  8
_0-0_LAYER001
  6
CONTINUOUS
 62
    4
 10
1219.4955
 20
1112.7299
 11
1222.2707
 21
1112.8900000000001
  0
LINE
  8
_0-0_LAYER001
  6
CONTINUOUS
 62
    4
 10
1214.8101999999999
 20
1112.5274999999999
 11
1219.4955
 21
1112.7299
  0
LINE
  8
_0-0_LAYER001
  6
CONTINUOUS
 62
    4
 10
1210.0273
 20
1112.4231
 11
1214.8101999999999
 21
1112.5274999999999
  0
LINE
  8
_0-0_LAYER001
  6
CONTINUOUS
 62
    4
 10
1205.1793
 20
1112.4383
 11
1210.0273
 21
1112.4231
  0
LINE
  8
_0-0_LAYER001
  6
CONTINUOUS
 62
    4
 10
1200.2691
 20
1112.5942
 11
1205.1793
 21
1112.4383
  0
LINE
  8
_0-0_LAYER001
  6
CONTINUOUS
 62
    4
 10
1195.3717999999999
 20
1112.9081000000001
 11
1200.2691
 21
1112.5942
  0
LINE
  8
_0-0_LAYER001
  6
CONTINUOUS
 62
    4
 10
1192.373
 20
1113.1847
 11
1195.3717999999999
 21
1112.9081000000001
  0
LINE
  8
_0-0_LAYER001
  6
CONTINUOUS
 62
    4
 10
1188.5074999999999
 20
1113.6395
 11
1192.373
 21
1113.1847
  0
LINE
  8
_0-0_LAYER001
  6
CONTINUOUS
 62
    4
 10
1182.0790999999999
 20
1114.6486
 11
1188.5074999999999
 21
1113.6395
  0
LINE
  8
_0-0_LAYER001
  6
CONTINUOUS
 62
    4
 10
1175.6256000000001
 20
1115.9815000000001
 11
1182.0790999999999
 21
1114.6486
  0
LINE
  8
_0-0_LAYER001
  6
CONTINUOUS
 62
    4
 10
1169.2534000000001
 20
1117.6141
 11
1175.6256000000001
 21
1115.9815000000001
  0
LINE
  8
_0-0_LAYER001
  6
CONTINUOUS
 62
    4
 10
1162.9761000000001
 20
1119.5377000000001
 11
1169.2534000000001
 21
1117.6141
  0
LINE
  8
_0-0_LAYER001
  6
CONTINUOUS
 62
    4
 10
1156.8889999999999
 20
1121.7148
 11
1162.9761000000001
 21
1119.5377000000001
  0
LINE
  8
_0-0_LAYER001
  6
CONTINUOUS
 62
    4
 10
1153.2634
 20
1123.1623
 11
1156.8889999999999
 21
1121.7148
  0
LINE
  8
_0-0_LAYER001
  6
CONTINUOUS
 62
    4
 10
1148.9635000000001
 20
1125.0268000000001
 11
1153.2634
 21
1123.1623
  0
LINE
  8
_0-0_LAYER001
  6
CONTINUOUS
 62
    4
 10
1141.9726000000001
 20
1128.4041
 11
1148.9635000000001
 21
1125.0268000000001
  0
LINE
  8
_0-0_LAYER001
  6
CONTINUOUS
 62
    4
 10
1135.1545000000001
 20
1132.0932
 11
1141.9726000000001
 21
1128.4041
  0
LINE
  8
_0-0_LAYER001
  6
CONTINUOUS
 62
    4
 10
1128.5787
 20
1135.9906000000001
 11
1135.1545000000001
 21
1132.0932
  0
LINE
  8
_0-0_LAYER001
  6
CONTINUOUS
 62
    4
 10
1122.2177999999999
 20
1140.0422000000001
 11
1128.5787
 21
1135.9906000000001
  0
LINE
  8
_0-0_LAYER001
  6
CONTINUOUS
 62
    4
 10
1116.0672
 20
1144.1817000000001
 11
1122.2177999999999
 21
1140.0422000000001
  0
LINE
  8
_0-0_LAYER001
  6
CONTINUOUS
 62
    4
 10
1112.5427
 20
1146.6331
 11
1116.0672
 21
1144.1817000000001
  0
LINE
  8
_0-0_LAYER001
  6
CONTINUOUS
 62
    4
 10
1110.3135
 20
1148.2045000000001
 11
1112.5427
 21
1146.6331
  0
LINE
  8
_0-0_LAYER001
  6
CONTINUOUS
 62
    4
 10
1106.6718000000001
 20
1150.7564
 11
1110.3135
 21
1148.2045000000001
  0
LINE
  8
_0-0_LAYER001
  6
CONTINUOUS
 62
    4
 10
1103.2547
 20
1153.0537999999999
 11
1106.6718000000001
 21
1150.7564
  0
LINE
  8
_0-0_LAYER001
  6
CONTINUOUS
 62
    4
 10
1100.0590999999999
 20
1155.0307
 11
1103.2547
 21
1153.0537999999999
  0
LINE
  8
_0-0_LAYER001
  6
CONTINUOUS
 62
    4
 10
1097.0751
 20
1156.6497999999999
 11
1100.0590999999999
 21
1155.0307
  0
LINE
  8
_0-0_LAYER001
  6
CONTINUOUS
 62
    4
 10
1094.1086
 20
1157.979
 11
1097.0751
 21
1156.6497999999999
  0
LINE
  8
_0-0_LAYER001
  6
CONTINUOUS
 62
    4
 10
1093.3586
 20
1158.2517
 11
1094.1086
 21
1157.979
  0
LINE
  8
_0-0_LAYER001
  6
CONTINUOUS
 62
    4
 10
1093.6917000000001
 20
1178.2949000000001
 11
1093.5155999999999
 21
1158.1214
  0
LINE
  8
_0-0_LAYER001
  6
CONTINUOUS
 62
    4
 10
1294.0173
 20
1112.8071
 11
1291.7719
 21
1121.3805
  0
ARC
  8
_0-0_LAYER001
  6
CONTINUOUS
 62
    4
 10
1296.9193999999998
 20
1113.5671
 40
3
 50
194.67639000000003
 51
270.00000000000006
  0
LINE
  8
_0-0_LAYER001
  6
CONTINUOUS
 62
    4
 10
1300.3619000000001
 20
1110.5627999999999
 11
1296.9441000000002
 21
1110.5627999999999
  0
LINE
  8
_0-0_LAYER001
  6
CONTINUOUS
 62
    4
 10
1303.3211000000001
 20
1113.0696
 11
1305.2550999999999
 21
1124.6738
  0
ARC
  8
_0-0_LAYER001
  6
CONTINUOUS
 62
    4
 10
1300.3619000000001
 20
1113.5627999999999
 40
3
 50
270
 51
350.53766999999999
  0
LINE
  8
_0-0_LAYER001
  6
CONTINUOUS
 62
    4
 10
1046.5954999999999
 20
1187.6849999999999
 11
1047.4094
 21
1187.9917
  0
LINE
  8
_0-0_LAYER001
  6
CONTINUOUS
 62
    4
 10
1047.4094
 20
1187.9917
 11
1050.9586999999999
 21
1189.3313000000001
  0
LINE
  8
_0-0_LAYER001
  6
CONTINUOUS
 62
    4
 10
1050.9586999999999
 20
1189.3313000000001
 11
1054.5153
 21
1190.6802
  0
LINE
  8
_0-0_LAYER001
  6
CONTINUOUS
 62
    4
 10
1054.5153
 20
1190.6802
 11
1058.0840000000001
 21
1192.0442
  0
LINE
  8
_0-0_LAYER001
  6
CONTINUOUS
 62
    4
 10
1058.0840000000001
 20
1192.0442
 11
1061.6693
 21
1193.4293
  0
LINE
  8
_0-0_LAYER001
  6
CONTINUOUS
 62
    4
 10
1061.6693
 20
1193.4293
 11
1065.2760000000001
 21
1194.8412000000001
  0
LINE
  8
_0-0_LAYER001
  6
CONTINUOUS
 62
    4
 10
1065.2760000000001
 20
1194.8412000000001
 11
1067.3796
 21
1195.6748
  0
LINE
  8
_0-0_LAYER001
  6
CONTINUOUS
 62
    4
 10
1067.3796
 20
1195.6748
 11
1069.4589000000001
 21
1196.5037
  0
LINE
  8
_0-0_LAYER001
  6
CONTINUOUS
 62
    4
 10
1069.4589000000001
 20
1196.5037
 11
1073.0654
 21
1197.9051999999999
  0
LINE
  8
_0-0_LAYER001
  6
CONTINUOUS
 62
    4
 10
1073.0654
 20
1197.9051999999999
 11
1076.6982
 21
1199.1878999999999
  0
LINE
  8
_0-0_LAYER001
  6
CONTINUOUS
 62
    4
 10
1076.6982
 20
1199.1878999999999
 11
1080.3561
 21
1200.2545
  0
LINE
  8
_0-0_LAYER001
  6
CONTINUOUS
 62
    4
 10
1080.3561
 20
1200.2545
 11
1084.0382
 21
1201.0077000000001
  0
LINE
  8
_0-0_LAYER001
  6
CONTINUOUS
 62
    4
 10
1084.0382
 20
1201.0077000000001
 11
1087.7435
 21
1201.3503000000001
  0
LINE
  8
_0-0_LAYER001
  6
CONTINUOUS
 62
    4
 10
1087.7435
 20
1201.3503000000001
 11
1089.9028000000001
 21
1201.3224
  0
LINE
  8
_0-0_LAYER001
  6
CONTINUOUS
 62
    4
 10
1089.9028000000001
 20
1201.3224
 11
1090.752
 21
1201.261
  0
LINE
  8
_0-0_LAYER001
  6
CONTINUOUS
 62
    4
 10
1090.752
 20
1201.261
 11
1092.2163
 21
1201.0904
  0
LINE
  8
_0-0_LAYER001
  6
CONTINUOUS
 62
    4
 10
1092.2163
 20
1201.0904
 11
1093.6774
 21
1200.8436999999999
  0
LINE
  8
_0-0_LAYER001
  6
CONTINUOUS
 62
    4
 10
1093.6774
 20
1200.8436999999999
 11
1095.1311000000001
 21
1200.5277000000001
  0
LINE
  8
_0-0_LAYER001
  6
CONTINUOUS
 62
    4
 10
1095.1311000000001
 20
1200.5277000000001
 11
1096.5732
 21
1200.1492000000001
  0
LINE
  8
_0-0_LAYER001
  6
CONTINUOUS
 62
    4
 10
1096.5732
 20
1200.1492000000001
 11
1097.9996000000001
 21
1199.7149999999999
  0
LINE
  8
_0-0_LAYER001
  6
CONTINUOUS
 62
    4
 10
1097.9996000000001
 20
1199.7149999999999
 11
1098.8181
 21
1199.4404
  0
LINE
  8
_0-0_LAYER001
  6
CONTINUOUS
 62
    4
 10
1098.8181
 20
1199.4404
 11
1101.3163999999999
 21
1198.4921999999999
  0
LINE
  8
_0-0_LAYER001
  6
CONTINUOUS
 62
    4
 10
1101.3163999999999
 20
1198.4921999999999
 11
1105.4753000000001
 21
1196.5586000000001
  0
LINE
  8
_0-0_LAYER001
  6
CONTINUOUS
 62
    4
 10
1105.4753000000001
 20
1196.5586000000001
 11
1109.4791
 21
1194.3132000000001
  0
LINE
  8
_0-0_LAYER001
  6
CONTINUOUS
 62
    4
 10
1109.4791
 20
1194.3132000000001
 11
1113.366
 21
1191.8330000000001
  0
LINE
  8
_0-0_LAYER001
  6
CONTINUOUS
 62
    4
 10
1113.366
 20
1191.8330000000001
 11
1117.174
 21
1189.1948
  0
LINE
  8
_0-0_LAYER001
  6
CONTINUOUS
 62
    4
 10
1117.174
 20
1189.1948
 11
1120.9412
 21
1186.4757
  0
LINE
  8
_0-0_LAYER001
  6
CONTINUOUS
 62
    4
 10
1120.9412
 20
1186.4757
 11
1123.1225999999999
 21
1184.8919000000001
  0
LINE
  8
_0-0_LAYER001
  6
CONTINUOUS
 62
    4
 10
1123.1225999999999
 20
1184.8919000000001
 11
1126.4540999999999
 21
1182.5051000000001
  0
LINE
  8
_0-0_LAYER001
  6
CONTINUOUS
 62
    4
 10
1126.4540999999999
 20
1182.5051000000001
 11
1132.2464
 21
1178.4882
  0
LINE
  8
_0-0_LAYER001
  6
CONTINUOUS
 62
    4
 10
1132.2464
 20
1178.4882
 11
1138.1185
 21
1174.6315999999999
  0
LINE
  8
_0-0_LAYER001
  6
CONTINUOUS
 62
    4
 10
1138.1185
 20
1174.6315999999999
 11
1144.0926999999999
 21
1170.9771000000001
  0
LINE
  8
_0-0_LAYER001
  6
CONTINUOUS
 62
    4
 10
1144.0926999999999
 20
1170.9771000000001
 11
1150.1909000000001
 21
1167.5664999999999
  0
LINE
  8
_0-0_LAYER001
  6
CONTINUOUS
 62
    4
 10
1150.1909000000001
 20
1167.5664999999999
 11
1156.4351999999999
 21
1164.4417000000001
  0
LINE
  8
_0-0_LAYER001
  6
CONTINUOUS
 62
    4
 10
1156.4351999999999
 20
1164.4417000000001
 11
1160.1324999999999
 21
1162.7766999999999
  0
LINE
  8
_0-0_LAYER001
  6
CONTINUOUS
 62
    4
 10
1160.1324999999999
 20
1162.7766999999999
 11
1163.1917000000001
 21
1161.5056
  0
LINE
  8
_0-0_LAYER001
  6
CONTINUOUS
 62
    4
 10
1163.1917000000001
 20
1161.5056
 11
1168.5522000000001
 21
1159.5035
  0
LINE
  8
_0-0_LAYER001
  6
CONTINUOUS
 62
    4
 10
1168.5522000000001
 20
1159.5035
 11
1174.0079000000001
 21
1157.748
  0
LINE
  8
_0-0_LAYER001
  6
CONTINUOUS
 62
    4
 10
1174.0079000000001
 20
1157.748
 11
1179.5428999999999
 21
1156.2472
  0
LINE
  8
_0-0_LAYER001
  6
CONTINUOUS
 62
    4
 10
1179.5428999999999
 20
1156.2472
 11
1185.1412
 21
1155.0092
  0
LINE
  8
_0-0_LAYER001
  6
CONTINUOUS
 62
    4
 10
1185.1412
 20
1155.0092
 11
1190.7869000000001
 21
1154.0419999999999
  0
LINE
  8
_0-0_LAYER001
  6
CONTINUOUS
 62
    4
 10
1190.7869000000001
 20
1154.0419999999999
 11
1194.0769
 21
1153.6083000000001
  0
LINE
  8
_0-0_LAYER001
  6
CONTINUOUS
 62
    4
 10
1194.0769
 20
1153.6083000000001
 11
1196.5962
 21
1153.3404
  0
LINE
  8
_0-0_LAYER001
  6
CONTINUOUS
 62
    4
 10
1196.5962
 20
1153.3404
 11
1200.9483
 21
1153.0003999999999
  0
LINE
  8
_0-0_LAYER001
  6
CONTINUOUS
 62
    4
 10
1200.9483
 20
1153.0003999999999
 11
1205.3085000000001
 21
1152.8009999999999
  0
LINE
  8
_0-0_LAYER001
  6
CONTINUOUS
 62
    4
 10
1205.3085000000001
 20
1152.8009999999999
 11
1209.6737000000001
 21
1152.7263
  0
LINE
  8
_0-0_LAYER001
  6
CONTINUOUS
 62
    4
 10
1209.6737000000001
 20
1152.7263
 11
1214.0408
 21
1152.7607
  0
LINE
  8
_0-0_LAYER001
  6
CONTINUOUS
 62
    4
 10
1214.0408
 20
1152.7607
 11
1218.4067
 21
1152.8883000000001
  0
LINE
  8
_0-0_LAYER001
  6
CONTINUOUS
 62
    4
 10
1218.4067
 20
1152.8883000000001
 11
1220.9372000000001
 21
1152.9987000000001
  0
LINE
  8
_0-0_LAYER001
  6
CONTINUOUS
 62
    4
 10
1220.9372000000001
 20
1152.9987000000001
 11
1225.6661999999999
 21
1153.2669000000001
  0
LINE
  8
_0-0_LAYER001
  6
CONTINUOUS
 62
    4
 10
1225.6661999999999
 20
1153.2669000000001
 11
1233.8044
 21
1153.8978999999999
  0
LINE
  8
_0-0_LAYER001
  6
CONTINUOUS
 62
    4
 10
1233.8044
 20
1153.8978999999999
 11
1241.9251999999999
 21
1154.7118
  0
LINE
  8
_0-0_LAYER001
  6
CONTINUOUS
 62
    4
 10
1241.9251999999999
 20
1154.7118
 11
1250.0309999999999
 21
1155.6731
  0
LINE
  8
_0-0_LAYER001
  6
CONTINUOUS
 62
    4
 10
1250.0309999999999
 20
1155.6731
 11
1258.1244999999999
 21
1156.7462
  0
LINE
  8
_0-0_LAYER001
  6
CONTINUOUS
 62
    4
 10
1258.1244999999999
 20
1156.7462
 11
1266.2080000000001
 21
1157.8958
  0
LINE
  8
_0-0_LAYER001
  6
CONTINUOUS
 62
    4
 10
1266.2080000000001
 20
1157.8958
 11
1270.8929000000001
 21
1158.5835999999999
  0
LINE
  8
_0-0_LAYER001
  6
CONTINUOUS
 62
    4
 10
1270.8929000000001
 20
1158.5835999999999
 11
1273.3278
 21
1158.9445000000001
  0
LINE
  8
_0-0_LAYER001
  6
CONTINUOUS
 62
    4
 10
1273.3278
 20
1158.9445000000001
 11
1277.5247999999999
 21
1159.5705
  0
LINE
  8
_0-0_LAYER001
  6
CONTINUOUS
 62
    4
 10
1277.5247999999999
 20
1159.5705
 11
1281.7206000000001
 21
1160.2005999999999
  0
LINE
  8
_0-0_LAYER001
  6
CONTINUOUS
 62
    4
 10
1281.7206000000001
 20
1160.2005999999999
 11
1285.9154000000001
 21
1160.8338000000001
  0
LINE
  8
_0-0_LAYER001
  6
CONTINUOUS
 62
    4
 10
1285.9154000000001
 20
1160.8338000000001
 11
1290.1096000000002
 21
1161.4694
  0
LINE
  8
_0-0_LAYER001
  6
CONTINUOUS
 62
    4
 10
1290.1096000000002
 20
1161.4694
 11
1294.3033
 21
1162.1063999999999
  0
LINE
  8
_0-0_LAYER001
  6
CONTINUOUS
 62
    4
 10
1294.3033
 20
1162.1063999999999
 11
1296.7356
 21
1162.4762000000001
  0
LINE
  8
_0-0_LAYER001
  6
CONTINUOUS
 62
    4
 10
1051.6987999999999
 20
1170.3725999999999
 11
1053.7607
 21
1171.1494
  0
LINE
  8
_0-0_LAYER001
  6
CONTINUOUS
 62
    4
 10
1053.7607
 20
1171.1494
 11
1057.3281999999999
 21
1172.4958999999999
  0
LINE
  8
_0-0_LAYER001
  6
CONTINUOUS
 62
    4
 10
1057.3281999999999
 20
1172.4958999999999
 11
1060.9201
 21
1173.8581999999999
  0
LINE
  8
_0-0_LAYER001
  6
CONTINUOUS
 62
    4
 10
1060.9201
 20
1173.8581999999999
 11
1064.5405000000001
 21
1175.242
  0
LINE
  8
_0-0_LAYER001
  6
CONTINUOUS
 62
    4
 10
1064.5405000000001
 20
1175.242
 11
1068.1935000000001
 21
1176.6532
  0
LINE
  8
_0-0_LAYER001
  6
CONTINUOUS
 62
    4
 10
1068.1935000000001
 20
1176.6532
 11
1071.8726999999999
 21
1178.0934999999999
  0
LINE
  8
_0-0_LAYER001
  6
CONTINUOUS
 62
    4
 10
1071.8726999999999
 20
1178.0934999999999
 11
1074.0279
 21
1178.9476
  0
LINE
  8
_0-0_LAYER001
  6
CONTINUOUS
 62
    4
 10
1074.0279
 20
1178.9476
 11
1076.0515
 21
1179.7543000000001
  0
LINE
  8
_0-0_LAYER001
  6
CONTINUOUS
 62
    4
 10
1076.0515
 20
1179.7543000000001
 11
1079.3233
 21
1181.0256999999999
  0
LINE
  8
_0-0_LAYER001
  6
CONTINUOUS
 62
    4
 10
1079.3233
 20
1181.0256999999999
 11
1082.2184999999999
 21
1182.0479
  0
LINE
  8
_0-0_LAYER001
  6
CONTINUOUS
 62
    4
 10
1082.2184999999999
 20
1182.0479
 11
1084.6866
 21
1182.7675999999999
  0
LINE
  8
_0-0_LAYER001
  6
CONTINUOUS
 62
    4
 10
1084.6866
 20
1182.7675999999999
 11
1086.6783
 21
1183.1750999999999
  0
LINE
  8
_0-0_LAYER001
  6
CONTINUOUS
 62
    4
 10
1086.6783
 20
1183.1750999999999
 11
1088.4576
 21
1183.3395
  0
LINE
  8
_0-0_LAYER001
  6
CONTINUOUS
 62
    4
 10
1088.4576
 20
1183.3395
 11
1089.1371999999999
 21
1183.3307
  0
LINE
  8
_0-0_LAYER001
  6
CONTINUOUS
 62
    4
 10
1089.1371999999999
 20
1183.3307
 11
1089.0610999999999
 21
1183.3362
  0
LINE
  8
_0-0_LAYER001
  6
CONTINUOUS
 62
    4
 10
1089.0610999999999
 20
1183.3362
 11
1089.6747
 21
1183.2647999999999
  0
LINE
  8
_0-0_LAYER001
  6
CONTINUOUS
 62
    4
 10
1089.6747
 20
1183.2647999999999
 11
1090.2651000000001
 21
1183.1650999999999
  0
LINE
  8
_0-0_LAYER001
  6
CONTINUOUS
 62
    4
 10
1090.2651000000001
 20
1183.1650999999999
 11
1090.9324999999999
 21
1183.02
  0
LINE
  8
_0-0_LAYER001
  6
CONTINUOUS
 62
    4
 10
1090.9324999999999
 20
1183.02
 11
1091.6660999999999
 21
1182.8273999999999
  0
LINE
  8
_0-0_LAYER001
  6
CONTINUOUS
 62
    4
 10
1091.6660999999999
 20
1182.8273999999999
 11
1092.5153
 21
1182.569
  0
LINE
  8
_0-0_LAYER001
  6
CONTINUOUS
 62
    4
 10
1092.5153
 20
1182.569
 11
1092.7593999999999
 21
1182.4871000000001
  0
LINE
  8
_0-0_LAYER001
  6
CONTINUOUS
 62
    4
 10
1092.7593999999999
 20
1182.4871000000001
 11
1094.3193000000001
 21
1181.895
  0
LINE
  8
_0-0_LAYER001
  6
CONTINUOUS
 62
    4
 10
1094.3193000000001
 20
1181.895
 11
1097.2670000000001
 21
1180.5246
  0
LINE
  8
_0-0_LAYER001
  6
CONTINUOUS
 62
    4
 10
1097.2670000000001
 20
1180.5246
 11
1100.2280000000001
 21
1178.864
  0
LINE
  8
_0-0_LAYER001
  6
CONTINUOUS
 62
    4
 10
1100.2280000000001
 20
1178.864
 11
1103.3957
 21
1176.8425999999999
  0
LINE
  8
_0-0_LAYER001
  6
CONTINUOUS
 62
    4
 10
1103.3957
 20
1176.8425999999999
 11
1106.7804000000001
 21
1174.4976999999999
  0
LINE
  8
_0-0_LAYER001
  6
CONTINUOUS
 62
    4
 10
1106.7804000000001
 20
1174.4976999999999
 11
1110.3861999999999
 21
1171.8951999999999
  0
LINE
  8
_0-0_LAYER001
  6
CONTINUOUS
 62
    4
 10
1110.3861999999999
 20
1171.8951999999999
 11
1112.5931
 21
1170.2927999999999
  0
LINE
  8
_0-0_LAYER001
  6
CONTINUOUS
 62
    4
 10
1112.5931
 20
1170.2927999999999
 11
1116.0831000000001
 21
1167.7925
  0
LINE
  8
_0-0_LAYER001
  6
CONTINUOUS
 62
    4
 10
1116.0831000000001
 20
1167.7925
 11
1122.1753000000001
 21
1163.5675000000001
  0
LINE
  8
_0-0_LAYER001
  6
CONTINUOUS
 62
    4
 10
1122.1753000000001
 20
1163.5675000000001
 11
1128.479
 21
1159.4275
  0
LINE
  8
_0-0_LAYER001
  6
CONTINUOUS
 62
    4
 10
1128.479
 20
1159.4275
 11
1134.9997000000001
 21
1155.4386999999999
  0
LINE
  8
_0-0_LAYER001
  6
CONTINUOUS
 62
    4
 10
1134.9997000000001
 20
1155.4386999999999
 11
1141.7656999999999
 21
1151.6547
  0
LINE
  8
_0-0_LAYER001
  6
CONTINUOUS
 62
    4
 10
1141.7656999999999
 20
1151.6547
 11
1148.7086999999999
 21
1148.1802
  0
LINE
  8
_0-0_LAYER001
  6
CONTINUOUS
 62
    4
 10
1148.7086999999999
 20
1148.1802
 11
1152.9820999999999
 21
1146.2557999999999
  0
LINE
  8
_0-0_LAYER001
  6
CONTINUOUS
 62
    4
 10
1152.9820999999999
 20
1146.2557999999999
 11
1156.5871999999999
 21
1144.7579000000001
  0
LINE
  8
_0-0_LAYER001
  6
CONTINUOUS
 62
    4
 10
1156.5871999999999
 20
1144.7579000000001
 11
1162.6433
 21
1142.4958999999999
  0
LINE
  8
_0-0_LAYER001
  6
CONTINUOUS
 62
    4
 10
1162.6433
 20
1142.4958999999999
 11
1168.8932
 21
1140.4848999999999
  0
LINE
  8
_0-0_LAYER001
  6
CONTINUOUS
 62
    4
 10
1168.8932
 20
1140.4848999999999
 11
1175.2419
 21
1138.7635
  0
LINE
  8
_0-0_LAYER001
  6
CONTINUOUS
 62
    4
 10
1175.2419
 20
1138.7635
 11
1181.6762000000001
 21
1137.3406
  0
LINE
  8
_0-0_LAYER001
  6
CONTINUOUS
 62
    4
 10
1181.6762000000001
 20
1137.3406
 11
1188.0898999999999
 21
1136.2418
  0
LINE
  8
_0-0_LAYER001
  6
CONTINUOUS
 62
    4
 10
1188.0898999999999
 20
1136.2418
 11
1191.9486999999999
 21
1135.7330999999999
  0
LINE
  8
_0-0_LAYER001
  6
CONTINUOUS
 62
    4
 10
1191.9486999999999
 20
1135.7330999999999
 11
1194.9432999999999
 21
1135.4147
  0
LINE
  8
_0-0_LAYER001
  6
CONTINUOUS
 62
    4
 10
1194.9432999999999
 20
1135.4147
 11
1199.8357000000001
 21
1135.0325
  0
LINE
  8
_0-0_LAYER001
  6
CONTINUOUS
 62
    4
 10
1199.8357000000001
 20
1135.0325
 11
1204.7433000000001
 21
1134.808
  0
LINE
  8
_0-0_LAYER001
  6
CONTINUOUS
 62
    4
 10
1204.7433000000001
 20
1134.808
 11
1209.5906
 21
1134.7251000000001
  0
LINE
  8
_0-0_LAYER001
  6
CONTINUOUS
 62
    4
 10
1209.5906
 20
1134.7251000000001
 11
1214.3744999999999
 21
1134.7627
  0
LINE
  8
_0-0_LAYER001
  6
CONTINUOUS
 62
    4
 10
1214.3744999999999
 20
1134.7627
 11
1219.0622000000001
 21
1134.8996999999999
  0
LINE
  8
_0-0_LAYER001
  6
CONTINUOUS
 62
    4
 10
1219.0622000000001
 20
1134.8996999999999
 11
1221.8394000000001
 21
1135.021
  0
LINE
  8
_0-0_LAYER001
  6
CONTINUOUS
 62
    4
 10
1221.8394000000001
 20
1135.021
 11
1226.8716999999999
 21
1135.3063999999999
  0
LINE
  8
_0-0_LAYER001
  6
CONTINUOUS
 62
    4
 10
1226.8716999999999
 20
1135.3063999999999
 11
1235.3978
 21
1135.9674
  0
LINE
  8
_0-0_LAYER001
  6
CONTINUOUS
 62
    4
 10
1235.3978
 20
1135.9674
 11
1243.8827000000001
 21
1136.8178
  0
LINE
  8
_0-0_LAYER001
  6
CONTINUOUS
 62
    4
 10
1243.8827000000001
 20
1136.8178
 11
1252.2739999999999
 21
1137.8128999999999
  0
LINE
  8
_0-0_LAYER001
  6
CONTINUOUS
 62
    4
 10
1252.2739999999999
 20
1137.8128999999999
 11
1260.5746999999999
 21
1138.9136000000001
  0
LINE
  8
_0-0_LAYER001
  6
CONTINUOUS
 62
    4
 10
1260.5746999999999
 20
1138.9136000000001
 11
1268.7825
 21
1140.0808
  0
LINE
  8
_0-0_LAYER001
  6
CONTINUOUS
 62
    4
 10
1268.7825
 20
1140.0808
 11
1273.5196000000001
 21
1140.7763
  0
LINE
  8
_0-0_LAYER001
  6
CONTINUOUS
 62
    4
 10
1273.5196000000001
 20
1140.7763
 11
1275.9749999999999
 21
1141.1402
  0
LINE
  8
_0-0_LAYER001
  6
CONTINUOUS
 62
    4
 10
1275.9749999999999
 20
1141.1402
 11
1280.1891000000001
 21
1141.7687000000001
  0
LINE
  8
_0-0_LAYER001
  6
CONTINUOUS
 62
    4
 10
1280.1891000000001
 20
1141.7687000000001
 11
1284.4005999999999
 21
1142.4012
  0
LINE
  8
_0-0_LAYER001
  6
CONTINUOUS
 62
    4
 10
1284.4005999999999
 20
1142.4012
 11
1288.6074000000003
 21
1143.0363
  0
LINE
  8
_0-0_LAYER001
  6
CONTINUOUS
 62
    4
 10
1288.6074000000003
 20
1143.0363
 11
1292.8096
 21
1143.6731
  0
LINE
  8
_0-0_LAYER001
  6
CONTINUOUS
 62
    4
 10
1292.8096
 20
1143.6731
 11
1297.0074999999999
 21
1144.3107
  0
LINE
  8
_0-0_LAYER001
  6
CONTINUOUS
 62
    4
 10
1297.0074999999999
 20
1144.3107
 11
1298.6251999999999
 21
1144.5565999999999
  0
LINE
  8
_0-0_LAYER001
  6
CONTINUOUS
 62
    4
 10
1046.1699000000001
 20
1187.5227
 11
1046.5959
 21
1187.6858
  0
ARC
  8
_0-0_LAYER001
  6
CONTINUOUS
 62
    4
 10
1047.2425000000001
 20
1184.721
 40
3
 50
110.94902000000002
 51
178.70000000000002
  0
LINE
  8
_0-0_LAYER001
  6
CONTINUOUS
 62
    4
 10
1044.134
 20
1168.95
 11
1044.134
 21
1184.6723999999999
  0
LINE
  8
_0-0_LAYER001
  6
CONTINUOUS
 62
    4
 10
1045.4880000000001
 20
1168.0146999999999
 11
1051.6628000000001
 21
1170.3518999999999
  0
ARC
  8
_0-0_LAYER001
  6
CONTINUOUS
 62
    4
 10
1045.134
 20
1168.95
 40
1
 50
180
 51
290.73165999999998
  0
LINE
  8
_0-0_LAYER001
  6
CONTINUOUS
 62
    4
 10
1309.134
 20
1147.6277
 11
1309.134
 21
1164.8251
  0
LINE
  8
_0-0_LAYER001
  6
CONTINUOUS
 62
    4
 10
1296.8605
 20
1162.5116
 11
1341.3148000000001
 21
1172.1594
  0
LINE
  8
_0-0_LAYER001
  6
CONTINUOUS
 62
    4
 10
1303.6057000000001
 20
1142.6777999999999
 11
1342.2774999999999
 21
1151.7277999999999
  0
LINE
  8
_0-0_LAYER001
  6
CONTINUOUS
 62
    4
 10
1342.2774999999999
 20
1152.6842999999999
 11
1342.2774999999999
 21
1151.7277999999999
  0
ARC
  8
_0-0_LAYER001
  6
CONTINUOUS
 62
    4
 10
1343.2774999999997
 20
1152.6842999999999
 40
1
 50
102.72435
 51
180
  0
LINE
  8
_0-0_LAYER001
  6
CONTINUOUS
 62
    4
 10
1348.0945999999999
 20
1154.7972
 11
1343.0572999999999
 21
1153.6596999999999
  0
ARC
  8
_0-0_LAYER001
  6
CONTINUOUS
 62
    4
 10
1348.3148000000001
 20
1153.8217
 40
1
 50
0
 51
102.72435
  0
LINE
  8
_0-0_LAYER001
  6
CONTINUOUS
 62
    4
 10
1348.5268999999998
 20
1155.3055999999999
 11
1298.3929000000001
 21
1144.4250999999999
  0
ARC
  8
_0-0_LAYER001
  6
CONTINUOUS
 62
    4
 10
1348.3148000000001
 20
1156.2828999999999
 40
1
 50
282.24497000000002
 51
0
  0
LINE
  8
_0-0_LAYER001
  6
CONTINUOUS
 62
    4
 10
1348.5327000000002
 20
1134.5649000000001
 11
1298.9486999999999
 21
1123.4971
  0
LINE
  8
_0-0_LAYER001
  6
CONTINUOUS
 62
    4
 10
1349.3148000000001
 20
1135.5409
 11
1349.3148000000001
 21
1153.8217
  0
ARC
  8
_0-0_LAYER001
  6
CONTINUOUS
 62
    4
 10
1348.3148000000001
 20
1135.5409
 40
1
 50
282.58296000000001
 51
0.0000000000000254
  0
LINE
  8
_0-0_LAYER001
  6
CONTINUOUS
 62
    4
 10
1341.3148000000001
 20
1173.6165000000001
 11
1341.3148000000001
 21
1172.1594
  0
ARC
  8
_0-0_LAYER001
  6
CONTINUOUS
 62
    4
 10
1342.3148000000001
 20
1173.6165000000001
 40
1
 50
101.73308
 51
180
  0
LINE
  8
_0-0_LAYER001
  6
CONTINUOUS
 62
    4
 10
1348.1115
 20
1175.8416999999999
 11
1342.1115
 21
1174.5956000000001
  0
LINE
  8
_0-0_LAYER001
  6
CONTINUOUS
 62
    4
 10
1349.3148000000001
 20
1174.8625999999999
 11
1349.3148000000001
 21
1156.2828999999999
  0
ARC
  8
_0-0_LAYER001
  6
CONTINUOUS
 62
    4
 10
1348.3148000000001
 20
1174.8625999999999
 40
1
 50
0
 51
101.73308
  0
LINE
  8
_0-0_LAYER001
  6
DASHED1
 62
    2
 10
1148.5256999999999
 20
1147.3807999999999
 11
1164.5256999999999
 21
1147.3807999999999
  0
LINE
  8
_0-0_LAYER001
  6
DASHED1
 62
    2
 10
1164.5256999999999
 20
1147.3807999999999
 11
1164.5256999999999
 21
1144.3807999999999
  0
LINE
  8
_0-0_LAYER001
  6
DASHED1
 62
    2
 10
1148.5256999999999
 20
1147.3807999999999
 11
1148.5256999999999
 21
1144.3807999999999
  0
LINE
  8
_0-0_LAYER001
  6
DASHED1
 62
    2
 10
1148.5256999999999
 20
1144.3807999999999
 11
1164.5256999999999
 21
1144.3807999999999
  0
LINE
  8
_0-0_LAYER001
  6
DASHED1
 62
    2
 10
1159.5256999999999
 20
1089.4848
 11
1156.4755
 21
1074.9757999999999
  0
LINE
  8
_0-0_LAYER001
  6
DASHED1
 62
    2
 10
1159.5256999999999
 20
1144.3807999999999
 11
1159.5256999999999
 21
1089.4848
  0
LINE
  8
_0-0_LAYER001
  6
DASHED1
 62
    2
 10
1156.4755
 20
1074.9757999999999
 11
1153.5256999999999
 21
1089.2333000000001
  0
LINE
  8
_0-0_LAYER001
  6
DASHED1
 62
    2
 10
1153.5256999999999
 20
1144.3807999999999
 11
1153.5256999999999
 21
1089.2333000000001
  0
LINE
  8
_0-0_LAYER001
  6
DASHED1
 62
    2
 10
1413.5319
 20
1144.6496
 11
1429.5319
 21
1144.6496
  0
LINE
  8
_0-0_LAYER001
  6
DASHED1
 62
    2
 10
1429.5319
 20
1144.6496
 11
1429.5319
 21
1141.6496
  0
LINE
  8
_0-0_LAYER001
  6
DASHED1
 62
    2
 10
1413.5319
 20
1144.6496
 11
1413.5319
 21
1141.6496
  0
LINE
  8
_0-0_LAYER001
  6
DASHED1
 62
    2
 10
1413.5319
 20
1141.6496
 11
1429.5319
 21
1141.6496
  0
LINE
  8
_0-0_LAYER001
  6
DASHED1
 62
    2
 10
1424.5319
 20
1086.7535
 11
1421.4816999999998
 21
1072.2446
  0
LINE
  8
_0-0_LAYER001
  6
DASHED1
 62
    2
 10
1424.5319
 20
1141.6496
 11
1424.5319
 21
1086.7535
  0
LINE
  8
_0-0_LAYER001
  6
DASHED1
 62
    2
 10
1421.4816999999998
 20
1072.2446
 11
1418.5319
 21
1086.5020999999999
  0
LINE
  8
_0-0_LAYER001
  6
DASHED1
 62
    2
 10
1418.5319
 20
1141.6496
 11
1418.5319
 21
1086.5020999999999
  0
LINE
  8
_0-0_LAYER001
  6
CONTINUOUS
 62
    4
 10
1832.0214999999998
 20
1148.9276
 11
1834.4382000000001
 21
1149.3949
  0
LINE
  8
_0-0_LAYER001
  6
CONTINUOUS
 62
    4
 10
1827.8521000000001
 20
1148.1220000000001
 11
1832.0214999999998
 21
1148.9276
  0
LINE
  8
_0-0_LAYER001
  6
CONTINUOUS
 62
    4
 10
1823.6779000000001
 20
1147.3169
 11
1827.8521000000001
 21
1148.1220000000001
  0
LINE
  8
_0-0_LAYER001
  6
CONTINUOUS
 62
    4
 10
1819.4987999999998
 20
1146.5132000000001
 11
1823.6779000000001
 21
1147.3169
  0
LINE
  8
_0-0_LAYER001
  6
CONTINUOUS
 62
    4
 10
1815.3143
 20
1145.7119
 11
1819.4987999999998
 21
1146.5132000000001
  0
LINE
  8
_0-0_LAYER001
  6
CONTINUOUS
 62
    4
 10
1811.1269000000002
 20
1144.9143999999999
 11
1815.3143
 21
1145.7119
  0
LINE
  8
_0-0_LAYER001
  6
CONTINUOUS
 62
    4
 10
1808.6858000000002
 20
1144.4518
 11
1811.1269000000002
 21
1144.9143999999999
  0
LINE
  8
_0-0_LAYER001
  6
CONTINUOUS
 62
    4
 10
1803.9747000000002
 20
1143.5657000000001
 11
1808.6858000000002
 21
1144.4518
  0
LINE
  8
_0-0_LAYER001
  6
CONTINUOUS
 62
    4
 10
1795.8067000000001
 20
1142.0675000000001
 11
1803.9747000000002
 21
1143.5657000000001
  0
LINE
  8
_0-0_LAYER001
  6
CONTINUOUS
 62
    4
 10
1787.5338999999999
 20
1140.6306999999999
 11
1795.8067000000001
 21
1142.0675000000001
  0
LINE
  8
_0-0_LAYER001
  6
CONTINUOUS
 62
    4
 10
1779.1578
 20
1139.2945999999999
 11
1787.5338999999999
 21
1140.6306999999999
  0
LINE
  8
_0-0_LAYER001
  6
CONTINUOUS
 62
    4
 10
1770.6736000000001
 20
1138.0987
 11
1779.1578
 21
1139.2945999999999
  0
LINE
  8
_0-0_LAYER001
  6
CONTINUOUS
 62
    4
 10
1762.1379000000002
 20
1137.0908999999999
 11
1770.6736000000001
 21
1138.0987
  0
LINE
  8
_0-0_LAYER001
  6
CONTINUOUS
 62
    4
 10
1757.0875000000001
 20
1136.6005
 11
1762.1379000000002
 21
1137.0908999999999
  0
LINE
  8
_0-0_LAYER001
  6
CONTINUOUS
 62
    4
 10
1754.2901000000002
 20
1136.3656000000001
 11
1757.0875000000001
 21
1136.6005
  0
LINE
  8
_0-0_LAYER001
  6
CONTINUOUS
 62
    4
 10
1749.576
 20
1136.0381
 11
1754.2901000000002
 21
1136.3656000000001
  0
LINE
  8
_0-0_LAYER001
  6
CONTINUOUS
 62
    4
 10
1744.7512000000002
 20
1135.8063
 11
1749.576
 21
1136.0381
  0
LINE
  8
_0-0_LAYER001
  6
CONTINUOUS
 62
    4
 10
1739.8508999999999
 20
1135.6934000000001
 11
1744.7512000000002
 21
1135.8063
  0
LINE
  8
_0-0_LAYER001
  6
CONTINUOUS
 62
    4
 10
1734.8773999999999
 20
1135.7211
 11
1739.8508999999999
 21
1135.6934000000001
  0
LINE
  8
_0-0_LAYER001
  6
CONTINUOUS
 62
    4
 10
1729.9133999999999
 20
1135.9088999999999
 11
1734.8773999999999
 21
1135.7211
  0
LINE
  8
_0-0_LAYER001
  6
CONTINUOUS
 62
    4
 10
1726.8553999999999
 20
1136.1104
 11
1729.9133999999999
 21
1135.9088999999999
  0
LINE
  8
_0-0_LAYER001
  6
CONTINUOUS
 62
    4
 10
1722.9158000000002
 20
1136.4695999999999
 11
1726.8553999999999
 21
1136.1104
  0
LINE
  8
_0-0_LAYER001
  6
CONTINUOUS
 62
    4
 10
1716.3773000000001
 20
1137.3213000000001
 11
1722.9158000000002
 21
1136.4695999999999
  0
LINE
  8
_0-0_LAYER001
  6
CONTINUOUS
 62
    4
 10
1709.7975999999999
 20
1138.5016000000001
 11
1716.3773000000001
 21
1137.3213000000001
  0
LINE
  8
_0-0_LAYER001
  6
CONTINUOUS
 62
    4
 10
1703.2935000000002
 20
1139.9876999999999
 11
1709.7975999999999
 21
1138.5016000000001
  0
LINE
  8
_0-0_LAYER001
  6
CONTINUOUS
 62
    4
 10
1696.8787000000002
 20
1141.7710999999999
 11
1703.2935000000002
 21
1139.9876999999999
  0
LINE
  8
_0-0_LAYER001
  6
CONTINUOUS
 62
    4
 10
1690.6583000000001
 20
1143.8140000000001
 11
1696.8787000000002
 21
1141.7710999999999
  0
LINE
  8
_0-0_LAYER001
  6
CONTINUOUS
 62
    4
 10
1686.9344000000001
 20
1145.1886999999999
 11
1690.6583000000001
 21
1143.8140000000001
  0
LINE
  8
_0-0_LAYER001
  6
CONTINUOUS
 62
    4
 10
1682.5221000000001
 20
1146.9663
 11
1686.9344000000001
 21
1145.1886999999999
  0
LINE
  8
_0-0_LAYER001
  6
CONTINUOUS
 62
    4
 10
1675.366
 20
1150.1950999999999
 11
1682.5221000000001
 21
1146.9663
  0
LINE
  8
_0-0_LAYER001
  6
CONTINUOUS
 62
    4
 10
1668.3779
 20
1153.7429999999999
 11
1675.366
 21
1150.1950999999999
  0
LINE
  8
_0-0_LAYER001
  6
CONTINUOUS
 62
    4
 10
1661.6401999999998
 20
1157.5016000000001
 11
1668.3779
 21
1153.7429999999999
  0
LINE
  8
_0-0_LAYER001
  6
CONTINUOUS
 62
    4
 10
1655.1262000000002
 20
1161.4149
 11
1661.6401999999998
 21
1157.5016000000001
  0
LINE
  8
_0-0_LAYER001
  6
CONTINUOUS
 62
    4
 10
1648.8350999999998
 20
1165.4137000000001
 11
1655.1262000000002
 21
1161.4149
  0
LINE
  8
_0-0_LAYER001
  6
CONTINUOUS
 62
    4
 10
1645.2294999999999
 20
1167.7837999999999
 11
1648.8350999999998
 21
1165.4137000000001
  0
LINE
  8
_0-0_LAYER001
  6
CONTINUOUS
 62
    4
 10
1642.9571000000001
 20
1169.2982999999999
 11
1645.2294999999999
 21
1167.7837999999999
  0
LINE
  8
_0-0_LAYER001
  6
CONTINUOUS
 62
    4
 10
1639.2683000000002
 20
1171.7418
 11
1642.9571000000001
 21
1169.2982999999999
  0
LINE
  8
_0-0_LAYER001
  6
CONTINUOUS
 62
    4
 10
1635.8404999999998
 20
1173.9183
 11
1639.2683000000002
 21
1171.7418
  0
LINE
  8
_0-0_LAYER001
  6
CONTINUOUS
 62
    4
 10
1632.6761000000001
 20
1175.7632000000001
 11
1635.8404999999998
 21
1173.9183
  0
LINE
  8
_0-0_LAYER001
  6
CONTINUOUS
 62
    4
 10
1629.7692000000002
 20
1177.2433000000001
 11
1632.6761000000001
 21
1175.7632000000001
  0
LINE
  8
_0-0_LAYER001
  6
CONTINUOUS
 62
    4
 10
1626.9058
 20
1178.4373000000001
 11
1629.7692000000002
 21
1177.2433000000001
  0
LINE
  8
_0-0_LAYER001
  6
CONTINUOUS
 62
    4
 10
1625.4292
 20
1178.9309000000001
 11
1626.9058
 21
1178.4373000000001
  0
LINE
  8
_0-0_LAYER001
  6
CONTINUOUS
 62
    4
 10
1625.2467000000001
 20
1178.9840999999999
 11
1625.4292
 21
1178.9309000000001
  0
LINE
  8
_0-0_LAYER001
  6
CONTINUOUS
 62
    4
 10
1624.4526999999998
 20
1179.1913
 11
1625.2467000000001
 21
1178.9840999999999
  0
LINE
  8
_0-0_LAYER001
  6
CONTINUOUS
 62
    4
 10
1623.7914999999998
 20
1179.3368
 11
1624.4526999999998
 21
1179.1913
  0
LINE
  8
_0-0_LAYER001
  6
CONTINUOUS
 62
    4
 10
1623.2067999999999
 20
1179.4395
 11
1623.7914999999998
 21
1179.3368
  0
LINE
  8
_0-0_LAYER001
  6
CONTINUOUS
 62
    4
 10
1623.1666
 20
1179.4446
 11
1623.2067999999999
 21
1179.4395
  0
LINE
  8
_0-0_LAYER001
  6
CONTINUOUS
 62
    4
 10
1828.5145000000002
 20
1129.6416999999999
 11
1830.1210000000001
 21
1129.9523999999999
  0
LINE
  8
_0-0_LAYER001
  6
CONTINUOUS
 62
    4
 10
1824.3456000000001
 20
1128.8362
 11
1828.5145000000002
 21
1129.6416999999999
  0
LINE
  8
_0-0_LAYER001
  6
CONTINUOUS
 62
    4
 10
1820.1723000000002
 20
1128.0311999999999
 11
1824.3456000000001
 21
1128.8362
  0
LINE
  8
_0-0_LAYER001
  6
CONTINUOUS
 62
    4
 10
1815.9944
 20
1127.2277999999999
 11
1820.1723000000002
 21
1128.0311999999999
  0
LINE
  8
_0-0_LAYER001
  6
CONTINUOUS
 62
    4
 10
1811.8117000000002
 20
1126.4268999999999
 11
1815.9944
 21
1127.2277999999999
  0
LINE
  8
_0-0_LAYER001
  6
CONTINUOUS
 62
    4
 10
1807.6262000000002
 20
1125.6297
 11
1811.8117000000002
 21
1126.4268999999999
  0
LINE
  8
_0-0_LAYER001
  6
CONTINUOUS
 62
    4
 10
1805.1873999999998
 20
1125.1676
 11
1807.6262000000002
 21
1125.6297
  0
LINE
  8
_0-0_LAYER001
  6
CONTINUOUS
 62
    4
 10
1800.482
 20
1124.2826
 11
1805.1873999999998
 21
1125.1676
  0
LINE
  8
_0-0_LAYER001
  6
CONTINUOUS
 62
    4
 10
1792.3276999999998
 20
1122.7869000000001
 11
1800.482
 21
1124.2826
  0
LINE
  8
_0-0_LAYER001
  6
CONTINUOUS
 62
    4
 10
1784.0779000000002
 20
1121.354
 11
1792.3276999999998
 21
1122.7869000000001
  0
LINE
  8
_0-0_LAYER001
  6
CONTINUOUS
 62
    4
 10
1775.7332999999999
 20
1120.0228999999999
 11
1784.0779000000002
 21
1121.354
  0
LINE
  8
_0-0_LAYER001
  6
CONTINUOUS
 62
    4
 10
1767.2892999999999
 20
1118.8326999999999
 11
1775.7332999999999
 21
1120.0228999999999
  0
LINE
  8
_0-0_LAYER001
  6
CONTINUOUS
 62
    4
 10
1758.7966000000001
 20
1117.8299999999999
 11
1767.2892999999999
 21
1118.8326999999999
  0
LINE
  8
_0-0_LAYER001
  6
CONTINUOUS
 62
    4
 10
1753.7797999999998
 20
1117.3429000000001
 11
1758.7966000000001
 21
1117.8299999999999
  0
LINE
  8
_0-0_LAYER001
  6
CONTINUOUS
 62
    4
 10
1751.0097000000001
 20
1117.1103000000001
 11
1753.7797999999998
 21
1117.3429000000001
  0
LINE
  8
_0-0_LAYER001
  6
CONTINUOUS
 62
    4
 10
1746.3312999999998
 20
1116.7853
 11
1751.0097000000001
 21
1117.1103000000001
  0
LINE
  8
_0-0_LAYER001
  6
CONTINUOUS
 62
    4
 10
1741.5527999999999
 20
1116.5556999999999
 11
1746.3312999999998
 21
1116.7853
  0
LINE
  8
_0-0_LAYER001
  6
CONTINUOUS
 62
    4
 10
1736.7060000000001
 20
1116.444
 11
1741.5527999999999
 21
1116.5556999999999
  0
LINE
  8
_0-0_LAYER001
  6
CONTINUOUS
 62
    4
 10
1731.7934
 20
1116.4712999999999
 11
1736.7060000000001
 21
1116.444
  0
LINE
  8
_0-0_LAYER001
  6
CONTINUOUS
 62
    4
 10
1726.8896
 20
1116.6569
 11
1731.7934
 21
1116.4712999999999
  0
LINE
  8
_0-0_LAYER001
  6
CONTINUOUS
 62
    4
 10
1723.8845999999999
 20
1116.8549
 11
1726.8896
 21
1116.6569
  0
LINE
  8
_0-0_LAYER001
  6
CONTINUOUS
 62
    4
 10
1720.0084999999999
 20
1117.2083
 11
1723.8845999999999
 21
1116.8549
  0
LINE
  8
_0-0_LAYER001
  6
CONTINUOUS
 62
    4
 10
1713.5558000000001
 20
1118.0488
 11
1720.0084999999999
 21
1117.2083
  0
LINE
  8
_0-0_LAYER001
  6
CONTINUOUS
 62
    4
 10
1707.0697
 20
1119.2122999999999
 11
1713.5558000000001
 21
1118.0488
  0
LINE
  8
_0-0_LAYER001
  6
CONTINUOUS
 62
    4
 10
1700.6570000000002
 20
1120.6776
 11
1707.0697
 21
1119.2122999999999
  0
LINE
  8
_0-0_LAYER001
  6
CONTINUOUS
 62
    4
 10
1694.3314
 20
1122.4362000000001
 11
1700.6570000000002
 21
1120.6776
  0
LINE
  8
_0-0_LAYER001
  6
CONTINUOUS
 62
    4
 10
1688.1895
 20
1124.4531999999999
 11
1694.3314
 21
1122.4362000000001
  0
LINE
  8
_0-0_LAYER001
  6
CONTINUOUS
 62
    4
 10
1684.5272
 20
1125.8053
 11
1688.1895
 21
1124.4531999999999
  0
LINE
  8
_0-0_LAYER001
  6
CONTINUOUS
 62
    4
 10
1680.1799999999998
 20
1127.5565999999999
 11
1684.5272
 21
1125.8053
  0
LINE
  8
_0-0_LAYER001
  6
CONTINUOUS
 62
    4
 10
1673.1030999999998
 20
1130.7497000000001
 11
1680.1799999999998
 21
1127.5565999999999
  0
LINE
  8
_0-0_LAYER001
  6
CONTINUOUS
 62
    4
 10
1666.1907000000001
 20
1134.2591
 11
1673.1030999999998
 21
1130.7497000000001
  0
LINE
  8
_0-0_LAYER001
  6
CONTINUOUS
 62
    4
 10
1659.5151999999998
 20
1137.9829999999999
 11
1666.1907000000001
 21
1134.2591
  0
LINE
  8
_0-0_LAYER001
  6
CONTINUOUS
 62
    4
 10
1653.0504000000001
 20
1141.8667
 11
1659.5151999999998
 21
1137.9829999999999
  0
LINE
  8
_0-0_LAYER001
  6
CONTINUOUS
 62
    4
 10
1646.7935000000002
 20
1145.8438000000001
 11
1653.0504000000001
 21
1141.8667
  0
LINE
  8
_0-0_LAYER001
  6
CONTINUOUS
 62
    4
 10
1643.2060000000001
 20
1148.2021
 11
1646.7935000000002
 21
1145.8438000000001
  0
LINE
  8
_0-0_LAYER001
  6
CONTINUOUS
 62
    4
 10
1640.9364999999998
 20
1149.7146
 11
1643.2060000000001
 21
1148.2021
  0
LINE
  8
_0-0_LAYER001
  6
CONTINUOUS
 62
    4
 10
1637.2293
 20
1152.1703
 11
1640.9364999999998
 21
1149.7146
  0
LINE
  8
_0-0_LAYER001
  6
CONTINUOUS
 62
    4
 10
1633.7532000000001
 20
1154.3775000000001
 11
1637.2293
 21
1152.1703
  0
LINE
  8
_0-0_LAYER001
  6
CONTINUOUS
 62
    4
 10
1630.5068999999999
 20
1156.2701
 11
1633.7532000000001
 21
1154.3775000000001
  0
LINE
  8
_0-0_LAYER001
  6
CONTINUOUS
 62
    4
 10
1627.4816000000001
 20
1157.8105
 11
1630.5068999999999
 21
1156.2701
  0
LINE
  8
_0-0_LAYER001
  6
CONTINUOUS
 62
    4
 10
1624.4812999999999
 20
1159.0615
 11
1627.4816000000001
 21
1157.8105
  0
LINE
  8
_0-0_LAYER001
  6
CONTINUOUS
 62
    4
 10
1623.7244000000001
 20
1159.3145999999999
 11
1624.4812999999999
 21
1159.0615
  0
LINE
  8
_0-0_LAYER001
  6
CONTINUOUS
 62
    4
 10
1623.5327000000002
 20
1179.3596
 11
1623.8847999999998
 21
1159.1884
  0
LINE
  8
_0-0_LAYER001
  6
CONTINUOUS
 62
    4
 10
1576.2069000000001
 20
1187.5137
 11
1577.0124999999998
 21
1187.8415
  0
LINE
  8
_0-0_LAYER001
  6
CONTINUOUS
 62
    4
 10
1577.0124999999998
 20
1187.8415
 11
1580.5254
 21
1189.2736
  0
LINE
  8
_0-0_LAYER001
  6
CONTINUOUS
 62
    4
 10
1580.5254
 20
1189.2736
 11
1584.0455000000002
 21
1190.7150999999999
  0
LINE
  8
_0-0_LAYER001
  6
CONTINUOUS
 62
    4
 10
1584.0455000000002
 20
1190.7150999999999
 11
1587.5772999999999
 21
1192.1721
  0
LINE
  8
_0-0_LAYER001
  6
CONTINUOUS
 62
    4
 10
1587.5772999999999
 20
1192.1721
 11
1591.1251000000002
 21
1193.6505
  0
LINE
  8
_0-0_LAYER001
  6
CONTINUOUS
 62
    4
 10
1591.1251000000002
 20
1193.6505
 11
1594.6936999999998
 21
1195.1564000000001
  0
LINE
  8
_0-0_LAYER001
  6
CONTINUOUS
 62
    4
 10
1594.6936999999998
 20
1195.1564000000001
 11
1596.7746000000002
 21
1196.0447999999999
  0
LINE
  8
_0-0_LAYER001
  6
CONTINUOUS
 62
    4
 10
1596.7746000000002
 20
1196.0447999999999
 11
1598.8316
 21
1196.9277999999999
  0
LINE
  8
_0-0_LAYER001
  6
CONTINUOUS
 62
    4
 10
1598.8316
 20
1196.9277999999999
 11
1602.4002
 21
1198.4232
  0
LINE
  8
_0-0_LAYER001
  6
CONTINUOUS
 62
    4
 10
1602.4002
 20
1198.4232
 11
1605.9980999999998
 21
1199.8006
  0
LINE
  8
_0-0_LAYER001
  6
CONTINUOUS
 62
    4
 10
1605.9980999999998
 20
1199.8006
 11
1609.6269000000002
 21
1200.9626000000001
  0
LINE
  8
_0-0_LAYER001
  6
CONTINUOUS
 62
    4
 10
1609.6269000000002
 20
1200.9626000000001
 11
1613.288
 21
1201.8119999999999
  0
LINE
  8
_0-0_LAYER001
  6
CONTINUOUS
 62
    4
 10
1613.288
 20
1201.8119999999999
 11
1616.9830999999999
 21
1202.2512999999999
  0
LINE
  8
_0-0_LAYER001
  6
CONTINUOUS
 62
    4
 10
1616.9830999999999
 20
1202.2512999999999
 11
1619.1423
 21
1202.28
  0
LINE
  8
_0-0_LAYER001
  6
CONTINUOUS
 62
    4
 10
1619.1423
 20
1202.28
 11
1619.9928
 21
1202.2409
  0
LINE
  8
_0-0_LAYER001
  6
CONTINUOUS
 62
    4
 10
1619.9928
 20
1202.2409
 11
1621.4611
 21
1202.1087
  0
LINE
  8
_0-0_LAYER001
  6
CONTINUOUS
 62
    4
 10
1621.4611
 20
1202.1087
 11
1622.9281000000001
 21
1201.9003
  0
LINE
  8
_0-0_LAYER001
  6
CONTINUOUS
 62
    4
 10
1622.9281000000001
 20
1201.9003
 11
1624.3896
 21
1201.6224
  0
LINE
  8
_0-0_LAYER001
  6
CONTINUOUS
 62
    4
 10
1624.3896
 20
1201.6224
 11
1625.8411999999998
 21
1201.2818
  0
LINE
  8
_0-0_LAYER001
  6
CONTINUOUS
 62
    4
 10
1625.8411999999998
 20
1201.2818
 11
1627.2784999999999
 21
1200.8851
  0
LINE
  8
_0-0_LAYER001
  6
CONTINUOUS
 62
    4
 10
1627.2784999999999
 20
1200.8851
 11
1628.1039000000001
 21
1200.6320000000001
  0
LINE
  8
_0-0_LAYER001
  6
CONTINUOUS
 62
    4
 10
1628.1039000000001
 20
1200.6320000000001
 11
1630.6261
 21
1199.7494999999999
  0
LINE
  8
_0-0_LAYER001
  6
CONTINUOUS
 62
    4
 10
1630.6261
 20
1199.7494999999999
 11
1634.8341999999998
 21
1197.9255000000001
  0
LINE
  8
_0-0_LAYER001
  6
CONTINUOUS
 62
    4
 10
1634.8341999999998
 20
1197.9255000000001
 11
1638.8953999999999
 21
1195.7856999999999
  0
LINE
  8
_0-0_LAYER001
  6
CONTINUOUS
 62
    4
 10
1638.8953999999999
 20
1195.7856999999999
 11
1642.8458000000001
 21
1193.4079999999999
  0
LINE
  8
_0-0_LAYER001
  6
CONTINUOUS
 62
    4
 10
1642.8458000000001
 20
1193.4079999999999
 11
1646.7215999999999
 21
1190.8705
  0
LINE
  8
_0-0_LAYER001
  6
CONTINUOUS
 62
    4
 10
1646.7215999999999
 20
1190.8705
 11
1650.5587
 21
1188.2509
  0
LINE
  8
_0-0_LAYER001
  6
CONTINUOUS
 62
    4
 10
1650.5587
 20
1188.2509
 11
1652.7808
 21
1186.7248
  0
LINE
  8
_0-0_LAYER001
  6
CONTINUOUS
 62
    4
 10
1652.7808
 20
1186.7248
 11
1656.1736999999998
 21
1184.4259999999999
  0
LINE
  8
_0-0_LAYER001
  6
CONTINUOUS
 62
    4
 10
1656.1736999999998
 20
1184.4259999999999
 11
1662.0691000000002
 21
1180.5619999999999
  0
LINE
  8
_0-0_LAYER001
  6
CONTINUOUS
 62
    4
 10
1662.0691000000002
 20
1180.5619999999999
 11
1668.0401999999999
 21
1176.8605
  0
LINE
  8
_0-0_LAYER001
  6
CONTINUOUS
 62
    4
 10
1668.0401999999999
 20
1176.8605
 11
1674.1080000000002
 21
1173.3635999999999
  0
LINE
  8
_0-0_LAYER001
  6
CONTINUOUS
 62
    4
 10
1674.1080000000002
 20
1173.3635999999999
 11
1680.2934
 21
1170.1139000000001
  0
LINE
  8
_0-0_LAYER001
  6
CONTINUOUS
 62
    4
 10
1680.2934
 20
1170.1139000000001
 11
1686.6172999999999
 21
1167.1536000000001
  0
LINE
  8
_0-0_LAYER001
  6
CONTINUOUS
 62
    4
 10
1686.6172999999999
 20
1167.1536000000001
 11
1690.3569000000002
 21
1165.586
  0
LINE
  8
_0-0_LAYER001
  6
CONTINUOUS
 62
    4
 10
1690.3569000000002
 20
1165.586
 11
1693.4484000000002
 21
1164.3954000000001
  0
LINE
  8
_0-0_LAYER001
  6
CONTINUOUS
 62
    4
 10
1693.4484000000002
 20
1164.3954000000001
 11
1698.8595
 21
1162.5342000000001
  0
LINE
  8
_0-0_LAYER001
  6
CONTINUOUS
 62
    4
 10
1698.8595
 20
1162.5342000000001
 11
1704.3593000000001
 21
1160.9222
  0
LINE
  8
_0-0_LAYER001
  6
CONTINUOUS
 62
    4
 10
1704.3593000000001
 20
1160.9222
 11
1709.9315999999999
 21
1159.5668000000001
  0
LINE
  8
_0-0_LAYER001
  6
CONTINUOUS
 62
    4
 10
1709.9315999999999
 20
1159.5668000000001
 11
1715.5603999999998
 21
1158.4757999999999
  0
LINE
  8
_0-0_LAYER001
  6
CONTINUOUS
 62
    4
 10
1715.5603999999998
 20
1158.4757999999999
 11
1721.2294999999999
 21
1157.6567
  0
LINE
  8
_0-0_LAYER001
  6
CONTINUOUS
 62
    4
 10
1721.2294999999999
 20
1157.6567
 11
1724.5297
 21
1157.3091999999999
  0
LINE
  8
_0-0_LAYER001
  6
CONTINUOUS
 62
    4
 10
1724.5297
 20
1157.3091999999999
 11
1727.0551
 21
1157.1074000000001
  0
LINE
  8
_0-0_LAYER001
  6
CONTINUOUS
 62
    4
 10
1727.0551
 20
1157.1074000000001
 11
1731.4146999999998
 21
1156.8814
  0
LINE
  8
_0-0_LAYER001
  6
CONTINUOUS
 62
    4
 10
1731.4146999999998
 20
1156.8814
 11
1735.7786000000001
 21
1156.7962
  0
LINE
  8
_0-0_LAYER001
  6
CONTINUOUS
 62
    4
 10
1735.7786000000001
 20
1156.7962
 11
1740.1442999999999
 21
1156.8358000000001
  0
LINE
  8
_0-0_LAYER001
  6
CONTINUOUS
 62
    4
 10
1740.1442999999999
 20
1156.8358000000001
 11
1744.509
 21
1156.9845
  0
LINE
  8
_0-0_LAYER001
  6
CONTINUOUS
 62
    4
 10
1744.509
 20
1156.9845
 11
1748.8699999999999
 21
1157.2263
  0
LINE
  8
_0-0_LAYER001
  6
CONTINUOUS
 62
    4
 10
1748.8699999999999
 20
1157.2263
 11
1751.3966999999998
 21
1157.403
  0
LINE
  8
_0-0_LAYER001
  6
CONTINUOUS
 62
    4
 10
1751.3966999999998
 20
1157.403
 11
1756.1172000000001
 21
1157.7949000000001
  0
LINE
  8
_0-0_LAYER001
  6
CONTINUOUS
 62
    4
 10
1756.1172000000001
 20
1157.7949000000001
 11
1764.2359999999999
 21
1158.6387
  0
LINE
  8
_0-0_LAYER001
  6
CONTINUOUS
 62
    4
 10
1764.2359999999999
 20
1158.6387
 11
1772.3326999999999
 21
1159.6649
  0
LINE
  8
_0-0_LAYER001
  6
CONTINUOUS
 62
    4
 10
1772.3326999999999
 20
1159.6649
 11
1780.4106000000002
 21
1160.838
  0
LINE
  8
_0-0_LAYER001
  6
CONTINUOUS
 62
    4
 10
1780.4106000000002
 20
1160.838
 11
1788.4731999999999
 21
1162.1226999999999
  0
LINE
  8
_0-0_LAYER001
  6
CONTINUOUS
 62
    4
 10
1788.4731999999999
 20
1162.1226999999999
 11
1796.5239000000001
 21
1163.4835
  0
LINE
  8
_0-0_LAYER001
  6
CONTINUOUS
 62
    4
 10
1796.5239000000001
 20
1163.4835
 11
1801.1891999999998
 21
1164.2936
  0
LINE
  8
_0-0_LAYER001
  6
CONTINUOUS
 62
    4
 10
1801.1891999999998
 20
1164.2936
 11
1803.6138000000001
 21
1164.7181
  0
LINE
  8
_0-0_LAYER001
  6
CONTINUOUS
 62
    4
 10
1803.6138000000001
 20
1164.7181
 11
1807.7928999999999
 21
1165.4538
  0
LINE
  8
_0-0_LAYER001
  6
CONTINUOUS
 62
    4
 10
1807.7928999999999
 20
1165.4538
 11
1811.9708000000001
 21
1166.1935000000001
  0
LINE
  8
_0-0_LAYER001
  6
CONTINUOUS
 62
    4
 10
1811.9708000000001
 20
1166.1935000000001
 11
1816.1475999999998
 21
1166.9363000000001
  0
LINE
  8
_0-0_LAYER001
  6
CONTINUOUS
 62
    4
 10
1816.1475999999998
 20
1166.9363000000001
 11
1820.3236999999999
 21
1167.6814999999999
  0
LINE
  8
_0-0_LAYER001
  6
CONTINUOUS
 62
    4
 10
1820.3236999999999
 20
1167.6814999999999
 11
1824.4992999999999
 21
1168.4281000000001
  0
LINE
  8
_0-0_LAYER001
  6
CONTINUOUS
 62
    4
 10
1824.4992999999999
 20
1168.4281000000001
 11
1826.9211
 21
1168.8614
  0
LINE
  8
_0-0_LAYER001
  6
CONTINUOUS
 62
    4
 10
1581.7615000000001
 20
1170.3407
 11
1583.8024
 21
1171.1713
  0
LINE
  8
_0-0_LAYER001
  6
CONTINUOUS
 62
    4
 10
1583.8024
 20
1171.1713
 11
1587.3335000000002
 21
1172.6107
  0
LINE
  8
_0-0_LAYER001
  6
CONTINUOUS
 62
    4
 10
1587.3335000000002
 20
1172.6107
 11
1590.8885
 21
1174.0664999999999
  0
LINE
  8
_0-0_LAYER001
  6
CONTINUOUS
 62
    4
 10
1590.8885
 20
1174.0664999999999
 11
1594.4713999999999
 21
1175.5445999999999
  0
LINE
  8
_0-0_LAYER001
  6
CONTINUOUS
 62
    4
 10
1594.4713999999999
 20
1175.5445999999999
 11
1598.0862000000002
 21
1177.0509999999999
  0
LINE
  8
_0-0_LAYER001
  6
CONTINUOUS
 62
    4
 10
1598.0862000000002
 20
1177.0509999999999
 11
1601.7264
 21
1178.5871
  0
LINE
  8
_0-0_LAYER001
  6
CONTINUOUS
 62
    4
 10
1601.7264
 20
1178.5871
 11
1603.8584999999998
 21
1179.4973
  0
LINE
  8
_0-0_LAYER001
  6
CONTINUOUS
 62
    4
 10
1603.8584999999998
 20
1179.4973
 11
1605.8602999999998
 21
1180.3567
  0
LINE
  8
_0-0_LAYER001
  6
CONTINUOUS
 62
    4
 10
1605.8602999999998
 20
1180.3567
 11
1609.0978
 21
1181.7132999999999
  0
LINE
  8
_0-0_LAYER001
  6
CONTINUOUS
 62
    4
 10
1609.0978
 20
1181.7132999999999
 11
1611.9652000000001
 21
1182.8109999999999
  0
LINE
  8
_0-0_LAYER001
  6
CONTINUOUS
 62
    4
 10
1611.9652000000001
 20
1182.8109999999999
 11
1614.4135999999999
 21
1183.595
  0
LINE
  8
_0-0_LAYER001
  6
CONTINUOUS
 62
    4
 10
1614.4135999999999
 20
1183.595
 11
1616.3939999999998
 21
1184.0545
  0
LINE
  8
_0-0_LAYER001
  6
CONTINUOUS
 62
    4
 10
1616.3939999999998
 20
1184.0545
 11
1618.1684
 21
1184.2655
  0
LINE
  8
_0-0_LAYER001
  6
CONTINUOUS
 62
    4
 10
1618.1684
 20
1184.2655
 11
1618.8479000000002
 21
1184.2745
  0
LINE
  8
_0-0_LAYER001
  6
CONTINUOUS
 62
    4
 10
1618.8479000000002
 20
1184.2745
 11
1618.7716999999998
 21
1184.278
  0
LINE
  8
_0-0_LAYER001
  6
CONTINUOUS
 62
    4
 10
1618.7716999999998
 20
1184.278
 11
1619.3870000000002
 21
1184.2226000000001
  0
LINE
  8
_0-0_LAYER001
  6
CONTINUOUS
 62
    4
 10
1619.3870000000002
 20
1184.2226000000001
 11
1619.9798000000001
 21
1184.1384
  0
LINE
  8
_0-0_LAYER001
  6
CONTINUOUS
 62
    4
 10
1619.9798000000001
 20
1184.1384
 11
1620.6507999999999
 21
1184.0108
  0
LINE
  8
_0-0_LAYER001
  6
CONTINUOUS
 62
    4
 10
1620.6507999999999
 20
1184.0108
 11
1621.3890999999999
 21
1183.8376000000001
  0
LINE
  8
_0-0_LAYER001
  6
CONTINUOUS
 62
    4
 10
1621.3890999999999
 20
1183.8376000000001
 11
1622.2447999999999
 21
1183.6014
  0
LINE
  8
_0-0_LAYER001
  6
CONTINUOUS
 62
    4
 10
1622.2447999999999
 20
1183.6014
 11
1622.4908999999998
 21
1183.5259000000001
  0
LINE
  8
_0-0_LAYER001
  6
CONTINUOUS
 62
    4
 10
1622.4908999999998
 20
1183.5259000000001
 11
1624.0657999999999
 21
1182.9748999999999
  0
LINE
  8
_0-0_LAYER001
  6
CONTINUOUS
 62
    4
 10
1624.0657999999999
 20
1182.9748999999999
 11
1627.0484000000001
 21
1181.6821
  0
LINE
  8
_0-0_LAYER001
  6
CONTINUOUS
 62
    4
 10
1627.0484000000001
 20
1181.6821
 11
1630.0518999999999
 21
1180.0996
  0
LINE
  8
_0-0_LAYER001
  6
CONTINUOUS
 62
    4
 10
1630.0518999999999
 20
1180.0996
 11
1633.2714000000001
 21
1178.1618000000001
  0
LINE
  8
_0-0_LAYER001
  6
CONTINUOUS
 62
    4
 10
1633.2714000000001
 20
1178.1618000000001
 11
1636.7163999999998
 21
1175.9063000000001
  0
LINE
  8
_0-0_LAYER001
  6
CONTINUOUS
 62
    4
 10
1636.7163999999998
 20
1175.9063000000001
 11
1640.3890000000001
 21
1173.3991000000001
  0
LINE
  8
_0-0_LAYER001
  6
CONTINUOUS
 62
    4
 10
1640.3890000000001
 20
1173.3991000000001
 11
1642.6370999999999
 21
1171.855
  0
LINE
  8
_0-0_LAYER001
  6
CONTINUOUS
 62
    4
 10
1642.6370999999999
 20
1171.855
 11
1646.1914000000002
 21
1169.4468999999999
  0
LINE
  8
_0-0_LAYER001
  6
CONTINUOUS
 62
    4
 10
1646.1914000000002
 20
1169.4468999999999
 11
1652.3919999999998
 21
1165.3829000000001
  0
LINE
  8
_0-0_LAYER001
  6
CONTINUOUS
 62
    4
 10
1652.3919999999998
 20
1165.3829000000001
 11
1658.8020000000001
 21
1161.4093
  0
LINE
  8
_0-0_LAYER001
  6
CONTINUOUS
 62
    4
 10
1658.8020000000001
 20
1161.4093
 11
1665.4249
 21
1157.5925
  0
LINE
  8
_0-0_LAYER001
  6
CONTINUOUS
 62
    4
 10
1665.4249
 20
1157.5925
 11
1672.2876000000001
 21
1153.9869000000001
  0
LINE
  8
_0-0_LAYER001
  6
CONTINUOUS
 62
    4
 10
1672.2876000000001
 20
1153.9869000000001
 11
1679.3191999999999
 21
1150.6954000000001
  0
LINE
  8
_0-0_LAYER001
  6
CONTINUOUS
 62
    4
 10
1679.3191999999999
 20
1150.6954000000001
 11
1683.6415000000002
 21
1148.8834999999999
  0
LINE
  8
_0-0_LAYER001
  6
CONTINUOUS
 62
    4
 10
1683.6415000000002
 20
1148.8834999999999
 11
1687.2846
 21
1147.4804999999999
  0
LINE
  8
_0-0_LAYER001
  6
CONTINUOUS
 62
    4
 10
1687.2846
 20
1147.4804999999999
 11
1693.3978000000002
 21
1145.3778
  0
LINE
  8
_0-0_LAYER001
  6
CONTINUOUS
 62
    4
 10
1693.3978000000002
 20
1145.3778
 11
1699.6981999999998
 21
1143.5310999999999
  0
LINE
  8
_0-0_LAYER001
  6
CONTINUOUS
 62
    4
 10
1699.6981999999998
 20
1143.5310999999999
 11
1706.0898000000002
 21
1141.9765
  0
LINE
  8
_0-0_LAYER001
  6
CONTINUOUS
 62
    4
 10
1706.0898000000002
 20
1141.9765
 11
1712.5590999999999
 21
1140.7225000000001
  0
LINE
  8
_0-0_LAYER001
  6
CONTINUOUS
 62
    4
 10
1712.5590999999999
 20
1140.7225000000001
 11
1718.9992999999999
 21
1139.7919999999999
  0
LINE
  8
_0-0_LAYER001
  6
CONTINUOUS
 62
    4
 10
1718.9992999999999
 20
1139.7919999999999
 11
1722.8701999999998
 21
1139.3843999999999
  0
LINE
  8
_0-0_LAYER001
  6
CONTINUOUS
 62
    4
 10
1722.8701999999998
 20
1139.3843999999999
 11
1725.8721
 21
1139.1446000000001
  0
LINE
  8
_0-0_LAYER001
  6
CONTINUOUS
 62
    4
 10
1725.8721
 20
1139.1446000000001
 11
1730.7728000000002
 21
1138.8905
  0
LINE
  8
_0-0_LAYER001
  6
CONTINUOUS
 62
    4
 10
1730.7728000000002
 20
1138.8905
 11
1735.6846
 21
1138.7945999999999
  0
LINE
  8
_0-0_LAYER001
  6
CONTINUOUS
 62
    4
 10
1735.6846
 20
1138.7945999999999
 11
1740.5324000000001
 21
1138.8386
  0
LINE
  8
_0-0_LAYER001
  6
CONTINUOUS
 62
    4
 10
1740.5324000000001
 20
1138.8386
 11
1745.3137000000002
 21
1139.0015000000001
  0
LINE
  8
_0-0_LAYER001
  6
CONTINUOUS
 62
    4
 10
1745.3137000000002
 20
1139.0015000000001
 11
1749.9962
 21
1139.2610999999999
  0
LINE
  8
_0-0_LAYER001
  6
CONTINUOUS
 62
    4
 10
1749.9962
 20
1139.2610999999999
 11
1752.7692000000002
 21
1139.4549999999999
  0
LINE
  8
_0-0_LAYER001
  6
CONTINUOUS
 62
    4
 10
1752.7692000000002
 20
1139.4549999999999
 11
1757.7923999999998
 21
1139.8720000000001
  0
LINE
  8
_0-0_LAYER001
  6
CONTINUOUS
 62
    4
 10
1757.7923999999998
 20
1139.8720000000001
 11
1766.2982999999999
 21
1140.7561000000001
  0
LINE
  8
_0-0_LAYER001
  6
CONTINUOUS
 62
    4
 10
1766.2982999999999
 20
1140.7561000000001
 11
1774.7579999999998
 21
1141.8282999999999
  0
LINE
  8
_0-0_LAYER001
  6
CONTINUOUS
 62
    4
 10
1774.7579999999998
 20
1141.8282999999999
 11
1783.1203999999998
 21
1143.0427
  0
LINE
  8
_0-0_LAYER001
  6
CONTINUOUS
 62
    4
 10
1783.1203999999998
 20
1143.0427
 11
1791.3894
 21
1144.3603000000001
  0
LINE
  8
_0-0_LAYER001
  6
CONTINUOUS
 62
    4
 10
1791.3894
 20
1144.3603000000001
 11
1799.5637999999999
 21
1145.742
  0
LINE
  8
_0-0_LAYER001
  6
CONTINUOUS
 62
    4
 10
1799.5637999999999
 20
1145.742
 11
1804.2811000000002
 21
1146.5612000000001
  0
LINE
  8
_0-0_LAYER001
  6
CONTINUOUS
 62
    4
 10
1804.2811000000002
 20
1146.5612000000001
 11
1806.7260999999999
 21
1146.9892
  0
LINE
  8
_0-0_LAYER001
  6
CONTINUOUS
 62
    4
 10
1806.7260999999999
 20
1146.9892
 11
1810.9223000000002
 21
1147.7279000000001
  0
LINE
  8
_0-0_LAYER001
  6
CONTINUOUS
 62
    4
 10
1810.9223000000002
 20
1147.7279000000001
 11
1815.1158
 21
1148.4703999999999
  0
LINE
  8
_0-0_LAYER001
  6
CONTINUOUS
 62
    4
 10
1815.1158
 20
1148.4703999999999
 11
1819.3045000000002
 21
1149.2153000000001
  0
LINE
  8
_0-0_LAYER001
  6
CONTINUOUS
 62
    4
 10
1819.3045000000002
 20
1149.2153000000001
 11
1823.4886000000001
 21
1149.9619
  0
LINE
  8
_0-0_LAYER001
  6
CONTINUOUS
 62
    4
 10
1823.4886000000001
 20
1149.9619
 11
1827.6684
 21
1150.7092
  0
LINE
  8
_0-0_LAYER001
  6
CONTINUOUS
 62
    4
 10
1827.6684
 20
1150.7092
 11
1829.2791000000002
 21
1150.9974
  0
LINE
  8
_0-0_LAYER001
  6
CONTINUOUS
 62
    4
 10
1575.7856000000002
 20
1187.3402000000001
 11
1576.2071999999998
 21
1187.5144
  0
ARC
  8
_0-0_LAYER001
  6
CONTINUOUS
 62
    4
 10
1576.9312
 20
1184.5676000000001
 40
3
 50
112.44902
 51
165.96481
  0
LINE
  8
_0-0_LAYER001
  6
CONTINUOUS
 62
    4
 10
1575.3991000000001
 20
1167.7329999999999
 11
1581.7260999999999
 21
1170.3190999999999
  0
LINE
  8
_0-0_LAYER001
  6
CONTINUOUS
 62
    4
 10
1574.0207999999998
 20
1168.6587
 11
1574.0207999999998
 21
1185.2951
  0
ARC
  8
_0-0_LAYER001
  6
CONTINUOUS
 62
    4
 10
1575.0207999999998
 20
1168.6587
 40
1
 50
180
 51
292.23165999999998
  0
LINE
  8
_0-0_LAYER001
  6
CONTINUOUS
 62
    4
 10
1871.1727000000001
 20
1161.1632
 11
1829.0504000000001
 21
1150.8598
  0
ARC
  8
_0-0_LAYER001
  6
CONTINUOUS
 62
    4
 10
1874.6424000000002
 20
1140.3404
 40
21.109891999999995
 50
78.282284000000018
 51
99.460192000000021
  0
LINE
  8
_0-0_LAYER001
  6
CONTINUOUS
 62
    4
 10
1879.0207999999998
 20
1181.6134999999999
 11
1879.0207999999998
 21
1103.2326
  0
LINE
  8
_0-0_LAYER001
  6
CONTINUOUS
 62
    4
 10
1827.0450999999998
 20
1168.9000000000001
 11
1879.0207999999998
 21
1181.6134999999999
  0
LINE
  8
_0-0_LAYER001
  6
CONTINUOUS
 62
    4
 10
1879.1181999999999
 20
1161.2157
 11
1882.7469999999998
 21
1162.2829999999999
  0
LINE
  8
_0-0_LAYER001
  6
CONTINUOUS
 62
    4
 10
1882.7469999999998
 20
1162.2829999999999
 11
1879.1181999999999
 21
1103.5826999999999
  0
LINE
  8
_0-0_LAYER001
  6
CONTINUOUS
 62
    4
 10
1834.3072000000002
 20
1149.2496000000001
 11
1862.0207999999998
 21
1156.5053
  0
LINE
  8
_0-0_LAYER001
  6
CONTINUOUS
 62
    4
 10
1862.0207999999998
 20
1137.9478999999999
 11
1830.1538
 21
1129.9535000000001
  0
LINE
  8
_0-0_LAYER001
  6
CONTINUOUS
 62
    4
 10
1879.0207999999998
 20
1103.2326
 11
1862.0207999999998
 21
1103.2326
  0
LINE
  8
_0-0_LAYER001
  6
CONTINUOUS
 62
    4
 10
1862.0207999999998
 20
1158.8677
 11
1862.0207999999998
 21
1103.2326
  0
LINE
  8
_0-0_LAYER001
  6
CONTINUOUS
 62
    4
 10
1862.0418
 20
1156.3062
 11
1878.4778000000001
 21
1161.0021999999999
  0
LINE
  8
_0-0_LAYER001
  6
CONTINUOUS
 62
    4
 10
1861.6147999999998
 20
1138.1624999999999
 11
1881.2528000000002
 21
1143.7122999999999
  0
LINE
  8
_0-0_LAYER001
  6
DASHED1
 62
    2
 10
1672.3926999999999
 20
1149.4881
 11
1688.3926999999999
 21
1149.4881
  0
LINE
  8
_0-0_LAYER001
  6
DASHED1
 62
    2
 10
1688.3926999999999
 20
1149.4881
 11
1688.3926999999999
 21
1146.4881
  0
LINE
  8
_0-0_LAYER001
  6
DASHED1
 62
    2
 10
1672.3926999999999
 20
1149.4881
 11
1672.3926999999999
 21
1146.4881
  0
LINE
  8
_0-0_LAYER001
  6
DASHED1
 62
    2
 10
1672.3926999999999
 20
1146.4881
 11
1688.3926999999999
 21
1146.4881
  0
LINE
  8
_0-0_LAYER001
  6
DASHED1
 62
    2
 10
1683.3926999999999
 20
1091.5920000000001
 11
1680.3425000000002
 21
1077.0831000000001
  0
LINE
  8
_0-0_LAYER001
  6
DASHED1
 62
    2
 10
1683.3926999999999
 20
1146.4881
 11
1683.3926999999999
 21
1091.5920000000001
  0
LINE
  8
_0-0_LAYER001
  6
DASHED1
 62
    2
 10
1680.3425000000002
 20
1077.0831000000001
 11
1677.3926999999999
 21
1091.3406
  0
LINE
  8
_0-0_LAYER001
  6
DASHED1
 62
    2
 10
1677.3926999999999
 20
1146.4881
 11
1677.3926999999999
 21
1091.3406
  0
LINE
  8
_0-0_LAYER001
  6
CONTINUOUS
 62
    2
 10
1779.3404
 20
984.31970000000001
 11
1777.0409
 21
984.31960000000004
  0
LINE
  8
_0-0_LAYER001
  6
CONTINUOUS
 62
    2
 10
1779.3411999999998
 20
1044.3198
 11
1777.0407
 21
1044.3195000000001
  0
LINE
  8
_0-0_LAYER001
  6
CONTINUOUS
 62
    2
 10
1779.3404999999998
 20
1059.3205
 11
1779.3411999999998
 21
1044.3198
  0
LINE
  8
_0-0_LAYER001
  6
CONTINUOUS
 62
    2
 10
1822.0399000000002
 20
1062.0214000000001
 11
1782.0409
 21
1062.0205000000001
  0
LINE
  8
_0-0_LAYER001
  6
CONTINUOUS
 62
    2
 10
1782.04
 20
1064.3197
 11
1822.0409
 21
1064.3204000000001
  0
LINE
  8
_0-0_LAYER001
  6
CONTINUOUS
 62
    2
 10
1777.0403999999999
 20
1059.3202000000001
 11
1777.0407
 21
1044.3195000000001
  0
LINE
  8
_0-0_LAYER001
  6
CONTINUOUS
 62
    2
 10
1827.0426000000002
 20
969.31960000000004
 11
1827.0405000000001
 21
1059.3205
  0
LINE
  8
_0-0_LAYER001
  6
CONTINUOUS
 62
    2
 10
1782.0409
 20
964.31909999999993
 11
1822.0430000000001
 21
964.31999999999994
  0
LINE
  8
_0-0_LAYER001
  6
CONTINUOUS
 62
    2
 10
1777.0412999999999
 20
969.31880000000001
 11
1777.0409
 21
984.31960000000004
  0
LINE
  8
_0-0_LAYER001
  6
CONTINUOUS
 62
    2
 10
1779.3406
 20
969.31889999999999
 11
1779.3404
 21
984.31970000000001
  0
LINE
  8
_0-0_LAYER001
  6
CONTINUOUS
 62
    2
 10
1822.0417000000002
 20
966.61909999999989
 11
1782.0408000000002
 21
966.61850000000004
  0
LINE
  8
_0-0_LAYER001
  6
CONTINUOUS
 62
    2
 10
1824.7420999999999
 20
969.31919999999991
 11
1824.7397000000001
 21
1059.3209999999999
  0
LINE
  8
_0-0_LAYER001
  6
CONTINUOUS
 62
    2
 10
1752.0394999999999
 20
1005.3200999999999
 11
1759.8339999999998
 21
1009.8199
  0
LINE
  8
_0-0_LAYER001
  6
CONTINUOUS
 62
    2
 10
1759.8339999999998
 20
1009.8199
 11
1759.8343
 21
1018.8198
  0
LINE
  8
_0-0_LAYER001
  6
CONTINUOUS
 62
    2
 10
1759.8343
 20
1018.8198
 11
1752.0403999999999
 21
1023.3200999999999
  0
LINE
  8
_0-0_LAYER001
  6
CONTINUOUS
 62
    2
 10
1752.0403999999999
 20
1023.3200999999999
 11
1744.2460000000001
 21
1018.8203000000001
  0
LINE
  8
_0-0_LAYER001
  6
CONTINUOUS
 62
    2
 10
1744.2460000000001
 20
1018.8203000000001
 11
1744.2456000000002
 21
1009.8204000000001
  0
LINE
  8
_0-0_LAYER001
  6
CONTINUOUS
 62
    2
 10
1744.2456000000002
 20
1009.8204000000001
 11
1752.0394999999999
 21
1005.3200999999999
  0
LINE
  8
_0-0_LAYER001
  6
CONTINUOUS
 62
    2
 10
1747.0405000000001
 20
1004.3199999999999
 11
1747.0399000000002
 21
1008.2067
  0
LINE
  8
_0-0_LAYER001
  6
CONTINUOUS
 62
    2
 10
1757.0398
 20
1004.3198
 11
1757.0401000000002
 21
1008.2068999999999
  0
LINE
  8
_0-0_LAYER001
  6
CONTINUOUS
 62
    2
 10
1757.0394999999999
 20
1024.3203000000001
 11
1757.04
 21
1020.4335000000001
  0
LINE
  8
_0-0_LAYER001
  6
CONTINUOUS
 62
    2
 10
1747.0401000000002
 20
1024.3205
 11
1747.0398
 21
1020.4332999999999
  0
LINE
  8
_0-0_LAYER001
  6
CONTINUOUS
 62
    2
 10
1006.8181999999999
 20
964.31989999999996
 11
1772.0403999999999
 21
964.31989999999996
  0
LINE
  8
_0-0_LAYER001
  6
CONTINUOUS
 62
    2
 10
1777.0403999999999
 20
1054.3200999999999
 11
1777.0403999999999
 21
974.32009999999991
  0
LINE
  8
_0-0_LAYER001
  6
CONTINUOUS
 62
    2
 10
1772.0403999999999
 20
966.61879999999996
 11
1006.8181999999999
 21
966.61879999999996
  0
LINE
  8
_0-0_LAYER001
  6
CONTINUOUS
 62
    2
 10
1772.0403999999999
 20
1062.0202999999999
 11
1006.8181999999999
 21
1062.0202999999999
  0
LINE
  8
_0-0_LAYER001
  6
CONTINUOUS
 62
    2
 10
1727.0403999999999
 20
1054.3200999999999
 11
1727.0403999999999
 21
1044.3195000000001
  0
LINE
  8
_0-0_LAYER001
  6
CONTINUOUS
 62
    2
 10
1773.8404
 20
1054.3200999999999
 11
1773.8404
 21
974.32009999999991
  0
LINE
  8
_0-0_LAYER001
  6
CONTINUOUS
 62
    2
 10
1777.0403999999999
 20
1054.3200999999999
 11
1772.0403999999999
 21
1054.3200999999999
  0
LINE
  8
_0-0_LAYER001
  6
CONTINUOUS
 62
    2
 10
1772.0403999999999
 20
1054.3200999999999
 11
1727.0403999999999
 21
1054.3200999999999
  0
LINE
  8
_0-0_LAYER001
  6
CONTINUOUS
 62
    2
 10
1727.0403999999999
 20
1044.3195000000001
 11
1727.0403999999999
 21
984.31960000000004
  0
LINE
  8
_0-0_LAYER001
  6
CONTINUOUS
 62
    2
 10
1727.0403999999999
 20
984.31960000000004
 11
1727.0403999999999
 21
974.32009999999991
  0
LINE
  8
_0-0_LAYER001
  6
CONTINUOUS
 62
    2
 10
1777.0403999999999
 20
974.32009999999991
 11
1772.0403999999999
 21
974.32009999999991
  0
LINE
  8
_0-0_LAYER001
  6
CONTINUOUS
 62
    2
 10
1772.0403999999999
 20
974.32009999999991
 11
1727.0403999999999
 21
974.32009999999991
  0
LINE
  8
_0-0_LAYER001
  6
CONTINUOUS
 62
    2
 10
1772.0403999999999
 20
1064.3198
 11
1772.0403999999999
 21
1044.3195000000001
  0
LINE
  8
_0-0_LAYER001
  6
CONTINUOUS
 62
    2
 10
1772.0403999999999
 20
1044.3195000000001
 11
1772.0403999999999
 21
974.32009999999991
  0
LINE
  8
_0-0_LAYER001
  6
CONTINUOUS
 62
    2
 10
1772.0403999999999
 20
974.32009999999991
 11
1772.0403999999999
 21
964.31989999999996
  0
LINE
  8
_0-0_LAYER001
  6
DASHED1
 62
    2
 10
1772.0403999999999
 20
1044.3195000000001
 11
1006.8181999999999
 21
1044.3195000000001
  0
LINE
  8
_0-0_LAYER001
  6
DASHED1
 62
    2
 10
1772.0403999999999
 20
984.31960000000004
 11
1006.8181999999999
 21
984.31960000000004
  0
LINE
  8
_0-0_LAYER001
  6
CONTINUOUS
 62
    2
 10
1827.0412999999999
 20
1125.3198
 11
1827.0412999999999
 21
929.06310000000008
  0
LINE
  8
_0-0_LAYER001
  6
CONTINUOUS
 62
    2
 10
1006.8181999999999
 20
1064.3198
 11
1827.0412999999999
 21
1064.3198
  0
ARC
  8
_0-0_LAYER001
  6
CONTINUOUS
 62
    2
 10
1782.0408000000002
 20
1059.3203000000001
 40
2.7000000000000002
 50
89.996902000000006
 51
179.98901000000001
  0
ARC
  8
_0-0_LAYER001
  6
CONTINUOUS
 62
    2
 10
1822.0396000000001
 20
1059.3213000000001
 40
2.7000000000000002
 50
0.016586
 51
89.996902000000006
  0
ARC
  8
_0-0_LAYER001
  6
CONTINUOUS
 62
    2
 10
1822.0418
 20
1059.3212000000001
 40
4.9989999999999997
 50
359.99803000000003
 51
90.008681999999993
  0
ARC
  8
_0-0_LAYER001
  6
CONTINUOUS
 62
    2
 10
1782.0394000000001
 20
1059.3209999999999
 40
4.9989999999999997
 50
89.987410999999994
 51
180.00442000000001
  0
ARC
  8
_0-0_LAYER001
  6
CONTINUOUS
 62
    2
 10
1822.0434
 20
969.31880000000001
 40
4.9989999999999997
 50
269.99376999999998
 51
0.0193180000000246
  0
ARC
  8
_0-0_LAYER001
  6
CONTINUOUS
 62
    2
 10
1782.0401999999999
 20
969.31829999999991
 40
4.9989999999999997
 50
179.98312999999999
 51
270.01506000000001
  0
ARC
  8
_0-0_LAYER001
  6
CONTINUOUS
 62
    2
 10
1782.0412000000001
 20
969.31880000000001
 40
2.7000000000000002
 50
179.98901000000004
 51
270.00871000000006
  0
ARC
  8
_0-0_LAYER001
  6
CONTINUOUS
 62
    2
 10
1822.0421999999999
 20
969.31930000000011
 40
2.7000000000000002
 50
270.00871000000006
 51
0.0165860000000489
  0
ARC
  8
_0-0_LAYER001
  6
CONTINUOUS
 62
    2
 10
1752.0401000000002
 20
1004.3198
 40
5
 50
179.98813999999999
 51
0.0030209999999897
  0
ARC
  8
_0-0_LAYER001
  6
CONTINUOUS
 62
    2
 10
1752.0399000000002
 20
1024.3204000000001
 40
5
 50
0.0030209999999999
 51
179.98814000000002
  0
LINE
  8
_0-1_LAYER003
  6
CONTINUOUS
 62
    2
 10
1852.0412999999999
 20
1125.3198
 11
1852.0412999999999
 21
929.06310000000008
  0
LINE
  8
_0-0_LAYER001
  6
CONTINUOUS
 62
    2
 10
1827.0412999999999
 20
1125.3198
 11
1852.0412999999999
 21
1125.3198
  0
LINE
  8
_0-1_LAYER003
  6
CONTINUOUS
 62
    2
 10
1837.8991000000001
 20
929.06310000000008
 11
1852.0412999999999
 21
943.20530000000008
  0
LINE
  8
_0-1_LAYER003
  6
CONTINUOUS
 62
    2
 10
1827.0412999999999
 20
932.34740000000011
 11
1852.0412999999999
 21
957.34740000000011
  0
LINE
  8
_0-1_LAYER003
  6
CONTINUOUS
 62
    2
 10
1827.0412999999999
 20
946.48949999999991
 11
1852.0412999999999
 21
971.48949999999991
  0
LINE
  8
_0-1_LAYER003
  6
CONTINUOUS
 62
    2
 10
1827.0412999999999
 20
960.63169999999991
 11
1852.0412999999999
 21
985.63169999999991
  0
LINE
  8
_0-1_LAYER003
  6
CONTINUOUS
 62
    2
 10
1827.0412999999999
 20
974.77379999999994
 11
1852.0412999999999
 21
999.77379999999994
  0
LINE
  8
_0-1_LAYER003
  6
CONTINUOUS
 62
    2
 10
1827.0412999999999
 20
988.91599999999994
 11
1852.0412999999999
 21
1013.9159999999999
  0
LINE
  8
_0-1_LAYER003
  6
CONTINUOUS
 62
    2
 10
1827.0412999999999
 20
1003.0581
 11
1852.0412999999999
 21
1028.0581
  0
LINE
  8
_0-1_LAYER003
  6
CONTINUOUS
 62
    2
 10
1827.0412999999999
 20
1017.2002
 11
1852.0412999999999
 21
1042.2002
  0
LINE
  8
_0-1_LAYER003
  6
CONTINUOUS
 62
    2
 10
1827.0412999999999
 20
1031.3424
 11
1852.0412999999999
 21
1056.3424
  0
LINE
  8
_0-1_LAYER003
  6
CONTINUOUS
 62
    2
 10
1827.0412999999999
 20
1045.4845
 11
1852.0412999999999
 21
1070.4845
  0
LINE
  8
_0-1_LAYER003
  6
CONTINUOUS
 62
    2
 10
1827.0412999999999
 20
1059.6266000000001
 11
1852.0412999999999
 21
1084.6266000000001
  0
LINE
  8
_0-1_LAYER003
  6
CONTINUOUS
 62
    2
 10
1827.0412999999999
 20
1073.7688000000001
 11
1852.0412999999999
 21
1098.7688000000001
  0
LINE
  8
_0-1_LAYER003
  6
CONTINUOUS
 62
    2
 10
1827.0412999999999
 20
1087.9109000000001
 11
1852.0412999999999
 21
1112.9109000000001
  0
LINE
  8
_0-1_LAYER003
  6
CONTINUOUS
 62
    2
 10
1827.0412999999999
 20
1102.0530000000001
 11
1850.3081000000002
 21
1125.3198
  0
LINE
  8
_0-1_LAYER003
  6
CONTINUOUS
 62
    2
 10
1827.0412999999999
 20
1116.1952000000001
 11
1836.1659
 21
1125.3198
  0
LINE
  8
_0-0_LAYER001
  6
CONTINUOUS
 62
    2
 10
1852.0412999999999
 20
853.89769999999999
 11
1852.0412999999999
 21
881.39769999999999
  0
CIRCLE
  8
_0-0_LAYER001
  6
CONTINUOUS
 62
    2
 10
1852.0412999999999
 20
856.39769999999999
 40
1.6999999999999997
  0
LINE
  8
_0-0_LAYER001
  6
CONTINUOUS
 62
    2
 10
1852.0412999999999
 20
856.39769999999999
 11
1877.0412999999999
 21
856.39769999999999
  0
CIRCLE
  8
_0-0_LAYER001
  6
CONTINUOUS
 62
    2
 10
1877.0412999999999
 20
856.39769999999999
 40
1.6999999999999997
  0
LINE
  8
_0-0_LAYER001
  6
CONTINUOUS
 62
    2
 10
1877.0412999999999
 20
853.89769999999999
 11
1877.0412999999999
 21
881.39769999999999
  0
LINE
  8
_0-0_LAYER001
  6
CONTINUOUS
 62
    2
 10
1043.6728000000001
 20
1323.0506
 11
1043.6728000000001
 21
1270.5506
  0
CIRCLE
  8
_0-0_LAYER001
  6
CONTINUOUS
 62
    2
 10
1043.6728000000001
 20
1320.5506
 40
1.6999999999999997
  0
LINE
  8
_0-0_LAYER001
  6
CONTINUOUS
 62
    2
 10
1043.6728000000001
 20
1320.5506
 11
1308.6727999999998
 21
1320.5506
  0
CIRCLE
  8
_0-0_LAYER001
  6
CONTINUOUS
 62
    2
 10
1308.6727999999998
 20
1320.5506
 40
1.6999999999999997
  0
LINE
  8
_0-0_LAYER001
  6
CONTINUOUS
 62
    2
 10
1308.6727999999998
 20
1323.0506
 11
1308.6727999999998
 21
1270.5506
  0
CIRCLE
  8
_0-0_LAYER001
  6
CONTINUOUS
 62
    2
 10
1308.6727999999998
 20
1320.5506
 40
1.6999999999999997
  0
LINE
  8
_0-0_LAYER001
  6
CONTINUOUS
 62
    2
 10
1308.6727999999998
 20
1320.5506
 11
1573.6727999999998
 21
1320.5506
  0
CIRCLE
  8
_0-0_LAYER001
  6
CONTINUOUS
 62
    2
 10
1573.6727999999998
 20
1320.5506
 40
1.6999999999999997
  0
LINE
  8
_0-0_LAYER001
  6
CONTINUOUS
 62
    2
 10
1573.6727999999998
 20
1323.0506
 11
1573.6727999999998
 21
1270.5506
  0
CIRCLE
  8
_0-0_LAYER001
  6
CONTINUOUS
 62
    2
 10
1573.6727999999998
 20
1320.5506
 40
1.6999999999999997
  0
LINE
  8
_0-0_LAYER001
  6
CONTINUOUS
 62
    2
 10
1573.6727999999998
 20
1320.5506
 11
1878.6727999999998
 21
1320.5506
  0
CIRCLE
  8
_0-0_LAYER001
  6
CONTINUOUS
 62
    2
 10
1878.6727999999998
 20
1320.5506
 40
1.6999999999999997
  0
LINE
  8
_0-0_LAYER001
  6
CONTINUOUS
 62
    2
 10
1878.6727999999998
 20
1323.0506
 11
1878.6727999999998
 21
1270.5506
  0
LINE
  8
_0-1_LAYER003
  6
CONTINUOUS
 62
   18
 10
1043.6728000000001
 20
1322.2506000000001
 11
1043.6728000000001
 21
1270.5506
  0
LINE
  8
_0-1_LAYER003
  6
CONTINUOUS
 62
   18
 10
1045.3728000000001
 20
1320.5506
 11
1878.6727999999998
 21
1320.5506
  0
LINE
  8
_0-1_LAYER003
  6
CONTINUOUS
 62
   18
 10
1878.6727999999998
 20
1323.0506
 11
1878.6727999999998
 21
1270.5506
  0
LINE
  8
_0-1_LAYER003
  6
CONTINUOUS
 62
   18
 10
1573.6727999999998
 20
1322.2506000000001
 11
1573.6727999999998
 21
1270.5506
  0
LINE
  8
_0-1_LAYER003
  6
CONTINUOUS
 62
   18
 10
1573.6727999999998
 20
1270.5506
 11
1573.6727999999998
 21
1320.5506
  0
LINE
  8
_0-1_LAYER003
  6
CONTINUOUS
 62
   18
 10
1308.6727999999998
 20
1323.0506
 11
1308.6727999999998
 21
1270.5506
  0
LINE
  8
_0-1_LAYER003
  6
CONTINUOUS
 62
   18
 10
1264.4575
 20
1232.2354
 11
1304.9575
 21
1232.2354
  0
LINE
  8
_0-1_LAYER003
  6
CONTINUOUS
 62
   18
 10
1006.8181999999999
 20
1109.7988
 11
1806.8339000000001
 21
1109.7988
  0
LINE
  8
_0-1_LAYER003
  6
CONTINUOUS
 62
   18
 10
1806.8339000000001
 20
1109.7988
 11
1806.8339000000001
 21
1094.7988
  0
LINE
  8
_0-1_LAYER003
  6
CONTINUOUS
 62
   18
 10
1806.8339000000001
 20
1094.7988
 11
1006.8181999999999
 21
1094.7988
  0
LINE
  8
_0-1_LAYER003
  6
CONTINUOUS
 62
   18
 10
1006.8181999999999
 20
1090.0988
 11
1822.5565999999999
 21
1090.0988
  0
LINE
  8
_0-1_LAYER003
  6
CONTINUOUS
 62
   18
 10
1827.0412999999999
 20
1089.3198
 11
1224.6275000000001
 21
1089.3198
  0
LINE
  8
_0-1_LAYER003
  6
CONTINUOUS
 62
   18
 10
1006.8181999999999
 20
1064.3198
 11
1827.0412999999999
 21
1064.3198
  0
LINE
  8
_0-1_LAYER003
  6
CONTINUOUS
 62
   18
 10
1804.4283
 20
929.06310000000008
 11
1835.0405000000001
 21
929.06310000000008
  0
LINE
  8
_0-1_LAYER003
  6
CONTINUOUS
 62
   18
 10
1835.0405000000001
 20
929.06310000000008
 11
1827.0412999999999
 21
929.06310000000008
  0
LINE
  8
_0-1_LAYER003
  6
CONTINUOUS
 62
   18
 10
1827.0412999999999
 20
929.06310000000008
 11
1827.0412999999999
 21
1125.3198
  0
LINE
  8
_0-1_LAYER003
  6
CONTINUOUS
 62
   18
 10
1827.0412999999999
 20
1125.3198
 11
1852.0412999999999
 21
1125.3198
  0
LINE
  8
_0-1_LAYER003
  6
CONTINUOUS
 62
   18
 10
1852.0412999999999
 20
1125.3198
 11
1852.0412999999999
 21
929.06310000000008
  0
LINE
  8
_0-1_LAYER003
  6
CONTINUOUS
 62
   18
 10
1844.9313000000002
 20
929.06310000000008
 11
1875.3294999999998
 21
929.06310000000008
  0
LINE
  8
_0-1_LAYER003
  6
CONTINUOUS
 62
   18
 10
1898.0252999999998
 20
1125.3198
 11
1939.7252999999998
 21
1125.3198
  0
LINE
  8
_0-1_LAYER003
  6
CONTINUOUS
 62
   18
 10
1938.0252999999998
 20
1125.3198
 11
1938.0252999999998
 21
1064.3198
  0
LINE
  8
_0-1_LAYER003
  6
CONTINUOUS
 62
   18
 10
1939.7252999999998
 20
1064.3198
 11
1902.8654999999999
 21
1064.3198
  0
LINE
  8
_0-1_LAYER003
  6
CONTINUOUS
 62
   18
 10
1898.0252999999998
 20
1089.3198
 11
1939.7252999999998
 21
1089.3198
  0
LINE
  8
_0-1_LAYER003
  6
CONTINUOUS
 62
   18
 10
1772.0403999999999
 20
964.31989999999996
 11
1006.8181999999999
 21
964.31989999999996
  0
LINE
  8
_0-1_LAYER003
  6
CONTINUOUS
 62
   18
 10
1177.2462
 20
854.00649999999996
 11
1382.0688999999998
 21
854.00649999999996
  0
LINE
  8
_0-1_LAYER003
  6
CONTINUOUS
 62
   18
 10
1186.5251796743862
 20
823.91110000000003
 11
1528.6403
 21
823.91110000000003
  0
LINE
  8
_0-1_LAYER003
  6
CONTINUOUS
 62
   18
 10
1195.4186999999999
 20
793.81580000000008
 11
1532.7379000000001
 21
793.81580000000008
  0
LINE
  8
_0-1_LAYER003
  6
CONTINUOUS
 62
   18
 10
1202.5918999999999
 20
763.94929999999999
 11
1594.9470000000001
 21
763.94929999999999
  0
LINE
  8
_0-1_LAYER003
  6
CONTINUOUS
 62
   18
 10
1915.1817000000001
 20
890.41129999999998
 11
1963.1817000000001
 21
890.41129999999998
  0
LINE
  8
_0-1_LAYER003
  6
CONTINUOUS
 62
   18
 10
1877.0412999999999
 20
856.39769999999999
 11
1852.0412999999999
 21
856.39769999999999
  0
LINE
  8
_0-1_LAYER003
  6
CONTINUOUS
 62
   18
 10
1852.0412999999999
 20
853.89769999999999
 11
1852.0412999999999
 21
881.39769999999999
  0
LINE
  8
_0-1_LAYER003
  6
CONTINUOUS
 62
   18
 10
1877.0412999999999
 20
854.69769999999994
 11
1877.0412999999999
 21
881.39769999999999
  0
LINE
  8
_0-1_LAYER003
  6
CONTINUOUS
 62
   18
 10
1772.0403999999999
 20
966.61879999999996
 11
1006.8181999999999
 21
966.61879999999996
  0
LINE
  8
_0-1_LAYER003
  6
CONTINUOUS
 62
   18
 10
1006.8181999999999
 20
984.31960000000004
 11
1772.0403999999999
 21
984.31960000000004
  0
LINE
  8
_0-1_LAYER003
  6
CONTINUOUS
 62
   18
 10
1772.0403999999999
 20
964.31989999999996
 11
1772.0403999999999
 21
1062.0202999999999
  0
LINE
  8
_0-1_LAYER003
  6
CONTINUOUS
 62
   18
 10
1772.0403999999999
 20
1062.0202999999999
 11
1006.8181999999999
 21
1062.0202999999999
  0
LINE
  8
_0-1_LAYER003
  6
CONTINUOUS
 62
   18
 10
1006.8181999999999
 20
1044.3195000000001
 11
1772.0403999999999
 21
1044.3195000000001
  0
LINE
  8
_0-1_LAYER003
  6
CONTINUOUS
 62
   18
 10
1772.0403999999999
 20
1044.3195000000001
 11
1772.0403999999999
 21
1054.3200999999999
  0
LINE
  8
_0-1_LAYER003
  6
CONTINUOUS
 62
   18
 10
1772.0403999999999
 20
1062.0202999999999
 11
1772.0403999999999
 21
1064.3198
  0
LINE
  8
_0-1_LAYER003
  6
CONTINUOUS
 62
   18
 10
1716.3290999999999
 20
1230.5793000000001
 11
1764.3290999999999
 21
1230.5793000000001
  0
LINE
  8
_0-1_LAYER003
  6
CONTINUOUS
 62
   18
 10
1716.3290999999999
 20
1230.5793000000001
 11
1667.1163000000001
 21
1145.3403000000001
  0
LINE
  8
_0-1_LAYER003
  6
CONTINUOUS
 62
   18
 10
1667.1163000000001
 20
1145.3403000000001
 11
1669.0574000000001
 21
1152.5847000000001
  0
LINE
  8
_0-1_LAYER003
  6
CONTINUOUS
 62
   18
 10
1667.1163000000001
 20
1145.3403000000001
 11
1672.4196000000002
 21
1150.6436000000001
  0
LINE
  8
_0-1_LAYER003
  6
CONTINUOUS
 62
   18
 10
1672.4196000000002
 20
1150.6436000000001
 11
1667.1163000000001
 21
1145.3403000000001
  0
LINE
  8
_0-1_LAYER003
  6
CONTINUOUS
 62
   18
 10
1915.1817000000001
 20
890.41129999999998
 11
1852.0412999999999
 21
999.77379999999994
  0
LINE
  8
_0-1_LAYER003
  6
CONTINUOUS
 62
   18
 10
1852.0412999999999
 20
999.77379999999994
 11
1853.9823999999999
 21
992.5293999999999
  0
LINE
  8
_0-1_LAYER003
  6
CONTINUOUS
 62
   18
 10
1852.0412999999999
 20
999.77379999999994
 11
1857.3445999999999
 21
994.4704999999999
  0
LINE
  8
_0-1_LAYER003
  6
CONTINUOUS
 62
   18
 10
1844.9313000000002
 20
929.06310000000008
 11
1842.0050999999999
 21
932.96479999999997
  0
LINE
  8
_0-1_LAYER003
  6
CONTINUOUS
 62
   18
 10
1842.0050999999999
 20
932.96479999999997
 11
1837.3463000000002
 21
923.79279999999994
  0
LINE
  8
_0-1_LAYER003
  6
CONTINUOUS
 62
   18
 10
1837.3463000000002
 20
923.79279999999994
 11
1835.0405000000001
 21
929.06310000000008
  0
LINE
  8
_0-1_LAYER003
  6
CONTINUOUS
 62
   18
 10
1110.9663
 20
1105.9005999999999
 11
1110.9663
 21
1098.4005999999999
  0
LINE
  8
_0-1_LAYER003
  6
CONTINUOUS
 62
   18
 10
1110.9663
 20
1105.9005999999999
 11
1114.7163
 21
1099.4054000000001
  0
LINE
  8
_0-1_LAYER003
  6
CONTINUOUS
 62
   18
 10
1110.9663
 20
1105.9005999999999
 11
1202.5918999999999
 21
763.94929999999999
  0
LINE
  8
_0-1_LAYER003
  6
CONTINUOUS
 62
   18
 10
1206.2934
 20
1135.3744999999999
 11
1204.3523
 21
1128.1300000000001
  0
LINE
  8
_0-1_LAYER003
  6
CONTINUOUS
 62
   18
 10
1204.3523
 20
1128.1300000000001
 11
1209.6556
 21
1133.4333999999999
  0
LINE
  8
_0-1_LAYER003
  6
CONTINUOUS
 62
   18
 10
1204.3523
 20
1128.1300000000001
 11
1264.4575
 21
1232.2354
  0
LINE
  8
_0-1_LAYER003
  6
CONTINUOUS
 62
   18
 10
1777.0403999999999
 20
1054.3200999999999
 11
1727.0403999999999
 21
1054.3200999999999
  0
LINE
  8
_0-1_LAYER003
  6
CONTINUOUS
 62
   18
 10
1727.0403999999999
 20
1054.3200999999999
 11
1727.0403999999999
 21
974.32009999999991
  0
LINE
  8
_0-1_LAYER003
  6
CONTINUOUS
 62
   18
 10
1727.0403999999999
 20
974.32009999999991
 11
1777.0403999999999
 21
974.32009999999991
  0
LINE
  8
_0-1_LAYER003
  6
CONTINUOUS
 62
   18
 10
1777.0403999999999
 20
1054.3200999999999
 11
1777.0403999999999
 21
974.32009999999991
  0
LINE
  8
_0-1_LAYER003
  6
CONTINUOUS
 62
   18
 10
1773.8404
 20
974.32009999999991
 11
1773.8404
 21
1054.3200999999999
  0
LINE
  8
_0-1_LAYER003
  6
CONTINUOUS
 62
   18
 10
1777.0407
 20
1044.3195000000001
 11
1779.3411999999998
 21
1044.3198
  0
LINE
  8
_0-1_LAYER003
  6
CONTINUOUS
 62
   18
 10
1779.3411999999998
 20
1044.3198
 11
1777.0407
 21
1044.3195000000001
  0
LINE
  8
_0-1_LAYER003
  6
CONTINUOUS
 62
   18
 10
1777.0403999999999
 20
1054.3200999999999
 11
1777.0403999999999
 21
1059.3202000000001
  0
LINE
  8
_0-1_LAYER003
  6
CONTINUOUS
 62
   18
 10
1779.3411999999998
 20
1044.3198
 11
1779.3404999999998
 21
1059.3205
  0
LINE
  8
_0-1_LAYER003
  6
CONTINUOUS
 62
   18
 10
1822.0397459898106
 20
1062.0212999960531
 11
1782.0409
 21
1062.0205000000001
  0
LINE
  8
_0-1_LAYER003
  6
CONTINUOUS
 62
   18
 10
1824.7395998868717
 20
1059.3220815968255
 11
1824.7421998868713
 21
969.3200815968255
  0
LINE
  8
_0-1_LAYER003
  6
CONTINUOUS
 62
   18
 10
1822.0417000000002
 20
966.61909999999989
 11
1782.0416104490787
 21
966.61880003119791
  0
LINE
  8
_0-1_LAYER003
  6
CONTINUOUS
 62
   18
 10
1779.3412000496689
 20
969.31931789154578
 11
1779.3404
 21
984.31970000000001
  0
LINE
  8
_0-1_LAYER003
  6
CONTINUOUS
 62
   18
 10
1779.3404
 20
984.31970000000001
 11
1777.0409
 21
984.31960000000004
  0
LINE
  8
_0-1_LAYER003
  6
CONTINUOUS
 62
   18
 10
1777.0403999999999
 20
974.32009999999991
 11
1777.0412999999999
 21
969.31880000000001
  0
LINE
  8
_0-1_LAYER003
  6
CONTINUOUS
 62
   18
 10
1782.0415139700649
 20
964.3193001726861
 11
1822.0430000000001
 21
964.31999999999994
  0
ARC
  8
_0-1_LAYER003
  6
CONTINUOUS
 62
   18
 10
1822.0751448245162
 20
1059.3458025284199
 40
4.9740872978899002
 50
3.236185167468983
 51
89.655663261274555
  0
ARC
  8
_0-1_LAYER003
  6
CONTINUOUS
 62
   18
 10
1822.0274123340412
 20
1059.3092106553818
 40
2.7122180927909811
 50
0.271900476216478
 51
89.736196331228172
  0
ARC
  8
_0-1_LAYER003
  6
CONTINUOUS
 62
   18
 10
1782.0968705108737
 20
1059.2644208436534
 40
2.7566474228918563
 50
91.163403923608897
 51
178.82772883851726
  0
ARC
  8
_0-1_LAYER003
  6
CONTINUOUS
 62
   18
 10
1782.0636494288301
 20
1059.2969683766778
 40
5.023305068109809
 50
90.78664888993336
 51
179.73029310458045
  0
ARC
  8
_0-1_LAYER003
  6
CONTINUOUS
 62
   18
 10
1782.1014669817769
 20
969.37968735025129
 40
2.7615360930134458
 50
181.26130523818571
 51
268.75801178096344
  0
ARC
  8
_0-1_LAYER003
  6
CONTINUOUS
 62
   18
 10
1781.9999328998163
 20
969.27803417185214
 40
4.9589083334830732
 50
179.51775205041815
 51
270.4804379495817
  0
ARC
  8
_0-1_LAYER003
  6
CONTINUOUS
 62
   18
 10
1822.0945650836238
 20
969.26662905936109
 40
2.6480568040034305
 50
268.85608669545098
 51
1.1375476962464941
  0
ARC
  8
_0-1_LAYER003
  6
CONTINUOUS
 62
   18
 10
1821.9982691137502
 20
969.3650975890514
 40
5.0452958818327263
 50
270.50798300685801
 51
358.28310301326923
  0
TEXT
  8
_0-1_LAYER003
 62
    7
 10
1915.1816999999994
 20
892.91130000000044
 40
20
 41
1
 50
0
  1
破風板
  0
TEXT
  8
_0-1_LAYER003
 62
    7
 10
1716.3290999999995
 20
1233.0793000000003
 40
20
 41
1
 50
0
  1
右袖瓦
  0
TEXT
  8
_0-0_LAYER001
 62
    7
 10
1170.4283404539847
 20
1330.8051684636948
 40
20
 41
1
 50
0
  1
265
  0
TEXT
  8
_0-0_LAYER001
 62
    7
 10
1425.5699130203377
 20
1334.730423426254
 40
20
 41
1
 50
0
  1
265
  0
TEXT
  8
_0-0_LAYER001
 62
    7
 10
1714.7303619288709
 20
1330.8051684636948
 40
20
 41
1
 50
0
  1
305
  0
TEXT
  8
_0-0_LAYER001
 62
    7
 10
1965.9466795326648
 20
1065.1962493305173
 40
20
 41
1
 50
90
  1
25
  0
TEXT
  8
_0-0_LAYER001
 62
    7
 10
1962.0214245701054
 20
1100.5235439935507
 40
20
 41
1
 50
90
  1
36
  0
TEXT
  8
_0-0_LAYER001
 62
    7
 10
1854.731122260152
 20
829.68095157696052
 40
20
 41
1
 50
0
  1
25
  0
TEXT
  8
_0-1_LAYER003
 62
    7
 10
1260.7092045928482
 20
1235.2906310414191
 40
20
 41
1
 50
0
  1
桟　瓦
  0
TEXT
  8
_0-0_LAYER001
 62
    7
 10
1191.3630335876342
 20
828.37253325610743
 40
20
 41
1
 50
0
  1
　下葺材：ルーフィング
  0
TEXT
  8
_0-0_LAYER001
 62
    7
 10
1182.2041053416626
 20
857.15773631487548
 40
20
 41
1
 50
0
  1
　瓦桟：１５ｘ３０以上
  0
TEXT
  8
_0-0_LAYER001
 62
    7
 10
1212.2977267212837
 20
766.87687217601228
 40
20
 41
1
 50
0
  1
　鋼製：C－100x50x20x2.3　@606
  0
TEXT
  8
_0-0_LAYER001
 62
    7
 10
1200.5219618336059
 20
798.27891187648652
 40
20
 41
1
 50
0
  1
野地板：硬質木片セメントパネルｔ＝25
  0
ENDSEC
  0
EOF
