  0
SECTION
  2
HEADER
  9
$ACADVER
  1
AC1009
  9
$INSBASE
 10
0
 20
0
 30
0
  9
$EXTMIN
 10
0
 20
0
  9
$EXTMAX
 10
2970
 20
2100
  9
$LIMMIN
 10
0
 20
0
  9
$LIMMAX
 10
2970
 20
2100
  9
$LTSCALE
 40
10
  0
ENDSEC
  0
SECTION
  2
TABLES
  0
TABLE
  2
LTYPE
 70
     9
  0
LTYPE
  2
CONTINUOUS
 70
    64
  3
実線
 72
    65
 73
     0
 40
0.0
  0
LTYPE
  2
DASHED1
 70
    64
  3
--  --  --  --  --  --  --  --  
 72
    65
 73
     2
 40
2.5
 49
1.25
 49
-1.25
  0
LTYPE
  2
DASHED2
 70
    64
  3
----    ----    ----    ----    
 72
    65
 73
     2
 40
5.0
 49
2.5
 49
-2.5
  0
LTYPE
  2
DASHED3
 70
    64
  3
------  ------  ------  ------  
 72
    65
 73
     2
 40
5.0
 49
3.75
 49
-1.25
  0
LTYPE
  2
CENTER1
 70
    64
  3
----- - ----- - ----- - ----- - 
 72
    65
 73
     4
 40
10.0
 49
6.25
 49
-1.25
 49
1.25
 49
-1.25
  0
LTYPE
  2
CENTER2
 70
    64
  3
----------  --  ----------  --  
 72
    65
 73
     4
 40
20.0
 49
12.5
 49
-2.5
 49
2.5
 49
-2.5
  0
LTYPE
  2
PHANTOM1
 70
    64
  3
--- - - --- - - --- - - --- - - 
 72
    65
 73
     6
 40
10.0
 49
3.25
 49
-1.25
 49
1.25
 49
-1.25
 49
1.25
 49
-1.25
  0
LTYPE
  2
PHANTOM2
 70
    64
  3
--------  -  -  --------  -  -  
 72
    65
 73
     6
 40
20.0
 49
10.0
 49
-2.5
 49
1.25
 49
-2.5
 49
1.25
 49
-2.5
  0
LTYPE
  2
DOT
 70
    64
  3
-   -   -   -   -   -   -   -   
 72
    65
 73
     2
 40
2.5
 49
0.625
 49
-1.875
  0
LTYPE
  2
DUMMY
 70
    64
  3
ダミー
 72
    65
 73
     0
 40
0.0
  0
LTYPE
  2
RAND1
 70
    64
  3
ランダム線1
 72
    65
 73
     4
 40
10.0
 49
1.0
 49
-2.0
 49
3.0
 49
-4.0
  0
LTYPE
  2
RAND2
 70
    64
  3
ランダム線2
 72
    65
 73
     4
 40
14.0
 49
2.0
 49
-3.0
 49
4.0
 49
-5.0
  0
LTYPE
  2
RAND3
 70
    64
  3
ランダム線3
 72
    65
 73
     4
 40
18.0
 49
3.0
 49
-4.0
 49
5.0
 49
-6.0
  0
LTYPE
  2
RAND4
 70
    64
  3
ランダム線4
 72
    65
 73
     4
 40
22.0
 49
4.0
 49
-5.0
 49
6.0
 49
-7.0
  0
LTYPE
  2
RAND5
 70
    64
  3
ランダム線5
 72
    65
 73
     4
 40
26.0
 49
5.0
 49
-6.0
 49
7.0
 49
-8.0
  0
LTYPE
  2
LONG1
 70
    64
  3
----------  --  ----------  --  
 72
    65
 73
     4
 40
40.0
 49
32.5
 49
-2.5
 49
2.5
 49
-2.5
  0
LTYPE
  2
LONG2
 70
    64
  3
--------  -  -  --------  -  -  
 72
    65
 73
     6
 40
40.0
 49
30.0
 49
-2.5
 49
1.25
 49
-2.5
 49
1.25
 49
-2.5
  0
LTYPE
  2
LONG3
 70
    64
  3
+++++++++++++++..+++++++++++++++
 72
    65
 73
     2
 40
40.0
 49
37.5
 49
-2.5
  0
LTYPE
  2
LONG4
 70
    64
  3
+++++++++++++++..+++++++++++++++
 72
    65
 73
     2
 40
80.0
 49
75.0
 49
-5.0
  0
LTYPE
  2
LONG5
 70
    64
  3
----------  --  ----------  --  
 72
    65
 73
     4
 40
60.0
 49
37.5
 49
-7.5
 49
7.5
 49
-7.5
  0
LTYPE
  2
dashed
 70
   64
  3
-------   -------------   ------
 72
   65
 73
    2
 40
7.5
 49
6
 49
-1.5
  0
LTYPE
  2
dashed_spaced
 70
   64
  3
----        --------        ----
 72
   65
 73
    2
 40
12
 49
6
 49
-6
  0
LTYPE
  2
long_dashed_dotted
 70
   64
  3
------------- --- --------------
 72
   65
 73
    4
 40
15.25
 49
12
 49
-1.5
 49
0.25
 49
-1.5
  0
LTYPE
  2
long_dashed_double-dotted
 70
   64
  3
----------- --- --- ------------
 72
   65
 73
    6
 40
17
 49
12
 49
-1.5
 49
0.25
 49
-1.5
 49
0.25
 49
-1.5
  0
LTYPE
  2
long_dashed_triplicate-dotted
 70
   64
  3
--------- --- --- --- ----------
 72
   65
 73
    8
 40
18.75
 49
12
 49
-1.5
 49
0.25
 49
-1.5
 49
0.25
 49
-1.5
 49
0.25
 49
-1.5
  0
LTYPE
  2
dotted
 70
   64
  3
   -       -       -       -    
 72
   65
 73
    2
 40
1.75
 49
0.25
 49
-1.5
  0
LTYPE
  2
chain
 70
   64
  3
-------------- -- --------------
 72
   65
 73
    4
 40
18.5
 49
12
 49
-1.5
 49
3.5
 49
-1.5
  0
LTYPE
  2
chain_double_dash
 70
   64
  3
------------ -- -- -------------
 72
   65
 73
    6
 40
23.5
 49
12
 49
-1.5
 49
3.5
 49
-1.5
 49
3.5
 49
-1.5
  0
LTYPE
  2
dashed_dotted
 70
   64
  3
-----------     -     ----------
 72
   65
 73
    4
 40
9.25
 49
6
 49
-1.5
 49
0.25
 49
-1.5
  0
LTYPE
  2
double-dashed_dotted
 70
   64
  3
------   -----------   -   -----
 72
   65
 73
    6
 40
16.75
 49
6
 49
-1.5
 49
6
 49
-1.5
 49
0.25
 49
-1.5
  0
LTYPE
  2
dashed_double-dotted
 70
   64
  3
---------    -    -    ---------
 72
   65
 73
    6
 40
11
 49
6
 49
-1.5
 49
0.25
 49
-1.5
 49
0.25
 49
-1.5
  0
LTYPE
  2
double-dashed_double-dotted
 70
   64
  3
-----   ---------   -   -   ----
 72
   65
 73
    8
 40
18.5
 49
6
 49
-1.5
 49
6
 49
-1.5
 49
0.25
 49
-1.5
 49
0.25
 49
-1.5
  0
LTYPE
  2
dashed_triplicate-dotted
 70
   64
  3
-------    -    -    -    ------
 72
   65
 73
    8
 40
12.75
 49
6
 49
-1.5
 49
0.25
 49
-1.5
 49
0.25
 49
-1.5
 49
0.25
 49
-1.5
  0
LTYPE
  2
double-dashed_triplicate-dotted
 70
   64
  3
-----  ---------  -  -  -  -----
 72
   65
 73
   10
 40
20.25
 49
6
 49
-1.5
 49
6
 49
-1.5
 49
0.25
 49
-1.5
 49
0.25
 49
-1.5
 49
0.25
 49
-1.5
  0
LTYPE
  2
undefined
 70
   64
  3
--------------------------------
 72
   65
 73
    0
 40
0
  0
ENDTAB
  0
TABLE
  2
STYLE
  5
3
100
AcDbSymbolTable
 70
     1
  0
STYLE
  5
10
100
AcDbSymbolTableRecord
100
AcDbTextStyleTableRecord
  2
STANDARD
 70
     0
 40
0.0
 41
1.0
 50
0.0
 71
     0
 42
0.2
  3
txt
  4
bigfont.shx
  0
STYLE
  5
26
100
AcDbSymbolTableRecord
100
AcDbTextStyleTableRecord
  2
TATEGAKI
 70
    68
 40
0.0
 41
1.0
 50
0.0
 71
     0
 42
1.0
  3
txt
  4
bigfont.shx
  0
ENDTAB
  0
TABLE
  2
LAYER
 70
    5
  0
LAYER
  2
_0-0_LAYER001
 70
   64
 62
    7
  6
CONTINUOUS
  0
LAYER
  2
_0-1_LAYER003
 70
   64
 62
    7
  6
CONTINUOUS
  0
LAYER
  2
_0-2_LAYER004
 70
   64
 62
    7
  6
CONTINUOUS
  0
LAYER
  2
_0-3_LAYER009
 70
   64
 62
    7
  6
CONTINUOUS
  0
LAYER
  2
ADD_LINE
 70
   64
 62
    7
  6
CONTINUOUS
  0
ENDTAB
  0
ENDSEC
  0
SECTION
  2
BLOCKS
  0
ENDSEC
  0
SECTION
  2
ENTITIES
  0
LINE
  8
_0-1_LAYER003
  6
CONTINUOUS
 62
    2
 10
1292.4756
 20
828.70790000000011
 11
1314.1947
 21
780.44299999999998
  0
LINE
  8
_0-0_LAYER001
  6
CONTINUOUS
 62
    2
 10
1232.1576
 20
793.05369999999994
 11
1241.1856
 21
790.73029999999994
  0
LINE
  8
_0-0_LAYER001
  6
CONTINUOUS
 62
    2
 10
1233.0452
 20
787.9036000000001
 11
1232.1576
 21
793.05369999999994
  0
LINE
  8
_0-0_LAYER001
  6
CONTINUOUS
 62
    2
 10
1241.1856
 20
790.73029999999994
 11
1240.6297
 21
795.60050000000001
  0
LINE
  8
_0-0_LAYER001
  6
CONTINUOUS
 62
    2
 10
1219.3634
 20
774.01880000000006
 11
1233.0452
 21
787.9036000000001
  0
LINE
  8
_0-0_LAYER001
  6
CONTINUOUS
 62
    2
 10
1240.6297
 20
795.60050000000001
 11
1257.1246000000001
 21
812.34009999999989
  0
LINE
  8
_0-1_LAYER003
  6
CONTINUOUS
 62
    2
 10
1236.1635000000001
 20
956.88490000000002
 11
1248.2306000000001
 21
929.41709999999989
  0
LINE
  8
_0-1_LAYER003
  6
CONTINUOUS
 62
    2
 10
1138.5808
 20
912.98250000000007
 11
1236.1635000000001
 21
956.88490000000002
  0
LINE
  8
_0-1_LAYER003
  6
CONTINUOUS
 62
    2
 10
1138.5808
 20
912.98250000000007
 11
1129.4604999999999
 21
908.87930000000006
  0
LINE
  8
_0-1_LAYER003
  6
CONTINUOUS
 62
    2
 10
1116.3629000000001
 20
938.69129999999996
 11
1129.4604999999999
 21
908.87930000000006
  0
LINE
  8
_0-1_LAYER003
  6
CONTINUOUS
 62
    2
 10
1154.0844
 20
919.95730000000003
 11
1166.1510000000001
 21
892.49080000000004
  0
LINE
  8
_0-1_LAYER003
  6
CONTINUOUS
 62
    2
 10
1116.3629000000001
 20
938.69129999999996
 11
1216.6776
 21
971.40519999999992
  0
LINE
  8
_0-1_LAYER003
  6
CONTINUOUS
 62
    2
 10
1216.6776
 20
971.40519999999992
 11
1225.22
 21
951.96149999999989
  0
LINE
  8
_0-1_LAYER003
  6
CONTINUOUS
 62
    2
 10
1212.7076
 20
946.33249999999998
 11
1223.1194
 21
956.74270000000001
  0
LINE
  8
_0-1_LAYER003
  6
CONTINUOUS
 62
    2
 10
1192.1358
 20
937.07719999999995
 11
1219.6659999999999
 21
964.60189999999989
  0
LINE
  8
_0-1_LAYER003
  6
CONTINUOUS
 62
    2
 10
1171.5651
 20
927.82179999999994
 11
1214.4185
 21
970.66840000000002
  0
LINE
  8
_0-1_LAYER003
  6
CONTINUOUS
 62
    2
 10
1150.9943000000001
 20
918.56750000000011
 11
1197.6270999999999
 21
965.19270000000006
  0
LINE
  8
_0-1_LAYER003
  6
CONTINUOUS
 62
    2
 10
1130.4224999999999
 20
909.31220000000008
 11
1180.8356000000001
 21
959.7161000000001
  0
LINE
  8
_0-1_LAYER003
  6
CONTINUOUS
 62
    2
 10
1126.1691000000001
 20
916.37149999999997
 11
1164.0442
 21
954.24050000000011
  0
LINE
  8
_0-1_LAYER003
  6
CONTINUOUS
 62
    2
 10
1122.7157999999999
 20
924.23180000000002
 11
1147.2527
 21
948.76479999999992
  0
LINE
  8
_0-1_LAYER003
  6
CONTINUOUS
 62
    2
 10
1119.2624000000001
 20
932.09210000000007
 11
1130.4612999999999
 21
943.28919999999994
  0
LINE
  8
_0-1_LAYER003
  6
CONTINUOUS
 62
    2
 10
1165.0654
 20
894.96340000000009
 11
1167.1071999999999
 21
892.92020000000002
  0
LINE
  8
_0-1_LAYER003
  6
CONTINUOUS
 62
    2
 10
1156.1980000000001
 20
915.14609999999993
 11
1174.9105
 21
896.43059999999991
  0
LINE
  8
_0-1_LAYER003
  6
CONTINUOUS
 62
    2
 10
1160.0275999999999
 20
922.63079999999991
 11
1182.7138
 21
899.94090000000006
  0
LINE
  8
_0-1_LAYER003
  6
CONTINUOUS
 62
    2
 10
1167.8299
 20
926.14210000000003
 11
1190.5161000000001
 21
903.45229999999992
  0
LINE
  8
_0-1_LAYER003
  6
CONTINUOUS
 62
    2
 10
1175.6332
 20
929.65249999999992
 11
1198.3194000000001
 21
906.96270000000004
  0
LINE
  8
_0-1_LAYER003
  6
CONTINUOUS
 62
    2
 10
1183.4355
 20
933.16290000000004
 11
1206.1215999999999
 21
910.47299999999996
  0
LINE
  8
_0-1_LAYER003
  6
CONTINUOUS
 62
    2
 10
1191.2388000000001
 20
936.67319999999995
 11
1213.9249
 21
913.98340000000007
  0
LINE
  8
_0-1_LAYER003
  6
CONTINUOUS
 62
    2
 10
1199.0410999999999
 20
940.18360000000007
 11
1221.7272
 21
917.49379999999996
  0
LINE
  8
_0-1_LAYER003
  6
CONTINUOUS
 62
    2
 10
1206.8443
 20
943.69399999999996
 11
1229.5305000000001
 21
921.00410000000011
  0
LINE
  8
_0-1_LAYER003
  6
CONTINUOUS
 62
    2
 10
1214.6466
 20
947.2043000000001
 11
1237.3327999999999
 21
924.5145
  0
LINE
  8
_0-1_LAYER003
  6
CONTINUOUS
 62
    2
 10
1222.4499000000001
 20
950.71569999999997
 11
1245.1360999999999
 21
928.02590000000009
  0
LINE
  8
_0-1_LAYER003
  6
CONTINUOUS
 62
    2
 10
1230.2521999999999
 20
954.22610000000009
 11
1242.8802000000001
 21
941.59609999999998
  0
LINE
  8
_0-1_LAYER003
  6
CONTINUOUS
 62
    2
 10
1231.7147
 20
783.38120000000004
 11
1179.8526999999999
 21
898.65419999999995
  0
LINE
  8
_0-2_LAYER004
  6
CONTINUOUS
 62
    2
 10
1248.2306000000001
 20
929.41709999999989
 11
1166.1510000000001
 21
892.49080000000004
  0
LINE
  8
_0-2_LAYER004
  6
CONTINUOUS
 62
    2
 10
1240.7175
 20
821.86519999999996
 11
1201.7394999999999
 21
908.5014000000001
  0
LINE
  8
_0-3_LAYER009
  6
CONTINUOUS
 62
    2
 10
1240.7175
 20
821.86519999999996
 11
1249.4166
 21
802.53050000000007
  0
LINE
  8
_0-3_LAYER009
  6
CONTINUOUS
 62
    2
 10
1206.2997
 20
910.55300000000011
 11
1194.4102
 21
905.20399999999995
  0
LINE
  8
_0-2_LAYER004
  6
CONTINUOUS
 62
    2
 10
1227.9090000000001
 20
791.83930000000009
 11
1246.0605
 21
809.98880000000008
  0
LINE
  8
_0-2_LAYER004
  6
CONTINUOUS
 62
    2
 10
1224.3987
 20
799.6425999999999
 11
1242.5500999999999
 21
817.79109999999991
  0
LINE
  8
_0-2_LAYER004
  6
CONTINUOUS
 62
    2
 10
1220.8883000000001
 20
807.44479999999999
 11
1239.0398
 21
825.59439999999995
  0
LINE
  8
_0-2_LAYER004
  6
CONTINUOUS
 62
    2
 10
1217.3769
 20
815.24810000000002
 11
1235.5293999999999
 21
833.39670000000001
  0
LINE
  8
_0-2_LAYER004
  6
CONTINUOUS
 62
    2
 10
1213.8666000000001
 20
823.05040000000008
 11
1232.019
 21
841.19990000000007
  0
LINE
  8
_0-2_LAYER004
  6
CONTINUOUS
 62
    2
 10
1210.3561999999999
 20
830.85369999999989
 11
1228.5087000000001
 21
849.0021999999999
  0
LINE
  8
_0-2_LAYER004
  6
CONTINUOUS
 62
    2
 10
1206.8458000000001
 20
838.65599999999995
 11
1224.9973
 21
856.80549999999994
  0
LINE
  8
_0-2_LAYER004
  6
CONTINUOUS
 62
    2
 10
1203.3354999999999
 20
846.45929999999998
 11
1221.4869000000001
 21
864.6078
  0
LINE
  8
_0-2_LAYER004
  6
CONTINUOUS
 62
    2
 10
1199.8251
 20
854.26250000000005
 11
1217.9766
 21
872.41110000000003
  0
LINE
  8
_0-2_LAYER004
  6
CONTINUOUS
 62
    2
 10
1192.8034
 20
869.86809999999991
 11
1210.9558
 21
888.01659999999993
  0
LINE
  8
_0-2_LAYER004
  6
CONTINUOUS
 62
    2
 10
1189.2929999999999
 20
877.67039999999997
 11
1207.4455
 21
895.81989999999996
  0
LINE
  8
_0-2_LAYER004
  6
CONTINUOUS
 62
    2
 10
1185.7826
 20
885.47370000000001
 11
1203.9350999999999
 21
903.62220000000002
  0
LINE
  8
_0-2_LAYER004
  6
CONTINUOUS
 62
    2
 10
1182.2722000000001
 20
893.27600000000007
 11
1194.0311999999999
 21
905.0329999999999
  0
LINE
  8
_0-2_LAYER004
  6
CONTINUOUS
 62
    2
 10
1196.3146999999999
 20
862.06580000000008
 11
1214.4662000000001
 21
880.21440000000007
  0
LINE
  8
_0-1_LAYER003
  6
CONTINUOUS
 62
    2
 10
1238.173
 20
952.31089999999995
 11
1946.7359000000001
 21
1271.1635000000001
  0
LINE
  8
_0-0_LAYER001
  6
CONTINUOUS
 62
    2
 10
1264.0890999999999
 20
963.97299999999996
 11
1254.9688000000001
 21
959.86899999999991
  0
LINE
  8
_0-0_LAYER001
  6
CONTINUOUS
 62
    2
 10
1265.3190999999999
 20
961.23649999999998
 11
1256.2007000000001
 21
957.13390000000004
  0
LINE
  8
_0-0_LAYER001
  6
CONTINUOUS
 62
    2
 10
1254.9688000000001
 20
959.86899999999991
 11
1256.2007000000001
 21
957.13390000000004
  0
LINE
  8
_0-0_LAYER001
  6
CONTINUOUS
 62
    2
 10
1264.0890999999999
 20
963.97299999999996
 11
1265.3190999999999
 21
961.23649999999998
  0
LINE
  8
_0-0_LAYER001
  6
CONTINUOUS
 62
    2
 10
1259.5291
 20
961.92110000000002
 11
1260.7599
 21
959.18460000000005
  0
LINE
  8
_0-0_LAYER001
  6
CONTINUOUS
 62
    2
 10
1277.9309000000001
 20
921.02880000000005
 11
1273.8087
 21
925.31500000000005
  0
LINE
  8
_0-0_LAYER001
  6
CONTINUOUS
 62
    2
 10
1277.9309000000001
 20
921.02880000000005
 11
1277.4564
 21
926.95579999999995
  0
LINE
  8
_0-0_LAYER001
  6
CONTINUOUS
 62
    2
 10
1264.3511000000001
 20
943.31770000000006
 11
1269.9788000000001
 21
947.00929999999994
  0
LINE
  8
_0-0_LAYER001
  6
CONTINUOUS
 62
    2
 10
1266.4029
 20
938.75749999999994
 11
1272.0318
 21
942.44929999999999
  0
LINE
  8
_0-0_LAYER001
  6
CONTINUOUS
 62
    2
 10
1268.4558
 20
934.19839999999999
 11
1274.0826
 21
937.88889999999992
  0
LINE
  8
_0-0_LAYER001
  6
CONTINUOUS
 62
    2
 10
1270.5068000000001
 20
929.63809999999989
 11
1276.1344999999999
 21
933.32979999999998
  0
LINE
  8
_0-0_LAYER001
  6
CONTINUOUS
 62
    2
 10
1272.0427
 20
926.22600000000011
 11
1277.6701
 21
929.91769999999997
  0
LINE
  8
_0-0_LAYER001
  6
CONTINUOUS
 62
    2
 10
1263.8148000000001
 20
957.27230000000009
 11
1277.4564
 21
926.95579999999995
  0
LINE
  8
_0-0_LAYER001
  6
CONTINUOUS
 62
    2
 10
1265.3190999999999
 20
961.23649999999998
 11
1263.8148000000001
 21
957.27230000000009
  0
LINE
  8
_0-0_LAYER001
  6
CONTINUOUS
 62
    2
 10
1260.1682000000001
 20
955.62830000000008
 11
1273.8087
 21
925.31500000000005
  0
LINE
  8
_0-0_LAYER001
  6
CONTINUOUS
 62
    2
 10
1256.2007000000001
 20
957.13390000000004
 11
1260.1682000000001
 21
955.62830000000008
  0
LINE
  8
_0-1_LAYER003
  6
CONTINUOUS
 62
    2
 10
1213.4965999999999
 20
829.74749999999995
 11
1218.7999
 21
835.05079999999998
  0
LINE
  8
_0-1_LAYER003
  6
CONTINUOUS
 62
    2
 10
1218.7999
 20
835.05079999999998
 11
1216.8588
 21
827.80639999999994
  0
LINE
  8
_0-1_LAYER003
  6
CONTINUOUS
 62
    2
 10
1218.7999
 20
835.05079999999998
 11
1139.9554000000001
 21
698.48820000000001
  0
LINE
  8
_0-1_LAYER003
  6
CONTINUOUS
 62
    2
 10
1139.9554000000001
 20
698.48820000000001
 11
1091.9554000000001
 21
698.48820000000001
  0
LINE
  8
_0-1_LAYER003
  6
CONTINUOUS
 62
    2
 10
1147.2334000000001
 20
942.62249999999995
 11
1149.1745000000001
 21
935.3780999999999
  0
LINE
  8
_0-1_LAYER003
  6
CONTINUOUS
 62
    2
 10
1149.1745000000001
 20
935.3780999999999
 11
1143.8712
 21
940.68139999999994
  0
LINE
  8
_0-1_LAYER003
  6
CONTINUOUS
 62
    2
 10
1149.1745000000001
 20
935.3780999999999
 11
1065.4564
 21
1080.3822
  0
LINE
  8
_0-1_LAYER003
  6
CONTINUOUS
 62
    2
 10
1065.4564
 20
1080.3822
 11
934.95640000000003
 21
1080.3822
  0
LINE
  8
_0-1_LAYER003
  6
CONTINUOUS
 62
    2
 10
1206.4502
 20
1022.8517999999999
 11
1208.3914
 21
1015.6074000000001
  0
LINE
  8
_0-1_LAYER003
  6
CONTINUOUS
 62
    2
 10
1208.3914
 20
1015.6074000000001
 11
1203.0880999999999
 21
1020.9106999999999
  0
LINE
  8
_0-1_LAYER003
  6
CONTINUOUS
 62
    2
 10
1208.3914
 20
1015.6074000000001
 11
1134.8081
 21
1143.0572999999999
  0
LINE
  8
_0-1_LAYER003
  6
CONTINUOUS
 62
    2
 10
1134.8081
 20
1143.0572999999999
 11
1070.3081
 21
1143.0572999999999
  0
LINE
  8
_0-0_LAYER001
  6
CONTINUOUS
 62
    2
 10
1253.4391000000001
 20
909.83429999999998
 11
1255.5365999999999
 21
910.77809999999999
  0
LINE
  8
_0-0_LAYER001
  6
CONTINUOUS
 62
    2
 10
1278.0608
 20
855.11889999999994
 11
1280.1583000000001
 21
856.06269999999995
  0
LINE
  8
_0-0_LAYER001
  6
CONTINUOUS
 62
    2
 10
1206.5981999999999
 20
908.16570000000002
 11
1244.3518999999999
 21
925.15460000000007
  0
LINE
  8
_0-0_LAYER001
  6
CONTINUOUS
 62
    2
 10
1253.4391000000001
 20
909.83429999999998
 11
1246.9965
 21
924.15149999999994
  0
LINE
  8
_0-0_LAYER001
  6
CONTINUOUS
 62
    2
 10
1284.5034000000001
 20
840.80179999999996
 11
1278.0608
 21
855.11889999999994
  0
LINE
  8
_0-0_LAYER001
  6
CONTINUOUS
 62
    2
 10
1245.7466999999999
 20
821.16810000000009
 11
1283.5001999999999
 21
838.15699999999993
  0
LINE
  8
_0-0_LAYER001
  6
CONTINUOUS
 62
    2
 10
1255.5365999999999
 20
910.77809999999999
 11
1249.0939000000001
 21
925.09519999999998
  0
LINE
  8
_0-0_LAYER001
  6
CONTINUOUS
 62
    2
 10
1205.6542999999999
 20
910.26299999999992
 11
1243.4079999999999
 21
927.25189999999998
  0
LINE
  8
_0-0_LAYER001
  6
CONTINUOUS
 62
    2
 10
1286.6010000000001
 20
841.74549999999999
 11
1280.1583000000001
 21
856.06269999999995
  0
LINE
  8
_0-0_LAYER001
  6
CONTINUOUS
 62
    2
 10
1246.6905999999999
 20
819.07069999999999
 11
1284.4441000000002
 21
836.05970000000002
  0
LINE
  8
_0-0_LAYER001
  6
CONTINUOUS
 62
    2
 10
1243.1021000000001
 20
822.17129999999997
 11
1205.5951
 21
905.52119999999991
  0
LINE
  8
_0-0_LAYER001
  6
CONTINUOUS
 62
    2
 10
1203.4979000000001
 20
904.57719999999995
 11
1241.0048999999999
 21
821.22739999999999
  0
ARC
  8
_0-0_LAYER001
  6
CONTINUOUS
 62
    2
 10
1245.1726000000001
 20
923.33069999999998
 40
2.000003
 50
24.227606000000002
 51
114.22759000000003
  0
ARC
  8
_0-0_LAYER001
  6
CONTINUOUS
 62
    2
 10
1282.6794999999997
 20
839.98090000000002
 40
2.000003
 50
294.2276
 51
24.227605999999994
  0
ARC
  8
_0-0_LAYER001
  6
CONTINUOUS
 62
    2
 10
1282.6794999999997
 20
839.98090000000002
 40
4.2999999999999998
 50
294.2276
 51
24.227605999999994
  0
ARC
  8
_0-0_LAYER001
  6
CONTINUOUS
 62
    2
 10
1245.1726000000001
 20
923.33069999999998
 40
4.2999999999999998
 50
24.227606000000002
 51
114.22759000000003
  0
ARC
  8
_0-0_LAYER001
  6
CONTINUOUS
 62
    2
 10
1207.4191000000001
 20
906.34179999999992
 40
2.000003
 50
114.22759000000001
 51
204.2276
  0
ARC
  8
_0-0_LAYER001
  6
CONTINUOUS
 62
    2
 10
1244.9260999999999
 20
822.99199999999996
 40
2.000003
 50
204.22760000000002
 51
294.22760000000005
  0
ARC
  8
_0-0_LAYER001
  6
CONTINUOUS
 62
    2
 10
1244.9260999999999
 20
822.99199999999996
 40
4.2999999999999998
 50
204.22760000000002
 51
294.22760000000005
  0
ARC
  8
_0-0_LAYER001
  6
CONTINUOUS
 62
    2
 10
1207.4191000000001
 20
906.34179999999992
 40
4.2999999999999998
 50
114.22759000000001
 51
204.2276
  0
LINE
  8
_0-0_LAYER001
  6
CONTINUOUS
 62
    1
 10
1240.1841999999999
 20
947.73289999999997
 11
1948.7876999999999
 21
1266.6039000000001
  0
LINE
  8
_0-0_LAYER001
  6
CONTINUOUS
 62
    1
 10
1242.1953000000001
 20
943.15499999999997
 11
1950.8395
 21
1262.0442
  0
LINE
  8
_0-0_LAYER001
  6
CONTINUOUS
 62
    1
 10
1244.2065
 20
938.57709999999997
 11
1952.8914
 21
1257.4846
  0
LINE
  8
_0-0_LAYER001
  6
CONTINUOUS
 62
    1
 10
1246.2175999999999
 20
933.99919999999997
 11
1954.9432000000002
 21
1252.925
  0
LINE
  8
_0-1_LAYER003
  6
CONTINUOUS
 62
    2
 10
1174.4348
 20
907.15210000000002
 11
1179.7381
 21
912.45540000000005
  0
LINE
  8
_0-1_LAYER003
  6
CONTINUOUS
 62
    2
 10
1179.7381
 20
912.45540000000005
 11
1177.7969000000001
 21
905.21100000000001
  0
LINE
  8
_0-1_LAYER003
  6
CONTINUOUS
 62
    2
 10
1179.7381
 20
912.45540000000005
 11
1089.5135
 21
756.18190000000004
  0
LINE
  8
_0-1_LAYER003
  6
CONTINUOUS
 62
    2
 10
1089.5135
 20
756.18190000000004
 11
966.51350000000002
 21
756.18190000000004
  0
LINE
  8
_0-1_LAYER003
  6
CONTINUOUS
 62
    2
 10
1189.8924
 20
621.16370000000006
 11
1168.3520000000001
 21
669.04130000000009
  0
CIRCLE
  8
_0-1_LAYER003
  6
CONTINUOUS
 62
    2
 10
1188.8667
 20
623.44360000000006
 40
1.6999999999999997
  0
LINE
  8
_0-1_LAYER003
  6
CONTINUOUS
 62
    2
 10
1188.8667
 20
623.44360000000006
 11
1243.5959
 21
648.06660000000011
  0
CIRCLE
  8
_0-1_LAYER003
  6
CONTINUOUS
 62
    2
 10
1243.5959
 20
648.06660000000011
 40
1.6999999999999997
  0
LINE
  8
_0-1_LAYER003
  6
CONTINUOUS
 62
    2
 10
1244.6215999999999
 20
645.78670000000011
 11
1223.0813000000001
 21
693.66429999999991
  0
CIRCLE
  8
_0-1_LAYER003
  6
CONTINUOUS
 62
    2
 10
1243.5959
 20
648.06660000000011
 40
1.6999999999999997
  0
LINE
  8
_0-1_LAYER003
  6
CONTINUOUS
 62
    2
 10
1243.5959
 20
648.06660000000011
 11
1267.9777999999999
 21
659.03620000000001
  0
CIRCLE
  8
_0-1_LAYER003
  6
CONTINUOUS
 62
    2
 10
1267.9777999999999
 20
659.03620000000001
 40
1.6999999999999997
  0
LINE
  8
_0-1_LAYER003
  6
CONTINUOUS
 62
    2
 10
1269.0036
 20
656.75630000000001
 11
1247.4631999999999
 21
704.63380000000006
  0
CIRCLE
  8
_0-1_LAYER003
  6
CONTINUOUS
 62
    2
 10
1267.9777999999999
 20
659.03620000000001
 40
1.6999999999999997
  0
LINE
  8
_0-1_LAYER003
  6
CONTINUOUS
 62
    2
 10
1267.9777999999999
 20
659.03620000000001
 11
1281.6791000000001
 21
665.20049999999992
  0
CIRCLE
  8
_0-1_LAYER003
  6
CONTINUOUS
 62
    2
 10
1281.6791000000001
 20
665.20049999999992
 40
1.6999999999999997
  0
LINE
  8
_0-1_LAYER003
  6
CONTINUOUS
 62
    2
 10
1282.7049
 20
662.92059999999992
 11
1261.1645000000001
 21
710.79809999999998
  0
LINE
  8
_0-1_LAYER003
  6
CONTINUOUS
 62
    2
 10
1620.7408
 20
1175.3998999999999
 11
1622.6819999999998
 21
1168.1554000000001
  0
LINE
  8
_0-1_LAYER003
  6
CONTINUOUS
 62
    2
 10
1622.6819999999998
 20
1168.1554000000001
 11
1617.3787000000002
 21
1173.4586999999999
  0
LINE
  8
_0-1_LAYER003
  6
CONTINUOUS
 62
    2
 10
1622.6819999999998
 20
1168.1554000000001
 11
1557.0378000000001
 21
1281.8545999999997
  0
LINE
  8
_0-1_LAYER003
  6
CONTINUOUS
 62
    2
 10
1557.0378000000001
 20
1281.8545999999997
 11
1516.5378000000001
 21
1281.8545999999997
  0
LINE
  8
_0-0_LAYER001
  6
CONTINUOUS
 62
    2
 10
973.40990000000011
 20
1161.866
 11
991.41799999999989
 21
1112.5512000000001
  0
CIRCLE
  8
_0-0_LAYER001
  6
CONTINUOUS
 62
    2
 10
974.26739999999995
 20
1159.5177000000001
 40
1.6999999999999997
  0
LINE
  8
_0-0_LAYER001
  6
CONTINUOUS
 62
    2
 10
974.26739999999995
 20
1159.5177000000001
 11
1195.0101999999999
 21
1240.1256000000001
  0
CIRCLE
  8
_0-0_LAYER001
  6
CONTINUOUS
 62
    2
 10
1195.0101999999999
 20
1240.1256000000001
 40
1.6999999999999997
  0
LINE
  8
_0-0_LAYER001
  6
CONTINUOUS
 62
    2
 10
1194.1525999999999
 20
1242.4739
 11
1212.1608000000001
 21
1193.1591000000001
  0
LINE
  8
_0-0_LAYER001
  6
CONTINUOUS
 62
    2
 10
1180.4321
 20
1280.0472
 11
1198.4403
 21
1230.7322999999999
  0
CIRCLE
  8
_0-0_LAYER001
  6
CONTINUOUS
 62
    2
 10
1181.2897
 20
1277.6987999999999
 40
1.6999999999999997
  0
LINE
  8
_0-0_LAYER001
  6
CONTINUOUS
 62
    2
 10
1181.2897
 20
1277.6987999999999
 11
1402.0324000000001
 21
1358.3067000000001
  0
CIRCLE
  8
_0-0_LAYER001
  6
CONTINUOUS
 62
    2
 10
1402.0324000000001
 20
1358.3067000000001
 40
1.6999999999999997
  0
LINE
  8
_0-0_LAYER001
  6
CONTINUOUS
 62
    2
 10
1401.1749
 20
1360.6550999999999
 11
1419.183
 21
1311.3402000000001
  0
LINE
  8
_0-0_LAYER001
  6
CONTINUOUS
 62
    2
 10
1387.4544000000001
 20
1398.2283000000002
 11
1405.4625000000001
 21
1348.9133999999999
  0
CIRCLE
  8
_0-0_LAYER001
  6
CONTINUOUS
 62
    2
 10
1388.3118999999999
 20
1395.8800000000001
 40
1.6999999999999997
  0
LINE
  8
_0-0_LAYER001
  6
CONTINUOUS
 62
    2
 10
1388.3118999999999
 20
1395.8800000000001
 11
1609.0547000000001
 21
1476.4879000000001
  0
CIRCLE
  8
_0-0_LAYER001
  6
CONTINUOUS
 62
    2
 10
1609.0547000000001
 20
1476.4879000000001
 40
1.6999999999999997
  0
LINE
  8
_0-0_LAYER001
  6
CONTINUOUS
 62
    2
 10
1608.1972000000001
 20
1478.8362000000002
 11
1626.2053000000001
 21
1429.5213000000001
  0
LINE
  8
_0-0_LAYER001
  6
CONTINUOUS
 62
    2
 10
1317.3869
 20
993.44589999999994
 11
1344.7438999999999
 21
1005.7583
  0
LINE
  8
_0-0_LAYER001
  6
CONTINUOUS
 62
    2
 10
1344.7438999999999
 20
1005.7583
 11
1338.5877
 21
1019.4367999999999
  0
LINE
  8
_0-0_LAYER001
  6
CONTINUOUS
 62
    2
 10
1338.5877
 20
1019.4367999999999
 11
1311.2307000000001
 21
1007.1243999999999
  0
LINE
  8
_0-0_LAYER001
  6
CONTINUOUS
 62
    2
 10
1311.2307000000001
 20
1007.1243999999999
 11
1317.3869
 21
993.44589999999994
  0
LINE
  8
_0-0_LAYER001
  6
CONTINUOUS
 62
    2
 10
1338.5877
 20
1019.4367999999999
 11
1317.3869
 21
993.44589999999994
  0
LINE
  8
_0-0_LAYER001
  6
CONTINUOUS
 62
    4
 10
1353.1768999999999
 20
1011.8181999999999
 11
1342.8316
 21
1040.1485
  0
LINE
  8
_0-0_LAYER001
  6
CONTINUOUS
 62
    2
 10
1532.5953
 20
1090.3033
 11
1559.9522999999999
 21
1102.6157000000001
  0
LINE
  8
_0-0_LAYER001
  6
CONTINUOUS
 62
    2
 10
1559.9522999999999
 20
1102.6157000000001
 11
1553.7961
 21
1116.2942
  0
LINE
  8
_0-0_LAYER001
  6
CONTINUOUS
 62
    2
 10
1553.7961
 20
1116.2942
 11
1526.4391000000001
 21
1103.9818
  0
LINE
  8
_0-0_LAYER001
  6
CONTINUOUS
 62
    2
 10
1526.4391000000001
 20
1103.9818
 11
1532.5953
 21
1090.3033
  0
LINE
  8
_0-0_LAYER001
  6
CONTINUOUS
 62
    2
 10
1553.7961
 20
1116.2942
 11
1532.5953
 21
1090.3033
  0
LINE
  8
_0-0_LAYER001
  6
CONTINUOUS
 62
    4
 10
1568.0234
 20
1108.5727999999999
 11
1557.6781000000001
 21
1136.903
  0
LINE
  8
_0-0_LAYER001
  6
CONTINUOUS
 62
    2
 10
1747.8036000000002
 20
1187.1606999999999
 11
1775.1606000000002
 21
1199.4730999999999
  0
LINE
  8
_0-0_LAYER001
  6
CONTINUOUS
 62
    2
 10
1775.1606000000002
 20
1199.4730999999999
 11
1769.0043999999998
 21
1213.1515999999999
  0
LINE
  8
_0-0_LAYER001
  6
CONTINUOUS
 62
    2
 10
1769.0043999999998
 20
1213.1515999999999
 11
1741.6473999999998
 21
1200.8391999999999
  0
LINE
  8
_0-0_LAYER001
  6
CONTINUOUS
 62
    2
 10
1741.6473999999998
 20
1200.8391999999999
 11
1747.8036000000002
 21
1187.1606999999999
  0
LINE
  8
_0-0_LAYER001
  6
CONTINUOUS
 62
    2
 10
1769.0043999999998
 20
1213.1515999999999
 11
1747.8036000000002
 21
1187.1606999999999
  0
LINE
  8
_0-0_LAYER001
  6
CONTINUOUS
 62
    4
 10
1782.8699999999999
 20
1205.3272999999999
 11
1772.5246999999999
 21
1233.6576
  0
LINE
  8
_0-0_LAYER001
  6
CONTINUOUS
 62
    4
 10
1782.8699999999999
 20
1205.3272999999999
 11
1774.7174
 21
1202.3695
  0
LINE
  8
_0-0_LAYER001
  6
CONTINUOUS
 62
    4
 10
1770.4611
 20
1214.1013
 11
1774.7174
 21
1202.3695
  0
LINE
  8
_0-0_LAYER001
  6
CONTINUOUS
 62
    4
 10
1568.0234
 20
1108.5727999999999
 11
1559.5180999999998
 21
1105.4870000000001
  0
LINE
  8
_0-0_LAYER001
  6
CONTINUOUS
 62
    4
 10
1555.2618000000002
 20
1117.2188000000001
 11
1559.5180999999998
 21
1105.4870000000001
  0
LINE
  8
_0-0_LAYER001
  6
CONTINUOUS
 62
    4
 10
1925.3400000000001
 20
1326.7147
 11
1928.9308999999998
 21
1328.0174
  0
LINE
  8
_0-0_LAYER001
  6
CONTINUOUS
 62
    4
 10
1908.0201000000002
 20
1374.4538
 11
1909.7818000000002
 21
1375.0929999999998
  0
LINE
  8
_0-0_LAYER001
  6
CONTINUOUS
 62
    4
 10
1099.6886999999999
 20
933.12799999999993
 11
1340.0626
 21
1020.3362999999999
  0
LINE
  8
_0-0_LAYER001
  6
CONTINUOUS
 62
    4
 10
1353.1768999999999
 20
1011.8181999999999
 11
1344.3189000000002
 21
1008.6044999999999
  0
LINE
  8
_0-0_LAYER001
  6
CONTINUOUS
 62
    4
 10
1340.0626
 20
1020.3362999999999
 11
1344.3189000000002
 21
1008.6044999999999
  0
ARC
  8
_0-0_LAYER001
  6
CONTINUOUS
 62
    4
 10
1499.1685000000002
 20
1123.4199000000001
 40
10.4
 50
109.94091000000002
 51
199.94091
  0
ARC
  8
_0-0_LAYER001
  6
CONTINUOUS
 62
    4
 10
1714.0149999999999
 20
1220.1744000000001
 40
10.4
 50
109.94091000000002
 51
199.94091
  0
ARC
  8
_0-0_LAYER001
  6
CONTINUOUS
 62
    4
 10
1928.8616000000002
 20
1316.9290000000001
 40
10.4
 50
109.94091000000002
 51
199.94091
  0
ARC
  8
_0-0_LAYER001
  6
CONTINUOUS
 62
    4
 10
1284.3218999999999
 20
1026.6652999999999
 40
10.4
 50
109.94091000000002
 51
199.94091
  0
ARC
  8
_0-0_LAYER001
  6
CONTINUOUS
 62
    4
 10
1033.5911000000001
 20
1097.4317000000001
 40
108.38132
 50
268.69240000000002
 51
288.42793999999998
  0
LINE
  8
_0-0_LAYER001
  6
CONTINUOUS
 62
    4
 10
1086.5743
 20
908.64910000000009
 11
1092.0682999999999
 21
886.1099999999999
  0
ARC
  8
_0-0_LAYER001
  6
CONTINUOUS
 62
    4
 10
1106.7826
 20
913.57500000000005
 40
20.800000000000001
 50
109.94091000000002
 51
193.69899000000001
  0
LINE
  8
_0-0_LAYER001
  6
CONTINUOUS
 62
    4
 10
1260.7725
 20
1061.0811000000001
 11
1277.0282999999999
 21
1016.2748999999999
  0
ARC
  8
_0-0_LAYER001
  6
CONTINUOUS
 62
    4
 10
1280.3253999999997
 20
1068.1749
 40
20.800000000000001
 50
109.94091000000002
 51
199.94091
  0
LINE
  8
_0-0_LAYER001
  6
CONTINUOUS
 62
    4
 10
1772.5246999999999
 20
1233.6576
 11
1942.2640000000001
 21
1295.2394999999999
  0
LINE
  8
_0-0_LAYER001
  6
CONTINUOUS
 62
    4
 10
1067.9191000000001
 20
994.42219999999998
 11
1259.6120000000001
 21
1063.9689000000001
  0
LINE
  8
_0-0_LAYER001
  6
CONTINUOUS
 62
    4
 10
1273.2316000000001
 20
1087.7279000000001
 11
1474.4553000000001
 21
1160.7324000000001
  0
ARC
  8
_0-0_LAYER001
  6
CONTINUOUS
 62
    4
 10
1481.8485999999998
 20
1171.1590000000001
 40
10.4
 50
109.94091000000002
 51
199.94091
  0
LINE
  8
_0-0_LAYER001
  6
CONTINUOUS
 62
    4
 10
1472.0720999999999
 20
1167.6121000000001
 11
1491.8748999999998
 21
1113.0293999999999
  0
LINE
  8
_0-0_LAYER001
  6
CONTINUOUS
 62
    4
 10
1481.6487999999999
 20
1141.2156
 11
1491.8748999999998
 21
1113.0293999999999
  0
LINE
  8
_0-0_LAYER001
  6
CONTINUOUS
 62
    4
 10
1280.7750000000001
 20
1036.4418000000001
 11
1770.4611
 21
1214.1013
  0
LINE
  8
_0-0_LAYER001
  6
CONTINUOUS
 62
    4
 10
1478.3015999999998
 20
1180.9355
 11
1689.3018999999999
 21
1257.4870000000001
  0
ARC
  8
_0-0_LAYER001
  6
CONTINUOUS
 62
    4
 10
1696.6950999999999
 20
1267.9136000000001
 40
10.4
 50
109.94091000000002
 51
199.94091
  0
LINE
  8
_0-0_LAYER001
  6
CONTINUOUS
 62
    4
 10
1686.9187000000002
 20
1264.3666000000001
 11
1706.7213999999999
 21
1209.7840000000001
  0
LINE
  8
_0-0_LAYER001
  6
CONTINUOUS
 62
    4
 10
1686.9187000000002
 20
1264.3666000000001
 11
1706.7213999999999
 21
1209.7840000000001
  0
LINE
  8
_0-0_LAYER001
  6
CONTINUOUS
 62
    4
 10
1495.6215000000002
 20
1133.1964
 11
1772.5246999999999
 21
1233.6576
  0
LINE
  8
_0-0_LAYER001
  6
CONTINUOUS
 62
    4
 10
1694.0794000000001
 20
1278.0279
 11
1904.1484
 21
1354.2415000000001
  0
LINE
  8
_0-0_LAYER001
  6
CONTINUOUS
 62
    4
 10
1907.7950000000001
 20
1344.5011999999999
 11
1921.5679
 21
1306.5385000000001
  0
LINE
  8
_0-0_LAYER001
  6
CONTINUOUS
 62
    4
 10
1710.4681
 20
1229.9509
 11
1935.5974000000001
 21
1311.6284999999998
  0
LINE
  8
_0-0_LAYER001
  6
CONTINUOUS
 62
    4
 10
1901.7651999999998
 20
1361.1212
 11
1921.5679
 21
1306.5385000000001
  0
ARC
  8
_0-0_LAYER001
  6
CONTINUOUS
 62
    4
 10
1911.5417000000002
 20
1364.6681000000001
 40
10.4
 50
109.94091000000002
 51
199.94091
  0
LINE
  8
_0-0_LAYER001
  6
CONTINUOUS
 62
    4
 10
1031.3032000000001
 20
988.90000000000009
 11
1061.3738000000001
 21
892.48790000000008
  0
ARC
  8
_0-0_LAYER001
  6
CONTINUOUS
 62
    4
 10
1218.9835
 20
995.31880000000001
 40
188.27051
 50
181.81043
 51
212.85045999999997
  0
LINE
  8
_0-0_LAYER001
  6
CONTINUOUS
 62
    4
 10
1059.9489000000001
 20
937.58290000000011
 11
1059.8706
 21
936.90910000000008
  0
LINE
  8
_0-0_LAYER001
  6
CONTINUOUS
 62
    4
 10
1555.2618000000002
 20
1117.2188000000001
 11
1059.7347
 21
937.44010000000003
  0
LINE
  8
_0-0_LAYER001
  6
CONTINUOUS
 62
    4
 10
1061.3738000000001
 20
892.48790000000008
 11
1071.8085000000001
 21
896.27359999999999
  0
LINE
  8
_0-0_LAYER001
  6
CONTINUOUS
 62
    4
 10
1059.7347
 20
937.44010000000003
 11
1076.4511
 21
880.44409999999993
  0
LINE
  8
_0-0_LAYER001
  6
CONTINUOUS
 62
    4
 10
1092.0682999999999
 20
886.1099999999999
 11
1076.4511
 21
880.44409999999993
  0
LINE
  8
_0-0_LAYER001
  6
CONTINUOUS
 62
    2
 10
1221.2085999999999
 20
700.28899999999999
 11
1199.6683
 21
748.16660000000002
  0
CIRCLE
  8
_0-0_LAYER001
  6
CONTINUOUS
 62
    2
 10
1220.1829
 20
702.56889999999999
 40
1.6999999999999997
  0
LINE
  8
_0-0_LAYER001
  6
CONTINUOUS
 62
    2
 10
1220.1829
 20
702.56889999999999
 11
1437.2190999999998
 21
800.21469999999999
  0
CIRCLE
  8
_0-0_LAYER001
  6
CONTINUOUS
 62
    2
 10
1437.2190999999998
 20
800.21469999999999
 40
1.6999999999999997
  0
LINE
  8
_0-0_LAYER001
  6
CONTINUOUS
 62
    2
 10
1438.2447999999999
 20
797.9348
 11
1416.7044000000001
 21
845.81240000000003
  0
CIRCLE
  8
_0-0_LAYER001
  6
CONTINUOUS
 62
    2
 10
1437.2190999999998
 20
800.21469999999999
 40
1.6999999999999997
  0
LINE
  8
_0-0_LAYER001
  6
CONTINUOUS
 62
    2
 10
1437.2190999999998
 20
800.21469999999999
 11
1652.4402
 21
897.04389999999989
  0
CIRCLE
  8
_0-0_LAYER001
  6
CONTINUOUS
 62
    2
 10
1652.4402
 20
897.04389999999989
 40
1.6999999999999997
  0
LINE
  8
_0-0_LAYER001
  6
CONTINUOUS
 62
    2
 10
1653.4659000000001
 20
894.7639999999999
 11
1631.9254999999998
 21
942.64159999999993
  0
CIRCLE
  8
_0-0_LAYER001
  6
CONTINUOUS
 62
    2
 10
1652.4402
 20
897.04389999999989
 40
1.6999999999999997
  0
LINE
  8
_0-0_LAYER001
  6
CONTINUOUS
 62
    2
 10
1652.4402
 20
897.04389999999989
 11
1867.6612
 21
993.87310000000002
  0
CIRCLE
  8
_0-0_LAYER001
  6
CONTINUOUS
 62
    2
 10
1867.6612
 20
993.87310000000002
 40
1.6999999999999997
  0
LINE
  8
_0-0_LAYER001
  6
CONTINUOUS
 62
    2
 10
1868.6869999999999
 20
991.59320000000002
 11
1847.1466
 21
1039.4708000000001
  0
LINE
  8
_0-0_LAYER001
  6
CONTINUOUS
 62
    2
 10
1969.4414000000002
 20
1141.0186000000001
 11
1907.4299999999998
 21
1113.1138000000001
  0
LINE
  8
_0-0_LAYER001
  6
CONTINUOUS
 62
    2
 10
1976.0522999999998
 20
1138.5106000000001
 11
1976.8728999999998
 21
1136.6866
  0
LINE
  8
_0-0_LAYER001
  6
CONTINUOUS
 62
    2
 10
1976.8728999999998
 20
1136.6866
 11
1894.8000999999999
 21
1099.7534000000001
  0
ARC
  8
_0-0_LAYER001
  6
CONTINUOUS
 62
    2
 10
1903.3269
 20
1122.2352000000001
 40
10.001999
 50
204.2319
 51
294.21913000000001
  0
ARC
  8
_0-0_LAYER001
  6
CONTINUOUS
 62
    2
 10
1971.4937
 20
1136.4598000000001
 40
4.9989999999999997
 50
24.224954
 51
114.23559000000002
  0
LINE
  8
_0-0_LAYER001
  6
CONTINUOUS
 62
    2
 10
1860.3542000000002
 20
1136.8914
 11
1862.0940000000001
 21
1135.6382000000001
  0
LINE
  8
_0-0_LAYER001
  6
CONTINUOUS
 62
    2
 10
1843.4857999999999
 20
1151.2302
 11
1852.6248000000001
 21
1137.7981
  0
LINE
  8
_0-0_LAYER001
  6
CONTINUOUS
 62
    2
 10
1849.0423000000001
 20
1153.7303999999999
 11
1858.1803
 21
1140.2973999999999
  0
LINE
  8
_0-0_LAYER001
  6
CONTINUOUS
 62
    2
 10
1843.4857999999999
 20
1151.2302
 11
1842.4825999999998
 21
1148.5856000000001
  0
LINE
  8
_0-0_LAYER001
  6
CONTINUOUS
 62
    2
 10
1858.7134000000001
 20
1140.5381
 11
1850.0515
 21
1136.6400000000001
  0
LINE
  8
_0-0_LAYER001
  6
CONTINUOUS
 62
    2
 10
1843.4857999999999
 20
1151.2302
 11
1850.0515
 21
1136.6400000000001
  0
LINE
  8
_0-0_LAYER001
  6
CONTINUOUS
 62
    2
 10
1847.4061000000002
 20
1137.6428000000001
 11
1850.0515
 21
1136.6400000000001
  0
LINE
  8
_0-0_LAYER001
  6
CONTINUOUS
 62
    2
 10
1842.4825999999998
 20
1148.5856000000001
 11
1847.4061000000002
 21
1137.6428000000001
  0
ARC
  8
_0-0_LAYER001
  6
CONTINUOUS
 62
    2
 10
1865.3146000000002
 20
1140.8765000000001
 40
6.1580000000000004
 50
169.90002999999999
 51
203.85469000000001
  0
LINE
  8
_0-0_LAYER001
  6
CONTINUOUS
 62
    2
 10
1859.6909999999998
 20
1182.6487
 11
1857.8678
 21
1181.8275000000001
  0
LINE
  8
_0-0_LAYER001
  6
CONTINUOUS
 62
    2
 10
1894.7999
 20
1099.7538
 11
1857.8678
 21
1181.8275000000001
  0
LINE
  8
_0-0_LAYER001
  6
CONTINUOUS
 62
    2
 10
1866.3027999999999
 20
1180.1402
 11
1894.2069000000001
 21
1118.1294
  0
LINE
  8
_0-0_LAYER001
  6
CONTINUOUS
 62
    2
 10
1867.2863000000002
 20
1153.1679999999999
 11
1864.5502999999999
 21
1151.9364
  0
LINE
  8
_0-0_LAYER001
  6
CONTINUOUS
 62
    2
 10
1860.7206999999999
 20
1167.7583
 11
1857.9848999999999
 21
1166.5268000000001
  0
LINE
  8
_0-0_LAYER001
  6
CONTINUOUS
 62
    2
 10
1871.1149999999998
 20
1137.3471
 11
1857.9848999999999
 21
1166.5268000000001
  0
LINE
  8
_0-0_LAYER001
  6
CONTINUOUS
 62
    2
 10
1873.8517999999999
 20
1138.578
 11
1871.1149999999998
 21
1137.3471
  0
LINE
  8
_0-0_LAYER001
  6
CONTINUOUS
 62
    2
 10
1859.2505000000001
 20
1141.9565
 11
1867.3914
 21
1145.6205
  0
LINE
  8
_0-0_LAYER001
  6
CONTINUOUS
 62
    2
 10
1853.5653000000002
 20
1154.5914
 11
1861.7060999999999
 21
1158.2539999999999
  0
LINE
  8
_0-0_LAYER001
  6
CONTINUOUS
 62
    2
 10
1850.7212
 20
1160.9088999999999
 11
1858.8636000000001
 21
1164.5727999999999
  0
LINE
  8
_0-0_LAYER001
  6
CONTINUOUS
 62
    2
 10
1850.5057999999999
 20
1158.7783999999999
 11
1850.7212
 21
1160.9088999999999
  0
LINE
  8
_0-0_LAYER001
  6
CONTINUOUS
 62
    2
 10
1860.3542000000002
 20
1136.8914
 11
1850.5057999999999
 21
1158.7783999999999
  0
LINE
  8
_0-0_LAYER001
  6
CONTINUOUS
 62
    2
 10
1862.0940000000001
 20
1135.6382000000001
 11
1870.2354
 21
1139.3016
  0
LINE
  8
_0-0_LAYER001
  6
CONTINUOUS
 62
    2
 10
1881.8611999999998
 20
1167.3233
 11
1873.7203
 21
1163.6595
  0
LINE
  8
_0-0_LAYER001
  6
CONTINUOUS
 62
    2
 10
1887.5466999999999
 20
1154.6885
 11
1879.4050000000002
 21
1151.0251000000001
  0
LINE
  8
_0-0_LAYER001
  6
CONTINUOUS
 62
    2
 10
1890.3905
 20
1148.3710000000001
 11
1882.2485000000001
 21
1144.7070000000001
  0
LINE
  8
_0-0_LAYER001
  6
CONTINUOUS
 62
    2
 10
1890.6061
 20
1150.5014000000001
 11
1890.3905
 21
1148.3710000000001
  0
LINE
  8
_0-0_LAYER001
  6
CONTINUOUS
 62
    2
 10
1880.7575000000002
 20
1172.3884
 11
1890.6061
 21
1150.5014000000001
  0
LINE
  8
_0-0_LAYER001
  6
CONTINUOUS
 62
    2
 10
1879.0180999999998
 20
1173.6415999999999
 11
1870.8764999999999
 21
1169.9783
  0
LINE
  8
_0-0_LAYER001
  6
CONTINUOUS
 62
    2
 10
1880.7575000000002
 20
1172.3884
 11
1879.0180999999998
 21
1173.6415999999999
  0
LINE
  8
_0-0_LAYER001
  6
CONTINUOUS
 62
    2
 10
1852.1484
 20
1155.1278
 11
1843.4857999999999
 21
1151.2302
  0
ARC
  8
_0-0_LAYER001
  6
CONTINUOUS
 62
    2
 10
1861.7440000000001
 20
1178.0895
 40
4.9989999999999997
 50
24.224954
 51
114.23559000000002
  0
ARC
  8
_0-0_LAYER001
  6
CONTINUOUS
 62
    2
 10
1856.7689999999998
 20
1159.8405
 40
6.1470010000000013
 50
204.58611000000002
 51
238.59338000000002
  0
ARC
  8
_0-0_LAYER001
  6
CONTINUOUS
 62
    2
 10
1876.3116
 20
1157.2318
 40
22.898997999999999
 50
186.62354999999999
 51
221.83906999999999
  0
ARC
  8
_0-0_LAYER001
  6
CONTINUOUS
 62
    2
 10
1884.3400999999999
 20
1149.4404999999999
 40
6.1479999999999997
 50
24.562933999999998
 51
58.577674000000009
  0
ARC
  8
_0-0_LAYER001
  6
CONTINUOUS
 62
    2
 10
1875.8078999999998
 20
1168.4028000000001
 40
6.1479999999999997
 50
349.89965999999998
 51
23.901924000000019
  0
ARC
  8
_0-0_LAYER001
  6
CONTINUOUS
 62
    2
 10
1864.7636000000002
 20
1152.0329999999999
 40
22.936000999999997
 50
6.651644000000001
 51
41.808413999999999
  0
LINE
  8
_0-0_LAYER001
  6
CONTINUOUS
 62
    2
 10
1811.9834999999998
 20
1210.5254
 11
1821.1037999999999
 21
1214.6296
  0
LINE
  8
_0-0_LAYER001
  6
CONTINUOUS
 62
    2
 10
1813.2159000000001
 20
1207.79
 11
1822.3339000000001
 21
1211.8936000000001
  0
LINE
  8
_0-0_LAYER001
  6
CONTINUOUS
 62
    2
 10
1821.1037999999999
 20
1214.6296
 11
1822.3339000000001
 21
1211.8936000000001
  0
LINE
  8
_0-0_LAYER001
  6
CONTINUOUS
 62
    2
 10
1811.9834999999998
 20
1210.5254
 11
1813.2159000000001
 21
1207.79
  0
LINE
  8
_0-0_LAYER001
  6
CONTINUOUS
 62
    2
 10
1816.5436
 20
1212.5773999999999
 11
1817.7754
 21
1209.8414
  0
LINE
  8
_0-0_LAYER001
  6
CONTINUOUS
 62
    2
 10
1834.9447
 20
1171.6849
 11
1834.4706999999999
 21
1177.6126999999999
  0
LINE
  8
_0-0_LAYER001
  6
CONTINUOUS
 62
    2
 10
1834.9447
 20
1171.6849
 11
1830.8234000000002
 21
1175.9708000000001
  0
LINE
  8
_0-0_LAYER001
  6
CONTINUOUS
 62
    2
 10
1827.2689999999998
 20
1196.6306
 11
1820.7739000000001
 21
1194.8669
  0
LINE
  8
_0-0_LAYER001
  6
CONTINUOUS
 62
    2
 10
1829.3213000000001
 20
1192.0706
 11
1822.8252000000002
 21
1190.3061
  0
LINE
  8
_0-0_LAYER001
  6
CONTINUOUS
 62
    2
 10
1831.3721
 20
1187.5105000000001
 11
1824.8782000000001
 21
1185.7466999999999
  0
LINE
  8
_0-0_LAYER001
  6
CONTINUOUS
 62
    2
 10
1833.4250000000002
 20
1182.9511
 11
1826.9295999999999
 21
1181.1874
  0
LINE
  8
_0-0_LAYER001
  6
CONTINUOUS
 62
    2
 10
1834.96
 20
1179.5386000000001
 11
1828.4648999999999
 21
1177.7752
  0
LINE
  8
_0-0_LAYER001
  6
CONTINUOUS
 62
    2
 10
1817.1806000000001
 20
1206.2867000000001
 11
1830.8234000000002
 21
1175.9708000000001
  0
LINE
  8
_0-0_LAYER001
  6
CONTINUOUS
 62
    2
 10
1813.2159000000001
 20
1207.79
 11
1817.1806000000001
 21
1206.2867000000001
  0
LINE
  8
_0-0_LAYER001
  6
CONTINUOUS
 62
    2
 10
1820.8294000000001
 20
1207.9257
 11
1834.4706999999999
 21
1177.6126999999999
  0
LINE
  8
_0-0_LAYER001
  6
CONTINUOUS
 62
    2
 10
1822.3339000000001
 20
1211.8936000000001
 11
1820.8294000000001
 21
1207.9257
  0
LINE
  8
_0-0_LAYER001
  6
CONTINUOUS
 62
    2
 10
1813.9636999999998
 20
1162.0702000000001
 11
1811.8663000000001
 21
1161.1261999999999
  0
LINE
  8
_0-0_LAYER001
  6
CONTINUOUS
 62
    2
 10
1838.5857000000001
 20
1107.3549
 11
1836.4883
 21
1106.4109000000001
  0
LINE
  8
_0-0_LAYER001
  6
CONTINUOUS
 62
    2
 10
1846.2775999999999
 20
1196.0210999999999
 11
1808.5241000000001
 21
1179.0318
  0
LINE
  8
_0-0_LAYER001
  6
CONTINUOUS
 62
    2
 10
1813.9636999999998
 20
1162.0702000000001
 11
1807.5209
 21
1176.3871999999999
  0
LINE
  8
_0-0_LAYER001
  6
CONTINUOUS
 62
    2
 10
1845.0284000000001
 20
1093.0378000000001
 11
1838.5857000000001
 21
1107.3549
  0
LINE
  8
_0-0_LAYER001
  6
CONTINUOUS
 62
    2
 10
1885.4265999999998
 20
1109.0237
 11
1847.6732000000002
 21
1092.0346
  0
LINE
  8
_0-0_LAYER001
  6
CONTINUOUS
 62
    2
 10
1811.8663000000001
 20
1161.1261999999999
 11
1805.4236000000001
 21
1175.4434000000001
  0
LINE
  8
_0-0_LAYER001
  6
CONTINUOUS
 62
    2
 10
1845.3339000000001
 20
1198.1184000000001
 11
1807.5803000000001
 21
1181.1292000000001
  0
LINE
  8
_0-0_LAYER001
  6
CONTINUOUS
 62
    2
 10
1842.9308999999998
 20
1092.0938000000001
 11
1836.4883
 21
1106.4109000000001
  0
LINE
  8
_0-0_LAYER001
  6
CONTINUOUS
 62
    2
 10
1886.3703999999998
 20
1106.9262000000001
 11
1848.6169
 21
1089.9372000000001
  0
LINE
  8
_0-0_LAYER001
  6
CONTINUOUS
 62
    2
 10
1886.4295999999999
 20
1111.6684
 11
1848.9220999999998
 21
1195.018
  0
LINE
  8
_0-0_LAYER001
  6
CONTINUOUS
 62
    2
 10
1851.0196000000001
 20
1195.9616000000001
 11
1888.527
 21
1112.6120000000001
  0
ARC
  8
_0-0_LAYER001
  6
CONTINUOUS
 62
    2
 10
1809.3449000000001
 20
1177.2080000000001
 40
2.000003
 50
114.22777000000002
 51
204.22776000000002
  0
ARC
  8
_0-0_LAYER001
  6
CONTINUOUS
 62
    2
 10
1846.8524000000002
 20
1093.8585
 40
2.000003
 50
204.22776000000002
 51
294.22775999999999
  0
ARC
  8
_0-0_LAYER001
  6
CONTINUOUS
 62
    2
 10
1846.8524000000002
 20
1093.8585
 40
4.2999999999999998
 50
204.22776000000002
 51
294.22775999999999
  0
ARC
  8
_0-0_LAYER001
  6
CONTINUOUS
 62
    2
 10
1809.3449000000001
 20
1177.2080000000001
 40
4.2999999999999998
 50
114.22777000000002
 51
204.22776000000002
  0
ARC
  8
_0-0_LAYER001
  6
CONTINUOUS
 62
    2
 10
1847.0981999999999
 20
1194.1969999999999
 40
2.000003
 50
24.227764000000004
 51
114.22777000000002
  0
ARC
  8
_0-0_LAYER001
  6
CONTINUOUS
 62
    2
 10
1884.6057999999998
 20
1110.8475000000001
 40
2.000003
 50
294.22775999999999
 51
24.227764000000008
  0
ARC
  8
_0-0_LAYER001
  6
CONTINUOUS
 62
    2
 10
1884.6057999999998
 20
1110.8475000000001
 40
4.2999999999999998
 50
294.22775999999999
 51
24.227764000000008
  0
ARC
  8
_0-0_LAYER001
  6
CONTINUOUS
 62
    2
 10
1847.0981999999999
 20
1194.1969999999999
 40
4.2999999999999998
 50
24.227764000000004
 51
114.22777000000002
  0
LINE
  8
_0-0_LAYER001
  6
DASHED3
 62
    2
 10
1158.7819999999999
 20
923.16759999999999
 11
1236.6749
 21
958.21149999999989
  0
LINE
  8
_0-0_LAYER001
  6
DASHED3
 62
    2
 10
1238.7166999999999
 20
955.60930000000008
 11
1945.9688999999998
 21
1273.8723
  0
LINE
  8
_0-0_LAYER001
  6
CONTINUOUS
 62
    2
 10
1299.0417
 20
930.35539999999992
 11
1301.1392000000001
 21
931.29909999999995
  0
LINE
  8
_0-0_LAYER001
  6
CONTINUOUS
 62
    2
 10
1323.6633000000002
 20
875.6400000000001
 11
1325.7609
 21
876.58369999999991
  0
LINE
  8
_0-0_LAYER001
  6
CONTINUOUS
 62
    2
 10
1252.2008000000001
 20
928.68669999999997
 11
1289.9545000000001
 21
945.67560000000003
  0
LINE
  8
_0-0_LAYER001
  6
CONTINUOUS
 62
    2
 10
1299.0417
 20
930.35539999999992
 11
1292.5990999999999
 21
944.6724999999999
  0
LINE
  8
_0-0_LAYER001
  6
CONTINUOUS
 62
    2
 10
1330.1060000000002
 20
861.32279999999992
 11
1323.6633000000002
 21
875.6400000000001
  0
LINE
  8
_0-0_LAYER001
  6
CONTINUOUS
 62
    2
 10
1291.3492999999999
 20
841.68910000000005
 11
1329.1028000000001
 21
858.67800000000011
  0
LINE
  8
_0-0_LAYER001
  6
CONTINUOUS
 62
    2
 10
1301.1392000000001
 20
931.29909999999995
 11
1294.6964
 21
945.61629999999991
  0
LINE
  8
_0-0_LAYER001
  6
CONTINUOUS
 62
    2
 10
1251.2569000000001
 20
930.78400000000011
 11
1289.0106000000001
 21
947.77289999999994
  0
LINE
  8
_0-0_LAYER001
  6
CONTINUOUS
 62
    2
 10
1332.2036000000001
 20
862.26659999999993
 11
1325.7609
 21
876.58369999999991
  0
LINE
  8
_0-0_LAYER001
  6
CONTINUOUS
 62
    2
 10
1292.2932000000001
 20
839.59169999999995
 11
1330.0466000000001
 21
856.58069999999998
  0
LINE
  8
_0-0_LAYER001
  6
CONTINUOUS
 62
    2
 10
1288.7047000000002
 20
842.69239999999991
 11
1251.1976999999999
 21
926.04220000000009
  0
LINE
  8
_0-0_LAYER001
  6
CONTINUOUS
 62
    2
 10
1249.1004
 20
925.09819999999991
 11
1286.6075000000001
 21
841.74839999999995
  0
LINE
  8
_0-0_LAYER001
  6
CONTINUOUS
 62
    2
 10
1294.6964
 20
945.61629999999991
 11
1332.2037
 21
862.26659999999993
  0
LINE
  8
_0-0_LAYER001
  6
CONTINUOUS
 62
    2
 10
1298.8
 20
947.46289999999999
 11
1336.3072999999999
 21
864.11329999999998
  0
LINE
  8
_0-0_LAYER001
  6
CONTINUOUS
 62
    2
 10
1294.6964
 20
945.61629999999991
 11
1298.8
 21
947.46289999999999
  0
LINE
  8
_0-0_LAYER001
  6
CONTINUOUS
 62
    2
 10
1336.3072999999999
 20
864.11329999999998
 11
1332.2034000000003
 21
862.26649999999995
  0
LINE
  8
_0-0_LAYER001
  6
CONTINUOUS
 62
    2
 10
1342.1755000000003
 20
851.07289999999989
 11
1305.2437
 21
933.14670000000001
  0
LINE
  8
_0-0_LAYER001
  6
CONTINUOUS
 62
    2
 10
1313.6786999999999
 20
931.45929999999998
 11
1341.5825
 21
869.44839999999999
  0
LINE
  8
_0-0_LAYER001
  6
CONTINUOUS
 62
    2
 10
1307.067
 20
933.9679000000001
 11
1305.2437
 21
933.14670000000001
  0
LINE
  8
_0-0_LAYER001
  6
CONTINUOUS
 62
    2
 10
1416.8171000000002
 20
892.33719999999994
 11
1354.8055999999999
 21
864.43270000000007
  0
LINE
  8
_0-0_LAYER001
  6
CONTINUOUS
 62
    2
 10
1313.4496999999999
 20
903.94200000000001
 11
1310.7137
 21
902.71029999999996
  0
LINE
  8
_0-0_LAYER001
  6
CONTINUOUS
 62
    2
 10
1306.8842
 20
918.53230000000008
 11
1304.1482999999998
 21
917.30079999999998
  0
LINE
  8
_0-0_LAYER001
  6
CONTINUOUS
 62
    2
 10
1317.2782999999999
 20
888.12100000000009
 11
1304.1482999999998
 21
917.30079999999998
  0
LINE
  8
_0-0_LAYER001
  6
CONTINUOUS
 62
    2
 10
1320.0152
 20
889.35179999999991
 11
1317.2782999999999
 21
888.12100000000009
  0
LINE
  8
_0-0_LAYER001
  6
CONTINUOUS
 62
    2
 10
1305.4139
 20
892.73049999999989
 11
1313.5547999999999
 21
896.39439999999991
  0
LINE
  8
_0-0_LAYER001
  6
CONTINUOUS
 62
    2
 10
1299.7287000000001
 20
905.36539999999991
 11
1307.8694999999998
 21
909.02800000000002
  0
LINE
  8
_0-0_LAYER001
  6
CONTINUOUS
 62
    2
 10
1296.8846000000003
 20
911.68280000000004
 11
1305.027
 21
915.34680000000003
  0
LINE
  8
_0-0_LAYER001
  6
CONTINUOUS
 62
    2
 10
1296.6692
 20
909.55240000000003
 11
1296.8846000000003
 21
911.68280000000004
  0
LINE
  8
_0-0_LAYER001
  6
CONTINUOUS
 62
    2
 10
1306.5174999999999
 20
887.66540000000009
 11
1296.6692
 21
909.55240000000003
  0
LINE
  8
_0-0_LAYER001
  6
CONTINUOUS
 62
    2
 10
1308.2574
 20
886.41210000000001
 11
1316.3987999999999
 21
890.07549999999992
  0
LINE
  8
_0-0_LAYER001
  6
CONTINUOUS
 62
    2
 10
1306.5174999999999
 20
887.66540000000009
 11
1308.2574
 21
886.41210000000001
  0
LINE
  8
_0-0_LAYER001
  6
CONTINUOUS
 62
    2
 10
1289.6492000000001
 20
902.00430000000006
 11
1298.7880999999998
 21
888.57210000000009
  0
LINE
  8
_0-0_LAYER001
  6
CONTINUOUS
 62
    2
 10
1295.2057
 20
904.50440000000003
 11
1304.3436999999999
 21
891.07130000000006
  0
LINE
  8
_0-0_LAYER001
  6
CONTINUOUS
 62
    2
 10
1329.2370000000001
 20
918.64239999999995
 11
1321.0962
 21
914.97859999999991
  0
LINE
  8
_0-0_LAYER001
  6
CONTINUOUS
 62
    2
 10
1334.9224999999999
 20
906.00749999999994
 11
1326.7808
 21
902.3442
  0
LINE
  8
_0-0_LAYER001
  6
CONTINUOUS
 62
    2
 10
1337.7663000000002
 20
899.69000000000005
 11
1329.6242000000002
 21
896.02610000000004
  0
LINE
  8
_0-0_LAYER001
  6
CONTINUOUS
 62
    2
 10
1337.9819
 20
901.82050000000004
 11
1337.7663000000002
 21
899.69000000000005
  0
LINE
  8
_0-0_LAYER001
  6
CONTINUOUS
 62
    2
 10
1328.1333999999997
 20
923.70749999999998
 11
1337.9819
 21
901.82050000000004
  0
LINE
  8
_0-0_LAYER001
  6
CONTINUOUS
 62
    2
 10
1326.394
 20
924.96070000000009
 11
1318.2524000000001
 21
921.2974999999999
  0
LINE
  8
_0-0_LAYER001
  6
CONTINUOUS
 62
    2
 10
1328.1333999999997
 20
923.70749999999998
 11
1326.394
 21
924.96070000000009
  0
LINE
  8
_0-0_LAYER001
  6
CONTINUOUS
 62
    2
 10
1423.4280000000001
 20
889.8291999999999
 11
1424.2487000000001
 21
888.00520000000006
  0
LINE
  8
_0-0_LAYER001
  6
CONTINUOUS
 62
    2
 10
1424.2487000000001
 20
888.00520000000006
 11
1342.1757
 21
851.07249999999999
  0
LINE
  8
_0-0_LAYER001
  6
CONTINUOUS
 62
    2
 10
1298.3118999999999
 20
905.90169999999989
 11
1289.6492000000001
 21
902.00430000000006
  0
LINE
  8
_0-0_LAYER001
  6
CONTINUOUS
 62
    2
 10
1289.6492000000001
 20
902.00430000000006
 11
1288.646
 21
899.3596
  0
LINE
  8
_0-0_LAYER001
  6
CONTINUOUS
 62
    2
 10
1304.8767
 20
891.3121000000001
 11
1296.2148
 21
887.41399999999999
  0
LINE
  8
_0-0_LAYER001
  6
CONTINUOUS
 62
    2
 10
1289.6492000000001
 20
902.00430000000006
 11
1296.2148
 21
887.41399999999999
  0
LINE
  8
_0-0_LAYER001
  6
CONTINUOUS
 62
    2
 10
1293.5695000000001
 20
888.41679999999997
 11
1296.2148
 21
887.41399999999999
  0
LINE
  8
_0-0_LAYER001
  6
CONTINUOUS
 62
    2
 10
1288.646
 20
899.3596
 11
1293.5695000000001
 21
888.41679999999997
  0
LINE
  8
_0-0_LAYER001
  6
CONTINUOUS
 62
    2
 10
1292.4756
 20
828.70790000000011
 11
2002.1350000000002
 21
1148.0540000000001
  0
LINE
  8
_0-0_LAYER001
  6
CONTINUOUS
 62
    2
 10
1201.7396000000001
 20
908.50119999999993
 11
1956.9949999999999
 21
1248.3653999999999
  0
ARC
  8
_0-0_LAYER001
  6
CONTINUOUS
 62
    2
 10
1290.7751000000003
 20
943.85169999999994
 40
2.000003
 50
24.227606000000002
 51
114.22759000000003
  0
ARC
  8
_0-0_LAYER001
  6
CONTINUOUS
 62
    2
 10
1328.2820999999999
 20
860.50199999999995
 40
2.000003
 50
294.2276
 51
24.227605999999994
  0
ARC
  8
_0-0_LAYER001
  6
CONTINUOUS
 62
    2
 10
1328.2820999999999
 20
860.50199999999995
 40
4.2999999999999998
 50
294.2276
 51
24.227605999999994
  0
ARC
  8
_0-0_LAYER001
  6
CONTINUOUS
 62
    2
 10
1290.7751000000003
 20
943.85169999999994
 40
4.2999999999999998
 50
24.227606000000002
 51
114.22759000000003
  0
ARC
  8
_0-0_LAYER001
  6
CONTINUOUS
 62
    2
 10
1253.0217
 20
926.86280000000011
 40
2.000003
 50
114.22759000000001
 51
204.2276
  0
ARC
  8
_0-0_LAYER001
  6
CONTINUOUS
 62
    2
 10
1290.5286000000001
 20
843.51299999999992
 40
2.000003
 50
204.22760000000002
 51
294.22760000000005
  0
ARC
  8
_0-0_LAYER001
  6
CONTINUOUS
 62
    2
 10
1290.5286000000001
 20
843.51299999999992
 40
4.2999999999999998
 50
204.22760000000002
 51
294.22760000000005
  0
ARC
  8
_0-0_LAYER001
  6
CONTINUOUS
 62
    2
 10
1253.0217
 20
926.86280000000011
 40
4.2999999999999998
 50
114.22759000000001
 51
204.2276
  0
ARC
  8
_0-0_LAYER001
  6
CONTINUOUS
 62
    2
 10
1350.7025000000001
 20
873.55420000000004
 40
10.001999
 50
204.23162000000002
 51
294.21884999999997
  0
ARC
  8
_0-0_LAYER001
  6
CONTINUOUS
 62
    2
 10
1309.1199999999999
 20
929.40869999999995
 40
4.9989999999999997
 50
24.224675999999999
 51
114.23530999999998
  0
ARC
  8
_0-0_LAYER001
  6
CONTINUOUS
 62
    2
 10
1418.8694
 20
887.77849999999989
 40
4.9989999999999997
 50
24.224675999999999
 51
114.23530999999998
  0
ARC
  8
_0-0_LAYER001
  6
CONTINUOUS
 62
    2
 10
1302.9323999999999
 20
910.61449999999991
 40
6.1470010000000013
 50
204.58582999999999
 51
238.59309999999999
  0
ARC
  8
_0-0_LAYER001
  6
CONTINUOUS
 62
    2
 10
1311.4779000000001
 20
891.65039999999999
 40
6.1580000000000004
 50
169.89975999999999
 51
203.85441
  0
ARC
  8
_0-0_LAYER001
  6
CONTINUOUS
 62
    2
 10
1322.4749999999999
 20
908.00569999999993
 40
22.898997999999999
 50
186.62326999999999
 51
221.83878999999999
  0
ARC
  8
_0-0_LAYER001
  6
CONTINUOUS
 62
    2
 10
1331.7158999999997
 20
900.75949999999989
 40
6.1479999999999997
 50
24.562656
 51
58.577396
  0
ARC
  8
_0-0_LAYER001
  6
CONTINUOUS
 62
    2
 10
1323.1837999999998
 20
919.72190000000001
 40
6.1479999999999997
 50
349.89938000000006
 51
23.901646000000021
  0
ARC
  8
_0-0_LAYER001
  6
CONTINUOUS
 62
    2
 10
1312.1394
 20
903.35220000000004
 40
22.936000999999997
 50
6.6513660000000003
 51
41.808135999999998
  0
LINE
  8
_0-0_LAYER001
  6
DASHED3
 62
    2
 10
1236.6749
 20
958.21149999999989
 11
1238.7166999999999
 21
955.60930000000008
  0
LINE
  8
_0-0_LAYER001
  6
CONTINUOUS
 62
    2
 10
1617.3427000000001
 20
841.6866
 11
1822.1653999999999
 21
841.6866
  0
LINE
  8
_0-0_LAYER001
  6
CONTINUOUS
 62
    2
 10
1551.0628000000002
 20
1086.0807
 11
1551.0628000000002
 21
1093.5807
  0
LINE
  8
_0-0_LAYER001
  6
CONTINUOUS
 62
    2
 10
1551.0628000000002
 20
1093.5807
 11
1554.8128000000002
 21
1087.0854999999999
  0
LINE
  8
_0-0_LAYER001
  6
CONTINUOUS
 62
    2
 10
1551.0628000000002
 20
1093.5807
 11
1642.6884
 21
751.62940000000003
  0
LINE
  8
_0-0_LAYER001
  6
CONTINUOUS
 62
    2
 10
1642.6884
 20
751.62940000000003
 11
2035.0435000000002
 21
751.62940000000003
  0
LINE
  8
_0-0_LAYER001
  6
CONTINUOUS
 62
    2
 10
1635.5151999999998
 20
781.49589999999989
 11
1972.8344000000002
 21
781.49589999999989
  0
LINE
  8
_0-0_LAYER001
  6
CONTINUOUS
 62
    2
 10
1625.9721
 20
811.59130000000005
 11
1968.7368000000001
 21
811.59130000000005
  0
LINE
  8
_0-1_LAYER003
  6
CONTINUOUS
 62
   18
 10
934.95640000000003
 20
1080.3822
 11
1065.4564
 21
1080.3822
  0
LINE
  8
_0-1_LAYER003
  6
CONTINUOUS
 62
   18
 10
1065.4564
 20
1080.3822
 11
1149.1745000000001
 21
935.3780999999999
  0
LINE
  8
_0-1_LAYER003
  6
CONTINUOUS
 62
   18
 10
1149.1745000000001
 20
935.3780999999999
 11
1147.2334000000001
 21
942.62249999999995
  0
LINE
  8
_0-1_LAYER003
  6
CONTINUOUS
 62
   18
 10
1149.1745000000001
 20
935.3780999999999
 11
1143.8712
 21
940.68139999999994
  0
LINE
  8
_0-1_LAYER003
  6
CONTINUOUS
 62
   18
 10
1143.8712
 20
940.68139999999994
 11
1149.1745000000001
 21
935.3780999999999
  0
LINE
  8
_0-1_LAYER003
  6
CONTINUOUS
 62
   18
 10
1116.3629000000001
 20
938.69129999999996
 11
1129.4604999999999
 21
908.87930000000006
  0
LINE
  8
_0-1_LAYER003
  6
CONTINUOUS
 62
   18
 10
1129.4604999999999
 20
908.87930000000006
 11
1225.22
 21
951.96149999999989
  0
LINE
  8
_0-1_LAYER003
  6
CONTINUOUS
 62
   18
 10
1225.22
 20
951.96149999999989
 11
1216.6776
 21
971.40519999999992
  0
LINE
  8
_0-1_LAYER003
  6
CONTINUOUS
 62
   18
 10
1216.6776
 20
971.40519999999992
 11
1116.3629000000001
 21
938.69129999999996
  0
LINE
  8
_0-1_LAYER003
  6
CONTINUOUS
 62
   18
 10
1154.0844
 20
919.95730000000003
 11
1166.1510000000001
 21
892.49080000000004
  0
LINE
  8
_0-1_LAYER003
  6
CONTINUOUS
 62
   18
 10
1166.1510000000001
 20
892.49080000000004
 11
1248.2287641244448
 21
929.42127892141252
  0
LINE
  8
_0-1_LAYER003
  6
CONTINUOUS
 62
   18
 10
1248.2287641244448
 20
929.42127892141252
 11
1236.1635000000001
 21
956.88490000000002
  0
LINE
  8
_0-1_LAYER003
  6
CONTINUOUS
 62
   18
 10
1236.1635000000001
 20
956.88490000000002
 11
1154.0844
 21
919.95730000000003
  0
LINE
  8
_0-1_LAYER003
  6
CONTINUOUS
 62
   18
 10
1158.7819999999999
 20
923.16759999999999
 11
1236.6749
 21
958.21149999999989
  0
LINE
  8
_0-1_LAYER003
  6
CONTINUOUS
 62
   18
 10
1236.6749
 20
958.21149999999989
 11
1238.7166999999999
 21
955.60930000000008
  0
LINE
  8
_0-1_LAYER003
  6
CONTINUOUS
 62
   18
 10
1238.7166999999999
 20
955.60930000000008
 11
1945.9688999999998
 21
1273.8723
  0
LINE
  8
_0-1_LAYER003
  6
CONTINUOUS
 62
   18
 10
1946.7359000000001
 20
1271.1635000000001
 11
1238.173
 21
952.31089999999995
  0
LINE
  8
_0-1_LAYER003
  6
CONTINUOUS
 62
   18
 10
1248.2287641244448
 20
929.42127892141252
 11
1956.9949999999999
 21
1248.3653999999999
  0
LINE
  8
_0-1_LAYER003
  6
CONTINUOUS
 62
   18
 10
1741.6473999999998
 20
1200.8391999999999
 11
1747.8036000000002
 21
1187.1606999999999
  0
LINE
  8
_0-1_LAYER003
  6
CONTINUOUS
 62
   18
 10
1747.8036000000002
 20
1187.1606999999999
 11
1769.0043999999998
 21
1213.1515999999999
  0
LINE
  8
_0-1_LAYER003
  6
CONTINUOUS
 62
   18
 10
1769.0043999999998
 20
1213.1515999999999
 11
1741.6473999999998
 21
1200.8391999999999
  0
LINE
  8
_0-1_LAYER003
  6
CONTINUOUS
 62
   18
 10
1769.0043999999998
 20
1213.1515999999999
 11
1775.1606000000002
 21
1199.4730999999999
  0
LINE
  8
_0-1_LAYER003
  6
CONTINUOUS
 62
   18
 10
1775.1606000000002
 20
1199.4730999999999
 11
1747.8036000000002
 21
1187.1606999999999
  0
LINE
  8
_0-1_LAYER003
  6
CONTINUOUS
 62
   18
 10
1620.7408
 20
1175.3998999999999
 11
1622.6819999999998
 21
1168.1554000000001
  0
LINE
  8
_0-1_LAYER003
  6
CONTINUOUS
 62
   18
 10
1622.6819999999998
 20
1168.1554000000001
 11
1617.3787000000002
 21
1173.4586999999999
  0
LINE
  8
_0-1_LAYER003
  6
CONTINUOUS
 62
   18
 10
1622.6819999999998
 20
1168.1554000000001
 11
1557.0378000000001
 21
1281.8545999999997
  0
LINE
  8
_0-1_LAYER003
  6
CONTINUOUS
 62
   18
 10
1557.0378000000001
 20
1281.8545999999997
 11
1516.5378000000001
 21
1281.8545999999997
  0
LINE
  8
_0-1_LAYER003
  6
CONTINUOUS
 62
   18
 10
1526.4391000000001
 20
1103.9818
 11
1553.7961
 21
1116.2942
  0
LINE
  8
_0-1_LAYER003
  6
CONTINUOUS
 62
   18
 10
1553.7961
 20
1116.2942
 11
1559.9522999999999
 21
1102.6157000000001
  0
LINE
  8
_0-1_LAYER003
  6
CONTINUOUS
 62
   18
 10
1559.9522999999999
 20
1102.6157000000001
 11
1532.5953
 21
1090.3033
  0
LINE
  8
_0-1_LAYER003
  6
CONTINUOUS
 62
   18
 10
1532.5953
 20
1090.3033
 11
1526.4391000000001
 21
1103.9818
  0
LINE
  8
_0-1_LAYER003
  6
CONTINUOUS
 62
   18
 10
1551.0274547124334
 20
1093.488949824572
 11
1551.1025166378699
 21
1086.2830049826543
  0
LINE
  8
_0-1_LAYER003
  6
CONTINUOUS
 62
   18
 10
1551.0628000000002
 20
1093.5807
 11
1554.8128000000002
 21
1087.0854999999999
  0
LINE
  8
_0-1_LAYER003
  6
CONTINUOUS
 62
   18
 10
1551.0628000000002
 20
1093.5807
 11
1551.0628000000002
 21
1086.0807
  0
LINE
  8
_0-1_LAYER003
  6
CONTINUOUS
 62
   18
 10
1551.0628000000002
 20
1093.5807
 11
1642.6884
 21
751.62940000000003
  0
LINE
  8
_0-1_LAYER003
  6
CONTINUOUS
 62
   18
 10
1642.6884
 20
751.62940000000003
 11
2035.0435000000002
 21
751.62940000000003
  0
LINE
  8
_0-1_LAYER003
  6
CONTINUOUS
 62
   18
 10
1972.8344000000002
 20
781.49589999999989
 11
1635.5151999999998
 21
781.49589999999989
  0
LINE
  8
_0-1_LAYER003
  6
CONTINUOUS
 62
   18
 10
1626.6216528794598
 20
811.59130000000005
 11
1968.7368000000001
 21
811.59130000000005
  0
LINE
  8
_0-1_LAYER003
  6
CONTINUOUS
 62
   18
 10
1822.1653999999999
 20
841.6866
 11
1618.5576393205699
 21
841.6866
  0
LINE
  8
_0-1_LAYER003
  6
CONTINUOUS
 62
   18
 10
1847.1466
 20
1039.4708000000001
 11
1868.6869999999999
 21
991.59320000000002
  0
LINE
  8
_0-1_LAYER003
  6
CONTINUOUS
 62
   18
 10
1866.1108788589163
 20
993.17560135519204
 11
1867.6612
 21
993.87310000000002
  0
LINE
  8
_0-1_LAYER003
  6
CONTINUOUS
 62
   18
 10
1866.1108788589163
 20
993.17560135519204
 11
1220.1829
 21
702.56889999999999
  0
LINE
  8
_0-1_LAYER003
  6
CONTINUOUS
 62
   18
 10
1220.8803664346005
 20
701.01856436775597
 11
1199.6683
 21
748.16660000000002
  0
LINE
  8
_0-1_LAYER003
  6
CONTINUOUS
 62
   18
 10
1261.1645000000001
 20
710.79809999999998
 11
1282.376647762866
 21
663.65020095835632
  0
LINE
  8
_0-1_LAYER003
  6
CONTINUOUS
 62
   18
 10
1281.6791000000001
 20
665.20049999999992
 11
1188.8667
 21
623.44360000000006
  0
LINE
  8
_0-1_LAYER003
  6
CONTINUOUS
 62
   18
 10
1189.5641651672961
 20
621.89326379762053
 11
1168.3520000000001
 21
669.04130000000009
  0
LINE
  8
_0-1_LAYER003
  6
CONTINUOUS
 62
   18
 10
1244.2933664346006
 20
646.51626436775587
 11
1223.0813000000001
 21
693.66429999999991
  0
LINE
  8
_0-1_LAYER003
  6
CONTINUOUS
 62
   18
 10
1267.977849674098
 20
659.03621872148915
 11
1247.4631999999999
 21
704.63380000000006
  0
LINE
  8
_0-1_LAYER003
  6
CONTINUOUS
 62
   18
 10
1091.9554000000001
 20
698.48820000000001
 11
1139.9554000000001
 21
698.48820000000001
  0
LINE
  8
_0-1_LAYER003
  6
CONTINUOUS
 62
   18
 10
1139.9554000000001
 20
698.48820000000001
 11
1218.7999
 21
835.05079999999998
  0
LINE
  8
_0-1_LAYER003
  6
CONTINUOUS
 62
   18
 10
1218.7999
 20
835.05079999999998
 11
1213.4965999999999
 21
829.74749999999995
  0
LINE
  8
_0-1_LAYER003
  6
CONTINUOUS
 62
   18
 10
1218.7999
 20
835.05079999999998
 11
1216.8588
 21
827.80639999999994
  0
LINE
  8
_0-1_LAYER003
  6
CONTINUOUS
 62
   18
 10
966.51350000000002
 20
756.18190000000004
 11
1089.5135
 21
756.18190000000004
  0
LINE
  8
_0-1_LAYER003
  6
CONTINUOUS
 62
   18
 10
1089.5135
 20
756.18190000000004
 11
1179.7381
 21
912.45540000000005
  0
LINE
  8
_0-1_LAYER003
  6
CONTINUOUS
 62
   18
 10
1179.7381
 20
912.45540000000005
 11
1174.9693315410534
 21
907.68663154105354
  0
LINE
  8
_0-1_LAYER003
  6
CONTINUOUS
 62
   18
 10
1179.7381
 20
912.45540000000005
 11
1177.7969000000001
 21
905.21100000000001
  0
LINE
  8
_0-1_LAYER003
  6
CONTINUOUS
 62
   18
 10
1179.8526999999999
 20
898.65419999999995
 11
1230.7348899001179
 21
785.55901130005986
  0
LINE
  8
_0-1_LAYER003
  6
CONTINUOUS
 62
   18
 10
1230.7348899001179
 20
785.55901130005986
 11
1231.7147
 21
783.38120000000004
  0
LINE
  8
_0-1_LAYER003
  6
CONTINUOUS
 62
   18
 10
1219.3634
 20
774.01880000000006
 11
1233.0452
 21
787.9036000000001
  0
LINE
  8
_0-1_LAYER003
  6
CONTINUOUS
 62
   18
 10
1233.0452
 20
787.9036000000001
 11
1232.1576
 21
793.05369999999994
  0
LINE
  8
_0-1_LAYER003
  6
CONTINUOUS
 62
   18
 10
1232.1576
 20
793.05369999999994
 11
1241.1856
 21
790.73029999999994
  0
LINE
  8
_0-1_LAYER003
  6
CONTINUOUS
 62
   18
 10
1241.1856
 20
790.73029999999994
 11
1240.6297
 21
795.60050000000001
  0
LINE
  8
_0-1_LAYER003
  6
CONTINUOUS
 62
   18
 10
1240.6297
 20
795.60050000000001
 11
1257.1246000000001
 21
812.34009999999989
  0
LINE
  8
_0-1_LAYER003
  6
CONTINUOUS
 62
   18
 10
1249.4166
 20
802.53050000000007
 11
1201.7394999999999
 21
908.5014000000001
  0
LINE
  8
_0-1_LAYER003
  6
CONTINUOUS
 62
   18
 10
1314.1947
 20
780.44299999999998
 11
1292.4756
 21
828.70790000000011
  0
LINE
  8
_0-1_LAYER003
  6
CONTINUOUS
 62
   18
 10
1292.4756
 20
828.70790000000011
 11
2002.1350000000002
 21
1148.0540000000001
  0
LINE
  8
_0-1_LAYER003
  6
CONTINUOUS
 62
   18
 10
1653.1376651672963
 20
895.49356379762048
 11
1631.9254999999998
 21
942.64159999999993
  0
LINE
  8
_0-1_LAYER003
  6
CONTINUOUS
 62
   18
 10
1070.3081
 20
1143.0572999999999
 11
1134.8081
 21
1143.0572999999999
  0
LINE
  8
_0-1_LAYER003
  6
CONTINUOUS
 62
   18
 10
1134.8081
 20
1143.0572999999999
 11
1208.3914
 21
1015.6074000000001
  0
LINE
  8
_0-1_LAYER003
  6
CONTINUOUS
 62
   18
 10
1208.3914
 20
1015.6074000000001
 11
1206.4502
 21
1022.8517999999999
  0
LINE
  8
_0-1_LAYER003
  6
CONTINUOUS
 62
   18
 10
1208.3914
 20
1015.6074000000001
 11
1203.0880999999999
 21
1020.9106999999999
  0
LINE
  8
_0-1_LAYER003
  6
CONTINUOUS
 62
   18
 10
973.68429717516938
 20
1161.1145691542124
 11
991.41799999999989
 21
1112.5512000000001
  0
LINE
  8
_0-1_LAYER003
  6
CONTINUOUS
 62
   18
 10
974.2674175383205
 20
1159.5177064044092
 11
1195.0101335056852
 21
1240.1255757184965
  0
LINE
  8
_0-1_LAYER003
  6
CONTINUOUS
 62
   18
 10
1212.1608000000001
 20
1193.1591000000001
 11
1180.7065420148429
 21
1279.2956490111301
  0
LINE
  8
_0-1_LAYER003
  6
CONTINUOUS
 62
   18
 10
1181.2897
 20
1277.6987999999999
 11
1402.0324000000001
 21
1358.3067000000001
  0
LINE
  8
_0-1_LAYER003
  6
CONTINUOUS
 62
   18
 10
1419.183
 20
1311.3402000000001
 11
1387.7287966842152
 21
1397.4768689749385
  0
LINE
  8
_0-1_LAYER003
  6
CONTINUOUS
 62
   18
 10
1388.3119170464099
 20
1395.8800062247797
 11
1609.0547000000001
 21
1476.4879000000001
  0
LINE
  8
_0-1_LAYER003
  6
CONTINUOUS
 62
   18
 10
1609.0547000000001
 20
1476.4879000000001
 11
1608.4715966842155
 21
1478.0847689749385
  0
LINE
  8
_0-1_LAYER003
  6
CONTINUOUS
 62
   18
 10
1609.0547000000001
 20
1476.4879000000001
 11
1626.2053000000001
 21
1429.5213000000001
  0
LINE
  8
_0-1_LAYER003
  6
CONTINUOUS
 62
   18
 10
1553.7961
 20
1116.2942
 11
1532.5953
 21
1090.3033
  0
LINE
  8
_0-1_LAYER003
  6
CONTINUOUS
 62
   18
 10
1311.2307000000001
 20
1007.1243999999999
 11
1338.5877
 21
1019.4367999999999
  0
LINE
  8
_0-1_LAYER003
  6
CONTINUOUS
 62
   18
 10
1338.5877
 20
1019.4367999999999
 11
1344.7438999999999
 21
1005.7583
  0
LINE
  8
_0-1_LAYER003
  6
CONTINUOUS
 62
   18
 10
1344.7438999999999
 20
1005.7583
 11
1317.3869
 21
993.44589999999994
  0
LINE
  8
_0-1_LAYER003
  6
CONTINUOUS
 62
   18
 10
1317.3869
 20
993.44589999999994
 11
1311.2307000000001
 21
1007.1243999999999
  0
LINE
  8
_0-1_LAYER003
  6
CONTINUOUS
 62
   18
 10
1338.5877
 20
1019.4367999999999
 11
1317.3869
 21
993.44589999999994
  0
LINE
  8
_0-1_LAYER003
  6
CONTINUOUS
 62
   18
 10
1438.2447999999999
 20
797.9348
 11
1416.7044000000001
 21
845.81240000000003
  0
TEXT
  8
_0-2_LAYER004
 62
    7
 10
1072.2936455313206
 20
1210.2081854134917
 40
20
 41
1
 50
24.227693000000002
  1
235
  0
TEXT
  8
_0-2_LAYER004
 62
    7
 10
1488.3507464105096
 20
1444.8268513228086
 40
20
 41
1
 50
24.22769299999996
  1
235
  0
TEXT
  8
_0-2_LAYER004
 62
    7
 10
1272.5015737739377
 20
1325.9533939287548
 40
20
 41
1
 50
24.227693000000002
  1
235
  0
TEXT
  8
_0-2_LAYER004
 62
    7
 10
1494.6072441680915
 20
1288.414407383264
 40
20
 41
1
 50
0
  1
桟　瓦
  0
TEXT
  8
_0-2_LAYER004
 62
    7
 10
1525.6232826288733
 20
849.06832752998162
 40
20
 41
1
 50
24.227693000000016
  1
236
  0
TEXT
  8
_0-2_LAYER004
 62
    7
 10
1316.9987784041773
 20
757.05957182062866
 40
20
 41
1
 50
24.227693000000016
  1
229
  0
TEXT
  8
_0-2_LAYER004
 62
    7
 10
1741.7368716206092
 20
949.63603725880932
 40
20
 41
1
 50
24.227692999999974
  1
236
  0
TEXT
  8
_0-2_LAYER004
 62
    7
 10
1258.1559695202889
 20
623.32591526633655
 40
20
 41
1
 50
24.227693000000077
  1
25
  0
TEXT
  8
_0-2_LAYER004
 62
    7
 10
1222.8502841899558
 20
604.06826872251838
 40
20
 41
1
 50
24.227693000000077
  1
60
  0
TEXT
  8
_0-2_LAYER004
 62
    7
 10
1283.832831578713
 20
636.16434629554851
 40
20
 41
1
 50
24.227693000000077
  1
15
  0
TEXT
  8
_0-2_LAYER004
 62
    7
 10
1625.1211231052664
 20
846.92858902511284
 40
20
 41
1
 50
0
  1
瓦桟：15x30以上
  0
TEXT
  8
_0-2_LAYER004
 62
    7
 10
1626.1909923577009
 20
812.69277294721417
 40
20
 41
1
 50
0
  1
下葺材：ルーフィング
  0
TEXT
  8
_0-2_LAYER004
 62
    7
 10
1633.680077124741
 20
782.7364338790527
 40
20
 41
1
 50
0
  1
野地板：硬質木片セメントパネルｔ＝２５
  0
TEXT
  8
_0-2_LAYER004
 62
    7
 10
1646.5185081539535
 20
754.91983331575989
 40
20
 41
1
 50
0
  1
鋼製：C100x50x20x2.3@606　
  0
TEXT
  8
_0-2_LAYER004
 62
    7
 10
1072.4703524661229
 20
704.12260815986588
 40
20
 41
1
 50
0
  1
破風板
  0
TEXT
  8
_0-1_LAYER003
 62
    7
 10
947.07444159432612
 20
1083.6994194474667
 40
20
 41
1
 50
0
  1
淀：33x105
  0
TEXT
  8
_0-1_LAYER003
 62
    7
 10
1060.0437306680169
 20
1148.0919142194705
 40
20
 41
1
 50
0
  1
万十軒瓦
  0
TEXT
  8
_0-1_LAYER003
 62
    7
 10
951.59321315727368
 20
765.12602425965883
 40
20
 41
1
 50
0
  1
下地　36x90
  0
ENDSEC
  0
EOF
