  0
SECTION
  2
HEADER
  9
$ACADVER
  1
AC1009
  9
$INSBASE
 10
0
 20
0
 30
0
  9
$EXTMIN
 10
0
 20
0
  9
$EXTMAX
 10
2970
 20
2100
  9
$LIMMIN
 10
0
 20
0
  9
$LIMMAX
 10
2970
 20
2100
  9
$LTSCALE
 40
10
  0
ENDSEC
  0
SECTION
  2
TABLES
  0
TABLE
  2
LTYPE
 70
     9
  0
LTYPE
  2
CONTINUOUS
 70
    64
  3
実線
 72
    65
 73
     0
 40
0.0
  0
LTYPE
  2
DASHED1
 70
    64
  3
--  --  --  --  --  --  --  --  
 72
    65
 73
     2
 40
2.5
 49
1.25
 49
-1.25
  0
LTYPE
  2
DASHED2
 70
    64
  3
----    ----    ----    ----    
 72
    65
 73
     2
 40
5.0
 49
2.5
 49
-2.5
  0
LTYPE
  2
DASHED3
 70
    64
  3
------  ------  ------  ------  
 72
    65
 73
     2
 40
5.0
 49
3.75
 49
-1.25
  0
LTYPE
  2
CENTER1
 70
    64
  3
----- - ----- - ----- - ----- - 
 72
    65
 73
     4
 40
10.0
 49
6.25
 49
-1.25
 49
1.25
 49
-1.25
  0
LTYPE
  2
CENTER2
 70
    64
  3
----------  --  ----------  --  
 72
    65
 73
     4
 40
20.0
 49
12.5
 49
-2.5
 49
2.5
 49
-2.5
  0
LTYPE
  2
PHANTOM1
 70
    64
  3
--- - - --- - - --- - - --- - - 
 72
    65
 73
     6
 40
10.0
 49
3.25
 49
-1.25
 49
1.25
 49
-1.25
 49
1.25
 49
-1.25
  0
LTYPE
  2
PHANTOM2
 70
    64
  3
--------  -  -  --------  -  -  
 72
    65
 73
     6
 40
20.0
 49
10.0
 49
-2.5
 49
1.25
 49
-2.5
 49
1.25
 49
-2.5
  0
LTYPE
  2
DOT
 70
    64
  3
-   -   -   -   -   -   -   -   
 72
    65
 73
     2
 40
2.5
 49
0.625
 49
-1.875
  0
LTYPE
  2
DUMMY
 70
    64
  3
ダミー
 72
    65
 73
     0
 40
0.0
  0
LTYPE
  2
RAND1
 70
    64
  3
ランダム線1
 72
    65
 73
     4
 40
10.0
 49
1.0
 49
-2.0
 49
3.0
 49
-4.0
  0
LTYPE
  2
RAND2
 70
    64
  3
ランダム線2
 72
    65
 73
     4
 40
14.0
 49
2.0
 49
-3.0
 49
4.0
 49
-5.0
  0
LTYPE
  2
RAND3
 70
    64
  3
ランダム線3
 72
    65
 73
     4
 40
18.0
 49
3.0
 49
-4.0
 49
5.0
 49
-6.0
  0
LTYPE
  2
RAND4
 70
    64
  3
ランダム線4
 72
    65
 73
     4
 40
22.0
 49
4.0
 49
-5.0
 49
6.0
 49
-7.0
  0
LTYPE
  2
RAND5
 70
    64
  3
ランダム線5
 72
    65
 73
     4
 40
26.0
 49
5.0
 49
-6.0
 49
7.0
 49
-8.0
  0
LTYPE
  2
LONG1
 70
    64
  3
----------  --  ----------  --  
 72
    65
 73
     4
 40
40.0
 49
32.5
 49
-2.5
 49
2.5
 49
-2.5
  0
LTYPE
  2
LONG2
 70
    64
  3
--------  -  -  --------  -  -  
 72
    65
 73
     6
 40
40.0
 49
30.0
 49
-2.5
 49
1.25
 49
-2.5
 49
1.25
 49
-2.5
  0
LTYPE
  2
LONG3
 70
    64
  3
+++++++++++++++..+++++++++++++++
 72
    65
 73
     2
 40
40.0
 49
37.5
 49
-2.5
  0
LTYPE
  2
LONG4
 70
    64
  3
+++++++++++++++..+++++++++++++++
 72
    65
 73
     2
 40
80.0
 49
75.0
 49
-5.0
  0
LTYPE
  2
LONG5
 70
    64
  3
----------  --  ----------  --  
 72
    65
 73
     4
 40
60.0
 49
37.5
 49
-7.5
 49
7.5
 49
-7.5
  0
LTYPE
  2
dashed
 70
   64
  3
-------   -------------   ------
 72
   65
 73
    2
 40
7.5
 49
6
 49
-1.5
  0
LTYPE
  2
dashed_spaced
 70
   64
  3
----        --------        ----
 72
   65
 73
    2
 40
12
 49
6
 49
-6
  0
LTYPE
  2
long_dashed_dotted
 70
   64
  3
------------- --- --------------
 72
   65
 73
    4
 40
15.25
 49
12
 49
-1.5
 49
0.25
 49
-1.5
  0
LTYPE
  2
long_dashed_double-dotted
 70
   64
  3
----------- --- --- ------------
 72
   65
 73
    6
 40
17
 49
12
 49
-1.5
 49
0.25
 49
-1.5
 49
0.25
 49
-1.5
  0
LTYPE
  2
long_dashed_triplicate-dotted
 70
   64
  3
--------- --- --- --- ----------
 72
   65
 73
    8
 40
18.75
 49
12
 49
-1.5
 49
0.25
 49
-1.5
 49
0.25
 49
-1.5
 49
0.25
 49
-1.5
  0
LTYPE
  2
dotted
 70
   64
  3
   -       -       -       -    
 72
   65
 73
    2
 40
1.75
 49
0.25
 49
-1.5
  0
LTYPE
  2
chain
 70
   64
  3
-------------- -- --------------
 72
   65
 73
    4
 40
18.5
 49
12
 49
-1.5
 49
3.5
 49
-1.5
  0
LTYPE
  2
chain_double_dash
 70
   64
  3
------------ -- -- -------------
 72
   65
 73
    6
 40
23.5
 49
12
 49
-1.5
 49
3.5
 49
-1.5
 49
3.5
 49
-1.5
  0
LTYPE
  2
dashed_dotted
 70
   64
  3
-----------     -     ----------
 72
   65
 73
    4
 40
9.25
 49
6
 49
-1.5
 49
0.25
 49
-1.5
  0
LTYPE
  2
double-dashed_dotted
 70
   64
  3
------   -----------   -   -----
 72
   65
 73
    6
 40
16.75
 49
6
 49
-1.5
 49
6
 49
-1.5
 49
0.25
 49
-1.5
  0
LTYPE
  2
dashed_double-dotted
 70
   64
  3
---------    -    -    ---------
 72
   65
 73
    6
 40
11
 49
6
 49
-1.5
 49
0.25
 49
-1.5
 49
0.25
 49
-1.5
  0
LTYPE
  2
double-dashed_double-dotted
 70
   64
  3
-----   ---------   -   -   ----
 72
   65
 73
    8
 40
18.5
 49
6
 49
-1.5
 49
6
 49
-1.5
 49
0.25
 49
-1.5
 49
0.25
 49
-1.5
  0
LTYPE
  2
dashed_triplicate-dotted
 70
   64
  3
-------    -    -    -    ------
 72
   65
 73
    8
 40
12.75
 49
6
 49
-1.5
 49
0.25
 49
-1.5
 49
0.25
 49
-1.5
 49
0.25
 49
-1.5
  0
LTYPE
  2
double-dashed_triplicate-dotted
 70
   64
  3
-----  ---------  -  -  -  -----
 72
   65
 73
   10
 40
20.25
 49
6
 49
-1.5
 49
6
 49
-1.5
 49
0.25
 49
-1.5
 49
0.25
 49
-1.5
 49
0.25
 49
-1.5
  0
LTYPE
  2
undefined
 70
   64
  3
--------------------------------
 72
   65
 73
    0
 40
0
  0
ENDTAB
  0
TABLE
  2
STYLE
  5
3
100
AcDbSymbolTable
 70
     1
  0
STYLE
  5
10
100
AcDbSymbolTableRecord
100
AcDbTextStyleTableRecord
  2
STANDARD
 70
     0
 40
0.0
 41
1.0
 50
0.0
 71
     0
 42
0.2
  3
txt
  4
bigfont.shx
  0
STYLE
  5
26
100
AcDbSymbolTableRecord
100
AcDbTextStyleTableRecord
  2
TATEGAKI
 70
    68
 40
0.0
 41
1.0
 50
0.0
 71
     0
 42
1.0
  3
txt
  4
bigfont.shx
  0
ENDTAB
  0
TABLE
  2
LAYER
 70
    8
  0
LAYER
  2
_0-0_LAYER001
 70
   64
 62
    7
  6
CONTINUOUS
  0
LAYER
  2
_0-1_LAYER002
 70
   64
 62
    7
  6
CONTINUOUS
  0
LAYER
  2
_0-2_LAYER003
 70
   64
 62
    7
  6
CONTINUOUS
  0
LAYER
  2
_0-3_LAYER004
 70
   64
 62
    7
  6
CONTINUOUS
  0
LAYER
  2
_0-4_LAYER005
 70
   64
 62
    7
  6
CONTINUOUS
  0
LAYER
  2
_0-5_LAYER006
 70
   64
 62
    7
  6
CONTINUOUS
  0
LAYER
  2
_0-6_LAYER007
 70
   64
 62
    7
  6
CONTINUOUS
  0
LAYER
  2
ADD_LINE
 70
   64
 62
    7
  6
CONTINUOUS
  0
ENDTAB
  0
ENDSEC
  0
SECTION
  2
BLOCKS
  0
ENDSEC
  0
SECTION
  2
ENTITIES
  0
LINE
  8
_0-0_LAYER001
  6
CONTINUOUS
 62
    2
 10
1545.732
 20
1281.6093000000001
 11
1695.0449748849621
 21
1281.6093000000001
  0
TEXT
  8
_0-2_LAYER003
 62
    7
 10
1250.9909108184777
 20
1331.73225489934
 40
20
 41
1
 50
0
  1
銅線0.9ｍｍ
  0
LINE
  8
_0-0_LAYER001
  6
CONTINUOUS
 62
    2
 10
1654.0064000000002
 20
910.71280000000002
 11
1628.9283999999998
 21
976.82709999999997
  0
LINE
  8
_0-0_LAYER001
  6
CONTINUOUS
 62
    2
 10
1657.8751999999999
 20
908.97170000000006
 11
1632.7973999999999
 21
975.08600000000001
  0
LINE
  8
_0-0_LAYER001
  6
CONTINUOUS
 62
    2
 10
1851.3231000000001
 20
821.92039999999997
 11
1826.2453
 21
888.03469999999993
  0
LINE
  8
_0-0_LAYER001
  6
CONTINUOUS
 62
    2
 10
1847.4542000000001
 20
823.66139999999996
 11
1822.3762999999999
 21
889.77569999999992
  0
LINE
  8
_0-0_LAYER001
  6
DASHED3
 62
    2
 10
1449.8062
 20
1058.394
 11
921.86830000000009
 21
820.82230000000004
  0
LINE
  8
_0-0_LAYER001
  6
CONTINUOUS
 62
    2
 10
1248.3417999999999
 20
910.71280000000002
 11
1273.4199000000001
 21
976.82709999999997
  0
LINE
  8
_0-0_LAYER001
  6
CONTINUOUS
 62
    2
 10
1244.473
 20
908.97170000000006
 11
1269.5508
 21
975.08600000000001
  0
LINE
  8
_0-0_LAYER001
  6
CONTINUOUS
 62
    2
 10
1449.8062
 20
1001.3715
 11
943.20720000000006
 21
773.40239999999994
  0
LINE
  8
_0-0_LAYER001
  6
CONTINUOUS
 62
    2
 10
1051.0251000000001
 20
821.92039999999997
 11
1076.1029000000001
 21
888.03469999999993
  0
LINE
  8
_0-0_LAYER001
  6
CONTINUOUS
 62
    2
 10
1054.894
 20
823.66139999999996
 11
1079.9719
 21
889.77569999999992
  0
LINE
  8
_0-0_LAYER001
  6
CONTINUOUS
 62
    2
 10
1449.8062
 20
878.00569999999993
 11
989.37310000000002
 21
670.81130000000007
  0
LINE
  8
_0-0_LAYER001
  6
CONTINUOUS
 62
    2
 10
1389.8034000000002
 20
883.90180000000009
 11
1391.9004999999997
 21
884.8454999999999
  0
LINE
  8
_0-0_LAYER001
  6
CONTINUOUS
 62
    2
 10
1365.1795999999999
 20
938.61640000000011
 11
1367.2774999999999
 21
939.55999999999995
  0
LINE
  8
_0-0_LAYER001
  6
CONTINUOUS
 62
    2
 10
1359.0242000000001
 20
952.29600000000005
 11
1365.1795999999999
 21
938.61640000000011
  0
LINE
  8
_0-0_LAYER001
  6
CONTINUOUS
 62
    2
 10
1318.9776999999999
 20
937.23579999999993
 11
1355.4535000000001
 21
953.64989999999989
  0
LINE
  8
_0-0_LAYER001
  6
CONTINUOUS
 62
    2
 10
1354.5109
 20
955.7469000000001
 11
1318.0333000000001
 21
939.33179999999993
  0
LINE
  8
_0-0_LAYER001
  6
CONTINUOUS
 62
    2
 10
1361.1219000000001
 20
953.23960000000011
 11
1367.2774999999999
 21
939.55999999999995
  0
LINE
  8
_0-0_LAYER001
  6
CONTINUOUS
 62
    2
 10
1352.4591
 20
850.64679999999998
 11
1315.5257999999999
 21
932.7206000000001
  0
LINE
  8
_0-0_LAYER001
  6
CONTINUOUS
 62
    2
 10
1395.5488
 20
864.55479999999989
 11
1359.0699999999997
 21
848.13940000000002
  0
LINE
  8
_0-0_LAYER001
  6
CONTINUOUS
 62
    2
 10
1398.0561
 20
871.16579999999999
 11
1391.9004999999997
 21
884.8454999999999
  0
LINE
  8
_0-0_LAYER001
  6
CONTINUOUS
 62
    2
 10
1395.9593
 20
870.2222999999999
 11
1389.8034000000002
 21
883.90180000000009
  0
LINE
  8
_0-0_LAYER001
  6
CONTINUOUS
 62
    2
 10
1358.1276
 20
850.23649999999998
 11
1394.6052
 21
866.65169999999989
  0
LINE
  8
_0-0_LAYER001
  6
CONTINUOUS
 62
    2
 10
1354.557
 20
851.59050000000002
 11
1317.6239
 21
933.66529999999989
  0
LINE
  8
_0-0_LAYER001
  6
CONTINUOUS
 62
    2
 10
1358.6152999999999
 20
836.96980000000008
 11
1321.6813
 21
919.04259999999999
  0
LINE
  8
_0-0_LAYER001
  6
CONTINUOUS
 62
    2
 10
1317.3499999999999
 20
911.61040000000003
 11
1345.2556
 21
849.60040000000004
  0
LINE
  8
_0-0_LAYER001
  6
CONTINUOUS
 62
    2
 10
1319.8574000000003
 20
918.22260000000006
 11
1321.6813
 21
919.04259999999999
  0
LINE
  8
_0-0_LAYER001
  6
CONTINUOUS
 62
    2
 10
1278.2288000000001
 20
808.47170000000006
 11
1340.2399
 21
836.3773000000001
  0
LINE
  8
_0-0_LAYER001
  6
CONTINUOUS
 62
    2
 10
1336.0896
 20
892.62899999999991
 11
1338.826
 21
893.85989999999993
  0
LINE
  8
_0-0_LAYER001
  6
CONTINUOUS
 62
    2
 10
1329.5237
 20
907.21910000000003
 11
1332.26
 21
908.45000000000005
  0
LINE
  8
_0-0_LAYER001
  6
CONTINUOUS
 62
    2
 10
1345.3914
 20
879.27080000000001
 11
1332.26
 21
908.45000000000005
  0
LINE
  8
_0-0_LAYER001
  6
CONTINUOUS
 62
    2
 10
1342.6550999999999
 20
878.03890000000001
 11
1345.3914
 21
879.27080000000001
  0
LINE
  8
_0-0_LAYER001
  6
CONTINUOUS
 62
    2
 10
1344.6626000000001
 20
905.25839999999994
 11
1355.3316999999997
 21
910.06040000000007
  0
LINE
  8
_0-0_LAYER001
  6
CONTINUOUS
 62
    2
 10
1351.2280000000001
 20
890.66920000000005
 11
1361.8973000000001
 21
895.4701
  0
LINE
  8
_0-0_LAYER001
  6
CONTINUOUS
 62
    2
 10
1349.8099999999999
 20
891.20779999999991
 11
1341.6686999999999
 21
887.54459999999995
  0
LINE
  8
_0-0_LAYER001
  6
CONTINUOUS
 62
    2
 10
1344.1239999999998
 20
903.84220000000005
 11
1335.9836999999998
 21
900.17840000000001
  0
LINE
  8
_0-0_LAYER001
  6
CONTINUOUS
 62
    2
 10
1341.2819999999999
 20
910.16059999999993
 11
1333.1396
 21
906.49649999999997
  0
LINE
  8
_0-0_LAYER001
  6
CONTINUOUS
 62
    2
 10
1343.0192999999999
 20
908.90900000000011
 11
1341.2819999999999
 21
910.16059999999993
  0
LINE
  8
_0-0_LAYER001
  6
CONTINUOUS
 62
    2
 10
1352.8688999999999
 20
887.02250000000004
 11
1343.0192999999999
 21
908.90900000000011
  0
LINE
  8
_0-0_LAYER001
  6
CONTINUOUS
 62
    2
 10
1352.6531
 20
884.88920000000007
 11
1344.5119
 21
881.22540000000004
  0
LINE
  8
_0-0_LAYER001
  6
CONTINUOUS
 62
    2
 10
1352.8688999999999
 20
887.02250000000004
 11
1352.6531
 21
884.88920000000007
  0
LINE
  8
_0-0_LAYER001
  6
CONTINUOUS
 62
    2
 10
1362.9012
 20
898.11509999999998
 11
1361.8973000000001
 21
895.4701
  0
LINE
  8
_0-0_LAYER001
  6
CONTINUOUS
 62
    2
 10
1357.9764
 20
909.05729999999994
 11
1362.9012
 21
898.11509999999998
  0
LINE
  8
_0-0_LAYER001
  6
CONTINUOUS
 62
    2
 10
1355.3316999999997
 20
910.06040000000007
 11
1357.9764
 21
909.05729999999994
  0
LINE
  8
_0-0_LAYER001
  6
CONTINUOUS
 62
    2
 10
1355.3316999999997
 20
910.06040000000007
 11
1361.8973000000001
 21
895.4701
  0
LINE
  8
_0-0_LAYER001
  6
CONTINUOUS
 62
    2
 10
1355.3316999999997
 20
910.06040000000007
 11
1359.3240000000001
 21
894.31220000000008
  0
LINE
  8
_0-0_LAYER001
  6
CONTINUOUS
 62
    2
 10
1349.7755999999999
 20
907.5598
 11
1353.769
 21
891.81169999999997
  0
LINE
  8
_0-0_LAYER001
  6
CONTINUOUS
 62
    2
 10
1316.6244000000002
 20
891.46579999999994
 11
1324.7656000000002
 21
895.12879999999996
  0
LINE
  8
_0-0_LAYER001
  6
CONTINUOUS
 62
    2
 10
1322.3101999999999
 20
878.83110000000011
 11
1330.4516000000001
 21
882.49520000000007
  0
LINE
  8
_0-0_LAYER001
  6
CONTINUOUS
 62
    2
 10
1325.1524999999997
 20
872.51289999999995
 11
1333.2945999999997
 21
876.17679999999996
  0
LINE
  8
_0-0_LAYER001
  6
CONTINUOUS
 62
    2
 10
1323.4149
 20
873.76440000000002
 11
1325.1524999999997
 21
872.51289999999995
  0
LINE
  8
_0-0_LAYER001
  6
CONTINUOUS
 62
    2
 10
1313.5654999999999
 20
895.65100000000007
 11
1323.4149
 21
873.76440000000002
  0
LINE
  8
_0-0_LAYER001
  6
CONTINUOUS
 62
    2
 10
1313.7810999999999
 20
897.7838999999999
 11
1321.9223999999999
 21
901.44800000000009
  0
LINE
  8
_0-0_LAYER001
  6
CONTINUOUS
 62
    2
 10
1313.5654999999999
 20
895.65100000000007
 11
1313.7810999999999
 21
897.7838999999999
  0
LINE
  8
_0-0_LAYER001
  6
CONTINUOUS
 62
    2
 10
1275.7215000000001
 20
801.8605
 11
1276.5424
 21
800.03670000000011
  0
LINE
  8
_0-0_LAYER001
  6
CONTINUOUS
 62
    2
 10
1276.5424
 20
800.03670000000011
 11
1358.6153999999999
 21
836.96939999999995
  0
LINE
  8
_0-0_LAYER001
  6
CONTINUOUS
 62
    2
 10
1704.7752
 20
761.5933
 11
1699.2449000000001
 21
754.0326
  0
LINE
  8
_0-0_LAYER001
  6
CONTINUOUS
 62
    2
 10
1704.7752
 20
761.5933
 11
1704.125
 21
752.24849999999992
  0
LINE
  8
_0-0_LAYER001
  6
CONTINUOUS
 62
    2
 10
1699.2449000000001
 20
754.0326
 11
1704.125
 21
752.24849999999992
  0
LINE
  8
_0-0_LAYER001
  6
CONTINUOUS
 62
    2
 10
1320.2
 20
997.87860000000001
 11
1311.0796
 21
993.77449999999999
  0
LINE
  8
_0-0_LAYER001
  6
CONTINUOUS
 62
    2
 10
1321.4299000000001
 20
995.14210000000003
 11
1312.3114
 21
991.03939999999989
  0
LINE
  8
_0-0_LAYER001
  6
CONTINUOUS
 62
    2
 10
1311.0796
 20
993.77449999999999
 11
1312.3114
 21
991.03939999999989
  0
LINE
  8
_0-0_LAYER001
  6
CONTINUOUS
 62
    2
 10
1320.2
 20
997.87860000000001
 11
1321.4299000000001
 21
995.14210000000003
  0
LINE
  8
_0-0_LAYER001
  6
CONTINUOUS
 62
    2
 10
1315.6398999999999
 20
995.8266000000001
 11
1316.8706999999999
 21
993.0902000000001
  0
LINE
  8
_0-0_LAYER001
  6
CONTINUOUS
 62
    2
 10
1342.3134
 20
936.55179999999996
 11
1338.1912
 21
940.83799999999997
  0
LINE
  8
_0-0_LAYER001
  6
CONTINUOUS
 62
    2
 10
1342.3134
 20
936.55179999999996
 11
1341.8389
 21
942.47880000000009
  0
LINE
  8
_0-0_LAYER001
  6
CONTINUOUS
 62
    2
 10
1320.5259000000001
 20
977.07870000000003
 11
1326.1537000000001
 21
980.77019999999993
  0
LINE
  8
_0-0_LAYER001
  6
CONTINUOUS
 62
    2
 10
1322.5779
 20
972.51950000000011
 11
1328.2067999999999
 21
976.21000000000004
  0
LINE
  8
_0-0_LAYER001
  6
CONTINUOUS
 62
    2
 10
1324.6307999999999
 20
967.95920000000001
 11
1330.2583999999999
 21
971.65079999999989
  0
LINE
  8
_0-0_LAYER001
  6
CONTINUOUS
 62
    2
 10
1326.6817000000001
 20
963.39899999999989
 11
1332.3094000000001
 21
967.0915
  0
LINE
  8
_0-0_LAYER001
  6
CONTINUOUS
 62
    2
 10
1328.7336
 20
958.84079999999994
 11
1334.3612000000003
 21
962.53230000000008
  0
LINE
  8
_0-0_LAYER001
  6
CONTINUOUS
 62
    2
 10
1330.7854
 20
954.28050000000007
 11
1336.4142999999999
 21
957.9722999999999
  0
LINE
  8
_0-0_LAYER001
  6
CONTINUOUS
 62
    2
 10
1332.8382999999999
 20
949.7213999999999
 11
1338.4650999999999
 21
953.41190000000006
  0
LINE
  8
_0-0_LAYER001
  6
CONTINUOUS
 62
    2
 10
1334.8893
 20
945.16110000000003
 11
1340.5170000000001
 21
948.85279999999989
  0
LINE
  8
_0-0_LAYER001
  6
CONTINUOUS
 62
    2
 10
1336.4251999999999
 20
941.74900000000002
 11
1342.0526
 21
945.44070000000011
  0
LINE
  8
_0-0_LAYER001
  6
CONTINUOUS
 62
    2
 10
1319.9256
 20
991.17779999999993
 11
1341.8389
 21
942.47880000000009
  0
LINE
  8
_0-0_LAYER001
  6
CONTINUOUS
 62
    2
 10
1321.4299000000001
 20
995.14210000000003
 11
1319.9256
 21
991.17779999999993
  0
LINE
  8
_0-0_LAYER001
  6
CONTINUOUS
 62
    2
 10
1316.2789
 20
989.5338999999999
 11
1338.1912
 21
940.83799999999997
  0
LINE
  8
_0-0_LAYER001
  6
CONTINUOUS
 62
    2
 10
1312.3114
 20
991.03939999999989
 11
1316.2789
 21
989.5338999999999
  0
LINE
  8
_0-0_LAYER001
  6
CONTINUOUS
 62
    2
 10
1313.4740999999999
 20
937.27999999999997
 11
1449.8062
 21
998.62930000000006
  0
LINE
  8
_0-0_LAYER001
  6
CONTINUOUS
 62
    2
 10
1313.4740999999999
 20
937.27999999999997
 11
1312.4478999999999
 21
939.56040000000007
  0
LINE
  8
_0-0_LAYER001
  6
CONTINUOUS
 62
    2
 10
1449.8062
 20
1056.2008000000001
 11
922.68900000000008
 21
818.9985999999999
  0
CIRCLE
  8
_0-0_LAYER001
  6
CONTINUOUS
 62
    2
 10
1449.8062
 20
878.00569999999993
 40
1.5
  0
ARC
  8
_0-0_LAYER001
  6
CONTINUOUS
 62
    2
 10
1356.5617999999999
 20
951.18759999999997
 40
2.7000000000000002
 50
24.240376000000001
 51
114.23248
  0
ARC
  8
_0-0_LAYER001
  6
CONTINUOUS
 62
    2
 10
1320.0861
 20
934.77359999999999
 40
2.7000000000000002
 50
114.23248000000001
 51
204.21279999999999
  0
ARC
  8
_0-0_LAYER001
  6
CONTINUOUS
 62
    2
 10
1320.0839999999998
 20
934.77260000000001
 40
4.9989999999999997
 50
114.22009000000001
 51
204.23074000000003
  0
ARC
  8
_0-0_LAYER001
  6
CONTINUOUS
 62
    2
 10
1356.5627999999997
 20
951.1887999999999
 40
4.9989999999999997
 50
24.224354999999999
 51
114.24136
  0
ARC
  8
_0-0_LAYER001
  6
CONTINUOUS
 62
    2
 10
1357.0182
 20
852.69759999999997
 40
4.9989999999999997
 50
204.20946000000004
 51
294.23500000000001
  0
ARC
  8
_0-0_LAYER001
  6
CONTINUOUS
 62
    2
 10
1393.4978000000001
 20
869.11390000000006
 40
4.9989999999999997
 50
294.21370999999999
 51
24.245640999999971
  0
ARC
  8
_0-0_LAYER001
  6
CONTINUOUS
 62
    2
 10
1393.4967000000001
 20
869.11390000000006
 40
2.7000000000000002
 50
294.22066999999998
 51
24.240376000000015
  0
ARC
  8
_0-0_LAYER001
  6
CONTINUOUS
 62
    2
 10
1357.019
 20
852.69859999999994
 40
2.7000000000000002
 50
204.21279999999999
 51
294.22066999999998
  0
ARC
  8
_0-0_LAYER001
  6
CONTINUOUS
 62
    2
 10
1336.1342
 20
845.49749999999995
 40
10.001999
 50
294.23665999999992
 51
24.223896999999997
  0
ARC
  8
_0-0_LAYER001
  6
CONTINUOUS
 62
    2
 10
1321.9082000000001
 20
913.66239999999993
 40
4.9989999999999997
 50
114.22009000000001
 51
204.23074000000003
  0
ARC
  8
_0-0_LAYER001
  6
CONTINUOUS
 62
    2
 10
1280.2795000000001
 20
803.91229999999996
 40
4.9989999999999997
 50
114.22009000000001
 51
204.23074000000003
  0
ARC
  8
_0-0_LAYER001
  6
CONTINUOUS
 62
    2
 10
1338.0706
 20
904.92570000000001
 40
6.1470010000000013
 50
349.86246
 51
23.869739999999961
  0
ARC
  8
_0-0_LAYER001
  6
CONTINUOUS
 62
    2
 10
1346.5967000000001
 20
885.9529
 40
6.1580000000000004
 50
24.600926000000005
 51
58.555577
  0
ARC
  8
_0-0_LAYER001
  6
CONTINUOUS
 62
    2
 10
1327.0624
 20
888.56899999999996
 40
22.898997999999999
 50
6.6164910000000008
 51
41.832005000000002
  0
ARC
  8
_0-0_LAYER001
  6
CONTINUOUS
 62
    2
 10
1328.3646000000001
 20
877.7505000000001
 40
6.1479999999999997
 50
169.87801000000002
 51
203.89275000000004
  0
ARC
  8
_0-0_LAYER001
  6
CONTINUOUS
 62
    2
 10
1319.8309999999997
 20
896.71209999999996
 40
6.1479999999999997
 50
204.55376000000004
 51
238.55601999999999
  0
ARC
  8
_0-0_LAYER001
  6
CONTINUOUS
 62
    2
 10
1339.4073000000001
 20
894.12179999999989
 40
22.936000999999997
 50
186.64732000000004
 51
221.80409000000003
  0
LINE
  8
_0-0_LAYER001
  6
DASHED3
 62
    2
 10
1449.8062
 20
1058.394
 11
1977.7440999999999
 21
820.82230000000004
  0
LINE
  8
_0-0_LAYER001
  6
CONTINUOUS
 62
    2
 10
1449.8062
 20
1001.3715
 11
1956.4052000000001
 21
773.40239999999994
  0
LINE
  8
_0-0_LAYER001
  6
CONTINUOUS
 62
    2
 10
1449.8062
 20
878.00569999999993
 11
1910.2393000000002
 21
670.81130000000007
  0
LINE
  8
_0-0_LAYER001
  6
CONTINUOUS
 62
    2
 10
1509.8090000000002
 20
883.90180000000009
 11
1507.7118999999998
 21
884.8454999999999
  0
LINE
  8
_0-0_LAYER001
  6
CONTINUOUS
 62
    2
 10
1534.4328
 20
938.61640000000011
 11
1532.3348999999998
 21
939.55999999999995
  0
LINE
  8
_0-0_LAYER001
  6
CONTINUOUS
 62
    2
 10
1540.5882000000001
 20
952.29600000000005
 11
1534.4328
 21
938.61640000000011
  0
LINE
  8
_0-0_LAYER001
  6
CONTINUOUS
 62
    2
 10
1580.6347000000001
 20
937.23579999999993
 11
1544.1588999999999
 21
953.64989999999989
  0
LINE
  8
_0-0_LAYER001
  6
CONTINUOUS
 62
    2
 10
1545.1015000000002
 20
955.7469000000001
 11
1581.5790999999999
 21
939.33179999999993
  0
LINE
  8
_0-0_LAYER001
  6
CONTINUOUS
 62
    2
 10
1538.4904999999999
 20
953.23960000000011
 11
1532.3348999999998
 21
939.55999999999995
  0
LINE
  8
_0-0_LAYER001
  6
CONTINUOUS
 62
    2
 10
1547.1532999999999
 20
850.64679999999998
 11
1584.0866000000001
 21
932.7206000000001
  0
LINE
  8
_0-0_LAYER001
  6
CONTINUOUS
 62
    2
 10
1504.0636
 20
864.55479999999989
 11
1540.5423999999998
 21
848.13940000000002
  0
LINE
  8
_0-0_LAYER001
  6
CONTINUOUS
 62
    2
 10
1501.5563000000002
 20
871.16579999999999
 11
1507.7118999999998
 21
884.8454999999999
  0
LINE
  8
_0-0_LAYER001
  6
CONTINUOUS
 62
    2
 10
1503.6531
 20
870.2222999999999
 11
1509.8090000000002
 21
883.90180000000009
  0
LINE
  8
_0-0_LAYER001
  6
CONTINUOUS
 62
    2
 10
1541.4848000000002
 20
850.23649999999998
 11
1505.0072
 21
866.65169999999989
  0
LINE
  8
_0-0_LAYER001
  6
CONTINUOUS
 62
    2
 10
1545.0554000000002
 20
851.59050000000002
 11
1581.9884999999999
 21
933.66529999999989
  0
LINE
  8
_0-0_LAYER001
  6
CONTINUOUS
 62
    2
 10
1540.9971
 20
836.96980000000008
 11
1577.9310999999998
 21
919.04259999999999
  0
LINE
  8
_0-0_LAYER001
  6
CONTINUOUS
 62
    2
 10
1582.2624000000001
 20
911.61040000000003
 11
1554.3568
 21
849.60040000000004
  0
LINE
  8
_0-0_LAYER001
  6
CONTINUOUS
 62
    2
 10
1579.7550000000001
 20
918.22260000000006
 11
1577.9310999999998
 21
919.04259999999999
  0
LINE
  8
_0-0_LAYER001
  6
CONTINUOUS
 62
    2
 10
1621.3836000000001
 20
808.47170000000006
 11
1559.3724999999999
 21
836.3773000000001
  0
LINE
  8
_0-0_LAYER001
  6
CONTINUOUS
 62
    2
 10
1563.5228000000002
 20
892.62899999999991
 11
1560.7865000000002
 21
893.85989999999993
  0
LINE
  8
_0-0_LAYER001
  6
CONTINUOUS
 62
    2
 10
1570.0886999999998
 20
907.21910000000003
 11
1567.3524000000002
 21
908.45000000000005
  0
LINE
  8
_0-0_LAYER001
  6
CONTINUOUS
 62
    2
 10
1554.221
 20
879.27080000000001
 11
1567.3524000000002
 21
908.45000000000005
  0
LINE
  8
_0-0_LAYER001
  6
CONTINUOUS
 62
    2
 10
1556.9573
 20
878.03890000000001
 11
1554.221
 21
879.27080000000001
  0
LINE
  8
_0-0_LAYER001
  6
CONTINUOUS
 62
    2
 10
1554.9497999999999
 20
905.25839999999994
 11
1544.2806999999998
 21
910.06040000000007
  0
LINE
  8
_0-0_LAYER001
  6
CONTINUOUS
 62
    2
 10
1548.3845000000001
 20
890.66920000000005
 11
1537.7150999999999
 21
895.4701
  0
LINE
  8
_0-0_LAYER001
  6
CONTINUOUS
 62
    2
 10
1549.8024
 20
891.20779999999991
 11
1557.9436999999998
 21
887.54459999999995
  0
LINE
  8
_0-0_LAYER001
  6
CONTINUOUS
 62
    2
 10
1555.4884000000002
 20
903.84220000000005
 11
1563.6287000000002
 21
900.17840000000001
  0
LINE
  8
_0-0_LAYER001
  6
CONTINUOUS
 62
    2
 10
1558.3303999999998
 20
910.16059999999993
 11
1566.4728
 21
906.49649999999997
  0
LINE
  8
_0-0_LAYER001
  6
CONTINUOUS
 62
    2
 10
1556.5931
 20
908.90900000000011
 11
1558.3303999999998
 21
910.16059999999993
  0
LINE
  8
_0-0_LAYER001
  6
CONTINUOUS
 62
    2
 10
1546.7435
 20
887.02250000000004
 11
1556.5931
 21
908.90900000000011
  0
LINE
  8
_0-0_LAYER001
  6
CONTINUOUS
 62
    2
 10
1546.9593
 20
884.88920000000007
 11
1555.1005
 21
881.22540000000004
  0
LINE
  8
_0-0_LAYER001
  6
CONTINUOUS
 62
    2
 10
1546.7435
 20
887.02250000000004
 11
1546.9593
 21
884.88920000000007
  0
LINE
  8
_0-0_LAYER001
  6
CONTINUOUS
 62
    2
 10
1536.7112000000002
 20
898.11509999999998
 11
1537.7150999999999
 21
895.4701
  0
LINE
  8
_0-0_LAYER001
  6
CONTINUOUS
 62
    2
 10
1541.636
 20
909.05729999999994
 11
1536.7112000000002
 21
898.11509999999998
  0
LINE
  8
_0-0_LAYER001
  6
CONTINUOUS
 62
    2
 10
1544.2806999999998
 20
910.06040000000007
 11
1541.636
 21
909.05729999999994
  0
LINE
  8
_0-0_LAYER001
  6
CONTINUOUS
 62
    2
 10
1544.2806999999998
 20
910.06040000000007
 11
1537.7150999999999
 21
895.4701
  0
LINE
  8
_0-0_LAYER001
  6
CONTINUOUS
 62
    2
 10
1544.2806999999998
 20
910.06040000000007
 11
1540.2883999999999
 21
894.31220000000008
  0
LINE
  8
_0-0_LAYER001
  6
CONTINUOUS
 62
    2
 10
1549.8368999999998
 20
907.5598
 11
1545.8434000000002
 21
891.81169999999997
  0
LINE
  8
_0-0_LAYER001
  6
CONTINUOUS
 62
    2
 10
1582.9879999999998
 20
891.46579999999994
 11
1574.8467999999998
 21
895.12879999999996
  0
LINE
  8
_0-0_LAYER001
  6
CONTINUOUS
 62
    2
 10
1577.3022000000001
 20
878.83110000000011
 11
1569.1608000000001
 21
882.49520000000007
  0
LINE
  8
_0-0_LAYER001
  6
CONTINUOUS
 62
    2
 10
1574.4598999999998
 20
872.51289999999995
 11
1566.3177999999998
 21
876.17679999999996
  0
LINE
  8
_0-0_LAYER001
  6
CONTINUOUS
 62
    2
 10
1576.1975000000002
 20
873.76440000000002
 11
1574.4598999999998
 21
872.51289999999995
  0
LINE
  8
_0-0_LAYER001
  6
CONTINUOUS
 62
    2
 10
1586.0468999999998
 20
895.65100000000007
 11
1576.1975000000002
 21
873.76440000000002
  0
LINE
  8
_0-0_LAYER001
  6
CONTINUOUS
 62
    2
 10
1585.8312999999998
 20
897.7838999999999
 11
1577.6900000000001
 21
901.44800000000009
  0
LINE
  8
_0-0_LAYER001
  6
CONTINUOUS
 62
    2
 10
1586.0468999999998
 20
895.65100000000007
 11
1585.8312999999998
 21
897.7838999999999
  0
LINE
  8
_0-0_LAYER001
  6
CONTINUOUS
 62
    2
 10
1623.8908999999999
 20
801.8605
 11
1623.0700000000002
 21
800.03670000000011
  0
LINE
  8
_0-0_LAYER001
  6
CONTINUOUS
 62
    2
 10
1623.0700000000002
 20
800.03670000000011
 11
1540.9969999999998
 21
836.96939999999995
  0
LINE
  8
_0-0_LAYER001
  6
CONTINUOUS
 62
    2
 10
1579.4124000000002
 20
997.87860000000001
 11
1588.5328
 21
993.77449999999999
  0
LINE
  8
_0-0_LAYER001
  6
CONTINUOUS
 62
    2
 10
1578.1824999999999
 20
995.14210000000003
 11
1587.3009999999999
 21
991.03939999999989
  0
LINE
  8
_0-0_LAYER001
  6
CONTINUOUS
 62
    2
 10
1588.5328
 20
993.77449999999999
 11
1587.3009999999999
 21
991.03939999999989
  0
LINE
  8
_0-0_LAYER001
  6
CONTINUOUS
 62
    2
 10
1579.4124000000002
 20
997.87860000000001
 11
1578.1824999999999
 21
995.14210000000003
  0
LINE
  8
_0-0_LAYER001
  6
CONTINUOUS
 62
    2
 10
1583.9724999999999
 20
995.8266000000001
 11
1582.7417
 21
993.0902000000001
  0
LINE
  8
_0-0_LAYER001
  6
CONTINUOUS
 62
    2
 10
1557.299
 20
936.55179999999996
 11
1561.4212000000002
 21
940.83799999999997
  0
LINE
  8
_0-0_LAYER001
  6
CONTINUOUS
 62
    2
 10
1557.299
 20
936.55179999999996
 11
1557.7734999999998
 21
942.47880000000009
  0
LINE
  8
_0-0_LAYER001
  6
CONTINUOUS
 62
    2
 10
1579.0864999999999
 20
977.07870000000003
 11
1573.4587000000001
 21
980.77019999999993
  0
LINE
  8
_0-0_LAYER001
  6
CONTINUOUS
 62
    2
 10
1577.0345000000002
 20
972.51950000000011
 11
1571.4056
 21
976.21000000000004
  0
LINE
  8
_0-0_LAYER001
  6
CONTINUOUS
 62
    2
 10
1574.9816000000001
 20
967.95920000000001
 11
1569.3539999999998
 21
971.65079999999989
  0
LINE
  8
_0-0_LAYER001
  6
CONTINUOUS
 62
    2
 10
1572.9306999999999
 20
963.39899999999989
 11
1567.3029999999999
 21
967.0915
  0
LINE
  8
_0-0_LAYER001
  6
CONTINUOUS
 62
    2
 10
1570.8788
 20
958.84079999999994
 11
1565.2512000000002
 21
962.53230000000008
  0
LINE
  8
_0-0_LAYER001
  6
CONTINUOUS
 62
    2
 10
1568.8270000000002
 20
954.28050000000007
 11
1563.1981000000001
 21
957.9722999999999
  0
LINE
  8
_0-0_LAYER001
  6
CONTINUOUS
 62
    2
 10
1566.7741000000001
 20
949.7213999999999
 11
1561.1473000000001
 21
953.41190000000006
  0
LINE
  8
_0-0_LAYER001
  6
CONTINUOUS
 62
    2
 10
1564.7231000000002
 20
945.16110000000003
 11
1559.0954000000002
 21
948.85279999999989
  0
LINE
  8
_0-0_LAYER001
  6
CONTINUOUS
 62
    2
 10
1563.1871999999998
 20
941.74900000000002
 11
1557.5598
 21
945.44070000000011
  0
LINE
  8
_0-0_LAYER001
  6
CONTINUOUS
 62
    2
 10
1579.6867999999999
 20
991.17779999999993
 11
1557.7734999999998
 21
942.47880000000009
  0
LINE
  8
_0-0_LAYER001
  6
CONTINUOUS
 62
    2
 10
1578.1824999999999
 20
995.14210000000003
 11
1579.6867999999999
 21
991.17779999999993
  0
LINE
  8
_0-0_LAYER001
  6
CONTINUOUS
 62
    2
 10
1583.3335000000002
 20
989.5338999999999
 11
1561.4212000000002
 21
940.83799999999997
  0
LINE
  8
_0-0_LAYER001
  6
CONTINUOUS
 62
    2
 10
1587.3009999999999
 20
991.03939999999989
 11
1583.3335000000002
 21
989.5338999999999
  0
LINE
  8
_0-0_LAYER001
  6
CONTINUOUS
 62
    2
 10
1586.1383000000001
 20
937.27999999999997
 11
1449.8062
 21
998.62930000000006
  0
LINE
  8
_0-0_LAYER001
  6
CONTINUOUS
 62
    2
 10
1586.1383000000001
 20
937.27999999999997
 11
1587.1644999999999
 21
939.56040000000007
  0
LINE
  8
_0-0_LAYER001
  6
CONTINUOUS
 62
    2
 10
1449.8062
 20
1056.2008000000001
 11
1976.9234000000001
 21
818.9985999999999
  0
CIRCLE
  8
_0-0_LAYER001
  6
CONTINUOUS
 62
    2
 10
1449.8062
 20
878.00569999999993
 40
1.5
  0
ARC
  8
_0-0_LAYER001
  6
CONTINUOUS
 62
    2
 10
1543.0506
 20
951.18759999999997
 40
2.7000000000000002
 50
65.767520000000005
 51
155.75962000000001
  0
ARC
  8
_0-0_LAYER001
  6
CONTINUOUS
 62
    2
 10
1579.5263
 20
934.77359999999999
 40
2.7000000000000002
 50
335.78719999999998
 51
65.767520000000005
  0
ARC
  8
_0-0_LAYER001
  6
CONTINUOUS
 62
    2
 10
1579.5284000000001
 20
934.77260000000001
 40
4.9989999999999997
 50
335.76925999999997
 51
65.779910000000015
  0
ARC
  8
_0-0_LAYER001
  6
CONTINUOUS
 62
    2
 10
1543.0495999999998
 20
951.1887999999999
 40
4.9989999999999997
 50
65.75864
 51
155.77564000000001
  0
ARC
  8
_0-0_LAYER001
  6
CONTINUOUS
 62
    2
 10
1542.5942
 20
852.69759999999997
 40
4.9989999999999997
 50
245.76499999999999
 51
335.79054000000002
  0
ARC
  8
_0-0_LAYER001
  6
CONTINUOUS
 62
    2
 10
1506.1145999999999
 20
869.11390000000006
 40
4.9989999999999997
 50
155.75434999999999
 51
245.78629000000001
  0
ARC
  8
_0-0_LAYER001
  6
CONTINUOUS
 62
    2
 10
1506.1156999999998
 20
869.11390000000006
 40
2.7000000000000002
 50
155.75962000000001
 51
245.77932999999999
  0
ARC
  8
_0-0_LAYER001
  6
CONTINUOUS
 62
    2
 10
1542.5934000000002
 20
852.69859999999994
 40
2.7000000000000002
 50
245.77933000000002
 51
335.78720000000004
  0
ARC
  8
_0-0_LAYER001
  6
CONTINUOUS
 62
    2
 10
1563.4782
 20
845.49749999999995
 40
10.001999
 50
155.77610000000004
 51
245.76334
  0
ARC
  8
_0-0_LAYER001
  6
CONTINUOUS
 62
    2
 10
1577.7042999999999
 20
913.66239999999993
 40
4.9989999999999997
 50
335.76925999999997
 51
65.779910000000015
  0
ARC
  8
_0-0_LAYER001
  6
CONTINUOUS
 62
    2
 10
1619.3328999999999
 20
803.91229999999996
 40
4.9989999999999997
 50
335.76925999999997
 51
65.779910000000015
  0
ARC
  8
_0-0_LAYER001
  6
CONTINUOUS
 62
    2
 10
1561.5418
 20
904.92570000000001
 40
6.1470010000000013
 50
156.13026000000002
 51
190.13754000000003
  0
ARC
  8
_0-0_LAYER001
  6
CONTINUOUS
 62
    2
 10
1553.0156999999999
 20
885.9529
 40
6.1580000000000004
 50
121.44441999999999
 51
155.39906999999999
  0
ARC
  8
_0-0_LAYER001
  6
CONTINUOUS
 62
    2
 10
1572.5500000000002
 20
888.56899999999996
 40
22.898997999999999
 50
138.16799
 51
173.3835
  0
ARC
  8
_0-0_LAYER001
  6
CONTINUOUS
 62
    2
 10
1571.2478000000001
 20
877.7505000000001
 40
6.1479999999999997
 50
336.10724999999996
 51
10.121989999999936
  0
ARC
  8
_0-0_LAYER001
  6
CONTINUOUS
 62
    2
 10
1579.7813999999998
 20
896.71209999999996
 40
6.1479999999999997
 50
301.44398000000001
 51
335.44623999999999
  0
ARC
  8
_0-0_LAYER001
  6
CONTINUOUS
 62
    2
 10
1560.2051000000001
 20
894.12179999999989
 40
22.936000999999997
 50
318.19591000000008
 51
353.35268000000008
  0
LINE
  8
_0-0_LAYER001
  6
CONTINUOUS
 62
    2
 10
1449.8062
 20
1001.3715
 11
1449.8062
 21
1056.2008000000001
  0
LINE
  8
_0-0_LAYER001
  6
CONTINUOUS
 62
    2
 10
1419.8447000000001
 20
1173.9437
 11
1419.8447000000001
 21
1192.3400999999999
  0
LINE
  8
_0-0_LAYER001
  6
CONTINUOUS
 62
    2
 10
1479.8449999999998
 20
1173.9437
 11
1479.8449999999998
 21
1192.3395
  0
LINE
  8
_0-0_LAYER001
  6
CONTINUOUS
 62
    2
 10
1509.3634000000002
 20
1244.7265
 11
1505.6134000000002
 21
1238.2312999999999
  0
LINE
  8
_0-0_LAYER001
  6
CONTINUOUS
 62
    2
 10
1505.6134000000002
 20
1238.2312999999999
 11
1505.6134000000002
 21
1245.7312999999999
  0
LINE
  8
_0-0_LAYER001
  6
CONTINUOUS
 62
    2
 10
1505.6134000000002
 20
1238.2312999999999
 11
1528.6442000000002
 21
1324.1833999999999
  0
LINE
  8
_0-0_LAYER001
  6
CONTINUOUS
 62
    2
 10
1419.8448000000003
 20
1203.6514
 11
1419.8448000000003
 21
1222.2154
  0
LINE
  8
_0-0_LAYER001
  6
CONTINUOUS
 62
    3
 10
1431.0455999999999
 20
1222.2936999999999
 11
1431.0562
 21
1221.828
  0
LINE
  8
_0-0_LAYER001
  6
CONTINUOUS
 62
    3
 10
1431.0562
 20
1221.828
 11
1431.0852
 21
1220.5641000000001
  0
LINE
  8
_0-0_LAYER001
  6
CONTINUOUS
 62
    3
 10
1431.0852
 20
1220.5641000000001
 11
1431.1279
 21
1218.7014999999999
  0
LINE
  8
_0-0_LAYER001
  6
CONTINUOUS
 62
    3
 10
1431.1279
 20
1218.7014999999999
 11
1431.1797000000001
 21
1216.4396999999999
  0
LINE
  8
_0-0_LAYER001
  6
CONTINUOUS
 62
    3
 10
1431.1797000000001
 20
1216.4396999999999
 11
1431.2361000000001
 21
1213.9784
  0
LINE
  8
_0-0_LAYER001
  6
CONTINUOUS
 62
    3
 10
1431.2361000000001
 20
1213.9784
 11
1431.2923999999998
 21
1211.5170000000001
  0
LINE
  8
_0-0_LAYER001
  6
CONTINUOUS
 62
    3
 10
1431.2923999999998
 20
1211.5170000000001
 11
1431.3442
 21
1209.2553
  0
LINE
  8
_0-0_LAYER001
  6
CONTINUOUS
 62
    3
 10
1431.3442
 20
1209.2553
 11
1431.3869
 21
1207.3925999999999
  0
LINE
  8
_0-0_LAYER001
  6
CONTINUOUS
 62
    3
 10
1431.3869
 20
1207.3925999999999
 11
1431.4159
 21
1206.1287
  0
LINE
  8
_0-0_LAYER001
  6
CONTINUOUS
 62
    3
 10
1431.4159
 20
1206.1287
 11
1431.4265
 21
1205.6631
  0
LINE
  8
_0-0_LAYER001
  6
CONTINUOUS
 62
    3
 10
1431.4265
 20
1205.6631
 11
1430.2789000000002
 21
1205.6567
  0
LINE
  8
_0-0_LAYER001
  6
CONTINUOUS
 62
    3
 10
1430.2789000000002
 20
1205.6567
 11
1426.9074000000001
 21
1205.4838999999999
  0
LINE
  8
_0-0_LAYER001
  6
CONTINUOUS
 62
    3
 10
1426.9074000000001
 20
1205.4838999999999
 11
1421.4190000000003
 21
1204.9141
  0
LINE
  8
_0-0_LAYER001
  6
CONTINUOUS
 62
    3
 10
1421.4190000000003
 20
1204.9141
 11
1413.9209000000001
 21
1203.7168999999999
  0
LINE
  8
_0-0_LAYER001
  6
CONTINUOUS
 62
    3
 10
1413.9209000000001
 20
1203.7168999999999
 11
1404.5201
 21
1201.6618000000001
  0
LINE
  8
_0-0_LAYER001
  6
CONTINUOUS
 62
    3
 10
1404.5201
 20
1201.6618000000001
 11
1393.3238000000001
 21
1198.5183
  0
LINE
  8
_0-0_LAYER001
  6
CONTINUOUS
 62
    3
 10
1393.3238000000001
 20
1198.5183
 11
1380.4389000000001
 21
1194.0558000000001
  0
LINE
  8
_0-0_LAYER001
  6
CONTINUOUS
 62
    3
 10
1380.4389000000001
 20
1194.0558000000001
 11
1365.9725000000001
 21
1188.0438999999999
  0
LINE
  8
_0-0_LAYER001
  6
CONTINUOUS
 62
    3
 10
1365.9725000000001
 20
1188.0438999999999
 11
1350.0317999999997
 21
1180.252
  0
LINE
  8
_0-0_LAYER001
  6
CONTINUOUS
 62
    3
 10
1350.0317999999997
 20
1180.252
 11
1332.7237
 21
1170.4498000000001
  0
LINE
  8
_0-0_LAYER001
  6
CONTINUOUS
 62
    3
 10
1332.7237
 20
1170.4498000000001
 11
1332.7064
 21
1171.2076
  0
LINE
  8
_0-0_LAYER001
  6
CONTINUOUS
 62
    3
 10
1332.7064
 20
1171.2076
 11
1332.6592000000001
 21
1173.2646
  0
LINE
  8
_0-0_LAYER001
  6
CONTINUOUS
 62
    3
 10
1332.6592000000001
 20
1173.2646
 11
1332.5898000000002
 21
1176.296
  0
LINE
  8
_0-0_LAYER001
  6
CONTINUOUS
 62
    3
 10
1332.5898000000002
 20
1176.296
 11
1332.5055
 21
1179.9768999999999
  0
LINE
  8
_0-0_LAYER001
  6
CONTINUOUS
 62
    3
 10
1332.5055
 20
1179.9768999999999
 11
1332.4137000000001
 21
1183.9827
  0
LINE
  8
_0-0_LAYER001
  6
CONTINUOUS
 62
    3
 10
1332.4137000000001
 20
1183.9827
 11
1332.3219999999997
 21
1187.9884
  0
LINE
  8
_0-0_LAYER001
  6
CONTINUOUS
 62
    3
 10
1332.3219999999997
 20
1187.9884
 11
1332.2375999999999
 21
1191.6694
  0
LINE
  8
_0-0_LAYER001
  6
CONTINUOUS
 62
    3
 10
1332.2375999999999
 20
1191.6694
 11
1332.1682000000001
 21
1194.7008000000001
  0
LINE
  8
_0-0_LAYER001
  6
CONTINUOUS
 62
    3
 10
1332.1682000000001
 20
1194.7008000000001
 11
1332.1210999999998
 21
1196.7578000000001
  0
LINE
  8
_0-0_LAYER001
  6
CONTINUOUS
 62
    3
 10
1332.1210999999998
 20
1196.7578000000001
 11
1332.1036999999999
 21
1197.5155999999999
  0
LINE
  8
_0-0_LAYER001
  6
CONTINUOUS
 62
    3
 10
1332.1036999999999
 20
1197.5155999999999
 11
1333.7569000000003
 21
1198.1397999999999
  0
LINE
  8
_0-0_LAYER001
  6
CONTINUOUS
 62
    3
 10
1333.7569000000003
 20
1198.1397999999999
 11
1338.4215999999997
 21
1199.845
  0
LINE
  8
_0-0_LAYER001
  6
CONTINUOUS
 62
    3
 10
1338.4215999999997
 20
1199.845
 11
1345.6550999999999
 21
1202.3803
  0
LINE
  8
_0-0_LAYER001
  6
CONTINUOUS
 62
    3
 10
1345.6550999999999
 20
1202.3803
 11
1355.0150000000003
 21
1205.4947999999999
  0
LINE
  8
_0-0_LAYER001
  6
CONTINUOUS
 62
    3
 10
1355.0150000000003
 20
1205.4947999999999
 11
1366.0587
 21
1208.9376
  0
LINE
  8
_0-0_LAYER001
  6
CONTINUOUS
 62
    3
 10
1366.0587
 20
1208.9376
 11
1378.3436000000002
 21
1212.4576999999999
  0
LINE
  8
_0-0_LAYER001
  6
CONTINUOUS
 62
    3
 10
1378.3436000000002
 20
1212.4576999999999
 11
1391.4273000000001
 21
1215.8043
  0
LINE
  8
_0-0_LAYER001
  6
CONTINUOUS
 62
    3
 10
1391.4273000000001
 20
1215.8043
 11
1404.8672999999999
 21
1218.7265
  0
LINE
  8
_0-0_LAYER001
  6
CONTINUOUS
 62
    3
 10
1404.8672999999999
 20
1218.7265
 11
1418.2209
 21
1220.9731999999999
  0
LINE
  8
_0-0_LAYER001
  6
CONTINUOUS
 62
    3
 10
1431.0455999999999
 20
1222.2936999999999
 11
1418.1088999999999
 21
1220.9544000000001
  0
LINE
  8
_0-0_LAYER001
  6
CONTINUOUS
 62
    3
 10
1425.2152000000001
 20
1191.9681
 11
1425.2258000000002
 21
1191.5024000000001
  0
LINE
  8
_0-0_LAYER001
  6
CONTINUOUS
 62
    3
 10
1425.2258000000002
 20
1191.5024000000001
 11
1425.2547999999999
 21
1190.2384999999999
  0
LINE
  8
_0-0_LAYER001
  6
CONTINUOUS
 62
    3
 10
1425.2547999999999
 20
1190.2384999999999
 11
1425.2974999999997
 21
1188.3759
  0
LINE
  8
_0-0_LAYER001
  6
CONTINUOUS
 62
    3
 10
1425.2974999999997
 20
1188.3759
 11
1425.3493000000001
 21
1186.1141
  0
LINE
  8
_0-0_LAYER001
  6
CONTINUOUS
 62
    3
 10
1425.3493000000001
 20
1186.1141
 11
1425.4056
 21
1183.6528000000001
  0
LINE
  8
_0-0_LAYER001
  6
CONTINUOUS
 62
    3
 10
1425.4056
 20
1183.6528000000001
 11
1425.462
 21
1181.1913999999999
  0
LINE
  8
_0-0_LAYER001
  6
CONTINUOUS
 62
    3
 10
1425.462
 20
1181.1913999999999
 11
1425.5137999999999
 21
1178.9296999999999
  0
LINE
  8
_0-0_LAYER001
  6
CONTINUOUS
 62
    3
 10
1425.5137999999999
 20
1178.9296999999999
 11
1425.5564999999999
 21
1177.067
  0
LINE
  8
_0-0_LAYER001
  6
CONTINUOUS
 62
    3
 10
1425.5564999999999
 20
1177.067
 11
1425.5854999999999
 21
1175.8031000000001
  0
LINE
  8
_0-0_LAYER001
  6
CONTINUOUS
 62
    3
 10
1425.5854999999999
 20
1175.8031000000001
 11
1425.5961
 21
1175.3375000000001
  0
LINE
  8
_0-0_LAYER001
  6
CONTINUOUS
 62
    3
 10
1425.5961
 20
1175.3375000000001
 11
1424.4485
 21
1175.3311000000001
  0
LINE
  8
_0-0_LAYER001
  6
CONTINUOUS
 62
    3
 10
1424.4485
 20
1175.3311000000001
 11
1421.077
 21
1175.1583000000001
  0
LINE
  8
_0-0_LAYER001
  6
CONTINUOUS
 62
    3
 10
1421.077
 20
1175.1583000000001
 11
1415.5886
 21
1174.5885000000001
  0
LINE
  8
_0-0_LAYER001
  6
CONTINUOUS
 62
    3
 10
1415.5886
 20
1174.5885000000001
 11
1408.0905000000002
 21
1173.3913
  0
LINE
  8
_0-0_LAYER001
  6
CONTINUOUS
 62
    3
 10
1408.0905000000002
 20
1173.3913
 11
1398.6896999999999
 21
1171.3362
  0
LINE
  8
_0-0_LAYER001
  6
CONTINUOUS
 62
    3
 10
1398.6896999999999
 20
1171.3362
 11
1387.4934000000003
 21
1168.1927000000001
  0
LINE
  8
_0-0_LAYER001
  6
CONTINUOUS
 62
    3
 10
1387.4934000000003
 20
1168.1927000000001
 11
1374.6084999999998
 21
1163.7302
  0
LINE
  8
_0-0_LAYER001
  6
CONTINUOUS
 62
    3
 10
1374.6084999999998
 20
1163.7302
 11
1360.1421
 21
1157.7183
  0
LINE
  8
_0-0_LAYER001
  6
CONTINUOUS
 62
    3
 10
1360.1421
 20
1157.7183
 11
1344.2013999999999
 21
1149.9264000000001
  0
LINE
  8
_0-0_LAYER001
  6
CONTINUOUS
 62
    3
 10
1344.2013999999999
 20
1149.9264000000001
 11
1326.8932999999997
 21
1140.1242
  0
LINE
  8
_0-0_LAYER001
  6
CONTINUOUS
 62
    3
 10
1326.8932999999997
 20
1140.1242
 11
1326.8759
 21
1140.8820000000001
  0
LINE
  8
_0-0_LAYER001
  6
CONTINUOUS
 62
    3
 10
1326.8759
 20
1140.8820000000001
 11
1326.8288000000002
 21
1142.9390000000001
  0
LINE
  8
_0-0_LAYER001
  6
CONTINUOUS
 62
    3
 10
1326.8288000000002
 20
1142.9390000000001
 11
1326.7593999999999
 21
1145.9703999999999
  0
LINE
  8
_0-0_LAYER001
  6
CONTINUOUS
 62
    3
 10
1326.7593999999999
 20
1145.9703999999999
 11
1326.6750999999999
 21
1149.6513
  0
LINE
  8
_0-0_LAYER001
  6
CONTINUOUS
 62
    3
 10
1326.6750999999999
 20
1149.6513
 11
1326.5833
 21
1153.6570999999999
  0
LINE
  8
_0-0_LAYER001
  6
CONTINUOUS
 62
    3
 10
1326.5833
 20
1153.6570999999999
 11
1326.4915999999998
 21
1157.6628000000001
  0
LINE
  8
_0-0_LAYER001
  6
CONTINUOUS
 62
    3
 10
1326.4915999999998
 20
1157.6628000000001
 11
1326.4072000000001
 21
1161.3438000000001
  0
LINE
  8
_0-0_LAYER001
  6
CONTINUOUS
 62
    3
 10
1326.4072000000001
 20
1161.3438000000001
 11
1326.3378
 21
1164.3751999999999
  0
LINE
  8
_0-0_LAYER001
  6
CONTINUOUS
 62
    3
 10
1326.3378
 20
1164.3751999999999
 11
1326.2907
 21
1166.4322
  0
LINE
  8
_0-0_LAYER001
  6
CONTINUOUS
 62
    3
 10
1326.2907
 20
1166.4322
 11
1326.2733000000001
 21
1167.1900000000001
  0
LINE
  8
_0-0_LAYER001
  6
CONTINUOUS
 62
    3
 10
1326.2733000000001
 20
1167.1900000000001
 11
1327.9265
 21
1167.8142
  0
LINE
  8
_0-0_LAYER001
  6
CONTINUOUS
 62
    3
 10
1327.9265
 20
1167.8142
 11
1332.5911999999998
 21
1169.5192999999999
  0
LINE
  8
_0-0_LAYER001
  6
CONTINUOUS
 62
    3
 10
1332.5911999999998
 20
1169.5192999999999
 11
1339.8246999999997
 21
1172.0546999999999
  0
LINE
  8
_0-0_LAYER001
  6
CONTINUOUS
 62
    3
 10
1339.8246999999997
 20
1172.0546999999999
 11
1349.1846
 21
1175.1692
  0
LINE
  8
_0-0_LAYER001
  6
CONTINUOUS
 62
    3
 10
1349.1846
 20
1175.1692
 11
1360.2283
 21
1178.6120000000001
  0
LINE
  8
_0-0_LAYER001
  6
CONTINUOUS
 62
    3
 10
1360.2283
 20
1178.6120000000001
 11
1372.5132000000003
 21
1182.1321
  0
LINE
  8
_0-0_LAYER001
  6
CONTINUOUS
 62
    3
 10
1372.5132000000003
 20
1182.1321
 11
1385.5969
 21
1185.4786999999999
  0
LINE
  8
_0-0_LAYER001
  6
CONTINUOUS
 62
    3
 10
1385.5969
 20
1185.4786999999999
 11
1399.0369000000001
 21
1188.4009000000001
  0
LINE
  8
_0-0_LAYER001
  6
CONTINUOUS
 62
    3
 10
1399.0369000000001
 20
1188.4009000000001
 11
1412.3903999999998
 21
1190.6476
  0
LINE
  8
_0-0_LAYER001
  6
CONTINUOUS
 62
    3
 10
1425.2152000000001
 20
1191.9681
 11
1412.2784999999999
 21
1190.6288
  0
LINE
  8
_0-0_LAYER001
  6
CONTINUOUS
 62
    3
 10
1417.1304
 20
1158.1578999999999
 11
1417.1411000000001
 21
1157.6922
  0
LINE
  8
_0-0_LAYER001
  6
CONTINUOUS
 62
    3
 10
1417.1411000000001
 20
1157.6922
 11
1417.1700000000001
 21
1156.4283
  0
LINE
  8
_0-0_LAYER001
  6
CONTINUOUS
 62
    3
 10
1417.1700000000001
 20
1156.4283
 11
1417.2127
 21
1154.5655999999999
  0
LINE
  8
_0-0_LAYER001
  6
CONTINUOUS
 62
    3
 10
1417.2127
 20
1154.5655999999999
 11
1417.2645
 21
1152.3039000000001
  0
LINE
  8
_0-0_LAYER001
  6
CONTINUOUS
 62
    3
 10
1417.2645
 20
1152.3039000000001
 11
1417.3208999999999
 21
1149.8425999999999
  0
LINE
  8
_0-0_LAYER001
  6
CONTINUOUS
 62
    3
 10
1417.3208999999999
 20
1149.8425999999999
 11
1417.3773000000001
 21
1147.3812
  0
LINE
  8
_0-0_LAYER001
  6
CONTINUOUS
 62
    3
 10
1417.3773000000001
 20
1147.3812
 11
1417.4290999999998
 21
1145.1195
  0
LINE
  8
_0-0_LAYER001
  6
CONTINUOUS
 62
    3
 10
1417.4290999999998
 20
1145.1195
 11
1417.4717000000001
 21
1143.2568000000001
  0
LINE
  8
_0-0_LAYER001
  6
CONTINUOUS
 62
    3
 10
1417.4717000000001
 20
1143.2568000000001
 11
1417.5007000000001
 21
1141.9929
  0
LINE
  8
_0-0_LAYER001
  6
CONTINUOUS
 62
    3
 10
1417.5007000000001
 20
1141.9929
 11
1417.5114000000003
 21
1141.5272
  0
LINE
  8
_0-0_LAYER001
  6
CONTINUOUS
 62
    3
 10
1417.5114000000003
 20
1141.5272
 11
1416.3636999999999
 21
1141.5209
  0
LINE
  8
_0-0_LAYER001
  6
CONTINUOUS
 62
    3
 10
1416.3636999999999
 20
1141.5209
 11
1412.9921999999999
 21
1141.348
  0
LINE
  8
_0-0_LAYER001
  6
CONTINUOUS
 62
    3
 10
1412.9921999999999
 20
1141.348
 11
1407.5038
 21
1140.7782999999999
  0
LINE
  8
_0-0_LAYER001
  6
CONTINUOUS
 62
    3
 10
1407.5038
 20
1140.7782999999999
 11
1400.0056999999997
 21
1139.5811000000001
  0
LINE
  8
_0-0_LAYER001
  6
CONTINUOUS
 62
    3
 10
1400.0056999999997
 20
1139.5811000000001
 11
1390.605
 21
1137.5260000000001
  0
LINE
  8
_0-0_LAYER001
  6
CONTINUOUS
 62
    3
 10
1390.605
 20
1137.5260000000001
 11
1379.4085999999998
 21
1134.3824
  0
LINE
  8
_0-0_LAYER001
  6
CONTINUOUS
 62
    3
 10
1379.4085999999998
 20
1134.3824
 11
1366.5237
 21
1129.9200000000001
  0
LINE
  8
_0-0_LAYER001
  6
CONTINUOUS
 62
    3
 10
1366.5237
 20
1129.9200000000001
 11
1352.0572999999999
 21
1123.9081000000001
  0
LINE
  8
_0-0_LAYER001
  6
CONTINUOUS
 62
    3
 10
1352.0572999999999
 20
1123.9081000000001
 11
1336.1166000000001
 21
1116.1161999999999
  0
LINE
  8
_0-0_LAYER001
  6
CONTINUOUS
 62
    3
 10
1336.1166000000001
 20
1116.1161999999999
 11
1318.8085000000001
 21
1106.3139000000001
  0
LINE
  8
_0-0_LAYER001
  6
CONTINUOUS
 62
    3
 10
1318.8085000000001
 20
1106.3139000000001
 11
1318.7912000000001
 21
1107.0717999999999
  0
LINE
  8
_0-0_LAYER001
  6
CONTINUOUS
 62
    3
 10
1318.7912000000001
 20
1107.0717999999999
 11
1318.7440999999999
 21
1109.1288
  0
LINE
  8
_0-0_LAYER001
  6
CONTINUOUS
 62
    3
 10
1318.7440999999999
 20
1109.1288
 11
1318.6745999999998
 21
1112.1602
  0
LINE
  8
_0-0_LAYER001
  6
CONTINUOUS
 62
    3
 10
1318.6745999999998
 20
1112.1602
 11
1318.5903000000003
 21
1115.8411000000001
  0
LINE
  8
_0-0_LAYER001
  6
CONTINUOUS
 62
    3
 10
1318.5903000000003
 20
1115.8411000000001
 11
1318.4985000000001
 21
1119.8469
  0
LINE
  8
_0-0_LAYER001
  6
CONTINUOUS
 62
    3
 10
1318.4985000000001
 20
1119.8469
 11
1318.4068
 21
1123.8525999999999
  0
LINE
  8
_0-0_LAYER001
  6
CONTINUOUS
 62
    3
 10
1318.4068
 20
1123.8525999999999
 11
1318.3224999999998
 21
1127.5336
  0
LINE
  8
_0-0_LAYER001
  6
CONTINUOUS
 62
    3
 10
1318.3224999999998
 20
1127.5336
 11
1318.2529999999999
 21
1130.5649000000001
  0
LINE
  8
_0-0_LAYER001
  6
CONTINUOUS
 62
    3
 10
1318.2529999999999
 20
1130.5649000000001
 11
1318.2058999999999
 21
1132.6219000000001
  0
LINE
  8
_0-0_LAYER001
  6
CONTINUOUS
 62
    3
 10
1318.2058999999999
 20
1132.6219000000001
 11
1318.1886
 21
1133.3797999999999
  0
LINE
  8
_0-0_LAYER001
  6
CONTINUOUS
 62
    3
 10
1318.1886
 20
1133.3797999999999
 11
1319.8417999999997
 21
1134.0038999999999
  0
LINE
  8
_0-0_LAYER001
  6
CONTINUOUS
 62
    3
 10
1319.8417999999997
 20
1134.0038999999999
 11
1324.5064
 21
1135.7091
  0
LINE
  8
_0-0_LAYER001
  6
CONTINUOUS
 62
    3
 10
1324.5064
 20
1135.7091
 11
1331.7399
 21
1138.2444
  0
LINE
  8
_0-0_LAYER001
  6
CONTINUOUS
 62
    3
 10
1331.7399
 20
1138.2444
 11
1341.0998
 21
1141.3589999999999
  0
LINE
  8
_0-0_LAYER001
  6
CONTINUOUS
 62
    3
 10
1341.0998
 20
1141.3589999999999
 11
1352.1434999999999
 21
1144.8018
  0
LINE
  8
_0-0_LAYER001
  6
CONTINUOUS
 62
    3
 10
1352.1434999999999
 20
1144.8018
 11
1364.4285
 21
1148.3218999999999
  0
LINE
  8
_0-0_LAYER001
  6
CONTINUOUS
 62
    3
 10
1364.4285
 20
1148.3218999999999
 11
1377.5121999999999
 21
1151.6685
  0
LINE
  8
_0-0_LAYER001
  6
CONTINUOUS
 62
    3
 10
1377.5121999999999
 20
1151.6685
 11
1390.9521
 21
1154.5907
  0
LINE
  8
_0-0_LAYER001
  6
CONTINUOUS
 62
    3
 10
1390.9521
 20
1154.5907
 11
1404.3056999999999
 21
1156.8373999999999
  0
LINE
  8
_0-0_LAYER001
  6
CONTINUOUS
 62
    3
 10
1417.1304
 20
1158.1578999999999
 11
1404.1937000000003
 21
1156.8186000000001
  0
LINE
  8
_0-0_LAYER001
  6
CONTINUOUS
 62
    3
 10
1468.6441
 20
1222.2936999999999
 11
1468.6334000000002
 21
1221.828
  0
LINE
  8
_0-0_LAYER001
  6
CONTINUOUS
 62
    3
 10
1468.6334000000002
 20
1221.828
 11
1468.6044999999999
 21
1220.5641000000001
  0
LINE
  8
_0-0_LAYER001
  6
CONTINUOUS
 62
    3
 10
1468.6044999999999
 20
1220.5641000000001
 11
1468.5617999999999
 21
1218.7014999999999
  0
LINE
  8
_0-0_LAYER001
  6
CONTINUOUS
 62
    3
 10
1468.5617999999999
 20
1218.7014999999999
 11
1468.5100000000002
 21
1216.4396999999999
  0
LINE
  8
_0-0_LAYER001
  6
CONTINUOUS
 62
    3
 10
1468.5100000000002
 20
1216.4396999999999
 11
1468.4535999999998
 21
1213.9784
  0
LINE
  8
_0-0_LAYER001
  6
CONTINUOUS
 62
    3
 10
1468.4535999999998
 20
1213.9784
 11
1468.3973000000001
 21
1211.5170000000001
  0
LINE
  8
_0-0_LAYER001
  6
CONTINUOUS
 62
    3
 10
1468.3973000000001
 20
1211.5170000000001
 11
1468.3454000000002
 21
1209.2553
  0
LINE
  8
_0-0_LAYER001
  6
CONTINUOUS
 62
    3
 10
1468.3454000000002
 20
1209.2553
 11
1468.3027999999999
 21
1207.3925999999999
  0
LINE
  8
_0-0_LAYER001
  6
CONTINUOUS
 62
    3
 10
1468.3027999999999
 20
1207.3925999999999
 11
1468.2737999999999
 21
1206.1287
  0
LINE
  8
_0-0_LAYER001
  6
CONTINUOUS
 62
    3
 10
1468.2737999999999
 20
1206.1287
 11
1468.2631999999999
 21
1205.6631
  0
LINE
  8
_0-0_LAYER001
  6
CONTINUOUS
 62
    3
 10
1468.2631999999999
 20
1205.6631
 11
1469.4108000000001
 21
1205.6567
  0
LINE
  8
_0-0_LAYER001
  6
CONTINUOUS
 62
    3
 10
1469.4108000000001
 20
1205.6567
 11
1472.7822999999999
 21
1205.4838999999999
  0
LINE
  8
_0-0_LAYER001
  6
CONTINUOUS
 62
    3
 10
1472.7822999999999
 20
1205.4838999999999
 11
1478.2707
 21
1204.9141
  0
LINE
  8
_0-0_LAYER001
  6
CONTINUOUS
 62
    3
 10
1478.2707
 20
1204.9141
 11
1485.7687999999998
 21
1203.7168999999999
  0
LINE
  8
_0-0_LAYER001
  6
CONTINUOUS
 62
    3
 10
1485.7687999999998
 20
1203.7168999999999
 11
1495.1695
 21
1201.6618000000001
  0
LINE
  8
_0-0_LAYER001
  6
CONTINUOUS
 62
    3
 10
1495.1695
 20
1201.6618000000001
 11
1506.3658999999998
 21
1198.5183
  0
LINE
  8
_0-0_LAYER001
  6
CONTINUOUS
 62
    3
 10
1506.3658999999998
 20
1198.5183
 11
1519.2507999999998
 21
1194.0558000000001
  0
LINE
  8
_0-0_LAYER001
  6
CONTINUOUS
 62
    3
 10
1519.2507999999998
 20
1194.0558000000001
 11
1533.7172
 21
1188.0438999999999
  0
LINE
  8
_0-0_LAYER001
  6
CONTINUOUS
 62
    3
 10
1533.7172
 20
1188.0438999999999
 11
1549.6579000000002
 21
1180.252
  0
LINE
  8
_0-0_LAYER001
  6
CONTINUOUS
 62
    3
 10
1549.6579000000002
 20
1180.252
 11
1566.9659999999999
 21
1170.4498000000001
  0
LINE
  8
_0-0_LAYER001
  6
CONTINUOUS
 62
    3
 10
1566.9659999999999
 20
1170.4498000000001
 11
1566.9832999999999
 21
1171.2076
  0
LINE
  8
_0-0_LAYER001
  6
CONTINUOUS
 62
    3
 10
1566.9832999999999
 20
1171.2076
 11
1567.0304999999998
 21
1173.2646
  0
LINE
  8
_0-0_LAYER001
  6
CONTINUOUS
 62
    3
 10
1567.0304999999998
 20
1173.2646
 11
1567.0999000000002
 21
1176.296
  0
LINE
  8
_0-0_LAYER001
  6
CONTINUOUS
 62
    3
 10
1567.0999000000002
 20
1176.296
 11
1567.1842000000001
 21
1179.9768999999999
  0
LINE
  8
_0-0_LAYER001
  6
CONTINUOUS
 62
    3
 10
1567.1842000000001
 20
1179.9768999999999
 11
1567.2759999999998
 21
1183.9827
  0
LINE
  8
_0-0_LAYER001
  6
CONTINUOUS
 62
    3
 10
1567.2759999999998
 20
1183.9827
 11
1567.3676999999998
 21
1187.9884
  0
LINE
  8
_0-0_LAYER001
  6
CONTINUOUS
 62
    3
 10
1567.3676999999998
 20
1187.9884
 11
1567.4520000000002
 21
1191.6694
  0
LINE
  8
_0-0_LAYER001
  6
CONTINUOUS
 62
    3
 10
1567.4520000000002
 20
1191.6694
 11
1567.5214999999998
 21
1194.7008000000001
  0
LINE
  8
_0-0_LAYER001
  6
CONTINUOUS
 62
    3
 10
1567.5214999999998
 20
1194.7008000000001
 11
1567.5686000000001
 21
1196.7578000000001
  0
LINE
  8
_0-0_LAYER001
  6
CONTINUOUS
 62
    3
 10
1567.5686000000001
 20
1196.7578000000001
 11
1567.5859999999998
 21
1197.5155999999999
  0
LINE
  8
_0-0_LAYER001
  6
CONTINUOUS
 62
    3
 10
1567.5859999999998
 20
1197.5155999999999
 11
1565.9326999999998
 21
1198.1397999999999
  0
LINE
  8
_0-0_LAYER001
  6
CONTINUOUS
 62
    3
 10
1565.9326999999998
 20
1198.1397999999999
 11
1561.2680999999998
 21
1199.845
  0
LINE
  8
_0-0_LAYER001
  6
CONTINUOUS
 62
    3
 10
1561.2680999999998
 20
1199.845
 11
1554.0346
 21
1202.3803
  0
LINE
  8
_0-0_LAYER001
  6
CONTINUOUS
 62
    3
 10
1554.0346
 20
1202.3803
 11
1544.6747
 21
1205.4947999999999
  0
LINE
  8
_0-0_LAYER001
  6
CONTINUOUS
 62
    3
 10
1544.6747
 20
1205.4947999999999
 11
1533.6309999999999
 21
1208.9376
  0
LINE
  8
_0-0_LAYER001
  6
CONTINUOUS
 62
    3
 10
1533.6309999999999
 20
1208.9376
 11
1521.3461000000002
 21
1212.4576999999999
  0
LINE
  8
_0-0_LAYER001
  6
CONTINUOUS
 62
    3
 10
1521.3461000000002
 20
1212.4576999999999
 11
1508.2624000000001
 21
1215.8043
  0
LINE
  8
_0-0_LAYER001
  6
CONTINUOUS
 62
    3
 10
1508.2624000000001
 20
1215.8043
 11
1494.8224
 21
1218.7265
  0
LINE
  8
_0-0_LAYER001
  6
CONTINUOUS
 62
    3
 10
1494.8224
 20
1218.7265
 11
1481.4688000000001
 21
1220.9731999999999
  0
LINE
  8
_0-0_LAYER001
  6
CONTINUOUS
 62
    3
 10
1468.6441
 20
1222.2936999999999
 11
1481.5808000000002
 21
1220.9544000000001
  0
LINE
  8
_0-0_LAYER001
  6
CONTINUOUS
 62
    3
 10
1474.4744999999998
 20
1191.9681
 11
1474.4639000000002
 21
1191.5024000000001
  0
LINE
  8
_0-0_LAYER001
  6
CONTINUOUS
 62
    3
 10
1474.4639000000002
 20
1191.5024000000001
 11
1474.4349000000002
 21
1190.2384999999999
  0
LINE
  8
_0-0_LAYER001
  6
CONTINUOUS
 62
    3
 10
1474.4349000000002
 20
1190.2384999999999
 11
1474.3921999999998
 21
1188.3759
  0
LINE
  8
_0-0_LAYER001
  6
CONTINUOUS
 62
    3
 10
1474.3921999999998
 20
1188.3759
 11
1474.3404
 21
1186.1141
  0
LINE
  8
_0-0_LAYER001
  6
CONTINUOUS
 62
    3
 10
1474.3404
 20
1186.1141
 11
1474.2840000000001
 21
1183.6528000000001
  0
LINE
  8
_0-0_LAYER001
  6
CONTINUOUS
 62
    3
 10
1474.2840000000001
 20
1183.6528000000001
 11
1474.2276999999999
 21
1181.1913999999999
  0
LINE
  8
_0-0_LAYER001
  6
CONTINUOUS
 62
    3
 10
1474.2276999999999
 20
1181.1913999999999
 11
1474.1759000000002
 21
1178.9296999999999
  0
LINE
  8
_0-0_LAYER001
  6
CONTINUOUS
 62
    3
 10
1474.1759000000002
 20
1178.9296999999999
 11
1474.1332000000002
 21
1177.067
  0
LINE
  8
_0-0_LAYER001
  6
CONTINUOUS
 62
    3
 10
1474.1332000000002
 20
1177.067
 11
1474.1042000000002
 21
1175.8031000000001
  0
LINE
  8
_0-0_LAYER001
  6
CONTINUOUS
 62
    3
 10
1474.1042000000002
 20
1175.8031000000001
 11
1474.0936000000002
 21
1175.3375000000001
  0
LINE
  8
_0-0_LAYER001
  6
CONTINUOUS
 62
    3
 10
1474.0936000000002
 20
1175.3375000000001
 11
1475.2411999999999
 21
1175.3311000000001
  0
LINE
  8
_0-0_LAYER001
  6
CONTINUOUS
 62
    3
 10
1475.2411999999999
 20
1175.3311000000001
 11
1478.6127000000001
 21
1175.1583000000001
  0
LINE
  8
_0-0_LAYER001
  6
CONTINUOUS
 62
    3
 10
1478.6127000000001
 20
1175.1583000000001
 11
1484.1010999999999
 21
1174.5885000000001
  0
LINE
  8
_0-0_LAYER001
  6
CONTINUOUS
 62
    3
 10
1484.1010999999999
 20
1174.5885000000001
 11
1491.5992000000001
 21
1173.3913
  0
LINE
  8
_0-0_LAYER001
  6
CONTINUOUS
 62
    3
 10
1491.5992000000001
 20
1173.3913
 11
1501
 21
1171.3362
  0
LINE
  8
_0-0_LAYER001
  6
CONTINUOUS
 62
    3
 10
1501
 20
1171.3362
 11
1512.1963000000001
 21
1168.1927000000001
  0
LINE
  8
_0-0_LAYER001
  6
CONTINUOUS
 62
    3
 10
1512.1963000000001
 20
1168.1927000000001
 11
1525.0812000000001
 21
1163.7302
  0
LINE
  8
_0-0_LAYER001
  6
CONTINUOUS
 62
    3
 10
1525.0812000000001
 20
1163.7302
 11
1539.5475999999999
 21
1157.7183
  0
LINE
  8
_0-0_LAYER001
  6
CONTINUOUS
 62
    3
 10
1539.5475999999999
 20
1157.7183
 11
1555.4883
 21
1149.9264000000001
  0
LINE
  8
_0-0_LAYER001
  6
CONTINUOUS
 62
    3
 10
1555.4883
 20
1149.9264000000001
 11
1572.7964000000002
 21
1140.1242
  0
LINE
  8
_0-0_LAYER001
  6
CONTINUOUS
 62
    3
 10
1572.7964000000002
 20
1140.1242
 11
1572.8137000000002
 21
1140.8820000000001
  0
LINE
  8
_0-0_LAYER001
  6
CONTINUOUS
 62
    3
 10
1572.8137000000002
 20
1140.8820000000001
 11
1572.8609000000001
 21
1142.9390000000001
  0
LINE
  8
_0-0_LAYER001
  6
CONTINUOUS
 62
    3
 10
1572.8609000000001
 20
1142.9390000000001
 11
1572.9303
 21
1145.9703999999999
  0
LINE
  8
_0-0_LAYER001
  6
CONTINUOUS
 62
    3
 10
1572.9303
 20
1145.9703999999999
 11
1573.0146
 21
1149.6513
  0
LINE
  8
_0-0_LAYER001
  6
CONTINUOUS
 62
    3
 10
1573.0146
 20
1149.6513
 11
1573.1064000000001
 21
1153.6570999999999
  0
LINE
  8
_0-0_LAYER001
  6
CONTINUOUS
 62
    3
 10
1573.1064000000001
 20
1153.6570999999999
 11
1573.1981000000001
 21
1157.6628000000001
  0
LINE
  8
_0-0_LAYER001
  6
CONTINUOUS
 62
    3
 10
1573.1981000000001
 20
1157.6628000000001
 11
1573.2824999999998
 21
1161.3438000000001
  0
LINE
  8
_0-0_LAYER001
  6
CONTINUOUS
 62
    3
 10
1573.2824999999998
 20
1161.3438000000001
 11
1573.3519000000001
 21
1164.3751999999999
  0
LINE
  8
_0-0_LAYER001
  6
CONTINUOUS
 62
    3
 10
1573.3519000000001
 20
1164.3751999999999
 11
1573.3989999999999
 21
1166.4322
  0
LINE
  8
_0-0_LAYER001
  6
CONTINUOUS
 62
    3
 10
1573.3989999999999
 20
1166.4322
 11
1573.4164000000001
 21
1167.1900000000001
  0
LINE
  8
_0-0_LAYER001
  6
CONTINUOUS
 62
    3
 10
1573.4164000000001
 20
1167.1900000000001
 11
1571.7631999999999
 21
1167.8142
  0
LINE
  8
_0-0_LAYER001
  6
CONTINUOUS
 62
    3
 10
1571.7631999999999
 20
1167.8142
 11
1567.0985000000001
 21
1169.5192999999999
  0
LINE
  8
_0-0_LAYER001
  6
CONTINUOUS
 62
    3
 10
1567.0985000000001
 20
1169.5192999999999
 11
1559.8649999999998
 21
1172.0546999999999
  0
LINE
  8
_0-0_LAYER001
  6
CONTINUOUS
 62
    3
 10
1559.8649999999998
 20
1172.0546999999999
 11
1550.5050999999999
 21
1175.1692
  0
LINE
  8
_0-0_LAYER001
  6
CONTINUOUS
 62
    3
 10
1550.5050999999999
 20
1175.1692
 11
1539.4614000000001
 21
1178.6120000000001
  0
LINE
  8
_0-0_LAYER001
  6
CONTINUOUS
 62
    3
 10
1539.4614000000001
 20
1178.6120000000001
 11
1527.1765
 21
1182.1321
  0
LINE
  8
_0-0_LAYER001
  6
CONTINUOUS
 62
    3
 10
1527.1765
 20
1182.1321
 11
1514.0927999999999
 21
1185.4786999999999
  0
LINE
  8
_0-0_LAYER001
  6
CONTINUOUS
 62
    3
 10
1514.0927999999999
 20
1185.4786999999999
 11
1500.6527999999998
 21
1188.4009000000001
  0
LINE
  8
_0-0_LAYER001
  6
CONTINUOUS
 62
    3
 10
1500.6527999999998
 20
1188.4009000000001
 11
1487.2991999999999
 21
1190.6476
  0
LINE
  8
_0-0_LAYER001
  6
CONTINUOUS
 62
    3
 10
1474.4744999999998
 20
1191.9681
 11
1487.4112
 21
1190.6288
  0
LINE
  8
_0-0_LAYER001
  6
CONTINUOUS
 62
    3
 10
1482.5592999999999
 20
1158.1578999999999
 11
1482.5486000000001
 21
1157.6922
  0
LINE
  8
_0-0_LAYER001
  6
CONTINUOUS
 62
    3
 10
1482.5486000000001
 20
1157.6922
 11
1482.5196999999998
 21
1156.4283
  0
LINE
  8
_0-0_LAYER001
  6
CONTINUOUS
 62
    3
 10
1482.5196999999998
 20
1156.4283
 11
1482.4769999999999
 21
1154.5655999999999
  0
LINE
  8
_0-0_LAYER001
  6
CONTINUOUS
 62
    3
 10
1482.4769999999999
 20
1154.5655999999999
 11
1482.4252000000001
 21
1152.3039000000001
  0
LINE
  8
_0-0_LAYER001
  6
CONTINUOUS
 62
    3
 10
1482.4252000000001
 20
1152.3039000000001
 11
1482.3688000000002
 21
1149.8425999999999
  0
LINE
  8
_0-0_LAYER001
  6
CONTINUOUS
 62
    3
 10
1482.3688000000002
 20
1149.8425999999999
 11
1482.3123999999998
 21
1147.3812
  0
LINE
  8
_0-0_LAYER001
  6
CONTINUOUS
 62
    3
 10
1482.3123999999998
 20
1147.3812
 11
1482.2606000000001
 21
1145.1195
  0
LINE
  8
_0-0_LAYER001
  6
CONTINUOUS
 62
    3
 10
1482.2606000000001
 20
1145.1195
 11
1482.2179999999998
 21
1143.2568000000001
  0
LINE
  8
_0-0_LAYER001
  6
CONTINUOUS
 62
    3
 10
1482.2179999999998
 20
1143.2568000000001
 11
1482.1889999999999
 21
1141.9929
  0
LINE
  8
_0-0_LAYER001
  6
CONTINUOUS
 62
    3
 10
1482.1889999999999
 20
1141.9929
 11
1482.1783
 21
1141.5272
  0
LINE
  8
_0-0_LAYER001
  6
CONTINUOUS
 62
    3
 10
1482.1783
 20
1141.5272
 11
1483.326
 21
1141.5209
  0
LINE
  8
_0-0_LAYER001
  6
CONTINUOUS
 62
    3
 10
1483.326
 20
1141.5209
 11
1486.6975000000002
 21
1141.348
  0
LINE
  8
_0-0_LAYER001
  6
CONTINUOUS
 62
    3
 10
1486.6975000000002
 20
1141.348
 11
1492.1858000000002
 21
1140.7782999999999
  0
LINE
  8
_0-0_LAYER001
  6
CONTINUOUS
 62
    3
 10
1492.1858000000002
 20
1140.7782999999999
 11
1499.6839
 21
1139.5811000000001
  0
LINE
  8
_0-0_LAYER001
  6
CONTINUOUS
 62
    3
 10
1499.6839
 20
1139.5811000000001
 11
1509.0846999999999
 21
1137.5260000000001
  0
LINE
  8
_0-0_LAYER001
  6
CONTINUOUS
 62
    3
 10
1509.0846999999999
 20
1137.5260000000001
 11
1520.2811000000002
 21
1134.3824
  0
LINE
  8
_0-0_LAYER001
  6
CONTINUOUS
 62
    3
 10
1520.2811000000002
 20
1134.3824
 11
1533.1660000000002
 21
1129.9200000000001
  0
LINE
  8
_0-0_LAYER001
  6
CONTINUOUS
 62
    3
 10
1533.1660000000002
 20
1129.9200000000001
 11
1547.6324
 21
1123.9081000000001
  0
LINE
  8
_0-0_LAYER001
  6
CONTINUOUS
 62
    3
 10
1547.6324
 20
1123.9081000000001
 11
1563.5731000000001
 21
1116.1161999999999
  0
LINE
  8
_0-0_LAYER001
  6
CONTINUOUS
 62
    3
 10
1563.5731000000001
 20
1116.1161999999999
 11
1580.8811999999998
 21
1106.3139000000001
  0
LINE
  8
_0-0_LAYER001
  6
CONTINUOUS
 62
    3
 10
1580.8811999999998
 20
1106.3139000000001
 11
1580.8984999999998
 21
1107.0717999999999
  0
LINE
  8
_0-0_LAYER001
  6
CONTINUOUS
 62
    3
 10
1580.8984999999998
 20
1107.0717999999999
 11
1580.9456
 21
1109.1288
  0
LINE
  8
_0-0_LAYER001
  6
CONTINUOUS
 62
    3
 10
1580.9456
 20
1109.1288
 11
1581.0151000000001
 21
1112.1602
  0
LINE
  8
_0-0_LAYER001
  6
CONTINUOUS
 62
    3
 10
1581.0151000000001
 20
1112.1602
 11
1581.0994000000001
 21
1115.8411000000001
  0
LINE
  8
_0-0_LAYER001
  6
CONTINUOUS
 62
    3
 10
1581.0994000000001
 20
1115.8411000000001
 11
1581.1911
 21
1119.8469
  0
LINE
  8
_0-0_LAYER001
  6
CONTINUOUS
 62
    3
 10
1581.1911
 20
1119.8469
 11
1581.2829000000002
 21
1123.8525999999999
  0
LINE
  8
_0-0_LAYER001
  6
CONTINUOUS
 62
    3
 10
1581.2829000000002
 20
1123.8525999999999
 11
1581.3672000000001
 21
1127.5336
  0
LINE
  8
_0-0_LAYER001
  6
CONTINUOUS
 62
    3
 10
1581.3672000000001
 20
1127.5336
 11
1581.4367000000002
 21
1130.5649000000001
  0
LINE
  8
_0-0_LAYER001
  6
CONTINUOUS
 62
    3
 10
1581.4367000000002
 20
1130.5649000000001
 11
1581.4838
 21
1132.6219000000001
  0
LINE
  8
_0-0_LAYER001
  6
CONTINUOUS
 62
    3
 10
1581.4838
 20
1132.6219000000001
 11
1581.5011
 21
1133.3797999999999
  0
LINE
  8
_0-0_LAYER001
  6
CONTINUOUS
 62
    3
 10
1581.5011
 20
1133.3797999999999
 11
1579.8479000000002
 21
1134.0038999999999
  0
LINE
  8
_0-0_LAYER001
  6
CONTINUOUS
 62
    3
 10
1579.8479000000002
 20
1134.0038999999999
 11
1575.1833000000001
 21
1135.7091
  0
LINE
  8
_0-0_LAYER001
  6
CONTINUOUS
 62
    3
 10
1575.1833000000001
 20
1135.7091
 11
1567.9497999999999
 21
1138.2444
  0
LINE
  8
_0-0_LAYER001
  6
CONTINUOUS
 62
    3
 10
1567.9497999999999
 20
1138.2444
 11
1558.5898999999999
 21
1141.3589999999999
  0
LINE
  8
_0-0_LAYER001
  6
CONTINUOUS
 62
    3
 10
1558.5898999999999
 20
1141.3589999999999
 11
1547.5462000000002
 21
1144.8018
  0
LINE
  8
_0-0_LAYER001
  6
CONTINUOUS
 62
    3
 10
1547.5462000000002
 20
1144.8018
 11
1535.2611999999999
 21
1148.3218999999999
  0
LINE
  8
_0-0_LAYER001
  6
CONTINUOUS
 62
    3
 10
1535.2611999999999
 20
1148.3218999999999
 11
1522.1774999999998
 21
1151.6685
  0
LINE
  8
_0-0_LAYER001
  6
CONTINUOUS
 62
    3
 10
1522.1774999999998
 20
1151.6685
 11
1508.7375999999999
 21
1154.5907
  0
LINE
  8
_0-0_LAYER001
  6
CONTINUOUS
 62
    3
 10
1508.7375999999999
 20
1154.5907
 11
1495.384
 21
1156.8373999999999
  0
LINE
  8
_0-0_LAYER001
  6
CONTINUOUS
 62
    3
 10
1482.5592999999999
 20
1158.1578999999999
 11
1495.4958999999999
 21
1156.8186000000001
  0
LINE
  8
_0-0_LAYER001
  6
CONTINUOUS
 62
    2
 10
1418.048
 20
1220.0976000000001
 11
1419.9892
 21
1212.8531
  0
LINE
  8
_0-0_LAYER001
  6
CONTINUOUS
 62
    2
 10
1419.9892
 20
1212.8531
 11
1414.6858999999999
 21
1218.1564000000001
  0
LINE
  8
_0-0_LAYER001
  6
CONTINUOUS
 62
    2
 10
1419.9892
 20
1212.8531
 11
1352.2719000000002
 21
1330.1429000000003
  0
LINE
  8
_0-0_LAYER001
  6
CONTINUOUS
 62
    2
 10
1521.2709
 20
1182.8191999999999
 11
1517.5209
 21
1176.3241
  0
LINE
  8
_0-0_LAYER001
  6
CONTINUOUS
 62
    2
 10
1517.5209
 20
1176.3241
 11
1517.5209
 21
1183.8241
  0
LINE
  8
_0-0_LAYER001
  6
CONTINUOUS
 62
    2
 10
1517.5209
 20
1176.3241
 11
1545.732
 21
1281.6093000000001
  0
LINE
  8
_0-3_LAYER004
  6
CONTINUOUS
 62
    2
 10
1399.7456999999999
 20
851.13850000000002
 11
1499.7456999999999
 21
851.13850000000002
  0
LINE
  8
_0-3_LAYER004
  6
CONTINUOUS
 62
    2
 10
1499.7456999999999
 20
651.13850000000002
 11
1399.7456999999999
 21
651.13850000000002
  0
LINE
  8
_0-3_LAYER004
  6
CONTINUOUS
 62
    2
 10
1399.7456999999999
 20
651.13850000000002
 11
1399.7456999999999
 21
659.13850000000002
  0
LINE
  8
_0-3_LAYER004
  6
CONTINUOUS
 62
    2
 10
1399.7456999999999
 20
843.13850000000002
 11
1399.7456999999999
 21
851.13850000000002
  0
LINE
  8
_0-3_LAYER004
  6
CONTINUOUS
 62
    2
 10
1499.7456999999999
 20
659.13850000000002
 11
1499.7456999999999
 21
651.13850000000002
  0
LINE
  8
_0-3_LAYER004
  6
CONTINUOUS
 62
    2
 10
1441.7456999999999
 20
843.13850000000002
 11
1399.7456999999999
 21
843.13850000000002
  0
LINE
  8
_0-3_LAYER004
  6
CONTINUOUS
 62
    2
 10
1457.7456999999999
 20
843.13850000000002
 11
1499.7456999999999
 21
843.13850000000002
  0
LINE
  8
_0-3_LAYER004
  6
CONTINUOUS
 62
    2
 10
1452.7456999999999
 20
664.13850000000002
 11
1452.7456999999999
 21
838.13850000000002
  0
LINE
  8
_0-3_LAYER004
  6
CONTINUOUS
 62
    2
 10
1457.7456999999999
 20
659.13850000000002
 11
1499.7456999999999
 21
659.13850000000002
  0
LINE
  8
_0-3_LAYER004
  6
CONTINUOUS
 62
    2
 10
1441.7456999999999
 20
659.13850000000002
 11
1399.7456999999999
 21
659.13850000000002
  0
LINE
  8
_0-3_LAYER004
  6
CONTINUOUS
 62
    2
 10
1446.7456999999999
 20
664.13850000000002
 11
1446.7456999999999
 21
838.13850000000002
  0
LINE
  8
_0-3_LAYER004
  6
CONTINUOUS
 62
    2
 10
1499.7456999999999
 20
851.13850000000002
 11
1499.7456999999999
 21
843.13850000000002
  0
ARC
  8
_0-3_LAYER004
  6
CONTINUOUS
 62
    2
 10
1441.7456999999999
 20
838.13850000000002
 40
5
 50
0
 51
90
  0
ARC
  8
_0-3_LAYER004
  6
CONTINUOUS
 62
    2
 10
1457.7456999999999
 20
838.13850000000002
 40
5
 50
90
 51
180
  0
ARC
  8
_0-3_LAYER004
  6
CONTINUOUS
 62
    2
 10
1457.7456999999999
 20
664.13850000000002
 40
5
 50
180
 51
270
  0
ARC
  8
_0-3_LAYER004
  6
CONTINUOUS
 62
    2
 10
1441.7456999999999
 20
664.13850000000002
 40
5
 50
270
 51
0
  0
LINE
  8
_0-0_LAYER001
  6
CONTINUOUS
 62
    2
 10
1439.8429999999998
 20
1055.0072
 11
1359.8062
 21
1018.9907000000001
  0
LINE
  8
_0-0_LAYER001
  6
CONTINUOUS
 62
    2
 10
1438.5567000000001
 20
1056.0732
 11
1359.8062
 21
1020.6356000000001
  0
LINE
  8
_0-0_LAYER001
  6
CONTINUOUS
 62
    2
 10
1459.8234000000002
 20
1054.9829
 11
1539.8062
 21
1018.9907000000001
  0
LINE
  8
_0-0_LAYER001
  6
CONTINUOUS
 62
    2
 10
1461.1098000000002
 20
1056.0489
 11
1539.8062
 21
1020.6356000000001
  0
LINE
  8
_0-1_LAYER002
  6
CONTINUOUS
 62
    2
 10
1448.2348000000002
 20
1239.5659000000001
 11
1450.0169000000001
 21
1231.6393
  0
LINE
  8
_0-1_LAYER002
  6
CONTINUOUS
 62
    2
 10
1448.2372
 20
1275.0949000000001
 11
1448.2348000000002
 21
1235.421
  0
LINE
  8
_0-1_LAYER002
  6
CONTINUOUS
 62
    2
 10
1451.4274999999998
 20
1275.1301000000001
 11
1451.4261999999999
 21
1234.5192
  0
LINE
  8
_0-1_LAYER002
  6
CONTINUOUS
 62
    2
 10
1450.0169000000001
 20
1231.6393
 11
1451.4261999999999
 21
1238.664
  0
LINE
  8
_0-1_LAYER002
  6
CONTINUOUS
 62
    2
 10
1435.5133000000001
 20
1228.8266000000001
 11
1435.5133000000001
 21
1257.4647
  0
LINE
  8
_0-1_LAYER002
  6
CONTINUOUS
 62
    2
 10
1464.1514000000002
 20
1257.4647
 11
1464.1514000000002
 21
1228.8266000000001
  0
LINE
  8
_0-1_LAYER002
  6
CONTINUOUS
 62
    2
 10
1464.1514000000002
 20
1228.8266000000001
 11
1435.5133000000001
 21
1228.8266000000001
  0
LINE
  8
_0-1_LAYER002
  6
CONTINUOUS
 62
    2
 10
1466.5376999999999
 20
1224.9407000000001
 11
1433.1268
 21
1224.9407000000001
  0
LINE
  8
_0-1_LAYER002
  6
CONTINUOUS
 62
    2
 10
1435.5133000000001
 20
1228.8266000000001
 11
1464.1514000000002
 21
1257.4647
  0
LINE
  8
_0-1_LAYER002
  6
CONTINUOUS
 62
    2
 10
1435.5133000000001
 20
1257.4647
 11
1464.1514000000002
 21
1257.4647
  0
LINE
  8
_0-1_LAYER002
  6
CONTINUOUS
 62
    2
 10
1435.5133000000001
 20
1257.4647
 11
1464.1514000000002
 21
1228.8266000000001
  0
LINE
  8
_0-1_LAYER002
  6
CONTINUOUS
 62
    2
 10
1465.174
 20
1226.3042
 11
1434.4904999999999
 21
1226.3042
  0
LINE
  8
_0-1_LAYER002
  6
CONTINUOUS
 62
    2
 10
1433.1268
 20
1224.9407000000001
 11
1433.1268
 21
1243.3508999999999
  0
LINE
  8
_0-1_LAYER002
  6
CONTINUOUS
 62
    2
 10
1434.4904999999999
 20
1226.3042
 11
1434.4904999999999
 21
1243.3508999999999
  0
LINE
  8
_0-1_LAYER002
  6
CONTINUOUS
 62
    2
 10
1433.1268
 20
1243.3508999999999
 11
1434.4904999999999
 21
1243.3508999999999
  0
LINE
  8
_0-1_LAYER002
  6
CONTINUOUS
 62
    2
 10
1466.5376999999999
 20
1224.9407000000001
 11
1466.5376999999999
 21
1243.3508999999999
  0
LINE
  8
_0-1_LAYER002
  6
CONTINUOUS
 62
    2
 10
1465.174
 20
1226.3042
 11
1465.174
 21
1243.3508999999999
  0
LINE
  8
_0-1_LAYER002
  6
CONTINUOUS
 62
    2
 10
1465.174
 20
1243.3508999999999
 11
1466.5376999999999
 21
1243.3508999999999
  0
LINE
  8
_0-1_LAYER002
  6
CONTINUOUS
 62
    2
 10
1444.5538999999999
 20
1116.7465999999999
 11
1439.8429999999998
 21
1055.0072
  0
LINE
  8
_0-1_LAYER002
  6
CONTINUOUS
 62
    2
 10
1446.7640000000001
 20
1085.2737
 11
1452.9005999999999
 21
1085.2737
  0
LINE
  8
_0-1_LAYER002
  6
CONTINUOUS
 62
    2
 10
1455.1107000000002
 20
1116.7465999999999
 11
1459.8234000000002
 21
1054.9829
  0
LINE
  8
_0-1_LAYER002
  6
CONTINUOUS
 62
    2
 10
1443.2903000000001
 20
1118.1103000000001
 11
1438.5567000000001
 21
1056.0732
  0
LINE
  8
_0-1_LAYER002
  6
CONTINUOUS
 62
    2
 10
1456.3742999999999
 20
1118.1103000000001
 11
1461.1098000000002
 21
1056.0489
  0
LINE
  8
_0-1_LAYER002
  6
CONTINUOUS
 62
    2
 10
1446.7640000000001
 20
1224.9407000000001
 11
1446.7640000000001
 21
1085.2737
  0
LINE
  8
_0-1_LAYER002
  6
CONTINUOUS
 62
    2
 10
1452.9005999999999
 20
1224.9407000000001
 11
1452.9005999999999
 21
1085.2737
  0
LINE
  8
_0-1_LAYER002
  6
CONTINUOUS
 62
    2
 10
1447.5689000000002
 20
1239.3874000000001
 11
1452.0922999999998
 21
1240.5995
  0
LINE
  8
_0-1_LAYER002
  6
CONTINUOUS
 62
    2
 10
1447.5689000000002
 20
1241.3853999999999
 11
1452.0922999999998
 21
1242.5975000000001
  0
LINE
  8
_0-1_LAYER002
  6
CONTINUOUS
 62
    2
 10
1447.5689000000002
 20
1243.3833999999999
 11
1452.0922999999998
 21
1244.5954999999999
  0
LINE
  8
_0-1_LAYER002
  6
CONTINUOUS
 62
    2
 10
1447.5689000000002
 20
1245.3814
 11
1452.0922999999998
 21
1246.5934999999999
  0
LINE
  8
_0-1_LAYER002
  6
CONTINUOUS
 62
    2
 10
1447.5689000000002
 20
1247.3795
 11
1452.0922999999998
 21
1248.5915
  0
LINE
  8
_0-1_LAYER002
  6
CONTINUOUS
 62
    2
 10
1447.5689000000002
 20
1249.3775000000001
 11
1452.0922999999998
 21
1250.5895
  0
LINE
  8
_0-1_LAYER002
  6
CONTINUOUS
 62
    2
 10
1447.5689000000002
 20
1251.3755000000001
 11
1452.0922999999998
 21
1252.5875000000001
  0
LINE
  8
_0-1_LAYER002
  6
CONTINUOUS
 62
    2
 10
1447.5689000000002
 20
1253.3733999999999
 11
1452.0922999999998
 21
1254.5854999999999
  0
LINE
  8
_0-1_LAYER002
  6
CONTINUOUS
 62
    2
 10
1447.5689000000002
 20
1255.3714
 11
1452.0922999999998
 21
1256.5835
  0
LINE
  8
_0-1_LAYER002
  6
CONTINUOUS
 62
    2
 10
1447.5689000000002
 20
1257.3694
 11
1452.0922999999998
 21
1258.5815
  0
LINE
  8
_0-1_LAYER002
  6
CONTINUOUS
 62
    2
 10
1447.5689000000002
 20
1259.3674000000001
 11
1452.0922999999998
 21
1260.5795000000001
  0
LINE
  8
_0-1_LAYER002
  6
CONTINUOUS
 62
    2
 10
1447.5689000000002
 20
1261.3653999999999
 11
1452.0922999999998
 21
1262.5775000000001
  0
LINE
  8
_0-1_LAYER002
  6
CONTINUOUS
 62
    2
 10
1447.5689000000002
 20
1265.3614
 11
1452.0922999999998
 21
1266.5735
  0
LINE
  8
_0-6_LAYER007
  6
CONTINUOUS
 62
    2
 10
1359.8062
 20
1020.6356000000001
 11
1359.8062
 21
1018.9907000000001
  0
LINE
  8
_0-6_LAYER007
  6
CONTINUOUS
 62
    2
 10
1539.8062
 20
1020.6356000000001
 11
1539.8062
 21
1018.9907000000001
  0
LINE
  8
_0-0_LAYER001
  6
CONTINUOUS
 62
    2
 10
1455.1107000000002
 20
1116.7465999999999
 11
1444.5538999999999
 21
1116.7465999999999
  0
LINE
  8
_0-0_LAYER001
  6
CONTINUOUS
 62
    2
 10
1443.2903000000001
 20
1118.1103000000001
 11
1456.2494999999999
 21
1118.1103000000001
  0
ARC
  8
_0-0_LAYER001
  6
CONTINUOUS
 62
    2
 10
1449.8323
 20
1007.2229
 40
156.02564000000001
 50
74.824657999999999
 51
105.17534000000001
  0
ARC
  8
_0-0_LAYER001
  6
CONTINUOUS
 62
    2
 10
1449.8447999999999
 20
1484.1476
 40
282.09598999999997
 50
263.89521999999999
 51
276.10476999999997
  0
ARC
  8
_0-0_LAYER001
  6
CONTINUOUS
 62
    2
 10
1449.8447999999999
 20
2181.7021
 40
1008.2048
 50
268.29485
 51
271.70513999999997
  0
LINE
  8
_0-0_LAYER001
  6
CONTINUOUS
 62
    2
 10
1408.9888999999998
 20
1157.8078
 11
1408.9888999999998
 21
1139.9843000000001
  0
LINE
  8
_0-0_LAYER001
  6
CONTINUOUS
 62
    2
 10
1490.6756999999998
 20
1157.8078
 11
1490.6756999999998
 21
1139.9843000000001
  0
ARC
  8
_0-0_LAYER001
  6
CONTINUOUS
 62
    2
 10
1449.8323
 20
1952.5
 40
813.54162999999994
 50
267.12227999999999
 51
272.87770999999998
  0
LINE
  8
_0-0_LAYER001
  6
CONTINUOUS
 62
    2
 10
1374.2944
 20
1191.9513999999999
 11
1372.5132000000003
 21
1182.1321
  0
LINE
  8
_0-0_LAYER001
  6
CONTINUOUS
 62
    2
 10
1371.3567
 20
1162.1971000000001
 11
1369.8168000000001
 21
1149.7062000000001
  0
ARC
  8
_0-0_LAYER001
  6
CONTINUOUS
 62
    2
 10
935.61079999999993
 20
1149.0896
 40
437.65383999999995
 50
348.55191000000002
 51
357.76253000000003
  0
LINE
  8
_0-0_LAYER001
  6
CONTINUOUS
 62
    2
 10
1525.3701999999998
 20
1191.9513999999999
 11
1527.1514000000002
 21
1182.1321
  0
LINE
  8
_0-0_LAYER001
  6
CONTINUOUS
 62
    2
 10
1528.3078999999998
 20
1162.1971000000001
 11
1529.8479000000002
 21
1149.7062000000001
  0
ARC
  8
_0-0_LAYER001
  6
DASHED1
 62
    2
 10
1964.0538999999999
 20
1149.0896
 40
437.65383999999995
 50
182.23746000000003
 51
191.44808
  0
CIRCLE
  8
_0-5_LAYER006
  6
CONTINUOUS
 62
    2
 10
1413.9259999999999
 20
1118.4974999999999
 40
1.5179999999999998
  0
CIRCLE
  8
_0-5_LAYER006
  6
CONTINUOUS
 62
    2
 10
1410.1300000000001
 20
1109.3875
 40
1.5179999999999998
  0
CIRCLE
  8
_0-5_LAYER006
  6
CONTINUOUS
 62
    2
 10
1408.6120000000001
 20
1128.3665000000001
 40
1.5179999999999998
  0
LINE
  8
_0-4_LAYER005
  6
CONTINUOUS
 62
    4
 10
1374.8448000000003
 20
1213.6384
 11
1390.5988
 21
1216.6384
  0
LINE
  8
_0-4_LAYER005
  6
CONTINUOUS
 62
    4
 10
1509.0898000000002
 20
1216.6384
 11
1524.8447999999999
 21
1213.6384
  0
ARC
  8
_0-4_LAYER005
  6
CONTINUOUS
 62
    4
 10
1449.8447999999999
 20
1200.4954
 40
76.143000000000001
 50
9.9394530000000003
 51
170.06053999999997
  0
ARC
  8
_0-4_LAYER005
  6
CONTINUOUS
 62
    4
 10
1449.8447999999999
 20
1200.1384
 40
61.5
 50
15.562729000000001
 51
164.43727000000001
  0
CIRCLE
  8
_0-5_LAYER006
  6
CONTINUOUS
 62
    2
 10
1409.7957999999999
 20
1231.6774
 40
1.5179999999999998
  0
CIRCLE
  8
_0-5_LAYER006
  6
CONTINUOUS
 62
    2
 10
1418.9048
 20
1238.5103999999999
 40
1.5179999999999998
  0
CIRCLE
  8
_0-5_LAYER006
  6
CONTINUOUS
 62
    2
 10
1418.3258000000001
 20
1237.3173999999999
 40
1.5179999999999998
  0
CIRCLE
  8
_0-5_LAYER006
  6
CONTINUOUS
 62
    2
 10
1431.8108000000002
 20
1241.5463999999999
 40
1.5179999999999998
  0
CIRCLE
  8
_0-5_LAYER006
  6
CONTINUOUS
 62
    2
 10
1430.2927999999999
 20
1231.6774
 40
1.5179999999999998
  0
CIRCLE
  8
_0-5_LAYER006
  6
CONTINUOUS
 62
    2
 10
1469.0097999999998
 20
1239.2693999999999
 40
1.5179999999999998
  0
CIRCLE
  8
_0-5_LAYER006
  6
CONTINUOUS
 62
    2
 10
1476.6008000000002
 20
1235.4734000000001
 40
1.5179999999999998
  0
CIRCLE
  8
_0-5_LAYER006
  6
CONTINUOUS
 62
    2
 10
1485.7107999999998
 20
1234.7144000000001
 40
1.5179999999999998
  0
CIRCLE
  8
_0-5_LAYER006
  6
CONTINUOUS
 62
    2
 10
1483.4337999999998
 20
1237.7514000000001
 40
1.5179999999999998
  0
CIRCLE
  8
_0-5_LAYER006
  6
CONTINUOUS
 62
    2
 10
1434.0877999999998
 20
1249.8974000000001
 40
1.5179999999999998
  0
CIRCLE
  8
_0-5_LAYER006
  6
CONTINUOUS
 62
    2
 10
1425.7377999999999
 20
1249.8974000000001
 40
1.5179999999999998
  0
CIRCLE
  8
_0-5_LAYER006
  6
CONTINUOUS
 62
    2
 10
1419.6648
 20
1247.6204
 40
1.5179999999999998
  0
CIRCLE
  8
_0-5_LAYER006
  6
CONTINUOUS
 62
    2
 10
1413.5907999999999
 20
1237.7514000000001
 40
1.5179999999999998
  0
CIRCLE
  8
_0-5_LAYER006
  6
CONTINUOUS
 62
    2
 10
1476.6008000000002
 20
1230.9184
 40
1.5179999999999998
  0
CIRCLE
  8
_0-5_LAYER006
  6
CONTINUOUS
 62
    2
 10
1487.9888000000001
 20
1228.6414
 40
1.5179999999999998
  0
CIRCLE
  8
_0-5_LAYER006
  6
CONTINUOUS
 62
    2
 10
1493.3027999999999
 20
1227.8824
 40
1.5179999999999998
  0
CIRCLE
  8
_0-5_LAYER006
  6
CONTINUOUS
 62
    2
 10
1478.8788
 20
1243.0654
 40
1.5179999999999998
  0
CIRCLE
  8
_0-5_LAYER006
  6
CONTINUOUS
 62
    2
 10
1462.1768000000002
 20
1201.3114
 40
1.5179999999999998
  0
CIRCLE
  8
_0-5_LAYER006
  6
CONTINUOUS
 62
    2
 10
1471.2867999999999
 20
1199.7934
 40
1.5179999999999998
  0
CIRCLE
  8
_0-5_LAYER006
  6
CONTINUOUS
 62
    2
 10
1473.5648000000001
 20
1199.7934
 40
1.5179999999999998
  0
CIRCLE
  8
_0-5_LAYER006
  6
CONTINUOUS
 62
    2
 10
1485.7107999999998
 20
1198.2744
 40
1.5179999999999998
  0
CIRCLE
  8
_0-5_LAYER006
  6
CONTINUOUS
 62
    2
 10
1491.7838000000002
 20
1197.5154
 40
1.5179999999999998
  0
CIRCLE
  8
_0-5_LAYER006
  6
CONTINUOUS
 62
    2
 10
1500.1347999999998
 20
1195.2384
 40
1.5179999999999998
  0
CIRCLE
  8
_0-5_LAYER006
  6
CONTINUOUS
 62
    2
 10
1437.1248000000001
 20
1202.0704000000001
 40
1.5179999999999998
  0
CIRCLE
  8
_0-5_LAYER006
  6
CONTINUOUS
 62
    2
 10
1431.0518000000002
 20
1199.7934
 40
1.5179999999999998
  0
CIRCLE
  8
_0-5_LAYER006
  6
CONTINUOUS
 62
    2
 10
1418.9048
 20
1198.2744
 40
1.5179999999999998
  0
CIRCLE
  8
_0-5_LAYER006
  6
CONTINUOUS
 62
    2
 10
1408.2768000000001
 20
1197.5154
 40
1.5179999999999998
  0
CIRCLE
  8
_0-5_LAYER006
  6
CONTINUOUS
 62
    2
 10
1399.1668
 20
1195.2384
 40
1.5179999999999998
  0
CIRCLE
  8
_0-5_LAYER006
  6
CONTINUOUS
 62
    2
 10
1393.8527999999999
 20
1192.9603999999999
 40
1.5179999999999998
  0
CIRCLE
  8
_0-5_LAYER006
  6
CONTINUOUS
 62
    2
 10
1386.2618
 20
1191.4423999999999
 40
1.5179999999999998
  0
CIRCLE
  8
_0-5_LAYER006
  6
CONTINUOUS
 62
    2
 10
1422.7008000000001
 20
1157.2804000000001
 40
1.5179999999999998
  0
CIRCLE
  8
_0-5_LAYER006
  6
CONTINUOUS
 62
    2
 10
1425.7377999999999
 20
1144.3743999999999
 40
1.5179999999999998
  0
CIRCLE
  8
_0-5_LAYER006
  6
CONTINUOUS
 62
    2
 10
1430.2927999999999
 20
1151.9664
 40
1.5179999999999998
  0
CIRCLE
  8
_0-5_LAYER006
  6
CONTINUOUS
 62
    2
 10
1433.3287999999998
 20
1157.2804000000001
 40
1.5179999999999998
  0
CIRCLE
  8
_0-5_LAYER006
  6
CONTINUOUS
 62
    2
 10
1373.8579
 20
1109.5681999999999
 40
1.5179999999999998
  0
CIRCLE
  8
_0-5_LAYER006
  6
CONTINUOUS
 62
    2
 10
1379.1719000000001
 20
1107.2901999999999
 40
1.5179999999999998
  0
CIRCLE
  8
_0-5_LAYER006
  6
CONTINUOUS
 62
    2
 10
1388.2819
 20
1111.8452
 40
1.5179999999999998
  0
CIRCLE
  8
_0-5_LAYER006
  6
CONTINUOUS
 62
    2
 10
1433.5385000000001
 20
1123.1724999999999
 40
1.5179999999999998
  0
CIRCLE
  8
_0-5_LAYER006
  6
CONTINUOUS
 62
    2
 10
1431.2615000000001
 20
1117.0995
 40
1.5179999999999998
  0
CIRCLE
  8
_0-5_LAYER006
  6
CONTINUOUS
 62
    2
 10
1484.4025000000001
 20
1107.9894999999999
 40
1.5179999999999998
  0
CIRCLE
  8
_0-5_LAYER006
  6
CONTINUOUS
 62
    2
 10
1486.6795000000002
 20
1114.8225
 40
1.5179999999999998
  0
CIRCLE
  8
_0-5_LAYER006
  6
CONTINUOUS
 62
    2
 10
1472.8047999999999
 20
1136.7834
 40
1.5179999999999998
  0
CIRCLE
  8
_0-5_LAYER006
  6
CONTINUOUS
 62
    2
 10
1462.1768000000002
 20
1153.4844000000001
 40
1.5179999999999998
  0
CIRCLE
  8
_0-5_LAYER006
  6
CONTINUOUS
 62
    2
 10
1459.1408000000001
 20
1156.5214000000001
 40
1.5179999999999998
  0
CIRCLE
  8
_0-5_LAYER006
  6
CONTINUOUS
 62
    2
 10
1460.6588000000002
 20
1165.6314
 40
1.5179999999999998
  0
CIRCLE
  8
_0-5_LAYER006
  6
CONTINUOUS
 62
    2
 10
1472.8047999999999
 20
1161.0763999999999
 40
1.5179999999999998
  0
CIRCLE
  8
_0-5_LAYER006
  6
CONTINUOUS
 62
    2
 10
1481.1558
 20
1159.5573999999999
 40
1.5179999999999998
  0
CIRCLE
  8
_0-5_LAYER006
  6
CONTINUOUS
 62
    2
 10
1491.7838000000002
 20
1164.8724
 40
1.5179999999999998
  0
CIRCLE
  8
_0-5_LAYER006
  6
CONTINUOUS
 62
    2
 10
1497.8578000000002
 20
1165.6314
 40
1.5179999999999998
  0
CIRCLE
  8
_0-5_LAYER006
  6
CONTINUOUS
 62
    2
 10
1500.8937999999998
 20
1165.6314
 40
1.5179999999999998
  0
CIRCLE
  8
_0-5_LAYER006
  6
CONTINUOUS
 62
    2
 10
1516.0767999999998
 20
1161.0763999999999
 40
1.5179999999999998
  0
CIRCLE
  8
_0-5_LAYER006
  6
CONTINUOUS
 62
    2
 10
1511.5218
 20
1135.2644
 40
1.5179999999999998
  0
CIRCLE
  8
_0-5_LAYER006
  6
CONTINUOUS
 62
    2
 10
1512.0248999999999
 20
1114.1222
 40
1.5179999999999998
  0
CIRCLE
  8
_0-5_LAYER006
  6
CONTINUOUS
 62
    2
 10
1515.8199
 20
1112.6042
 40
1.5179999999999998
  0
CIRCLE
  8
_0-5_LAYER006
  6
CONTINUOUS
 62
    2
 10
1515.8199
 20
1110.3271999999999
 40
1.5179999999999998
  0
CIRCLE
  8
_0-5_LAYER006
  6
CONTINUOUS
 62
    2
 10
1492.5437999999999
 20
1146.6523999999999
 40
1.5179999999999998
  0
CIRCLE
  8
_0-5_LAYER006
  6
CONTINUOUS
 62
    2
 10
1470.5277999999998
 20
1139.0604000000001
 40
1.5179999999999998
  0
CIRCLE
  8
_0-5_LAYER006
  6
CONTINUOUS
 62
    2
 10
1475.2925
 20
1120.1365000000001
 40
1.5179999999999998
  0
CIRCLE
  8
_0-5_LAYER006
  6
CONTINUOUS
 62
    2
 10
1469.9785000000002
 20
1115.5815
 40
1.5179999999999998
  0
CIRCLE
  8
_0-5_LAYER006
  6
CONTINUOUS
 62
    2
 10
1462.3865000000001
 20
1113.3035
 40
1.5179999999999998
  0
CIRCLE
  8
_0-5_LAYER006
  6
CONTINUOUS
 62
    2
 10
1438.0934999999999
 20
1115.5815
 40
1.5179999999999998
  0
CIRCLE
  8
_0-5_LAYER006
  6
CONTINUOUS
 62
    2
 10
1427.4655000000002
 20
1107.9894999999999
 40
1.5179999999999998
  0
CIRCLE
  8
_0-5_LAYER006
  6
CONTINUOUS
 62
    2
 10
1425.9475
 20
1126.9684999999999
 40
1.5179999999999998
  0
CIRCLE
  8
_0-5_LAYER006
  6
CONTINUOUS
 62
    2
 10
1375.3759
 20
1105.0132000000001
 40
1.5179999999999998
  0
CIRCLE
  8
_0-5_LAYER006
  6
CONTINUOUS
 62
    2
 10
1381.7067999999999
 20
1155.0034000000001
 40
1.5179999999999998
  0
CIRCLE
  8
_0-5_LAYER006
  6
CONTINUOUS
 62
    2
 10
1391.5758000000001
 20
1161.0763999999999
 40
1.5179999999999998
  0
CIRCLE
  8
_0-5_LAYER006
  6
CONTINUOUS
 62
    2
 10
1428.7737999999999
 20
1166.3904
 40
1.5179999999999998
  0
CIRCLE
  8
_0-5_LAYER006
  6
CONTINUOUS
 62
    2
 10
1443.1977999999999
 20
1170.1864
 40
1.5179999999999998
  0
CIRCLE
  8
_0-5_LAYER006
  6
CONTINUOUS
 62
    2
 10
1456.8627999999999
 20
1180.8144
 40
1.5179999999999998
  0
CIRCLE
  8
_0-5_LAYER006
  6
CONTINUOUS
 62
    2
 10
1457.6217999999999
 20
1191.4423999999999
 40
1.5179999999999998
  0
CIRCLE
  8
_0-5_LAYER006
  6
CONTINUOUS
 62
    2
 10
1443.1977999999999
 20
1186.8874000000001
 40
1.5179999999999998
  0
CIRCLE
  8
_0-5_LAYER006
  6
CONTINUOUS
 62
    2
 10
1462.1768000000002
 20
1167.9084
 40
1.5179999999999998
  0
CIRCLE
  8
_0-5_LAYER006
  6
CONTINUOUS
 62
    2
 10
1459.8998000000001
 20
1150.4484
 40
1.5179999999999998
  0
CIRCLE
  8
_0-5_LAYER006
  6
CONTINUOUS
 62
    2
 10
1458.3807999999999
 20
1145.8933999999999
 40
1.5179999999999998
  0
CIRCLE
  8
_0-5_LAYER006
  6
CONTINUOUS
 62
    2
 10
1477.3598000000002
 20
1155.0034000000001
 40
1.5179999999999998
  0
CIRCLE
  8
_0-5_LAYER006
  6
CONTINUOUS
 62
    2
 10
1478.8788
 20
1150.4484
 40
1.5179999999999998
  0
CIRCLE
  8
_0-5_LAYER006
  6
CONTINUOUS
 62
    2
 10
1478.8788
 20
1150.4484
 40
1.5179999999999998
  0
CIRCLE
  8
_0-5_LAYER006
  6
CONTINUOUS
 62
    2
 10
1480.3968
 20
1137.5424
 40
1.5179999999999998
  0
CIRCLE
  8
_0-5_LAYER006
  6
CONTINUOUS
 62
    2
 10
1434.8478
 20
1140.5794000000001
 40
1.5179999999999998
  0
CIRCLE
  8
_0-5_LAYER006
  6
CONTINUOUS
 62
    2
 10
1471.4965000000002
 20
1112.5445
 40
1.5179999999999998
  0
CIRCLE
  8
_0-5_LAYER006
  6
CONTINUOUS
 62
    2
 10
1478.3285000000001
 20
1104.1935000000001
 40
1.5179999999999998
  0
CIRCLE
  8
_0-5_LAYER006
  6
CONTINUOUS
 62
    2
 10
1459.8998000000001
 20
1144.3743999999999
 40
1.5179999999999998
  0
CIRCLE
  8
_0-5_LAYER006
  6
CONTINUOUS
 62
    2
 10
1440.3705
 20
1126.9684999999999
 40
1.5179999999999998
  0
CIRCLE
  8
_0-5_LAYER006
  6
CONTINUOUS
 62
    2
 10
1428.7737999999999
 20
1151.2074
 40
1.5179999999999998
  0
CIRCLE
  8
_0-5_LAYER006
  6
CONTINUOUS
 62
    2
 10
1410.5547999999999
 20
1167.1494
 40
1.5179999999999998
  0
CIRCLE
  8
_0-5_LAYER006
  6
CONTINUOUS
 62
    2
 10
1478.3285000000001
 20
1115.5815
 40
1.5179999999999998
  0
CIRCLE
  8
_0-5_LAYER006
  6
CONTINUOUS
 62
    2
 10
1483.6424999999999
 20
1126.2094999999999
 40
1.5179999999999998
  0
CIRCLE
  8
_0-5_LAYER006
  6
CONTINUOUS
 62
    2
 10
1484.1927999999998
 20
1135.2644
 40
1.5179999999999998
  0
CIRCLE
  8
_0-5_LAYER006
  6
CONTINUOUS
 62
    2
 10
1487.2287999999999
 20
1156.5214000000001
 40
1.5179999999999998
  0
CIRCLE
  8
_0-5_LAYER006
  6
CONTINUOUS
 62
    2
 10
1434.8478
 20
1148.9294
 40
1.5179999999999998
  0
CIRCLE
  8
_0-5_LAYER006
  6
CONTINUOUS
 62
    2
 10
1434.0877999999998
 20
1161.8353999999999
 40
1.5179999999999998
  0
CIRCLE
  8
_0-5_LAYER006
  6
CONTINUOUS
 62
    2
 10
1422.7008000000001
 20
1161.8353999999999
 40
1.5179999999999998
  0
CIRCLE
  8
_0-5_LAYER006
  6
CONTINUOUS
 62
    2
 10
1438.8525
 20
1123.9314999999999
 40
1.5179999999999998
  0
CIRCLE
  8
_0-5_LAYER006
  6
CONTINUOUS
 62
    2
 10
1438.0934999999999
 20
1111.0264999999999
 40
1.5179999999999998
  0
CIRCLE
  8
_0-5_LAYER006
  6
CONTINUOUS
 62
    2
 10
1435.8164999999999
 20
1105.7125000000001
 40
1.5179999999999998
  0
CIRCLE
  8
_0-5_LAYER006
  6
CONTINUOUS
 62
    2
 10
1472.0457999999999
 20
1152.7254
 40
1.5179999999999998
  0
CIRCLE
  8
_0-5_LAYER006
  6
CONTINUOUS
 62
    2
 10
1473.5648000000001
 20
1167.9084
 40
1.5179999999999998
  0
CIRCLE
  8
_0-5_LAYER006
  6
CONTINUOUS
 62
    2
 10
1402.9628
 20
1224.8453999999999
 40
1.5179999999999998
  0
CIRCLE
  8
_0-5_LAYER006
  6
CONTINUOUS
 62
    2
 10
1418.1458
 20
1229.4004
 40
1.5179999999999998
  0
CIRCLE
  8
_0-5_LAYER006
  6
CONTINUOUS
 62
    2
 10
1405.2408
 20
1236.9914000000001
 40
1.5179999999999998
  0
CIRCLE
  8
_0-5_LAYER006
  6
CONTINUOUS
 62
    2
 10
1492.5437999999999
 20
1237.7514000000001
 40
1.5179999999999998
  0
CIRCLE
  8
_0-5_LAYER006
  6
CONTINUOUS
 62
    2
 10
1472.8047999999999
 20
1248.3794
 40
1.5179999999999998
  0
ARC
  8
_0-3_LAYER004
  6
CONTINUOUS
 62
    2
 10
1449.8447999999999
 20
1031.0894000000001
 40
164.01599999999999
 50
79.460769999999997
 51
100.53923
  0
ARC
  8
_0-0_LAYER001
  6
CONTINUOUS
 62
    2
 10
1448.4131000000002
 20
1000.1197999999999
 40
223.92554000000001
 50
81.928702999999999
 51
97.329827000000009
  0
LINE
  8
_0-0_LAYER001
  6
CONTINUOUS
 62
    2
 10
1479.8449000000001
 20
1203.6514
 11
1479.8449000000001
 21
1221.8282999999999
  0
LINE
  8
_0-0_LAYER001
  6
CONTINUOUS
 62
    2
 10
1521.3067999999998
 20
1102.4268999999999
 11
1515.509
 21
1086.4462000000001
  0
LINE
  8
_0-0_LAYER001
  6
CONTINUOUS
 62
    2
 10
1727.0191
 20
1009.7097000000001
 11
1721.2212
 21
993.72900000000004
  0
LINE
  8
_0-0_LAYER001
  6
CONTINUOUS
 62
    2
 10
1932.7312999999999
 20
916.99250000000006
 11
1926.9333999999999
 21
901.01170000000002
  0
LINE
  8
_0-0_LAYER001
  6
CONTINUOUS
 62
    2
 10
1995.2743
 20
876.2174
 11
1926.9333999999999
 21
901.01170000000002
  0
LINE
  8
_0-0_LAYER001
  6
CONTINUOUS
 62
    4
 10
1981.7988999999998
 20
847.24559999999997
 11
1886.9360999999999
 21
881.66210000000001
  0
LINE
  8
_0-0_LAYER001
  6
CONTINUOUS
 62
    4
 10
2002.4712
 20
891.6905999999999
 11
1895.1295
 21
930.63449999999989
  0
LINE
  8
_0-0_LAYER001
  6
CONTINUOUS
 62
    4
 10
2009.6680999999999
 20
907.16380000000004
 11
1966.7305000000001
 21
922.74170000000004
  0
LINE
  8
_0-0_LAYER001
  6
CONTINUOUS
 62
    2
 10
1895.1295
 20
930.63449999999989
 11
1721.2212
 21
993.72900000000004
  0
LINE
  8
_0-0_LAYER001
  6
CONTINUOUS
 62
    2
 10
1476.7037999999998
 20
1065.9195
 11
1504.0511000000001
 21
1053.5854999999999
  0
LINE
  8
_0-0_LAYER001
  6
CONTINUOUS
 62
    2
 10
1470.5367999999999
 20
1052.2458999999999
 11
1476.7037999999998
 21
1065.9195
  0
LINE
  8
_0-0_LAYER001
  6
CONTINUOUS
 62
    2
 10
1476.7037999999998
 20
1065.9195
 11
1497.8841000000002
 21
1039.9119000000001
  0
LINE
  8
_0-0_LAYER001
  6
CONTINUOUS
 62
    4
 10
1475.5117
 20
1067.0965000000001
 11
1471.4191000000001
 21
1055.816
  0
LINE
  8
_0-0_LAYER001
  6
CONTINUOUS
 62
    4
 10
1489.5029
 20
1132.0497
 11
1462.9587000000001
 21
1058.8853999999999
  0
ARC
  8
_0-0_LAYER001
  6
CONTINUOUS
 62
    4
 10
1944.3413
 20
912.7043000000001
 40
17.623681999999999
 50
340.29127000000005
 51
57.209820000000029
  0
LINE
  8
_0-0_LAYER001
  6
CONTINUOUS
 62
    2
 10
1497.8841000000002
 20
1039.9119000000001
 11
1470.5367999999999
 21
1052.2458999999999
  0
LINE
  8
_0-0_LAYER001
  6
CONTINUOUS
 62
    2
 10
1504.0511000000001
 20
1053.5854999999999
 11
1497.8841000000002
 21
1039.9119000000001
  0
LINE
  8
_0-0_LAYER001
  6
CONTINUOUS
 62
    2
 10
1703.6514999999999
 20
947.31639999999993
 11
1676.2939000000001
 21
959.62740000000008
  0
LINE
  8
_0-0_LAYER001
  6
CONTINUOUS
 62
    2
 10
1709.8069999999998
 20
960.99520000000007
 11
1703.6514999999999
 21
947.31639999999993
  0
LINE
  8
_0-0_LAYER001
  6
CONTINUOUS
 62
    2
 10
1909.4191000000001
 20
854.72090000000003
 11
1882.0614
 21
867.03189999999995
  0
LINE
  8
_0-0_LAYER001
  6
CONTINUOUS
 62
    2
 10
1888.2168999999999
 20
880.71070000000009
 11
1915.5745000000002
 21
868.39969999999994
  0
LINE
  8
_0-0_LAYER001
  6
CONTINUOUS
 62
    2
 10
1882.0614
 20
867.03189999999995
 11
1888.2168999999999
 21
880.71070000000009
  0
LINE
  8
_0-0_LAYER001
  6
CONTINUOUS
 62
    2
 10
1915.5745000000002
 20
868.39969999999994
 11
1909.4191000000001
 21
854.72090000000003
  0
LINE
  8
_0-0_LAYER001
  6
CONTINUOUS
 62
    2
 10
1888.2168999999999
 20
880.71070000000009
 11
1909.4191000000001
 21
854.72090000000003
  0
LINE
  8
_0-0_LAYER001
  6
CONTINUOUS
 62
    4
 10
1471.4191000000001
 20
1055.816
 11
1462.9587000000001
 21
1058.8853999999999
  0
LINE
  8
_0-0_LAYER001
  6
CONTINUOUS
 62
    4
 10
1668.6709000000001
 20
966.16820000000007
 11
1677.1313
 21
963.09870000000001
  0
LINE
  8
_0-0_LAYER001
  6
CONTINUOUS
 62
    4
 10
1886.9360999999999
 20
881.66210000000001
 11
1882.8434999999999
 21
870.38149999999996
  0
LINE
  8
_0-0_LAYER001
  6
CONTINUOUS
 62
    4
 10
1874.3831
 20
873.45100000000002
 11
1882.8434999999999
 21
870.38149999999996
  0
ARC
  8
_0-0_LAYER001
  6
CONTINUOUS
 62
    4
 10
1959.7174
 20
932.73250000000007
 40
10
 50
340.05907999999999
 51
70.059082999999987
  0
LINE
  8
_0-0_LAYER001
  6
CONTINUOUS
 62
    4
 10
1960.9326000000001
 20
906.76099999999997
 11
1969.1178
 21
929.32199999999989
  0
LINE
  8
_0-0_LAYER001
  6
CONTINUOUS
 62
    4
 10
1895.1295
 20
930.63449999999989
 11
1874.3831
 21
873.45100000000002
  0
ARC
  8
_0-0_LAYER001
  6
CONTINUOUS
 62
    4
 10
1738.6291000000001
 20
1005.4215999999999
 40
17.623681999999999
 50
340.29127000000005
 51
57.209820000000029
  0
LINE
  8
_0-0_LAYER001
  6
CONTINUOUS
 62
    4
 10
1884.2736
 20
900.71229999999991
 11
1681.2239
 21
974.37930000000006
  0
LINE
  8
_0-0_LAYER001
  6
CONTINUOUS
 62
    2
 10
1682.4494
 20
973.30619999999999
 11
1709.8069999999998
 21
960.99520000000007
  0
LINE
  8
_0-0_LAYER001
  6
CONTINUOUS
 62
    2
 10
1676.2939000000001
 20
959.62740000000008
 11
1682.4494
 21
973.30619999999999
  0
LINE
  8
_0-0_LAYER001
  6
CONTINUOUS
 62
    2
 10
1682.4494
 20
973.30619999999999
 11
1703.6514999999999
 21
947.31639999999993
  0
LINE
  8
_0-0_LAYER001
  6
CONTINUOUS
 62
    4
 10
1954.2784000000001
 20
927.25939999999991
 11
1689.4173000000001
 21
1023.3517999999999
  0
LINE
  8
_0-0_LAYER001
  6
CONTINUOUS
 62
    4
 10
1681.2239
 20
974.37930000000006
 11
1677.1313
 21
963.09870000000001
  0
LINE
  8
_0-0_LAYER001
  6
CONTINUOUS
 62
    4
 10
1963.1279
 20
942.13300000000004
 11
1761.0183000000002
 21
1015.4589000000001
  0
ARC
  8
_0-0_LAYER001
  6
CONTINUOUS
 62
    4
 10
1754.0052000000001
 20
1025.4498000000001
 40
10
 50
340.05907999999999
 51
70.059082999999987
  0
LINE
  8
_0-0_LAYER001
  6
CONTINUOUS
 62
    4
 10
1755.2204000000002
 20
999.47820000000002
 11
1763.4056
 21
1022.0392999999999
  0
LINE
  8
_0-0_LAYER001
  6
CONTINUOUS
 62
    4
 10
1689.4173000000001
 20
1023.3517999999999
 11
1668.6709000000001
 21
966.16820000000007
  0
LINE
  8
_0-0_LAYER001
  6
CONTINUOUS
 62
    4
 10
1678.5614
 20
993.42949999999996
 11
1475.5117
 21
1067.0965000000001
  0
LINE
  8
_0-0_LAYER001
  6
CONTINUOUS
 62
    4
 10
1748.5662000000002
 20
1019.9766
 11
1483.7051000000001
 21
1116.069
  0
LINE
  8
_0-0_LAYER001
  6
CONTINUOUS
 62
    4
 10
1757.4157
 20
1034.8502000000001
 11
1489.5029
 21
1132.0497
  0
LINE
  8
_0-0_LAYER001
  6
CONTINUOUS
 62
    2
 10
1689.4173000000001
 20
1023.3517999999999
 11
1515.509
 21
1086.4462000000001
  0
LINE
  8
_0-0_LAYER001
  6
CONTINUOUS
 62
    2
 10
1213.6582000000001
 20
1008.0776000000001
 11
1213.6582000000001
 21
1000.5776000000001
  0
LINE
  8
_0-0_LAYER001
  6
CONTINUOUS
 62
    2
 10
1213.6582000000001
 20
1000.5776000000001
 11
1209.9082000000001
 21
1007.0727999999999
  0
LINE
  8
_0-0_LAYER001
  6
CONTINUOUS
 62
    2
 10
1213.6582000000001
 20
1000.5776000000001
 11
1185.8131000000001
 21
1104.4972
  0
LINE
  8
_0-0_LAYER001
  6
CONTINUOUS
 62
    2
 10
1185.8131000000001
 20
1104.4972
 11
1145.3131000000001
 21
1104.4972
  0
LINE
  8
_0-0_LAYER001
  6
CONTINUOUS
 62
    2
 10
1401.6190000000001
 20
1039.8887
 11
1428.9760000000001
 21
1052.2011
  0
LINE
  8
_0-0_LAYER001
  6
CONTINUOUS
 62
    2
 10
1428.9760000000001
 20
1052.2011
 11
1422.8198
 21
1065.8796
  0
LINE
  8
_0-0_LAYER001
  6
CONTINUOUS
 62
    2
 10
1422.8198
 20
1065.8796
 11
1395.4628
 21
1053.5672
  0
LINE
  8
_0-0_LAYER001
  6
CONTINUOUS
 62
    2
 10
1395.4628
 20
1053.5672
 11
1401.6190000000001
 21
1039.8887
  0
LINE
  8
_0-0_LAYER001
  6
CONTINUOUS
 62
    2
 10
1422.8198
 20
1065.8796
 11
1401.6190000000001
 21
1039.8887
  0
LINE
  8
_0-0_LAYER001
  6
CONTINUOUS
 62
    4
 10
1435.5998
 20
1057.7467999999999
 11
1425.2545
 21
1086.0771
  0
LINE
  8
_0-0_LAYER001
  6
CONTINUOUS
 62
    4
 10
1435.5998
 20
1057.7467999999999
 11
1428.5054
 21
1055.173
  0
LINE
  8
_0-0_LAYER001
  6
CONTINUOUS
 62
    4
 10
1424.2491
 20
1066.9047
 11
1428.5054
 21
1055.173
  0
LINE
  8
_0-0_LAYER001
  6
CONTINUOUS
 62
    4
 10
1425.2545
 20
1086.0771
 11
1405.5645
 21
1132.9564
  0
LINE
  8
_0-0_LAYER001
  6
CONTINUOUS
 62
    2
 10
971.20219999999995
 20
846.1739
 11
998.55919999999992
 21
858.48630000000003
  0
LINE
  8
_0-0_LAYER001
  6
CONTINUOUS
 62
    2
 10
998.55919999999992
 20
858.48630000000003
 11
992.40300000000002
 21
872.16480000000001
  0
LINE
  8
_0-0_LAYER001
  6
CONTINUOUS
 62
    2
 10
992.40300000000002
 20
872.16480000000001
 11
965.04600000000005
 21
859.85239999999999
  0
LINE
  8
_0-0_LAYER001
  6
CONTINUOUS
 62
    2
 10
965.04600000000005
 20
859.85239999999999
 11
971.20219999999995
 21
846.1739
  0
LINE
  8
_0-0_LAYER001
  6
CONTINUOUS
 62
    2
 10
992.40300000000002
 20
872.16480000000001
 11
971.20219999999995
 21
846.1739
  0
LINE
  8
_0-0_LAYER001
  6
CONTINUOUS
 62
    4
 10
1005.9067
 20
864.2376999999999
 11
995.56140000000005
 21
892.56799999999998
  0
LINE
  8
_0-0_LAYER001
  6
CONTINUOUS
 62
    2
 10
1186.4105999999999
 20
943.0313000000001
 11
1213.7675999999999
 21
955.3436999999999
  0
LINE
  8
_0-0_LAYER001
  6
CONTINUOUS
 62
    2
 10
1213.7675999999999
 20
955.3436999999999
 11
1207.6114
 21
969.02220000000011
  0
LINE
  8
_0-0_LAYER001
  6
CONTINUOUS
 62
    2
 10
1207.6114
 20
969.02220000000011
 11
1180.2544
 21
956.70980000000009
  0
LINE
  8
_0-0_LAYER001
  6
CONTINUOUS
 62
    2
 10
1180.2544
 20
956.70980000000009
 11
1186.4105999999999
 21
943.0313000000001
  0
LINE
  8
_0-0_LAYER001
  6
CONTINUOUS
 62
    2
 10
1207.6114
 20
969.02220000000011
 11
1186.4105999999999
 21
943.0313000000001
  0
LINE
  8
_0-0_LAYER001
  6
CONTINUOUS
 62
    4
 10
1220.7533000000001
 20
960.99229999999989
 11
1210.4079999999999
 21
989.32259999999997
  0
LINE
  8
_0-0_LAYER001
  6
CONTINUOUS
 62
    4
 10
1220.7533000000001
 20
960.99229999999989
 11
1213.3061
 21
958.29040000000009
  0
LINE
  8
_0-0_LAYER001
  6
CONTINUOUS
 62
    4
 10
1209.0498
 20
970.02220000000011
 11
1213.3061
 21
958.29040000000009
  0
LINE
  8
_0-0_LAYER001
  6
CONTINUOUS
 62
    4
 10
1005.9067
 20
864.2376999999999
 11
998.1069
 21
861.40789999999993
  0
LINE
  8
_0-0_LAYER001
  6
CONTINUOUS
 62
    4
 10
993.85059999999999
 20
873.13969999999995
 11
998.1069
 21
861.40789999999993
  0
LINE
  8
_0-0_LAYER001
  6
CONTINUOUS
 62
    4
 10
933.53019999999992
 20
888.87049999999999
 11
1424.2491
 21
1066.9047
  0
LINE
  8
_0-0_LAYER001
  6
CONTINUOUS
 62
    4
 10
916.21029999999996
 20
936.6096
 11
1127.1851999999999
 21
1013.1519000000001
  0
LINE
  8
_0-0_LAYER001
  6
CONTINUOUS
 62
    4
 10
1124.8019999999999
 20
1020.0316
 11
1144.6047000000001
 21
965.44890000000009
  0
ARC
  8
_0-0_LAYER001
  6
CONTINUOUS
 62
    4
 10
1134.5784000000001
 20
1023.5785000000001
 40
10.4
 50
109.94091000000002
 51
199.94091
  0
ARC
  8
_0-0_LAYER001
  6
CONTINUOUS
 62
    4
 10
937.05179999999996
 20
879.08480000000009
 40
10.4
 50
109.94091000000002
 51
199.94091
  0
ARC
  8
_0-0_LAYER001
  6
CONTINUOUS
 62
    4
 10
1151.8983000000001
 20
975.83940000000007
 40
10.4
 50
109.94091000000002
 51
199.94091
  0
LINE
  8
_0-0_LAYER001
  6
CONTINUOUS
 62
    4
 10
1147.4709
 20
985.29639999999995
 11
1425.2545
 21
1086.0771
  0
LINE
  8
_0-0_LAYER001
  6
CONTINUOUS
 62
    4
 10
1124.8019999999999
 20
1020.0316
 11
1138.5749000000001
 21
982.06889999999999
  0
LINE
  8
_0-0_LAYER001
  6
CONTINUOUS
 62
    4
 10
910.09269999999992
 20
842.75209999999993
 11
993.85059999999999
 21
873.13969999999995
  0
LINE
  8
_0-0_LAYER001
  6
CONTINUOUS
 62
    4
 10
881.54340000000002
 20
905.22479999999996
 11
912.33860000000004
 21
916.39740000000006
  0
LINE
  8
_0-0_LAYER001
  6
CONTINUOUS
 62
    4
 10
915.98520000000008
 20
906.6570999999999
 11
929.75819999999999
 21
868.69440000000009
  0
LINE
  8
_0-0_LAYER001
  6
CONTINUOUS
 62
    4
 10
902.72019999999998
 20
858.88490000000002
 11
1209.0498
 21
970.02220000000011
  0
LINE
  8
_0-0_LAYER001
  6
CONTINUOUS
 62
    4
 10
1130.1510000000001
 20
1033.0355999999999
 11
1405.5645
 21
1132.9564
  0
LINE
  8
_0-0_LAYER001
  6
CONTINUOUS
 62
    4
 10
909.95540000000005
 20
923.27710000000002
 11
929.75819999999999
 21
868.69440000000009
  0
ARC
  8
_0-0_LAYER001
  6
CONTINUOUS
 62
    4
 10
919.7319
 20
926.82400000000007
 40
10.4
 50
109.94091000000002
 51
199.94091
  0
LINE
  8
_0-0_LAYER001
  6
CONTINUOUS
 62
    2
 10
856.39760000000001
 20
1069.5905
 11
874.4058
 21
1020.2755999999999
  0
CIRCLE
  8
_0-0_LAYER001
  6
CONTINUOUS
 62
    2
 10
857.25510000000008
 20
1067.2420999999999
 40
1.6999999999999997
  0
LINE
  8
_0-0_LAYER001
  6
CONTINUOUS
 62
    2
 10
857.25510000000008
 20
1067.2420999999999
 11
1077.9979000000001
 21
1147.8499999999999
  0
CIRCLE
  8
_0-0_LAYER001
  6
CONTINUOUS
 62
    2
 10
1077.9979000000001
 20
1147.8499999999999
 40
1.6999999999999997
  0
LINE
  8
_0-0_LAYER001
  6
CONTINUOUS
 62
    2
 10
1077.1404
 20
1150.1984
 11
1095.1485
 21
1100.8834999999999
  0
LINE
  8
_0-0_LAYER001
  6
CONTINUOUS
 62
    2
 10
1349.9158
 20
1292.3903
 11
1367.924
 21
1243.0754999999999
  0
CIRCLE
  8
_0-0_LAYER001
  6
CONTINUOUS
 62
    2
 10
1350.7733000000003
 20
1290.0419999999999
 40
1.6999999999999997
  0
LINE
  8
_0-0_LAYER001
  6
CONTINUOUS
 62
    2
 10
1350.7733000000003
 20
1290.0419999999999
 11
1064.2773999999999
 21
1185.4232999999999
  0
CIRCLE
  8
_0-0_LAYER001
  6
CONTINUOUS
 62
    2
 10
1064.2773999999999
 20
1185.4232999999999
 40
1.6999999999999997
  0
LINE
  8
_0-0_LAYER001
  6
CONTINUOUS
 62
    2
 10
1063.4199000000001
 20
1187.7716
 11
1081.4280000000001
 21
1138.4567
  0
LINE
  8
_0-0_LAYER001
  6
CONTINUOUS
 62
    2
 10
1392.4848
 20
1123.471
 11
1394.4259
 21
1116.2266
  0
LINE
  8
_0-0_LAYER001
  6
CONTINUOUS
 62
    2
 10
1394.4259
 20
1116.2266
 11
1389.1226000000001
 21
1121.5299
  0
LINE
  8
_0-0_LAYER001
  6
CONTINUOUS
 62
    2
 10
1394.4259
 20
1116.2266
 11
1295.8113000000001
 21
1287.0322000000001
  0
LINE
  8
_0-0_LAYER001
  6
CONTINUOUS
 62
    2
 10
1295.8113000000001
 20
1287.0322000000001
 11
1214.5882999999999
 21
1287.0322000000001
  0
LINE
  8
_0-0_LAYER001
  6
CONTINUOUS
 62
    2
 10
1448.6244000000002
 20
1222.0956000000001
 11
1450.5655000000002
 21
1214.8511000000001
  0
LINE
  8
_0-0_LAYER001
  6
CONTINUOUS
 62
    2
 10
1450.5655000000002
 20
1214.8511000000001
 11
1445.2622000000001
 21
1220.1543999999999
  0
LINE
  8
_0-0_LAYER001
  6
CONTINUOUS
 62
    2
 10
1450.5655000000002
 20
1214.8511000000001
 11
1351.7070000000001
 21
1386.079
  0
LINE
  8
_0-0_LAYER001
  6
CONTINUOUS
 62
    2
 10
1351.7070000000001
 20
1386.079
 11
1257.6101000000001
 21
1386.079
  0
LINE
  8
_0-0_LAYER001
  6
CONTINUOUS
 62
    2
 10
1455.1772000000001
 20
1272.8905
 11
1451.4272000000001
 21
1266.3952999999999
  0
LINE
  8
_0-0_LAYER001
  6
CONTINUOUS
 62
    2
 10
1451.4272000000001
 20
1266.3952999999999
 11
1451.4272000000001
 21
1273.8952999999999
  0
LINE
  8
_0-0_LAYER001
  6
CONTINUOUS
 62
    2
 10
1451.4272000000001
 20
1266.3952999999999
 11
1478.2768999999998
 21
1366.5996999999998
  0
LINE
  8
_0-0_LAYER001
  6
CONTINUOUS
 62
    2
 10
1444.4285
 20
1256.0495000000001
 11
1444.4285
 21
1248.5495000000001
  0
LINE
  8
_0-0_LAYER001
  6
CONTINUOUS
 62
    2
 10
1444.4285
 20
1248.5495000000001
 11
1440.6785
 21
1255.0446999999999
  0
LINE
  8
_0-0_LAYER001
  6
CONTINUOUS
 62
    2
 10
1444.4285
 20
1248.5495000000001
 11
1395.4441999999999
 21
1431.3614000000002
  0
LINE
  8
_0-0_LAYER001
  6
CONTINUOUS
 62
    2
 10
1395.4441999999999
 20
1431.3614000000002
 11
1239.2367999999999
 21
1431.3614000000002
  0
LINE
  8
_0-0_LAYER001
  6
CONTINUOUS
 62
    2
 10
1776.8930999999998
 20
1271.3416999999999
 11
1981.7157999999999
 21
1271.3416999999999
  0
LINE
  8
_0-0_LAYER001
  6
CONTINUOUS
 62
    2
 10
1696.8924000000002
 20
965.27510000000007
 11
1693.1424000000002
 21
958.7799
  0
LINE
  8
_0-0_LAYER001
  6
CONTINUOUS
 62
    2
 10
1693.1424000000002
 20
958.7799
 11
1693.1424000000002
 21
966.2799
  0
LINE
  8
_0-0_LAYER001
  6
CONTINUOUS
 62
    2
 10
1693.1424000000002
 20
958.7799
 11
1776.8930999999998
 21
1271.3416999999999
  0
LINE
  8
_0-1_LAYER002
  6
CONTINUOUS
 62
   18
 10
1239.2367999999999
 20
1431.3614000000002
 11
1395.4441999999999
 21
1431.3614000000002
  0
LINE
  8
_0-1_LAYER002
  6
CONTINUOUS
 62
   18
 10
1257.6101000000001
 20
1386.079
 11
1351.7070000000001
 21
1386.079
  0
LINE
  8
_0-1_LAYER002
  6
CONTINUOUS
 62
   18
 10
1214.5882999999999
 20
1287.0322000000001
 11
1295.8113000000001
 21
1287.0322000000001
  0
LINE
  8
_0-1_LAYER002
  6
CONTINUOUS
 62
   18
 10
1776.8930999999998
 20
1271.3416999999999
 11
1965.5545000000002
 21
1271.3416999999999
  0
LINE
  8
_0-1_LAYER002
  6
CONTINUOUS
 62
   18
 10
1419.8448000000003
 20
1222.2154
 11
1419.8448000000003
 21
1204.9141
  0
LINE
  8
_0-1_LAYER002
  6
CONTINUOUS
 62
   18
 10
1419.8447000000001
 20
1191.4121073086644
 11
1419.8447000000001
 21
1173.9437436238695
  0
LINE
  8
_0-1_LAYER002
  6
CONTINUOUS
 62
   18
 10
1408.9888732893401
 20
1157.8078090445006
 11
1408.9888732893401
 21
1139.9842824316167
  0
LINE
  8
_0-1_LAYER002
  6
CONTINUOUS
 62
   18
 10
1408.988788307295
 20
1139.9842824316167
 11
1492.1858000000002
 21
1139.9842824316167
  0
LINE
  8
_0-1_LAYER002
  6
CONTINUOUS
 62
   18
 10
1490.6756999999998
 20
1140.935052358654
 11
1490.6756999999998
 21
1157.8078
  0
LINE
  8
_0-1_LAYER002
  6
CONTINUOUS
 62
   18
 10
1490.6756999999998
 20
1157.8078
 11
1408.9888732893401
 21
1157.8078
  0
LINE
  8
_0-1_LAYER002
  6
CONTINUOUS
 62
   18
 10
1490.6756999999998
 20
1140.935052358654
 11
1490.6756999999998
 21
1139.9843000000001
  0
LINE
  8
_0-1_LAYER002
  6
CONTINUOUS
 62
   18
 10
1446.7640000000001
 20
1085.2737
 11
1452.9005999999999
 21
1085.2737
  0
LINE
  8
_0-1_LAYER002
  6
CONTINUOUS
 62
   18
 10
1452.9005999999999
 20
1085.2737
 11
1452.9005999999999
 21
1224.0003704120872
  0
LINE
  8
_0-1_LAYER002
  6
CONTINUOUS
 62
   18
 10
1446.7640000000001
 20
1224.9407000000001
 11
1446.7640000000001
 21
1085.2737
  0
LINE
  8
_0-1_LAYER002
  6
CONTINUOUS
 62
   18
 10
1444.5538999999999
 20
1116.7465999999999
 11
1452.9005999999999
 21
1116.7465999999999
  0
LINE
  8
_0-1_LAYER002
  6
CONTINUOUS
 62
   18
 10
1443.2903000000001
 20
1118.1103000000001
 11
1456.2494999999999
 21
1118.1103000000001
  0
LINE
  8
_0-1_LAYER002
  6
CONTINUOUS
 62
   18
 10
1452.9005999999999
 20
1116.7465999999999
 11
1455.1107000000002
 21
1116.7465999999999
  0
LINE
  8
_0-1_LAYER002
  6
CONTINUOUS
 62
   18
 10
1419.8444666243383
 20
1222.2154565341577
 11
1479.8449000000001
 21
1222.2154565341577
  0
LINE
  8
_0-1_LAYER002
  6
CONTINUOUS
 62
   18
 10
1479.8449000000001
 20
1221.1341128224356
 11
1479.8449000000001
 21
1203.6514
  0
LINE
  8
_0-1_LAYER002
  6
CONTINUOUS
 62
   18
 10
1479.8449000000001
 20
1203.6514
 11
1419.8448000000003
 21
1203.6514
  0
LINE
  8
_0-1_LAYER002
  6
CONTINUOUS
 62
   18
 10
1419.8448000000003
 20
1204.6627520265133
 11
1419.8448000000003
 21
1203.6513550869831
  0
LINE
  8
_0-1_LAYER002
  6
CONTINUOUS
 62
   18
 10
1419.8448449965699
 20
1192.3384339685549
 11
1479.8449999999998
 21
1192.3384339685549
  0
LINE
  8
_0-1_LAYER002
  6
CONTINUOUS
 62
   18
 10
1479.8449999999998
 20
1192.3395
 11
1479.8449999999998
 21
1173.9437383878565
  0
LINE
  8
_0-1_LAYER002
  6
CONTINUOUS
 62
   18
 10
1479.8448557307563
 20
1173.9437383878565
 11
1419.8447000000001
 21
1173.9437383878565
  0
LINE
  8
_0-1_LAYER002
  6
CONTINUOUS
 62
   18
 10
1419.8447000000001
 20
1191.4121073086644
 11
1419.8447000000001
 21
1192.3400999999999
  0
LINE
  8
_0-1_LAYER002
  6
CONTINUOUS
 62
   18
 10
1435.5133000000001
 20
1257.4647
 11
1464.1514000000002
 21
1257.4647
  0
LINE
  8
_0-1_LAYER002
  6
CONTINUOUS
 62
   18
 10
1464.1514000000002
 20
1257.4647
 11
1464.1514000000002
 21
1228.8266000000001
  0
LINE
  8
_0-1_LAYER002
  6
CONTINUOUS
 62
   18
 10
1464.1514000000002
 20
1228.8266000000001
 11
1435.5133000000001
 21
1228.8266000000001
  0
LINE
  8
_0-1_LAYER002
  6
CONTINUOUS
 62
   18
 10
1435.5133000000001
 20
1228.8266000000001
 11
1435.5133000000001
 21
1257.4647
  0
LINE
  8
_0-1_LAYER002
  6
CONTINUOUS
 62
   18
 10
1465.174
 20
1243.3508999999999
 11
1466.5376999999999
 21
1243.3508999999999
  0
LINE
  8
_0-1_LAYER002
  6
CONTINUOUS
 62
   18
 10
1466.5376999999999
 20
1243.3508999999999
 11
1466.5376999999999
 21
1224.9407000000001
  0
LINE
  8
_0-1_LAYER002
  6
CONTINUOUS
 62
   18
 10
1466.5376999999999
 20
1224.9407000000001
 11
1433.1268
 21
1224.9407000000001
  0
LINE
  8
_0-1_LAYER002
  6
CONTINUOUS
 62
   18
 10
1433.1268
 20
1224.9407000000001
 11
1433.1268
 21
1243.3508999999999
  0
LINE
  8
_0-1_LAYER002
  6
CONTINUOUS
 62
   18
 10
1433.1268
 20
1243.3508999999999
 11
1434.4904999999999
 21
1243.3508999999999
  0
LINE
  8
_0-1_LAYER002
  6
CONTINUOUS
 62
   18
 10
1434.4904999999999
 20
1243.3508999999999
 11
1434.4904999999999
 21
1226.3042
  0
LINE
  8
_0-1_LAYER002
  6
CONTINUOUS
 62
   18
 10
1434.4904999999999
 20
1226.3042
 11
1465.174
 21
1226.3042
  0
LINE
  8
_0-1_LAYER002
  6
CONTINUOUS
 62
   18
 10
1465.174
 20
1226.3042
 11
1465.174
 21
1243.3508999999999
  0
LINE
  8
_0-1_LAYER002
  6
CONTINUOUS
 62
   18
 10
1452.9005999999999
 20
1224.0003704120872
 11
1452.9005999999999
 21
1224.9407000000001
  0
LINE
  8
_0-1_LAYER002
  6
CONTINUOUS
 62
   18
 10
1478.2768999999998
 20
1366.5996999999998
 11
1451.4272203888358
 21
1266.3952838358996
  0
LINE
  8
_0-1_LAYER002
  6
CONTINUOUS
 62
   18
 10
1451.4272203888358
 20
1266.3952838358996
 11
1451.4274999999998
 21
1275.1301000000001
  0
LINE
  8
_0-1_LAYER002
  6
CONTINUOUS
 62
   18
 10
1448.2365
 20
1275.1312
 11
1448.2366220134181
 21
1265.5403242278958
  0
LINE
  8
_0-1_LAYER002
  6
CONTINUOUS
 62
   18
 10
1455.1772000000001
 20
1272.8905
 11
1451.4272000000001
 21
1266.3952999999999
  0
LINE
  8
_0-1_LAYER002
  6
CONTINUOUS
 62
    2
 10
1451.4274999999998
 20
1276.763454204141
 11
1453.6657
 21
1278.1369542041407
  0
LINE
  8
_0-1_LAYER002
  6
CONTINUOUS
 62
    2
 10
1445.9989
 20
1278.1375542041408
 11
1453.6657
 21
1278.1369542041407
  0
LINE
  8
_0-1_LAYER002
  6
CONTINUOUS
 62
    2
 10
1448.2365
 20
1276.7645542041409
 11
1445.9989
 21
1278.1375542041408
  0
LINE
  8
_0-1_LAYER002
  6
CONTINUOUS
 62
   18
 10
1451.4274999999998
 20
1276.763454204141
 11
1453.6657
 21
1278.1369542041407
  0
LINE
  8
_0-1_LAYER002
  6
CONTINUOUS
 62
   18
 10
1453.6657
 20
1278.1369542041407
 11
1445.9989
 21
1278.1375542041408
  0
LINE
  8
_0-1_LAYER002
  6
CONTINUOUS
 62
   18
 10
1445.9989
 20
1278.1375542041408
 11
1448.2365
 21
1276.7645542041409
  0
LINE
  8
_0-1_LAYER002
  6
CONTINUOUS
 62
   18
 10
1448.2372
 20
1275.0949000000001
 11
1448.2365
 21
1276.7645542041409
  0
LINE
  8
_0-1_LAYER002
  6
CONTINUOUS
 62
   18
 10
1451.4274999999998
 20
1275.1301000000001
 11
1451.4274999999998
 21
1276.763454204141
  0
LINE
  8
_0-1_LAYER002
  6
CONTINUOUS
 62
   18
 10
1528.6442000000002
 20
1324.1833999999999
 11
1505.6134000000002
 21
1238.2312999999999
  0
LINE
  8
_0-1_LAYER002
  6
CONTINUOUS
 62
   18
 10
1505.6134000000002
 20
1238.2312999999999
 11
1509.3634000000002
 21
1244.7265
  0
LINE
  8
_0-1_LAYER002
  6
CONTINUOUS
 62
   18
 10
1505.6134000000002
 20
1238.2312999999999
 11
1505.6134000000002
 21
1245.7312999999999
  0
LINE
  8
_0-1_LAYER002
  6
CONTINUOUS
 62
   18
 10
1545.732
 20
1281.6093000000001
 11
1517.5209
 21
1176.3241
  0
LINE
  8
_0-1_LAYER002
  6
CONTINUOUS
 62
   18
 10
1517.5209
 20
1176.3241
 11
1517.5209
 21
1183.8241
  0
LINE
  8
_0-1_LAYER002
  6
CONTINUOUS
 62
   18
 10
1517.5209
 20
1176.3241
 11
1519.5966508893061
 21
1184.0709034756107
  0
LINE
  8
_0-1_LAYER002
  6
CONTINUOUS
 62
   18
 10
1517.5209
 20
1176.3241
 11
1521.2709
 21
1182.8191999999999
  0
LINE
  8
_0-1_LAYER002
  6
CONTINUOUS
 62
   18
 10
1444.4285
 20
1256.0495000000001
 11
1444.4285
 21
1248.5495000000001
  0
LINE
  8
_0-1_LAYER002
  6
CONTINUOUS
 62
   18
 10
1444.4285
 20
1248.5495000000001
 11
1440.6785
 21
1255.0446999999999
  0
LINE
  8
_0-1_LAYER002
  6
CONTINUOUS
 62
   18
 10
1435.5133000000001
 20
1257.4647
 11
1464.1514000000002
 21
1228.8266000000001
  0
LINE
  8
_0-1_LAYER002
  6
CONTINUOUS
 62
   18
 10
1464.1514000000002
 20
1257.4647
 11
1435.5133000000001
 21
1228.8266000000001
  0
LINE
  8
_0-1_LAYER002
  6
CONTINUOUS
 62
   18
 10
1448.2348000000002
 20
1239.5659000000001
 11
1450.0169000000001
 21
1231.6393
  0
LINE
  8
_0-1_LAYER002
  6
CONTINUOUS
 62
   18
 10
1450.0169000000001
 20
1231.6393
 11
1451.4261999999999
 21
1238.664
  0
LINE
  8
_0-1_LAYER002
  6
CONTINUOUS
 62
   18
 10
1451.4261999999999
 20
1238.664
 11
1451.4272203888358
 21
1266.3952838358996
  0
LINE
  8
_0-1_LAYER002
  6
CONTINUOUS
 62
   18
 10
1448.6244000000002
 20
1222.0956000000001
 11
1450.5655000000002
 21
1214.8511000000001
  0
LINE
  8
_0-1_LAYER002
  6
CONTINUOUS
 62
   18
 10
1450.5655000000002
 20
1214.8511000000001
 11
1445.2622000000001
 21
1220.1543999999999
  0
LINE
  8
_0-1_LAYER002
  6
CONTINUOUS
 62
   18
 10
1450.5655000000002
 20
1214.8511000000001
 11
1351.7070000000001
 21
1386.079
  0
LINE
  8
_0-1_LAYER002
  6
CONTINUOUS
 62
   18
 10
1419.9892
 20
1212.8531
 11
1418.048
 21
1220.0976000000001
  0
LINE
  8
_0-1_LAYER002
  6
CONTINUOUS
 62
   18
 10
1414.6858999999999
 20
1218.1564000000001
 11
1419.8448000000003
 21
1212.9974999999999
  0
LINE
  8
_0-1_LAYER002
  6
CONTINUOUS
 62
   18
 10
1419.9892
 20
1212.8531
 11
1352.2719000000002
 21
1330.1429000000003
  0
LINE
  8
_0-1_LAYER002
  6
CONTINUOUS
 62
   18
 10
1295.8113000000001
 20
1287.0322000000001
 11
1394.4259
 21
1116.2266
  0
LINE
  8
_0-1_LAYER002
  6
CONTINUOUS
 62
   18
 10
1394.4259
 20
1116.2266
 11
1392.4848
 21
1123.471
  0
LINE
  8
_0-1_LAYER002
  6
CONTINUOUS
 62
   18
 10
1394.4259
 20
1116.2266
 11
1389.1226000000001
 21
1121.5299
  0
LINE
  8
_0-1_LAYER002
  6
CONTINUOUS
 62
   18
 10
1395.4628
 20
1053.5672
 11
1401.6190000000001
 21
1039.8887
  0
LINE
  8
_0-1_LAYER002
  6
CONTINUOUS
 62
   18
 10
1401.6190000000001
 20
1039.8887
 11
1422.8198
 21
1065.8796
  0
LINE
  8
_0-1_LAYER002
  6
CONTINUOUS
 62
   18
 10
1422.8198
 20
1065.8796
 11
1395.4628
 21
1053.5672
  0
LINE
  8
_0-1_LAYER002
  6
CONTINUOUS
 62
   18
 10
1422.8198
 20
1065.8796
 11
1428.9760000000001
 21
1052.2011
  0
LINE
  8
_0-1_LAYER002
  6
CONTINUOUS
 62
   18
 10
1428.9760000000001
 20
1052.2011
 11
1401.6190000000001
 21
1039.8887
  0
LINE
  8
_0-1_LAYER002
  6
CONTINUOUS
 62
   18
 10
1470.5367999999999
 20
1052.2458999999999
 11
1476.7037999999998
 21
1065.9195
  0
LINE
  8
_0-1_LAYER002
  6
CONTINUOUS
 62
   18
 10
1476.7037999999998
 20
1065.9195
 11
1504.0511000000001
 21
1053.5854999999999
  0
LINE
  8
_0-1_LAYER002
  6
CONTINUOUS
 62
   18
 10
1504.0511000000001
 20
1053.5854999999999
 11
1497.8841000000002
 21
1039.9119000000001
  0
LINE
  8
_0-1_LAYER002
  6
CONTINUOUS
 62
   18
 10
1497.8841000000002
 20
1039.9119000000001
 11
1470.5367999999999
 21
1052.2458999999999
  0
LINE
  8
_0-1_LAYER002
  6
CONTINUOUS
 62
   18
 10
1476.7037999999998
 20
1065.9195
 11
1497.8841000000002
 21
1039.9119000000001
  0
LINE
  8
_0-1_LAYER002
  6
CONTINUOUS
 62
   18
 10
1455.1107000000002
 20
1116.7465999999999
 11
1459.8234000000002
 21
1054.9829
  0
LINE
  8
_0-1_LAYER002
  6
CONTINUOUS
 62
   18
 10
1459.8234000000002
 20
1054.9829
 11
1539.8062
 21
1018.9907000000001
  0
LINE
  8
_0-1_LAYER002
  6
CONTINUOUS
 62
   18
 10
1539.8062
 20
1018.9907000000001
 11
1539.8062
 21
1020.6356000000001
  0
LINE
  8
_0-1_LAYER002
  6
CONTINUOUS
 62
   18
 10
1539.8062
 20
1020.6356000000001
 11
1461.1098000000002
 21
1056.0489
  0
LINE
  8
_0-1_LAYER002
  6
CONTINUOUS
 62
   18
 10
1461.1098000000002
 20
1056.0489
 11
1456.3742999999999
 21
1118.1103000000001
  0
LINE
  8
_0-1_LAYER002
  6
CONTINUOUS
 62
   18
 10
1444.5538999999999
 20
1116.7465999999999
 11
1439.8429999999998
 21
1055.0072
  0
LINE
  8
_0-1_LAYER002
  6
CONTINUOUS
 62
   18
 10
1439.8429999999998
 20
1055.0072
 11
1359.8062
 21
1018.9907000000001
  0
LINE
  8
_0-1_LAYER002
  6
CONTINUOUS
 62
   18
 10
1359.8062
 20
1018.9907000000001
 11
1359.8062
 21
1020.6356000000001
  0
LINE
  8
_0-1_LAYER002
  6
CONTINUOUS
 62
   18
 10
1359.8062
 20
1020.6356000000001
 11
1438.5567000000001
 21
1056.0732
  0
LINE
  8
_0-1_LAYER002
  6
CONTINUOUS
 62
   18
 10
1438.5567000000001
 20
1056.0732
 11
1443.2903000000001
 21
1118.1103000000001
  0
LINE
  8
_0-1_LAYER002
  6
CONTINUOUS
 62
   18
 10
1367.924
 20
1243.0754999999999
 11
1350.1901985196378
 21
1291.638869645149
  0
LINE
  8
_0-1_LAYER002
  6
CONTINUOUS
 62
   18
 10
1350.1901985196378
 20
1291.638869645149
 11
1350.7733000000003
 21
1290.0419999999999
  0
LINE
  8
_0-1_LAYER002
  6
CONTINUOUS
 62
   18
 10
1350.7733000000003
 20
1290.0419999999999
 11
1064.2774160040497
 21
1185.4233058441425
  0
LINE
  8
_0-1_LAYER002
  6
CONTINUOUS
 62
   18
 10
1064.2773999999999
 20
1185.4232999999999
 11
1063.6942966842155
 21
1187.0201689749385
  0
LINE
  8
_0-1_LAYER002
  6
CONTINUOUS
 62
   18
 10
1063.6942966842155
 20
1187.0201689749385
 11
1095.1485
 21
1100.8834999999999
  0
LINE
  8
_0-1_LAYER002
  6
CONTINUOUS
 62
   18
 10
1077.9978919979758
 20
1147.8499970779278
 11
857.25515242589324
 21
1067.2421191441856
  0
LINE
  8
_0-1_LAYER002
  6
CONTINUOUS
 62
   18
 10
856.67203024921548
 20
1068.8389812309374
 11
874.4058
 21
1020.2755999999999
  0
LINE
  8
_0-1_LAYER002
  6
CONTINUOUS
 62
   18
 10
943.20720000000006
 20
773.40239999999994
 11
1449.8062
 21
1001.3715
  0
LINE
  8
_0-1_LAYER002
  6
CONTINUOUS
 62
   18
 10
1449.8062
 20
1001.3715
 11
1449.8062
 21
1056.2008000000001
  0
LINE
  8
_0-1_LAYER002
  6
CONTINUOUS
 62
   18
 10
1449.8062
 20
1056.2008000000001
 11
922.68900000000008
 21
818.9985999999999
  0
LINE
  8
_0-1_LAYER002
  6
CONTINUOUS
 62
   18
 10
1449.8062
 20
1058.394
 11
921.86830000000009
 21
820.82230000000004
  0
LINE
  8
_0-1_LAYER002
  6
CONTINUOUS
 62
   18
 10
971.20219999999995
 20
846.1739
 11
965.04600000000005
 21
859.85239999999999
  0
LINE
  8
_0-1_LAYER002
  6
CONTINUOUS
 62
   18
 10
965.04600000000005
 20
859.85239999999999
 11
992.40300000000002
 21
872.16480000000001
  0
LINE
  8
_0-1_LAYER002
  6
CONTINUOUS
 62
   18
 10
992.40300000000002
 20
872.16480000000001
 11
998.55919999999992
 21
858.48630000000003
  0
LINE
  8
_0-1_LAYER002
  6
CONTINUOUS
 62
   18
 10
998.55919999999992
 20
858.48630000000003
 11
971.20219999999995
 21
846.1739
  0
LINE
  8
_0-1_LAYER002
  6
CONTINUOUS
 62
   18
 10
971.20219999999995
 20
846.1739
 11
992.40300000000002
 21
872.16480000000001
  0
LINE
  8
_0-1_LAYER002
  6
CONTINUOUS
 62
   18
 10
1076.1028990105274
 20
888.03469739138632
 11
1051.0251000000001
 21
821.92039999999997
  0
LINE
  8
_0-1_LAYER002
  6
CONTINUOUS
 62
   18
 10
1054.894
 20
823.66139999999996
 11
1079.9719
 21
889.77569999999992
  0
LINE
  8
_0-1_LAYER002
  6
CONTINUOUS
 62
   18
 10
1186.4105999999999
 20
943.0313000000001
 11
1180.2544
 21
956.70980000000009
  0
LINE
  8
_0-1_LAYER002
  6
CONTINUOUS
 62
   18
 10
1180.2544
 20
956.70980000000009
 11
1207.6114
 21
969.02220000000011
  0
LINE
  8
_0-1_LAYER002
  6
CONTINUOUS
 62
   18
 10
1207.6114
 20
969.02220000000011
 11
1213.7675999999999
 21
955.3436999999999
  0
LINE
  8
_0-1_LAYER002
  6
CONTINUOUS
 62
   18
 10
1213.7675999999999
 20
955.3436999999999
 11
1186.4105999999999
 21
943.0313000000001
  0
LINE
  8
_0-1_LAYER002
  6
CONTINUOUS
 62
   18
 10
1186.4105999999999
 20
943.0313000000001
 11
1207.6114
 21
969.02220000000011
  0
LINE
  8
_0-1_LAYER002
  6
CONTINUOUS
 62
   18
 10
1209.9082000000001
 20
1007.0727999999999
 11
1213.6582000000001
 21
1000.5776000000001
  0
LINE
  8
_0-1_LAYER002
  6
CONTINUOUS
 62
   18
 10
1213.6582000000001
 20
1000.5776000000001
 11
1213.6582000000001
 21
1008.0776000000001
  0
LINE
  8
_0-1_LAYER002
  6
CONTINUOUS
 62
   18
 10
1213.6582000000001
 20
1000.5776000000001
 11
1185.8131000000001
 21
1104.4972
  0
LINE
  8
_0-1_LAYER002
  6
CONTINUOUS
 62
   18
 10
1185.8131000000001
 20
1104.4972
 11
1145.3131000000001
 21
1104.4972
  0
LINE
  8
_0-1_LAYER002
  6
CONTINUOUS
 62
   18
 10
1273.4199000000001
 20
976.82709999999997
 11
1248.3417999999999
 21
910.71280000000002
  0
LINE
  8
_0-1_LAYER002
  6
CONTINUOUS
 62
   18
 10
1244.473
 20
908.97170000000006
 11
1269.5508
 21
975.08600000000001
  0
LINE
  8
_0-1_LAYER002
  6
CONTINUOUS
 62
   18
 10
1449.8062
 20
1058.394
 11
1977.7440999999999
 21
820.82230000000004
  0
LINE
  8
_0-1_LAYER002
  6
CONTINUOUS
 62
   18
 10
1976.9234000000001
 20
818.9985999999999
 11
1449.8062
 21
1056.2008000000001
  0
LINE
  8
_0-1_LAYER002
  6
CONTINUOUS
 62
   18
 10
1449.8062
 20
1001.3715
 11
1956.4052000000001
 21
773.40239999999994
  0
LINE
  8
_0-1_LAYER002
  6
CONTINUOUS
 62
   18
 10
1910.2393000000002
 20
670.81130000000007
 11
1448.4383171919183
 21
877.39015420693943
  0
LINE
  8
_0-1_LAYER002
  6
CONTINUOUS
 62
   18
 10
1448.4383171919183
 20
877.39015420693943
 11
989.37310000000002
 21
670.81130000000007
  0
LINE
  8
_0-1_LAYER002
  6
CONTINUOUS
 62
   18
 10
1632.7973999999999
 20
975.08600000000001
 11
1657.8751999999999
 21
908.97170000000006
  0
LINE
  8
_0-1_LAYER002
  6
CONTINUOUS
 62
   18
 10
1628.9283999999998
 20
976.82709999999997
 11
1654.0064000000002
 21
910.71280000000002
  0
LINE
  8
_0-1_LAYER002
  6
CONTINUOUS
 62
   18
 10
1682.4494
 20
973.30619999999999
 11
1676.2939000000001
 21
959.62740000000008
  0
LINE
  8
_0-1_LAYER002
  6
CONTINUOUS
 62
   18
 10
1676.2939000000001
 20
959.62740000000008
 11
1703.6514999999999
 21
947.31639999999993
  0
LINE
  8
_0-1_LAYER002
  6
CONTINUOUS
 62
   18
 10
1703.6514999999999
 20
947.31639999999993
 11
1709.8069999999998
 21
960.99520000000007
  0
LINE
  8
_0-1_LAYER002
  6
CONTINUOUS
 62
   18
 10
1709.8069999999998
 20
960.99520000000007
 11
1682.4494
 21
973.30619999999999
  0
LINE
  8
_0-1_LAYER002
  6
CONTINUOUS
 62
   18
 10
1682.4494
 20
973.30619999999999
 11
1703.6514999999999
 21
947.31639999999993
  0
LINE
  8
_0-1_LAYER002
  6
CONTINUOUS
 62
   18
 10
1693.1424000000002
 20
966.2799
 11
1693.1424000000002
 21
958.7799
  0
LINE
  8
_0-1_LAYER002
  6
CONTINUOUS
 62
   18
 10
1693.1424000000002
 20
958.7799
 11
1696.8924000000002
 21
965.27510000000007
  0
LINE
  8
_0-1_LAYER002
  6
CONTINUOUS
 62
   18
 10
1693.1424000000002
 20
958.7799
 11
1776.8930999999998
 21
1271.3416999999999
  0
LINE
  8
_0-1_LAYER002
  6
CONTINUOUS
 62
   18
 10
1822.3762999999999
 20
889.77569999999992
 11
1847.4542000000001
 21
823.66139999999996
  0
LINE
  8
_0-1_LAYER002
  6
CONTINUOUS
 62
   18
 10
1851.3231000000001
 20
821.92039999999997
 11
1826.2453
 21
888.03469999999993
  0
LINE
  8
_0-1_LAYER002
  6
CONTINUOUS
 62
   18
 10
1888.2168999999999
 20
880.71070000000009
 11
1882.0614
 21
867.03189999999995
  0
LINE
  8
_0-1_LAYER002
  6
CONTINUOUS
 62
   18
 10
1882.0614
 20
867.03189999999995
 11
1909.4191000000001
 21
854.72090000000003
  0
LINE
  8
_0-1_LAYER002
  6
CONTINUOUS
 62
   18
 10
1909.4191000000001
 20
854.72090000000003
 11
1888.2168999999999
 21
880.71070000000009
  0
LINE
  8
_0-1_LAYER002
  6
CONTINUOUS
 62
   18
 10
1888.2168999999999
 20
880.71070000000009
 11
1915.5745000000002
 21
868.39969999999994
  0
LINE
  8
_0-1_LAYER002
  6
CONTINUOUS
 62
   18
 10
1915.5745000000002
 20
868.39969999999994
 11
1909.4191000000001
 21
854.72090000000003
  0
LINE
  8
_0-1_LAYER002
  6
CONTINUOUS
 62
   18
 10
1395.4441999999999
 20
1431.3614000000002
 11
1444.4285
 21
1248.5495000000001
  0
LINE
  8
_0-1_LAYER002
  6
CONTINUOUS
 62
   18
 10
1448.2366220134181
 20
1265.5403242278958
 11
1448.2350506706957
 21
1239.5647850421783
  0
ARC
  8
_0-1_LAYER002
  6
CONTINUOUS
 62
   18
 10
1026.6937683368278
 20
1138.3722276735339
 40
346.29578081942009
 50
347.63204537666815
 51
358.94613546155472
  0
ARC
  8
_0-1_LAYER002
  6
CONTINUOUS
 62
   18
 10
1359.2080884154118
 20
1164.4768220495844
 40
22.340403188548809
 50
325.01755235693537
 51
2.2438939281510315
  0
ARC
  8
_0-1_LAYER002
  6
CONTINUOUS
 62
   18
 10
1388.9143990717171
 20
1193.9607944899337
 40
13.622682820438731
 50
334.59228189105147
 51
25.407718108948504
  0
ARC
  8
_0-1_LAYER002
  6
CONTINUOUS
 62
   18
 10
1540.4043115845884
 20
1164.4768220495844
 40
22.340403188548809
 50
177.75610607184896
 51
214.9824476430646
  0
ARC
  8
_0-1_LAYER002
  6
CONTINUOUS
 62
   18
 10
1510.6980009282829
 20
1193.9607944899337
 40
13.622682820438731
 50
154.5922818910515
 51
205.4077181089485
  0
ARC
  8
_0-1_LAYER002
  6
CONTINUOUS
 62
   18
 10
1872.9186316631722
 20
1138.3722276735339
 40
346.29578081942009
 50
181.05386453844531
 51
192.36795462333188
  0
TEXT
  8
_0-2_LAYER003
 62
    7
 10
1492.5058735944899
 20
1083.9128844887082
 40
20
 41
1
 50
0
  1
：
  0
TEXT
  8
_0-2_LAYER003
 62
    7
 10
1775.5137894973266
 20
1276.6049098661977
 40
20
 41
1
 50
0
  1
瓦桟：15x30以上
  0
TEXT
  8
_0-2_LAYER003
 62
    7
 10
1782.1671284397396
 20
1245.9995507311
 40
20
 41
1
 50
0
  1
下葺材：ルーフィング
  0
TEXT
  8
_0-2_LAYER003
 62
    7
 10
1774.1831217088443
 20
1215.3941915960022
 40
20
 41
1
 50
0
  1
野地板：ALCパネル　t＝50
  0
TEXT
  8
_0-2_LAYER003
 62
    7
 10
1763.5377794009844
 20
1184.7888324609044
 40
20
 41
1
 50
0
  1
　鋼製：C100x50x20x2.3
  0
TEXT
  8
_0-2_LAYER003
 62
    7
 10
1216.6333183346728
 20
1288.5809199625401
 40
20
 41
1
 50
0
  1
葺　土　
  0
TEXT
  8
_0-2_LAYER003
 62
    7
 10
1162.0759390068897
 20
1120.9167786137439
 40
15
 41
0.5
 50
0
  1
　
  0
TEXT
  8
_0-2_LAYER003
 62
    7
 10
1134.1319154487569
 20
1107.610100728919
 40
20
 41
1
 50
0
  1
桟　瓦
  0
TEXT
  8
_0-2_LAYER003
 62
    7
 10
1160.7452712184072
 20
1230.0315372693099
 40
20
 41
1
 50
20.060507000000289
  1
305
  0
TEXT
  8
_0-2_LAYER003
 62
    7
 10
950.49976063817007
 20
1119.5861108252616
 40
20
 41
1
 50
20.060506999999308
  1
235
  0
TEXT
  8
_0-2_LAYER003
 62
    7
 10
1550.0516540497481
 20
1287.814243655587
 40
20
 41
1
 50
0
  1
熨斗瓦3段積み
  0
TEXT
  8
_0-2_LAYER003
 62
    7
 10
1247.8539100153525
 20
1390.2896032243439
 40
20
 41
1
 50
0
  1
棟補強金物
  0
TEXT
  8
_0-2_LAYER003
 62
    7
 10
1250.9909108184777
 20
1439.4359491399723
 40
20
 41
1
 50
0
  1
芯木40x30以上
  0
TEXT
  8
_0-2_LAYER003
 62
    7
 10
1478.9463025122429
 20
1371.4675984055928
 40
20
 41
1
 50
0
  1
パッキンステンレスネジ
  0
TEXT
  8
_0-2_LAYER003
 62
    7
 10
1530.1839822966215
 20
1329.6409210305899
 40
20
 41
1
 50
0
  1
冠　瓦
  0
TEXT
  8
_0-2_LAYER003
 62
    7
 10
1648.2722778088046
 20
747.09701636284876
 40
20
 41
1
 50
-20.082497999999973
  1
梁天端Ｌ
  0
LINE
  8
_0-0_LAYER001
  6
CONTINUOUS
 62
    2
 10
1769.7199000000001
 20
1241.4751000000001
 11
2010.7488097421215
 21
1241.4751000000001
  0
LINE
  8
_0-1_LAYER002
  6
CONTINUOUS
 62
   18
 10
1769.7199000000001
 20
1241.4751000000001
 11
2003.6007983868649
 21
1241.4751000000001
  0
LINE
  8
_0-0_LAYER001
  6
CONTINUOUS
 62
    2
 10
1762.2257
 20
1211.4942000000001
 11
2052.4455426477839
 21
1211.4942000000001
  0
LINE
  8
_0-1_LAYER002
  6
CONTINUOUS
 62
   18
 10
1762.2257
 20
1211.4942000000001
 11
2046.4888665184035
 21
1211.4942000000001
  0
LINE
  8
_0-0_LAYER001
  6
CONTINUOUS
 62
    2
 10
1753.9173000000001
 20
1181.5132000000001
 11
2007.1748040644932
 21
1181.5132000000001
  0
LINE
  8
_0-1_LAYER002
  6
CONTINUOUS
 62
   18
 10
1753.9173000000001
 20
1181.5132000000001
 11
2008.3661392903691
 21
1181.5132000000001
  0
LINE
  8
_0-0_LAYER001
  6
CONTINUOUS
 62
    2
 10
1478.2768999999998
 20
1366.5996999999998
 11
1734.3590373388724
 21
1366.5996999999998
  0
LINE
  8
_0-1_LAYER002
  6
CONTINUOUS
 62
   18
 10
1478.2768999999998
 20
1366.5996999999998
 11
1726.0196907577401
 21
1366.5996999999998
  0
LINE
  8
_0-0_LAYER001
  6
CONTINUOUS
 62
    2
 10
1528.6442000000002
 20
1324.1833999999999
 11
1602.1208272666286
 21
1324.1833999999999
  0
LINE
  8
_0-1_LAYER002
  6
CONTINUOUS
 62
   18
 10
1528.6442000000002
 20
1324.1833999999999
 11
1594.972815911372
 21
1324.1833999999999
  0
LINE
  8
_0-1_LAYER002
  6
CONTINUOUS
 62
   18
 10
1545.732
 20
1281.6093000000001
 11
1684.3229578520775
 21
1281.6093000000001
  0
LINE
  8
_0-0_LAYER001
  6
CONTINUOUS
 62
    2
 10
1352.2719000000002
 20
1330.1429000000003
 11
1243.5289242779306
 21
1330.1429000000003
  0
LINE
  8
_0-1_LAYER002
  6
CONTINUOUS
 62
   18
 10
1251.8682708590632
 20
1330.1429000000003
 11
1352.2719000000002
 21
1330.1429000000003
  0
ENDSEC
  0
EOF
