  0
SECTION
  2
HEADER
  9
$ACADVER
  1
AC1009
  9
$INSBASE
 10
0
 20
0
 30
0
  9
$EXTMIN
 10
0
 20
0
  9
$EXTMAX
 10
2970
 20
2100
  9
$LIMMIN
 10
0
 20
0
  9
$LIMMAX
 10
2970
 20
2100
  9
$LTSCALE
 40
10
  0
ENDSEC
  0
SECTION
  2
TABLES
  0
TABLE
  2
LTYPE
 70
     9
  0
LTYPE
  2
CONTINUOUS
 70
    64
  3
実線
 72
    65
 73
     0
 40
0.0
  0
LTYPE
  2
DASHED1
 70
    64
  3
--  --  --  --  --  --  --  --  
 72
    65
 73
     2
 40
2.5
 49
1.25
 49
-1.25
  0
LTYPE
  2
DASHED2
 70
    64
  3
----    ----    ----    ----    
 72
    65
 73
     2
 40
5.0
 49
2.5
 49
-2.5
  0
LTYPE
  2
DASHED3
 70
    64
  3
------  ------  ------  ------  
 72
    65
 73
     2
 40
5.0
 49
3.75
 49
-1.25
  0
LTYPE
  2
CENTER1
 70
    64
  3
----- - ----- - ----- - ----- - 
 72
    65
 73
     4
 40
10.0
 49
6.25
 49
-1.25
 49
1.25
 49
-1.25
  0
LTYPE
  2
CENTER2
 70
    64
  3
----------  --  ----------  --  
 72
    65
 73
     4
 40
20.0
 49
12.5
 49
-2.5
 49
2.5
 49
-2.5
  0
LTYPE
  2
PHANTOM1
 70
    64
  3
--- - - --- - - --- - - --- - - 
 72
    65
 73
     6
 40
10.0
 49
3.25
 49
-1.25
 49
1.25
 49
-1.25
 49
1.25
 49
-1.25
  0
LTYPE
  2
PHANTOM2
 70
    64
  3
--------  -  -  --------  -  -  
 72
    65
 73
     6
 40
20.0
 49
10.0
 49
-2.5
 49
1.25
 49
-2.5
 49
1.25
 49
-2.5
  0
LTYPE
  2
DOT
 70
    64
  3
-   -   -   -   -   -   -   -   
 72
    65
 73
     2
 40
2.5
 49
0.625
 49
-1.875
  0
LTYPE
  2
DUMMY
 70
    64
  3
ダミー
 72
    65
 73
     0
 40
0.0
  0
LTYPE
  2
RAND1
 70
    64
  3
ランダム線1
 72
    65
 73
     4
 40
10.0
 49
1.0
 49
-2.0
 49
3.0
 49
-4.0
  0
LTYPE
  2
RAND2
 70
    64
  3
ランダム線2
 72
    65
 73
     4
 40
14.0
 49
2.0
 49
-3.0
 49
4.0
 49
-5.0
  0
LTYPE
  2
RAND3
 70
    64
  3
ランダム線3
 72
    65
 73
     4
 40
18.0
 49
3.0
 49
-4.0
 49
5.0
 49
-6.0
  0
LTYPE
  2
RAND4
 70
    64
  3
ランダム線4
 72
    65
 73
     4
 40
22.0
 49
4.0
 49
-5.0
 49
6.0
 49
-7.0
  0
LTYPE
  2
RAND5
 70
    64
  3
ランダム線5
 72
    65
 73
     4
 40
26.0
 49
5.0
 49
-6.0
 49
7.0
 49
-8.0
  0
LTYPE
  2
LONG1
 70
    64
  3
----------  --  ----------  --  
 72
    65
 73
     4
 40
40.0
 49
32.5
 49
-2.5
 49
2.5
 49
-2.5
  0
LTYPE
  2
LONG2
 70
    64
  3
--------  -  -  --------  -  -  
 72
    65
 73
     6
 40
40.0
 49
30.0
 49
-2.5
 49
1.25
 49
-2.5
 49
1.25
 49
-2.5
  0
LTYPE
  2
LONG3
 70
    64
  3
+++++++++++++++..+++++++++++++++
 72
    65
 73
     2
 40
40.0
 49
37.5
 49
-2.5
  0
LTYPE
  2
LONG4
 70
    64
  3
+++++++++++++++..+++++++++++++++
 72
    65
 73
     2
 40
80.0
 49
75.0
 49
-5.0
  0
LTYPE
  2
LONG5
 70
    64
  3
----------  --  ----------  --  
 72
    65
 73
     4
 40
60.0
 49
37.5
 49
-7.5
 49
7.5
 49
-7.5
  0
LTYPE
  2
dashed
 70
   64
  3
-------   -------------   ------
 72
   65
 73
    2
 40
7.5
 49
6
 49
-1.5
  0
LTYPE
  2
dashed_spaced
 70
   64
  3
----        --------        ----
 72
   65
 73
    2
 40
12
 49
6
 49
-6
  0
LTYPE
  2
long_dashed_dotted
 70
   64
  3
------------- --- --------------
 72
   65
 73
    4
 40
15.25
 49
12
 49
-1.5
 49
0.25
 49
-1.5
  0
LTYPE
  2
long_dashed_double-dotted
 70
   64
  3
----------- --- --- ------------
 72
   65
 73
    6
 40
17
 49
12
 49
-1.5
 49
0.25
 49
-1.5
 49
0.25
 49
-1.5
  0
LTYPE
  2
long_dashed_triplicate-dotted
 70
   64
  3
--------- --- --- --- ----------
 72
   65
 73
    8
 40
18.75
 49
12
 49
-1.5
 49
0.25
 49
-1.5
 49
0.25
 49
-1.5
 49
0.25
 49
-1.5
  0
LTYPE
  2
dotted
 70
   64
  3
   -       -       -       -    
 72
   65
 73
    2
 40
1.75
 49
0.25
 49
-1.5
  0
LTYPE
  2
chain
 70
   64
  3
-------------- -- --------------
 72
   65
 73
    4
 40
18.5
 49
12
 49
-1.5
 49
3.5
 49
-1.5
  0
LTYPE
  2
chain_double_dash
 70
   64
  3
------------ -- -- -------------
 72
   65
 73
    6
 40
23.5
 49
12
 49
-1.5
 49
3.5
 49
-1.5
 49
3.5
 49
-1.5
  0
LTYPE
  2
dashed_dotted
 70
   64
  3
-----------     -     ----------
 72
   65
 73
    4
 40
9.25
 49
6
 49
-1.5
 49
0.25
 49
-1.5
  0
LTYPE
  2
double-dashed_dotted
 70
   64
  3
------   -----------   -   -----
 72
   65
 73
    6
 40
16.75
 49
6
 49
-1.5
 49
6
 49
-1.5
 49
0.25
 49
-1.5
  0
LTYPE
  2
dashed_double-dotted
 70
   64
  3
---------    -    -    ---------
 72
   65
 73
    6
 40
11
 49
6
 49
-1.5
 49
0.25
 49
-1.5
 49
0.25
 49
-1.5
  0
LTYPE
  2
double-dashed_double-dotted
 70
   64
  3
-----   ---------   -   -   ----
 72
   65
 73
    8
 40
18.5
 49
6
 49
-1.5
 49
6
 49
-1.5
 49
0.25
 49
-1.5
 49
0.25
 49
-1.5
  0
LTYPE
  2
dashed_triplicate-dotted
 70
   64
  3
-------    -    -    -    ------
 72
   65
 73
    8
 40
12.75
 49
6
 49
-1.5
 49
0.25
 49
-1.5
 49
0.25
 49
-1.5
 49
0.25
 49
-1.5
  0
LTYPE
  2
double-dashed_triplicate-dotted
 70
   64
  3
-----  ---------  -  -  -  -----
 72
   65
 73
   10
 40
20.25
 49
6
 49
-1.5
 49
6
 49
-1.5
 49
0.25
 49
-1.5
 49
0.25
 49
-1.5
 49
0.25
 49
-1.5
  0
LTYPE
  2
undefined
 70
   64
  3
--------------------------------
 72
   65
 73
    0
 40
0
  0
ENDTAB
  0
TABLE
  2
STYLE
  5
3
100
AcDbSymbolTable
 70
     1
  0
STYLE
  5
10
100
AcDbSymbolTableRecord
100
AcDbTextStyleTableRecord
  2
STANDARD
 70
     0
 40
0.0
 41
1.0
 50
0.0
 71
     0
 42
0.2
  3
txt
  4
bigfont.shx
  0
STYLE
  5
26
100
AcDbSymbolTableRecord
100
AcDbTextStyleTableRecord
  2
TATEGAKI
 70
    68
 40
0.0
 41
1.0
 50
0.0
 71
     0
 42
1.0
  3
txt
  4
bigfont.shx
  0
ENDTAB
  0
TABLE
  2
LAYER
 70
    4
  0
LAYER
  2
_0-0_1
 70
   64
 62
    7
  6
CONTINUOUS
  0
LAYER
  2
_0-1_2
 70
   64
 62
    7
  6
CONTINUOUS
  0
LAYER
  2
_0-2_3
 70
   64
 62
    7
  6
CONTINUOUS
  0
LAYER
  2
ADD_LINE
 70
   64
 62
    7
  6
CONTINUOUS
  0
ENDTAB
  0
ENDSEC
  0
SECTION
  2
BLOCKS
  0
ENDSEC
  0
SECTION
  2
ENTITIES
  0
LINE
  8
_0-0_1
  6
CONTINUOUS
 62
    3
 10
1155.8416999999999
 20
913.1277
 11
1151.1829
 21
903.95569999999998
  0
LINE
  8
_0-0_1
  6
CONTINUOUS
 62
    3
 10
1158.768
 20
909.22600000000011
 11
1155.8416999999999
 21
913.1277
  0
LINE
  8
_0-0_1
  6
CONTINUOUS
 62
    3
 10
1151.1829
 20
903.95569999999998
 11
1148.8770999999999
 21
909.22600000000011
  0
LINE
  8
_0-0_1
  6
CONTINUOUS
 62
    3
 10
1189.1660999999999
 20
909.22600000000011
 11
1158.768
 21
909.22600000000011
  0
LINE
  8
_0-0_1
  6
CONTINUOUS
 62
    3
 10
1148.8770999999999
 20
909.22600000000011
 11
1118.2650000000001
 21
909.22600000000011
  0
LINE
  8
_0-1_2
  6
CONTINUOUS
 62
    3
 10
1167.6356000000001
 20
1114.4827
 11
2122.0837000000001
 21
1114.4827
  0
LINE
  8
_0-1_2
  6
CONTINUOUS
 62
    3
 10
1131.9648
 20
1124.1412
 11
1133.9059
 21
1116.8967
  0
LINE
  8
_0-1_2
  6
CONTINUOUS
 62
    3
 10
1133.9059
 20
1116.8967
 11
1128.6025999999999
 21
1122.2
  0
LINE
  8
_0-1_2
  6
CONTINUOUS
 62
    3
 10
1133.9059
 20
1116.8967
 11
1074.0320999999999
 21
1220.6012000000001
  0
LINE
  8
_0-1_2
  6
CONTINUOUS
 62
    3
 10
1074.0320999999999
 20
1220.6012000000001
 11
943.5320999999999
 21
1220.6012000000001
  0
LINE
  8
_0-1_2
  6
CONTINUOUS
 62
    3
 10
1656.6532999999999
 20
1145.4019000000001
 11
1652.9032999999999
 21
1138.9067
  0
LINE
  8
_0-1_2
  6
CONTINUOUS
 62
    3
 10
1652.9032999999999
 20
1138.9067
 11
1652.9032999999999
 21
1146.4067
  0
LINE
  8
_0-1_2
  6
CONTINUOUS
 62
    3
 10
1652.9032999999999
 20
1138.9067
 11
1679.7184000000002
 21
1238.9820999999999
  0
LINE
  8
_0-1_2
  6
CONTINUOUS
 62
    3
 10
1257.6642999999999
 20
1139.8175000000001
 11
1259.6053999999999
 21
1132.5730000000001
  0
LINE
  8
_0-1_2
  6
CONTINUOUS
 62
    3
 10
1259.6053999999999
 20
1132.5730000000001
 11
1254.3021000000001
 21
1137.8762999999999
  0
LINE
  8
_0-1_2
  6
CONTINUOUS
 62
    3
 10
1259.6053999999999
 20
1132.5730000000001
 11
1196.6903
 21
1241.5452
  0
LINE
  8
_0-1_2
  6
CONTINUOUS
 62
    3
 10
1167.6356000000001
 20
1099.4827
 11
2122.0837000000001
 21
1099.4827
  0
LINE
  8
_0-0_1
  6
CONTINUOUS
 62
    3
 10
1089.6356000000001
 20
802.82079999999996
 11
1089.6356000000001
 21
859.79009999999994
  0
CIRCLE
  8
_0-0_1
  6
CONTINUOUS
 62
    3
 10
1089.6356000000001
 20
805.32079999999996
 40
1.6999999999999997
  0
LINE
  8
_0-0_1
  6
CONTINUOUS
 62
    3
 10
1089.6356000000001
 20
805.32079999999996
 11
1117.6356000000001
 21
805.32079999999996
  0
CIRCLE
  8
_0-0_1
  6
CONTINUOUS
 62
    3
 10
1117.6356000000001
 20
805.32079999999996
 40
1.6999999999999997
  0
LINE
  8
_0-0_1
  6
CONTINUOUS
 62
    3
 10
1117.6356000000001
 20
802.82079999999996
 11
1117.6356000000001
 21
859.79009999999994
  0
CIRCLE
  8
_0-0_1
  6
CONTINUOUS
 62
    3
 10
1117.6356000000001
 20
805.32079999999996
 40
1.6999999999999997
  0
LINE
  8
_0-0_1
  6
CONTINUOUS
 62
    3
 10
1117.6356000000001
 20
805.32079999999996
 11
1129.6356000000001
 21
805.32079999999996
  0
CIRCLE
  8
_0-0_1
  6
CONTINUOUS
 62
    3
 10
1129.6356000000001
 20
805.32079999999996
 40
1.6999999999999997
  0
LINE
  8
_0-0_1
  6
CONTINUOUS
 62
    3
 10
1129.6356000000001
 20
802.82079999999996
 11
1129.6356000000001
 21
859.79009999999994
  0
LINE
  8
_0-0_1
  6
CONTINUOUS
 62
    3
 10
1084.056
 20
1339.1043
 11
1084.056
 21
1286.6043
  0
CIRCLE
  8
_0-0_1
  6
CONTINUOUS
 62
    3
 10
1084.056
 20
1336.6043
 40
1.6999999999999997
  0
LINE
  8
_0-0_1
  6
CONTINUOUS
 62
    3
 10
1084.056
 20
1336.6043
 11
1309.056
 21
1336.6043
  0
CIRCLE
  8
_0-0_1
  6
CONTINUOUS
 62
    3
 10
1309.056
 20
1336.6043
 40
1.6999999999999997
  0
LINE
  8
_0-0_1
  6
CONTINUOUS
 62
    3
 10
1309.056
 20
1339.1043
 11
1309.056
 21
1286.6043
  0
CIRCLE
  8
_0-0_1
  6
CONTINUOUS
 62
    3
 10
1309.056
 20
1336.6043
 40
1.6999999999999997
  0
LINE
  8
_0-0_1
  6
CONTINUOUS
 62
    3
 10
1309.056
 20
1336.6043
 11
1574.056
 21
1336.6043
  0
CIRCLE
  8
_0-0_1
  6
CONTINUOUS
 62
    3
 10
1574.056
 20
1336.6043
 40
1.6999999999999997
  0
LINE
  8
_0-0_1
  6
CONTINUOUS
 62
    3
 10
1574.056
 20
1339.1043
 11
1574.056
 21
1286.6043
  0
CIRCLE
  8
_0-0_1
  6
CONTINUOUS
 62
    3
 10
1574.056
 20
1336.6043
 40
1.6999999999999997
  0
LINE
  8
_0-0_1
  6
CONTINUOUS
 62
    3
 10
1574.056
 20
1336.6043
 11
1839.056
 21
1336.6043
  0
CIRCLE
  8
_0-0_1
  6
CONTINUOUS
 62
    3
 10
1839.056
 20
1336.6043
 40
1.6999999999999997
  0
LINE
  8
_0-0_1
  6
CONTINUOUS
 62
    3
 10
1839.056
 20
1339.1043
 11
1839.056
 21
1286.6043
  0
CIRCLE
  8
_0-0_1
  6
CONTINUOUS
 62
    3
 10
1839.056
 20
1336.6043
 40
1.6999999999999997
  0
LINE
  8
_0-0_1
  6
CONTINUOUS
 62
    3
 10
1839.056
 20
1336.6043
 11
2104.056
 21
1336.6043
  0
CIRCLE
  8
_0-0_1
  6
CONTINUOUS
 62
    3
 10
2104.056
 20
1336.6043
 40
1.6999999999999997
  0
LINE
  8
_0-0_1
  6
CONTINUOUS
 62
    3
 10
2104.056
 20
1339.1043
 11
2104.056
 21
1286.6043
  0
LINE
  8
_0-0_1
  6
CONTINUOUS
 62
    3
 10
1943.6354999999999
 20
1044.4827
 11
1893.6354000000001
 21
1094.4827
  0
LINE
  8
_0-0_1
  6
CONTINUOUS
 62
    3
 10
1947.8780999999999
 20
1044.4827
 11
1897.8780999999999
 21
1094.4827
  0
LINE
  8
_0-2_3
  6
CONTINUOUS
 62
    3
 10
1130.9205999999999
 20
978.79189999999994
 11
1136.2239
 21
984.09519999999998
  0
LINE
  8
_0-2_3
  6
CONTINUOUS
 62
    3
 10
1136.2239
 20
984.09519999999998
 11
1134.2828
 21
976.85079999999994
  0
LINE
  8
_0-2_3
  6
CONTINUOUS
 62
    3
 10
1136.2239
 20
984.09519999999998
 11
1065.7150999999999
 21
861.97039999999993
  0
LINE
  8
_0-2_3
  6
CONTINUOUS
 62
    3
 10
1065.7150999999999
 20
861.97039999999993
 11
847.91619999999989
 21
861.97039999999993
  0
LINE
  8
_0-0_1
  6
CONTINUOUS
 62
    3
 10
1307.2393
 20
1044.4827
 11
1257.2393999999999
 21
1094.4827
  0
LINE
  8
_0-0_1
  6
CONTINUOUS
 62
    3
 10
1311.482
 20
1044.4827
 11
1261.4820999999999
 21
1094.4827
  0
LINE
  8
_0-0_1
  6
CONTINUOUS
 62
    3
 10
1519.3714
 20
1044.4827
 11
1469.3714
 21
1094.4827
  0
LINE
  8
_0-0_1
  6
CONTINUOUS
 62
    3
 10
1523.6140999999998
 20
1044.4827
 11
1473.6140999999998
 21
1094.4827
  0
LINE
  8
_0-0_1
  6
CONTINUOUS
 62
    3
 10
1731.5034000000001
 20
1044.4827
 11
1681.5034000000001
 21
1094.4827
  0
LINE
  8
_0-0_1
  6
CONTINUOUS
 62
    3
 10
1735.7460999999998
 20
1044.4827
 11
1685.7460999999998
 21
1094.4827
  0
LINE
  8
_0-0_1
  6
CONTINUOUS
 62
    3
 10
1227.3363999999999
 20
964.48260000000005
 11
1229.636
 21
964.48250000000007
  0
LINE
  8
_0-0_1
  6
CONTINUOUS
 62
    3
 10
1227.3356000000001
 20
1024.4827
 11
1229.6360999999999
 21
1024.4822999999999
  0
LINE
  8
_0-0_1
  6
CONTINUOUS
 62
    3
 10
1227.3362999999999
 20
1039.4834000000001
 11
1227.3356000000001
 21
1024.4827
  0
LINE
  8
_0-0_1
  6
CONTINUOUS
 62
    3
 10
1184.6369
 20
1042.1842999999999
 11
1224.6359
 21
1042.1833999999999
  0
LINE
  8
_0-0_1
  6
CONTINUOUS
 62
    3
 10
1224.6368
 20
1044.4825000000001
 11
1184.6359
 21
1044.4831999999999
  0
LINE
  8
_0-0_1
  6
CONTINUOUS
 62
    3
 10
1229.6364000000001
 20
1039.4829999999999
 11
1229.6360999999999
 21
1024.4822999999999
  0
LINE
  8
_0-0_1
  6
CONTINUOUS
 62
    3
 10
1179.6342
 20
949.48250000000007
 11
1179.6362999999999
 21
1039.4834000000001
  0
LINE
  8
_0-0_1
  6
CONTINUOUS
 62
    3
 10
1224.6359
 20
944.4819
 11
1184.6338000000001
 21
944.4828
  0
LINE
  8
_0-0_1
  6
CONTINUOUS
 62
    3
 10
1229.6355000000001
 20
949.48170000000005
 11
1229.636
 21
964.48250000000007
  0
LINE
  8
_0-0_1
  6
CONTINUOUS
 62
    3
 10
1227.3362999999999
 20
949.48170000000005
 11
1227.3363999999999
 21
964.48260000000005
  0
LINE
  8
_0-0_1
  6
CONTINUOUS
 62
    3
 10
1184.6351
 20
946.78199999999993
 11
1224.636
 21
946.78140000000008
  0
LINE
  8
_0-0_1
  6
CONTINUOUS
 62
    3
 10
1181.9347
 20
949.48209999999995
 11
1181.9371000000001
 21
1039.4838999999999
  0
LINE
  8
_0-0_1
  6
CONTINUOUS
 62
    3
 10
1254.6373000000001
 20
985.48299999999995
 11
1246.8429000000001
 21
989.9828
  0
LINE
  8
_0-0_1
  6
CONTINUOUS
 62
    3
 10
1246.8429000000001
 20
989.9828
 11
1246.8425999999999
 21
998.98270000000002
  0
LINE
  8
_0-0_1
  6
CONTINUOUS
 62
    3
 10
1246.8425999999999
 20
998.98270000000002
 11
1254.6364000000001
 21
1003.4829
  0
LINE
  8
_0-0_1
  6
CONTINUOUS
 62
    3
 10
1254.6364000000001
 20
1003.4829
 11
1262.4308000000001
 21
998.98309999999992
  0
LINE
  8
_0-0_1
  6
CONTINUOUS
 62
    3
 10
1262.4308000000001
 20
998.98309999999992
 11
1262.4312
 21
989.9833000000001
  0
LINE
  8
_0-0_1
  6
CONTINUOUS
 62
    3
 10
1262.4312
 20
989.9833000000001
 11
1254.6373000000001
 21
985.48299999999995
  0
LINE
  8
_0-0_1
  6
CONTINUOUS
 62
    3
 10
1259.6364000000001
 20
984.4828
 11
1259.6369
 21
988.36959999999999
  0
LINE
  8
_0-0_1
  6
CONTINUOUS
 62
    3
 10
1249.6369999999999
 20
984.48260000000005
 11
1249.6367
 21
988.36969999999997
  0
LINE
  8
_0-0_1
  6
CONTINUOUS
 62
    3
 10
1249.6373000000001
 20
1004.4830999999999
 11
1249.6368
 21
1000.5962999999999
  0
LINE
  8
_0-0_1
  6
CONTINUOUS
 62
    3
 10
1259.6367
 20
1004.4833000000001
 11
1259.6369999999999
 21
1000.5962
  0
LINE
  8
_0-0_1
  6
CONTINUOUS
 62
    3
 10
2122.0837000000001
 20
944.48270000000002
 11
1234.6364000000001
 21
944.48270000000002
  0
LINE
  8
_0-0_1
  6
CONTINUOUS
 62
    3
 10
1229.6364000000001
 20
1034.4829999999999
 11
1229.6364000000001
 21
954.48289999999997
  0
LINE
  8
_0-0_1
  6
CONTINUOUS
 62
    3
 10
1234.6364000000001
 20
946.7817
 11
2122.0837000000001
 21
946.7817
  0
LINE
  8
_0-0_1
  6
CONTINUOUS
 62
    3
 10
1234.6364000000001
 20
1042.1831999999999
 11
2122.0837000000001
 21
1042.1831999999999
  0
LINE
  8
_0-0_1
  6
CONTINUOUS
 62
    3
 10
1279.6364000000001
 20
1034.4829999999999
 11
1279.6364000000001
 21
1024.4822999999999
  0
LINE
  8
_0-0_1
  6
CONTINUOUS
 62
    3
 10
1232.8363999999999
 20
1034.4829999999999
 11
1232.8363999999999
 21
954.48289999999997
  0
LINE
  8
_0-0_1
  6
CONTINUOUS
 62
    3
 10
1229.6364000000001
 20
1034.4829999999999
 11
1234.6364000000001
 21
1034.4829999999999
  0
LINE
  8
_0-0_1
  6
CONTINUOUS
 62
    3
 10
1234.6364000000001
 20
1034.4829999999999
 11
1279.6364000000001
 21
1034.4829999999999
  0
LINE
  8
_0-0_1
  6
CONTINUOUS
 62
    3
 10
1279.6364000000001
 20
1024.4822999999999
 11
1279.6364000000001
 21
964.48250000000007
  0
LINE
  8
_0-0_1
  6
CONTINUOUS
 62
    3
 10
1279.6364000000001
 20
964.48250000000007
 11
1279.6364000000001
 21
954.48289999999997
  0
LINE
  8
_0-0_1
  6
CONTINUOUS
 62
    3
 10
1229.6364000000001
 20
954.48289999999997
 11
1234.6364000000001
 21
954.48289999999997
  0
LINE
  8
_0-0_1
  6
CONTINUOUS
 62
    3
 10
1234.6364000000001
 20
954.48289999999997
 11
1279.6364000000001
 21
954.48289999999997
  0
LINE
  8
_0-0_1
  6
CONTINUOUS
 62
    3
 10
1234.6364000000001
 20
1044.4827
 11
1234.6364000000001
 21
1024.4822999999999
  0
LINE
  8
_0-0_1
  6
CONTINUOUS
 62
    3
 10
1234.6364000000001
 20
1024.4822999999999
 11
1234.6364000000001
 21
954.48289999999997
  0
LINE
  8
_0-0_1
  6
CONTINUOUS
 62
    3
 10
1234.6364000000001
 20
954.48289999999997
 11
1234.6364000000001
 21
944.48270000000002
  0
LINE
  8
_0-0_1
  6
DASHED1
 62
    3
 10
1234.6364000000001
 20
1024.4822999999999
 11
2122.0837000000001
 21
1024.4822999999999
  0
LINE
  8
_0-0_1
  6
DASHED1
 62
    3
 10
1234.6364000000001
 20
964.48250000000007
 11
2122.0837000000001
 21
964.48250000000007
  0
LINE
  8
_0-0_1
  6
CONTINUOUS
 62
    3
 10
1179.6356000000001
 20
1044.4827
 11
1179.6356000000001
 21
909.22600000000011
  0
LINE
  8
_0-0_1
  6
CONTINUOUS
 62
    3
 10
1129.6356000000001
 20
1044.4827
 11
1129.6356000000001
 21
909.22600000000011
  0
LINE
  8
_0-0_1
  6
CONTINUOUS
 62
    3
 10
1179.6344999999999
 20
962.34320000000002
 11
1129.6356000000001
 21
1012.3422
  0
LINE
  8
_0-0_1
  6
CONTINUOUS
 62
    3
 10
1179.6342999999999
 20
958.10059999999999
 11
1129.6356000000001
 21
1008.0995
  0
LINE
  8
_0-0_1
  6
CONTINUOUS
 62
    3
 10
1129.6351999999999
 20
999.48360000000002
 11
1129.6359
 21
989.48250000000007
  0
LINE
  8
_0-0_1
  6
CONTINUOUS
 62
    3
 10
1132.6353999999999
 20
999.48260000000005
 11
1132.6358
 21
989.4837
  0
LINE
  8
_0-0_1
  6
CONTINUOUS
 62
    3
 10
1129.6359
 20
989.48250000000007
 11
1132.6358
 21
989.4837
  0
LINE
  8
_0-0_1
  6
CONTINUOUS
 62
    3
 10
1129.6351999999999
 20
999.48360000000002
 11
1132.6353999999999
 21
999.48260000000005
  0
LINE
  8
_0-0_1
  6
CONTINUOUS
 62
    3
 10
1129.6356000000001
 20
994.48299999999995
 11
1132.636
 21
994.48299999999995
  0
LINE
  8
_0-0_1
  6
CONTINUOUS
 62
    3
 10
1194.6355000000001
 20
994.48919999999998
 11
1189.0353
 21
992.48839999999996
  0
LINE
  8
_0-0_1
  6
CONTINUOUS
 62
    3
 10
1194.6355000000001
 20
994.48919999999998
 11
1189.0355
 21
996.48849999999993
  0
LINE
  8
_0-0_1
  6
CONTINUOUS
 62
    3
 10
1148.7376999999999
 20
991.24710000000005
 11
1147.6800000000001
 21
997.89400000000001
  0
LINE
  8
_0-0_1
  6
CONTINUOUS
 62
    3
 10
1158.7383
 20
991.24900000000002
 11
1157.6804999999999
 21
997.89589999999998
  0
LINE
  8
_0-0_1
  6
CONTINUOUS
 62
    3
 10
1168.7373
 20
991.2496000000001
 11
1167.6795
 21
997.89640000000009
  0
LINE
  8
_0-0_1
  6
CONTINUOUS
 62
    3
 10
1178.7378000000001
 20
991.25150000000008
 11
1177.6808000000001
 21
997.89699999999993
  0
LINE
  8
_0-0_1
  6
CONTINUOUS
 62
    3
 10
1187.4798000000001
 20
991.25160000000005
 11
1186.4222
 21
997.89850000000001
  0
LINE
  8
_0-0_1
  6
CONTINUOUS
 62
    3
 10
1135.6333999999999
 20
996.4840999999999
 11
1189.0355
 21
996.48849999999993
  0
LINE
  8
_0-0_1
  6
CONTINUOUS
 62
    3
 10
1132.6353999999999
 20
999.48260000000005
 11
1135.6333999999999
 21
996.4840999999999
  0
LINE
  8
_0-0_1
  6
CONTINUOUS
 62
    3
 10
1135.6362999999999
 20
992.48399999999992
 11
1189.0353
 21
992.48839999999996
  0
LINE
  8
_0-0_1
  6
CONTINUOUS
 62
    3
 10
1132.6358
 20
989.4837
 11
1135.6362999999999
 21
992.48399999999992
  0
LINE
  8
_0-0_1
  6
CONTINUOUS
 62
    3
 10
1209.6307999999999
 20
1094.4829999999999
 11
1199.6297
 21
1094.4824000000001
  0
LINE
  8
_0-0_1
  6
CONTINUOUS
 62
    3
 10
1209.6298999999999
 20
1091.4829999999999
 11
1199.6309000000001
 21
1091.4825000000001
  0
LINE
  8
_0-0_1
  6
CONTINUOUS
 62
    3
 10
1199.6297
 20
1094.4824000000001
 11
1199.6309000000001
 21
1091.4825000000001
  0
LINE
  8
_0-0_1
  6
CONTINUOUS
 62
    3
 10
1209.6307999999999
 20
1094.4829999999999
 11
1209.6298999999999
 21
1091.4829999999999
  0
LINE
  8
_0-0_1
  6
CONTINUOUS
 62
    3
 10
1204.6302000000001
 20
1094.4827
 11
1204.6302000000001
 21
1091.4824000000001
  0
LINE
  8
_0-0_1
  6
CONTINUOUS
 62
    3
 10
1204.6364000000001
 20
1029.4829
 11
1202.6357
 21
1035.0831000000001
  0
LINE
  8
_0-0_1
  6
CONTINUOUS
 62
    3
 10
1204.6364000000001
 20
1029.4829
 11
1206.6357
 21
1035.0827999999999
  0
LINE
  8
_0-0_1
  6
CONTINUOUS
 62
    3
 10
1201.3943999999999
 20
1075.3806999999999
 11
1208.0411999999999
 21
1076.4383
  0
LINE
  8
_0-0_1
  6
CONTINUOUS
 62
    3
 10
1201.3963000000001
 20
1065.3800000000001
 11
1208.0432000000001
 21
1066.4376999999999
  0
LINE
  8
_0-0_1
  6
CONTINUOUS
 62
    3
 10
1201.3968
 20
1055.3811000000001
 11
1208.0436
 21
1056.4387999999999
  0
LINE
  8
_0-0_1
  6
CONTINUOUS
 62
    3
 10
1201.3987
 20
1045.3805
 11
1208.0442
 21
1046.4376
  0
LINE
  8
_0-0_1
  6
CONTINUOUS
 62
    3
 10
1201.3987999999999
 20
1036.6385
 11
1208.0458000000001
 21
1037.6960999999999
  0
LINE
  8
_0-0_1
  6
CONTINUOUS
 62
    3
 10
1206.6313
 20
1088.4848999999999
 11
1206.6357
 21
1035.0827999999999
  0
LINE
  8
_0-0_1
  6
CONTINUOUS
 62
    3
 10
1209.6298999999999
 20
1091.4829999999999
 11
1206.6313
 21
1088.4848999999999
  0
LINE
  8
_0-0_1
  6
CONTINUOUS
 62
    3
 10
1202.6312
 20
1088.4820999999999
 11
1202.6357
 21
1035.0831000000001
  0
LINE
  8
_0-0_1
  6
CONTINUOUS
 62
    3
 10
1199.6309000000001
 20
1091.4825000000001
 11
1202.6312
 21
1088.4820999999999
  0
LINE
  8
_0-0_1
  6
CONTINUOUS
 62
    3
 10
2122.0837000000001
 20
1094.4827
 11
1119.6356000000001
 21
1094.4827
  0
LINE
  8
_0-0_1
  6
CONTINUOUS
 62
    3
 10
1119.6356000000001
 20
1094.4827
 11
1119.6356000000001
 21
1044.4827
  0
LINE
  8
_0-0_1
  6
CONTINUOUS
 62
    3
 10
2122.0837000000001
 20
1044.4827
 11
1119.6356000000001
 21
1044.4827
  0
LINE
  8
_0-0_1
  6
DASHED3
 62
    3
 10
1119.6356000000001
 20
1096.4827
 11
2122.0837000000001
 21
1096.4827
  0
LINE
  8
_0-0_1
  6
CONTINUOUS
 62
    3
 10
1167.6356000000001
 20
1099.4827
 11
1167.6356000000001
 21
1114.4827
  0
ARC
  8
_0-0_1
  6
CONTINUOUS
 62
    3
 10
1224.636
 20
1039.4831999999999
 40
2.7000000000000002
 50
0.01099
 51
90.003097999999994
  0
ARC
  8
_0-0_1
  6
CONTINUOUS
 62
    3
 10
1184.6371999999999
 20
1039.4840999999999
 40
2.7000000000000002
 50
90.003098000000008
 51
179.98340999999999
  0
ARC
  8
_0-0_1
  6
CONTINUOUS
 62
    3
 10
1184.6351
 20
1039.4839999999999
 40
4.9989999999999997
 50
89.991318000000007
 51
180.00197
  0
ARC
  8
_0-0_1
  6
CONTINUOUS
 62
    3
 10
1224.6374000000001
 20
1039.4838999999999
 40
4.9989999999999997
 50
359.99557999999996
 51
90.012588999999963
  0
ARC
  8
_0-0_1
  6
CONTINUOUS
 62
    3
 10
1184.6333999999999
 20
949.48170000000005
 40
4.9989999999999997
 50
179.98068000000001
 51
270.00623000000007
  0
ARC
  8
_0-0_1
  6
CONTINUOUS
 62
    3
 10
1224.6366
 20
949.48119999999994
 40
4.9989999999999997
 50
269.98493999999999
 51
0.0168699999999887
  0
ARC
  8
_0-0_1
  6
CONTINUOUS
 62
    3
 10
1224.6357
 20
949.48170000000005
 40
2.7000000000000002
 50
269.99128999999999
 51
0.0109900000000208
  0
ARC
  8
_0-0_1
  6
CONTINUOUS
 62
    3
 10
1184.6346000000001
 20
949.48219999999992
 40
2.7000000000000002
 50
179.98340999999999
 51
269.99128999999999
  0
ARC
  8
_0-0_1
  6
CONTINUOUS
 62
    3
 10
1254.6367
 20
984.48270000000002
 40
5
 50
179.99697000000003
 51
0.0118600000000697
  0
ARC
  8
_0-0_1
  6
CONTINUOUS
 62
    3
 10
1254.6369999999999
 20
1004.4831999999999
 40
5
 50
0.0118599999999999
 51
179.99697
  0
LINE
  8
_0-0_1
  6
CONTINUOUS
 62
    3
 10
1654.4760000000001
 20
837.72409999999991
 11
1859.2986999999998
 21
837.72409999999991
  0
LINE
  8
_0-0_1
  6
CONTINUOUS
 62
    3
 10
1584.3299999999999
 20
1090.3547000000001
 11
1584.3299999999999
 21
1097.8547000000001
  0
LINE
  8
_0-0_1
  6
CONTINUOUS
 62
    3
 10
1584.3299999999999
 20
1097.8547000000001
 11
1588.0799999999999
 21
1091.3595
  0
LINE
  8
_0-0_1
  6
CONTINUOUS
 62
    3
 10
1584.3299999999999
 20
1097.8547000000001
 11
1678.1012999999998
 21
747.89560000000006
  0
LINE
  8
_0-0_1
  6
CONTINUOUS
 62
    3
 10
1153.0326
 20
1119.0689
 11
1118.0326
 21
1098.4827
  0
LINE
  8
_0-0_1
  6
CONTINUOUS
 62
    3
 10
1118.0326
 20
1132.4177999999999
 11
1153.0326
 21
1098.4827
  0
LINE
  8
_0-0_1
  6
CONTINUOUS
 62
    3
 10
1118.0326
 20
1132.4177999999999
 11
1118.0326
 21
1098.4827
  0
LINE
  8
_0-0_1
  6
CONTINUOUS
 62
    3
 10
1153.0326
 20
1119.0689
 11
1153.0326
 21
1098.4827
  0
LINE
  8
_0-0_1
  6
CONTINUOUS
 62
    3
 10
1118.0326
 20
1132.4177999999999
 11
1153.0326
 21
1119.0689
  0
LINE
  8
_0-0_1
  6
DASHED1
 62
    3
 10
1131.1445000000001
 20
1158.1016
 11
1147.1445000000001
 21
1158.1016
  0
LINE
  8
_0-0_1
  6
DASHED1
 62
    3
 10
1147.1445000000001
 20
1158.1016
 11
1147.1445000000001
 21
1155.1016
  0
LINE
  8
_0-0_1
  6
DASHED1
 62
    3
 10
1131.1445000000001
 20
1158.1016
 11
1131.1445000000001
 21
1155.1016
  0
LINE
  8
_0-0_1
  6
DASHED1
 62
    3
 10
1131.1445000000001
 20
1155.1016
 11
1147.1445000000001
 21
1155.1016
  0
LINE
  8
_0-0_1
  6
DASHED1
 62
    3
 10
1142.1445000000001
 20
1100.2055
 11
1139.0944
 21
1085.6966
  0
LINE
  8
_0-0_1
  6
DASHED1
 62
    3
 10
1142.1445000000001
 20
1155.1016
 11
1142.1445000000001
 21
1100.2055
  0
LINE
  8
_0-0_1
  6
DASHED1
 62
    3
 10
1139.0944
 20
1085.6966
 11
1136.1445000000001
 21
1099.9540999999999
  0
LINE
  8
_0-0_1
  6
DASHED1
 62
    3
 10
1136.1445000000001
 20
1155.1016
 11
1136.1445000000001
 21
1099.9540999999999
  0
LINE
  8
_0-0_1
  6
CONTINUOUS
 62
    5
 10
1968.9978999999998
 20
1107.4193
 11
1960.4623999999999
 21
1121.9526000000001
  0
LINE
  8
_0-0_1
  6
CONTINUOUS
 62
    5
 10
1977.1657
 20
1106.769
 11
1985.4719
 21
1116.8344999999999
  0
ARC
  8
_0-0_1
  6
CONTINUOUS
 62
    5
 10
1973.3092999999999
 20
1109.9513999999999
 40
5
 50
210.42578
 51
320.47001
  0
LINE
  8
_0-0_1
  6
CONTINUOUS
 62
    5
 10
2053.1113
 20
1106.2991
 11
2045.7860000000001
 21
1117.6052
  0
LINE
  8
_0-0_1
  6
CONTINUOUS
 62
    5
 10
2061.6208999999999
 20
1106.4891
 11
2070.5592999999999
 21
1121.7347
  0
ARC
  8
_0-0_1
  6
CONTINUOUS
 62
    5
 10
2057.3076000000001
 20
1109.0179000000001
 40
5
 50
212.93986000000001
 51
329.61716000000001
  0
LINE
  8
_0-0_1
  6
CONTINUOUS
 62
    5
 10
2100.9029
 20
1146.0467000000001
 11
2103.3310000000001
 21
1146.4505999999999
  0
LINE
  8
_0-0_1
  6
CONTINUOUS
 62
    5
 10
2096.7139000000002
 20
1145.3504
 11
2100.9029
 21
1146.0467000000001
  0
LINE
  8
_0-0_1
  6
CONTINUOUS
 62
    5
 10
2092.5201000000002
 20
1144.6549
 11
2096.7139000000002
 21
1145.3504
  0
LINE
  8
_0-0_1
  6
CONTINUOUS
 62
    5
 10
2088.3213000000001
 20
1143.9609
 11
2092.5201000000002
 21
1144.6549
  0
LINE
  8
_0-0_1
  6
CONTINUOUS
 62
    5
 10
2084.1172999999999
 20
1143.2693999999999
 11
2088.3213000000001
 21
1143.9609
  0
LINE
  8
_0-0_1
  6
CONTINUOUS
 62
    5
 10
2079.9104000000002
 20
1142.5817999999999
 11
2084.1172999999999
 21
1143.2693999999999
  0
LINE
  8
_0-0_1
  6
CONTINUOUS
 62
    5
 10
2077.4580999999998
 20
1142.1832999999999
 11
2079.9104000000002
 21
1142.5817999999999
  0
LINE
  8
_0-0_1
  6
CONTINUOUS
 62
    5
 10
2072.7253999999998
 20
1141.4208000000001
 11
2077.4580999999998
 21
1142.1832999999999
  0
LINE
  8
_0-0_1
  6
CONTINUOUS
 62
    5
 10
2064.5209
 20
1140.1369
 11
2072.7253999999998
 21
1141.4208000000001
  0
LINE
  8
_0-0_1
  6
CONTINUOUS
 62
    5
 10
2056.2134999999998
 20
1138.9170999999999
 11
2064.5209
 21
1140.1369
  0
LINE
  8
_0-0_1
  6
CONTINUOUS
 62
    5
 10
2047.8051999999998
 20
1137.8007
 11
2056.2134999999998
 21
1138.9170999999999
  0
LINE
  8
_0-0_1
  6
CONTINUOUS
 62
    5
 10
2039.2926000000002
 20
1136.8273999999999
 11
2047.8051999999998
 21
1137.8007
  0
LINE
  8
_0-0_1
  6
CONTINUOUS
 62
    5
 10
2030.7334999999998
 20
1136.0434
 11
2039.2926000000002
 21
1136.8273999999999
  0
LINE
  8
_0-0_1
  6
CONTINUOUS
 62
    5
 10
2025.6718999999998
 20
1135.6854000000001
 11
2030.7334999999998
 21
1136.0434
  0
LINE
  8
_0-0_1
  6
CONTINUOUS
 62
    5
 10
2022.8692999999998
 20
1135.5237999999999
 11
2025.6718999999998
 21
1135.6854000000001
  0
LINE
  8
_0-0_1
  6
CONTINUOUS
 62
    5
 10
2018.1482999999998
 20
1135.3198
 11
2022.8692999999998
 21
1135.5237999999999
  0
LINE
  8
_0-0_1
  6
CONTINUOUS
 62
    5
 10
2013.3191000000002
 20
1135.2144000000001
 11
2018.1482999999998
 21
1135.3198
  0
LINE
  8
_0-0_1
  6
CONTINUOUS
 62
    5
 10
2008.4175
 20
1135.2297000000001
 11
2013.3191000000002
 21
1135.2144000000001
  0
LINE
  8
_0-0_1
  6
CONTINUOUS
 62
    5
 10
2003.4463999999998
 20
1135.3876
 11
2008.4175
 21
1135.2297000000001
  0
LINE
  8
_0-0_1
  6
CONTINUOUS
 62
    5
 10
1998.489
 20
1135.7053000000001
 11
2003.4463999999998
 21
1135.3876
  0
LINE
  8
_0-0_1
  6
CONTINUOUS
 62
    5
 10
1995.4373999999998
 20
1135.9867999999999
 11
1998.489
 21
1135.7053000000001
  0
LINE
  8
_0-0_1
  6
CONTINUOUS
 62
    5
 10
1991.5084999999999
 20
1136.4490000000001
 11
1995.4373999999998
 21
1135.9867999999999
  0
LINE
  8
_0-0_1
  6
CONTINUOUS
 62
    5
 10
1984.9946
 20
1137.4716000000001
 11
1991.5084999999999
 21
1136.4490000000001
  0
LINE
  8
_0-0_1
  6
CONTINUOUS
 62
    5
 10
1978.4479999999999
 20
1138.8236999999999
 11
1984.9946
 21
1137.4716000000001
  0
LINE
  8
_0-0_1
  6
CONTINUOUS
 62
    5
 10
1971.9850000000001
 20
1140.4795999999999
 11
1978.4479999999999
 21
1138.8236999999999
  0
LINE
  8
_0-0_1
  6
CONTINUOUS
 62
    5
 10
1965.6190999999999
 20
1142.4303
 11
1971.9850000000001
 21
1140.4795999999999
  0
LINE
  8
_0-0_1
  6
CONTINUOUS
 62
    5
 10
1959.4542999999999
 20
1144.6351999999999
 11
1965.6190999999999
 21
1142.4303
  0
LINE
  8
_0-0_1
  6
CONTINUOUS
 62
    5
 10
1955.7676999999999
 20
1146.107
 11
1959.4542999999999
 21
1144.6351999999999
  0
LINE
  8
_0-0_1
  6
CONTINUOUS
 62
    5
 10
1951.4034000000001
 20
1147.9994999999999
 11
1955.7676999999999
 21
1146.107
  0
LINE
  8
_0-0_1
  6
CONTINUOUS
 62
    5
 10
1944.3344000000002
 20
1151.4145000000001
 11
1951.4034000000001
 21
1147.9994999999999
  0
LINE
  8
_0-0_1
  6
CONTINUOUS
 62
    5
 10
1937.4414999999999
 20
1155.1441
 11
1944.3344000000002
 21
1151.4145000000001
  0
LINE
  8
_0-0_1
  6
CONTINUOUS
 62
    5
 10
1930.8045000000002
 20
1159.0778
 11
1937.4414999999999
 21
1155.1441
  0
LINE
  8
_0-0_1
  6
CONTINUOUS
 62
    5
 10
1924.3951000000002
 20
1163.1602
 11
1930.8045000000002
 21
1159.0778
  0
LINE
  8
_0-0_1
  6
CONTINUOUS
 62
    5
 10
1918.2109
 20
1167.3224
 11
1924.3951000000002
 21
1163.1602
  0
LINE
  8
_0-0_1
  6
CONTINUOUS
 62
    5
 10
1914.6686
 20
1169.7861
 11
1918.2109
 21
1167.3224
  0
LINE
  8
_0-0_1
  6
CONTINUOUS
 62
    5
 10
1912.4366
 20
1171.3595
 11
1914.6686
 21
1169.7861
  0
LINE
  8
_0-0_1
  6
CONTINUOUS
 62
    5
 10
1908.8130000000001
 20
1173.8987
 11
1912.4366
 21
1171.3595
  0
LINE
  8
_0-0_1
  6
CONTINUOUS
 62
    5
 10
1905.4434000000001
 20
1176.1641999999999
 11
1908.8130000000001
 21
1173.8987
  0
LINE
  8
_0-0_1
  6
CONTINUOUS
 62
    5
 10
1902.3283999999999
 20
1178.0913
 11
1905.4434000000001
 21
1176.1641999999999
  0
LINE
  8
_0-0_1
  6
CONTINUOUS
 62
    5
 10
1899.4612000000002
 20
1179.6469999999999
 11
1902.3283999999999
 21
1178.0913
  0
LINE
  8
_0-0_1
  6
CONTINUOUS
 62
    5
 10
1896.6300000000001
 20
1180.9155000000001
 11
1899.4612000000002
 21
1179.6469999999999
  0
LINE
  8
_0-0_1
  6
CONTINUOUS
 62
    5
 10
1895.1668
 20
1181.4476
 11
1896.6300000000001
 21
1180.9155000000001
  0
LINE
  8
_0-0_1
  6
CONTINUOUS
 62
    5
 10
1894.9857000000002
 20
1181.5056
 11
1895.1668
 21
1181.4476
  0
LINE
  8
_0-0_1
  6
CONTINUOUS
 62
    5
 10
1894.1974
 20
1181.7335
 11
1894.9857000000002
 21
1181.5056
  0
LINE
  8
_0-0_1
  6
CONTINUOUS
 62
    5
 10
1893.5403000000001
 20
1181.8961999999999
 11
1894.1974
 21
1181.7335
  0
LINE
  8
_0-0_1
  6
CONTINUOUS
 62
    5
 10
1892.9585000000002
 20
1182.0142000000001
 11
1893.5403000000001
 21
1181.8961999999999
  0
LINE
  8
_0-0_1
  6
CONTINUOUS
 62
    5
 10
1892.9184
 20
1182.0204000000001
 11
1892.9585000000002
 21
1182.0142000000001
  0
LINE
  8
_0-0_1
  6
CONTINUOUS
 62
    5
 10
2096.8923
 20
1126.8592000000001
 11
2098.5064000000002
 21
1127.1277
  0
LINE
  8
_0-0_1
  6
CONTINUOUS
 62
    5
 10
2092.7037
 20
1126.163
 11
2096.8923
 21
1126.8592000000001
  0
LINE
  8
_0-0_1
  6
CONTINUOUS
 62
    5
 10
2088.5108
 20
1125.4675999999999
 11
2092.7037
 21
1126.163
  0
LINE
  8
_0-0_1
  6
CONTINUOUS
 62
    5
 10
2084.3134
 20
1124.7738999999999
 11
2088.5108
 21
1125.4675999999999
  0
LINE
  8
_0-0_1
  6
CONTINUOUS
 62
    5
 10
2080.1111000000001
 20
1124.0826999999999
 11
2084.3134
 21
1124.7738999999999
  0
LINE
  8
_0-0_1
  6
CONTINUOUS
 62
    5
 10
2075.9061000000002
 20
1123.3952999999999
 11
2080.1111000000001
 21
1124.0826999999999
  0
LINE
  8
_0-0_1
  6
CONTINUOUS
 62
    5
 10
2073.4560999999999
 20
1122.9972
 11
2075.9061000000002
 21
1123.3952999999999
  0
LINE
  8
_0-0_1
  6
CONTINUOUS
 62
    5
 10
2068.7291
 20
1122.2357
 11
2073.4560999999999
 21
1122.9972
  0
LINE
  8
_0-0_1
  6
CONTINUOUS
 62
    5
 10
2060.5385000000001
 20
1120.954
 11
2068.7291
 21
1122.2357
  0
LINE
  8
_0-0_1
  6
CONTINUOUS
 62
    5
 10
2052.2539999999999
 20
1119.7375
 11
2060.5385000000001
 21
1120.954
  0
LINE
  8
_0-0_1
  6
CONTINUOUS
 62
    5
 10
2043.8773999999999
 20
1118.6252999999999
 11
2052.2539999999999
 21
1119.7375
  0
LINE
  8
_0-0_1
  6
CONTINUOUS
 62
    5
 10
2035.4052000000001
 20
1117.6566
 11
2043.8773999999999
 21
1118.6252999999999
  0
LINE
  8
_0-0_1
  6
CONTINUOUS
 62
    5
 10
2026.8890999999999
 20
1116.8765000000001
 11
2035.4052000000001
 21
1117.6566
  0
LINE
  8
_0-0_1
  6
CONTINUOUS
 62
    5
 10
2021.8611999999998
 20
1116.5209
 11
2026.8890999999999
 21
1116.8765000000001
  0
LINE
  8
_0-0_1
  6
CONTINUOUS
 62
    5
 10
2019.0859999999998
 20
1116.3608999999999
 11
2021.8611999999998
 21
1116.5209
  0
LINE
  8
_0-0_1
  6
CONTINUOUS
 62
    5
 10
2014.4007000000001
 20
1116.1585
 11
2019.0859999999998
 21
1116.3608999999999
  0
LINE
  8
_0-0_1
  6
CONTINUOUS
 62
    5
 10
2009.6178
 20
1116.0540000000001
 11
2014.4007000000001
 21
1116.1585
  0
LINE
  8
_0-0_1
  6
CONTINUOUS
 62
    5
 10
2004.7698
 20
1116.0691999999999
 11
2009.6178
 21
1116.0540000000001
  0
LINE
  8
_0-0_1
  6
CONTINUOUS
 62
    5
 10
1999.8595999999998
 20
1116.2252000000001
 11
2004.7698
 21
1116.0691999999999
  0
LINE
  8
_0-0_1
  6
CONTINUOUS
 62
    5
 10
1994.9623000000001
 20
1116.5391
 11
1999.8595999999998
 21
1116.2252000000001
  0
LINE
  8
_0-0_1
  6
CONTINUOUS
 62
    5
 10
1991.9634999999998
 20
1116.8155999999999
 11
1994.9623000000001
 21
1116.5391
  0
LINE
  8
_0-0_1
  6
CONTINUOUS
 62
    5
 10
1988.098
 20
1117.2704000000001
 11
1991.9634999999998
 21
1116.8155999999999
  0
LINE
  8
_0-0_1
  6
CONTINUOUS
 62
    5
 10
1981.6696000000002
 20
1118.2795000000001
 11
1988.098
 21
1117.2704000000001
  0
LINE
  8
_0-0_1
  6
CONTINUOUS
 62
    5
 10
1975.2161000000001
 20
1119.6124
 11
1981.6696000000002
 21
1118.2795000000001
  0
LINE
  8
_0-0_1
  6
CONTINUOUS
 62
    5
 10
1968.8438999999998
 20
1121.2449999999999
 11
1975.2161000000001
 21
1119.6124
  0
LINE
  8
_0-0_1
  6
CONTINUOUS
 62
    5
 10
1962.5666000000001
 20
1123.1686
 11
1968.8438999999998
 21
1121.2449999999999
  0
LINE
  8
_0-0_1
  6
CONTINUOUS
 62
    5
 10
1956.4794999999999
 20
1125.3458000000001
 11
1962.5666000000001
 21
1123.1686
  0
LINE
  8
_0-0_1
  6
CONTINUOUS
 62
    5
 10
1952.8539000000001
 20
1126.7932000000001
 11
1956.4794999999999
 21
1125.3458000000001
  0
LINE
  8
_0-0_1
  6
CONTINUOUS
 62
    5
 10
1948.5540000000001
 20
1128.6578
 11
1952.8539000000001
 21
1126.7932000000001
  0
LINE
  8
_0-0_1
  6
CONTINUOUS
 62
    5
 10
1941.5630999999998
 20
1132.0350000000001
 11
1948.5540000000001
 21
1128.6578
  0
LINE
  8
_0-0_1
  6
CONTINUOUS
 62
    5
 10
1934.7449999999999
 20
1135.7240999999999
 11
1941.5630999999998
 21
1132.0350000000001
  0
LINE
  8
_0-0_1
  6
CONTINUOUS
 62
    5
 10
1928.1691999999998
 20
1139.6215
 11
1934.7449999999999
 21
1135.7240999999999
  0
LINE
  8
_0-0_1
  6
CONTINUOUS
 62
    5
 10
1921.8083000000001
 20
1143.6731
 11
1928.1691999999998
 21
1139.6215
  0
LINE
  8
_0-0_1
  6
CONTINUOUS
 62
    5
 10
1915.6577000000002
 20
1147.8126
 11
1921.8083000000001
 21
1143.6731
  0
LINE
  8
_0-0_1
  6
CONTINUOUS
 62
    5
 10
1912.1332000000002
 20
1150.2639999999999
 11
1915.6577000000002
 21
1147.8126
  0
LINE
  8
_0-0_1
  6
CONTINUOUS
 62
    5
 10
1909.9041000000002
 20
1151.8353999999999
 11
1912.1332000000002
 21
1150.2639999999999
  0
LINE
  8
_0-0_1
  6
CONTINUOUS
 62
    5
 10
1906.2624000000001
 20
1154.3873000000001
 11
1909.9041000000002
 21
1151.8353999999999
  0
LINE
  8
_0-0_1
  6
CONTINUOUS
 62
    5
 10
1902.8452000000002
 20
1156.6847
 11
1906.2624000000001
 21
1154.3873000000001
  0
LINE
  8
_0-0_1
  6
CONTINUOUS
 62
    5
 10
1899.6496000000002
 20
1158.6617000000001
 11
1902.8452000000002
 21
1156.6847
  0
LINE
  8
_0-0_1
  6
CONTINUOUS
 62
    5
 10
1896.6655999999998
 20
1160.2808
 11
1899.6496000000002
 21
1158.6617000000001
  0
LINE
  8
_0-0_1
  6
CONTINUOUS
 62
    5
 10
1893.6990999999998
 20
1161.6098999999999
 11
1896.6655999999998
 21
1160.2808
  0
LINE
  8
_0-0_1
  6
CONTINUOUS
 62
    5
 10
1892.9490999999998
 20
1161.8825999999999
 11
1893.6990999999998
 21
1161.6098999999999
  0
LINE
  8
_0-0_1
  6
CONTINUOUS
 62
    5
 10
1893.2822000000001
 20
1181.9258
 11
1893.1062000000002
 21
1161.7523000000001
  0
LINE
  8
_0-0_1
  6
CONTINUOUS
 62
    5
 10
2093.6078000000002
 20
1116.4380000000001
 11
2091.3624
 21
1125.0114000000001
  0
ARC
  8
_0-0_1
  6
CONTINUOUS
 62
    5
 10
2096.5099
 20
1117.1981000000001
 40
3
 50
194.67639000000003
 51
270.00000000000006
  0
LINE
  8
_0-0_1
  6
CONTINUOUS
 62
    5
 10
2099.9524000000001
 20
1114.1938
 11
2096.5346
 21
1114.1938
  0
LINE
  8
_0-0_1
  6
CONTINUOUS
 62
    5
 10
2102.9115999999999
 20
1116.7005999999999
 11
2104.8456000000001
 21
1128.3046999999999
  0
ARC
  8
_0-0_1
  6
CONTINUOUS
 62
    5
 10
2099.9524000000001
 20
1117.1938
 40
3
 50
270
 51
350.53766999999999
  0
LINE
  8
_0-0_1
  6
CONTINUOUS
 62
    5
 10
1846.1860000000001
 20
1191.316
 11
1847
 21
1191.6225999999999
  0
LINE
  8
_0-0_1
  6
CONTINUOUS
 62
    5
 10
1847
 20
1191.6225999999999
 11
1850.5491999999999
 21
1192.9621999999999
  0
LINE
  8
_0-0_1
  6
CONTINUOUS
 62
    5
 10
1850.5491999999999
 20
1192.9621999999999
 11
1854.1057999999998
 21
1194.3110999999999
  0
LINE
  8
_0-0_1
  6
CONTINUOUS
 62
    5
 10
1854.1057999999998
 20
1194.3110999999999
 11
1857.6745000000001
 21
1195.6750999999999
  0
LINE
  8
_0-0_1
  6
CONTINUOUS
 62
    5
 10
1857.6745000000001
 20
1195.6750999999999
 11
1861.2597999999998
 21
1197.0601999999999
  0
LINE
  8
_0-0_1
  6
CONTINUOUS
 62
    5
 10
1861.2597999999998
 20
1197.0601999999999
 11
1864.8665000000001
 21
1198.4721999999999
  0
LINE
  8
_0-0_1
  6
CONTINUOUS
 62
    5
 10
1864.8665000000001
 20
1198.4721999999999
 11
1866.9701
 21
1199.3058000000001
  0
LINE
  8
_0-0_1
  6
CONTINUOUS
 62
    5
 10
1866.9701
 20
1199.3058000000001
 11
1869.0493999999999
 21
1200.1346000000001
  0
LINE
  8
_0-0_1
  6
CONTINUOUS
 62
    5
 10
1869.0493999999999
 20
1200.1346000000001
 11
1872.6559999999999
 21
1201.5361
  0
LINE
  8
_0-0_1
  6
CONTINUOUS
 62
    5
 10
1872.6559999999999
 20
1201.5361
 11
1876.2887000000001
 21
1202.8188
  0
LINE
  8
_0-0_1
  6
CONTINUOUS
 62
    5
 10
1876.2887000000001
 20
1202.8188
 11
1879.9466000000002
 21
1203.8853999999999
  0
LINE
  8
_0-0_1
  6
CONTINUOUS
 62
    5
 10
1879.9466000000002
 20
1203.8853999999999
 11
1883.6287000000002
 21
1204.6387
  0
LINE
  8
_0-0_1
  6
CONTINUOUS
 62
    5
 10
1883.6287000000002
 20
1204.6387
 11
1887.3339999999998
 21
1204.9811999999999
  0
LINE
  8
_0-0_1
  6
CONTINUOUS
 62
    5
 10
1887.3339999999998
 20
1204.9811999999999
 11
1889.4933000000001
 21
1204.9532999999999
  0
LINE
  8
_0-0_1
  6
CONTINUOUS
 62
    5
 10
1889.4933000000001
 20
1204.9532999999999
 11
1890.3425000000002
 21
1204.8919000000001
  0
LINE
  8
_0-0_1
  6
CONTINUOUS
 62
    5
 10
1890.3425000000002
 20
1204.8919000000001
 11
1891.8067999999998
 21
1204.7212999999999
  0
LINE
  8
_0-0_1
  6
CONTINUOUS
 62
    5
 10
1891.8067999999998
 20
1204.7212999999999
 11
1893.2678999999998
 21
1204.4746
  0
LINE
  8
_0-0_1
  6
CONTINUOUS
 62
    5
 10
1893.2678999999998
 20
1204.4746
 11
1894.7215999999999
 21
1204.1586
  0
LINE
  8
_0-0_1
  6
CONTINUOUS
 62
    5
 10
1894.7215999999999
 20
1204.1586
 11
1896.1637000000001
 21
1203.7800999999999
  0
LINE
  8
_0-0_1
  6
CONTINUOUS
 62
    5
 10
1896.1637000000001
 20
1203.7800999999999
 11
1897.5900999999999
 21
1203.3459
  0
LINE
  8
_0-0_1
  6
CONTINUOUS
 62
    5
 10
1897.5900999999999
 20
1203.3459
 11
1898.4086000000002
 21
1203.0713000000001
  0
LINE
  8
_0-0_1
  6
CONTINUOUS
 62
    5
 10
1898.4086000000002
 20
1203.0713000000001
 11
1900.9069
 21
1202.1231
  0
LINE
  8
_0-0_1
  6
CONTINUOUS
 62
    5
 10
1900.9069
 20
1202.1231
 11
1905.0657999999999
 21
1200.1895999999999
  0
LINE
  8
_0-0_1
  6
CONTINUOUS
 62
    5
 10
1905.0657999999999
 20
1200.1895999999999
 11
1909.0695999999998
 21
1197.9441999999999
  0
LINE
  8
_0-0_1
  6
CONTINUOUS
 62
    5
 10
1909.0695999999998
 20
1197.9441999999999
 11
1912.9564999999998
 21
1195.4639
  0
LINE
  8
_0-0_1
  6
CONTINUOUS
 62
    5
 10
1912.9564999999998
 20
1195.4639
 11
1916.7645000000002
 21
1192.8257000000001
  0
LINE
  8
_0-0_1
  6
CONTINUOUS
 62
    5
 10
1916.7645000000002
 20
1192.8257000000001
 11
1920.5317
 21
1190.1067
  0
LINE
  8
_0-0_1
  6
CONTINUOUS
 62
    5
 10
1920.5317
 20
1190.1067
 11
1922.7130999999999
 21
1188.5228999999999
  0
LINE
  8
_0-0_1
  6
CONTINUOUS
 62
    5
 10
1922.7130999999999
 20
1188.5228999999999
 11
1926.0446000000002
 21
1186.136
  0
LINE
  8
_0-0_1
  6
CONTINUOUS
 62
    5
 10
1926.0446000000002
 20
1186.136
 11
1931.8368999999998
 21
1182.1190999999999
  0
LINE
  8
_0-0_1
  6
CONTINUOUS
 62
    5
 10
1931.8368999999998
 20
1182.1190999999999
 11
1937.7089999999998
 21
1178.2625
  0
LINE
  8
_0-0_1
  6
CONTINUOUS
 62
    5
 10
1937.7089999999998
 20
1178.2625
 11
1943.6831999999999
 21
1174.6079999999999
  0
LINE
  8
_0-0_1
  6
CONTINUOUS
 62
    5
 10
1943.6831999999999
 20
1174.6079999999999
 11
1949.7813999999998
 21
1171.1975
  0
LINE
  8
_0-0_1
  6
CONTINUOUS
 62
    5
 10
1949.7813999999998
 20
1171.1975
 11
1956.0257000000001
 21
1168.0726999999999
  0
LINE
  8
_0-0_1
  6
CONTINUOUS
 62
    5
 10
1956.0257000000001
 20
1168.0726999999999
 11
1959.723
 21
1166.4077
  0
LINE
  8
_0-0_1
  6
CONTINUOUS
 62
    5
 10
1959.723
 20
1166.4077
 11
1962.7822000000001
 21
1165.1366
  0
LINE
  8
_0-0_1
  6
CONTINUOUS
 62
    5
 10
1962.7822000000001
 20
1165.1366
 11
1968.1426999999999
 21
1163.1343999999999
  0
LINE
  8
_0-0_1
  6
CONTINUOUS
 62
    5
 10
1968.1426999999999
 20
1163.1343999999999
 11
1973.5983999999999
 21
1161.3788999999999
  0
LINE
  8
_0-0_1
  6
CONTINUOUS
 62
    5
 10
1973.5983999999999
 20
1161.3788999999999
 11
1979.1334000000002
 21
1159.8782000000001
  0
LINE
  8
_0-0_1
  6
CONTINUOUS
 62
    5
 10
1979.1334000000002
 20
1159.8782000000001
 11
1984.7316999999998
 21
1158.6401000000001
  0
LINE
  8
_0-0_1
  6
CONTINUOUS
 62
    5
 10
1984.7316999999998
 20
1158.6401000000001
 11
1990.3773999999999
 21
1157.6729
  0
LINE
  8
_0-0_1
  6
CONTINUOUS
 62
    5
 10
1990.3773999999999
 20
1157.6729
 11
1993.6673999999998
 21
1157.2392
  0
LINE
  8
_0-0_1
  6
CONTINUOUS
 62
    5
 10
1993.6673999999998
 20
1157.2392
 11
1996.1867000000002
 21
1156.9712999999999
  0
LINE
  8
_0-0_1
  6
CONTINUOUS
 62
    5
 10
1996.1867000000002
 20
1156.9712999999999
 11
2000.5387999999998
 21
1156.6313
  0
LINE
  8
_0-0_1
  6
CONTINUOUS
 62
    5
 10
2000.5387999999998
 20
1156.6313
 11
2004.8989999999999
 21
1156.4319
  0
LINE
  8
_0-0_1
  6
CONTINUOUS
 62
    5
 10
2004.8989999999999
 20
1156.4319
 11
2009.2642000000001
 21
1156.3571999999999
  0
LINE
  8
_0-0_1
  6
CONTINUOUS
 62
    5
 10
2009.2642000000001
 20
1156.3571999999999
 11
2013.6313
 21
1156.3915999999999
  0
LINE
  8
_0-0_1
  6
CONTINUOUS
 62
    5
 10
2013.6313
 20
1156.3915999999999
 11
2017.9971999999998
 21
1156.5192
  0
LINE
  8
_0-0_1
  6
CONTINUOUS
 62
    5
 10
2017.9971999999998
 20
1156.5192
 11
2020.5277000000001
 21
1156.6297
  0
LINE
  8
_0-0_1
  6
CONTINUOUS
 62
    5
 10
2020.5277000000001
 20
1156.6297
 11
2025.2568000000001
 21
1156.8978999999999
  0
LINE
  8
_0-0_1
  6
CONTINUOUS
 62
    5
 10
2025.2568000000001
 20
1156.8978999999999
 11
2033.3948999999998
 21
1157.5288
  0
LINE
  8
_0-0_1
  6
CONTINUOUS
 62
    5
 10
2033.3948999999998
 20
1157.5288
 11
2041.5156999999999
 21
1158.3426999999999
  0
LINE
  8
_0-0_1
  6
CONTINUOUS
 62
    5
 10
2041.5156999999999
 20
1158.3426999999999
 11
2049.6215000000002
 21
1159.3040000000001
  0
LINE
  8
_0-0_1
  6
CONTINUOUS
 62
    5
 10
2049.6215000000002
 20
1159.3040000000001
 11
2057.7150000000001
 21
1160.3771999999999
  0
LINE
  8
_0-0_1
  6
CONTINUOUS
 62
    5
 10
2057.7150000000001
 20
1160.3771999999999
 11
2065.7984999999999
 21
1161.5266999999999
  0
LINE
  8
_0-0_1
  6
CONTINUOUS
 62
    5
 10
2065.7984999999999
 20
1161.5266999999999
 11
2070.4834000000001
 21
1162.2145
  0
LINE
  8
_0-0_1
  6
CONTINUOUS
 62
    5
 10
2070.4834000000001
 20
1162.2145
 11
2072.9182999999998
 21
1162.5753999999999
  0
LINE
  8
_0-0_1
  6
CONTINUOUS
 62
    5
 10
2072.9182999999998
 20
1162.5753999999999
 11
2077.1152999999999
 21
1163.2013999999999
  0
LINE
  8
_0-0_1
  6
CONTINUOUS
 62
    5
 10
2077.1152999999999
 20
1163.2013999999999
 11
2081.3110999999999
 21
1163.8315
  0
LINE
  8
_0-0_1
  6
CONTINUOUS
 62
    5
 10
2081.3110999999999
 20
1163.8315
 11
2085.5059000000001
 21
1164.4648
  0
LINE
  8
_0-0_1
  6
CONTINUOUS
 62
    5
 10
2085.5059000000001
 20
1164.4648
 11
2089.7001
 21
1165.1003000000001
  0
LINE
  8
_0-0_1
  6
CONTINUOUS
 62
    5
 10
2089.7001
 20
1165.1003000000001
 11
2093.8937999999998
 21
1165.7373
  0
LINE
  8
_0-0_1
  6
CONTINUOUS
 62
    5
 10
2093.8937999999998
 20
1165.7373
 11
2096.3261000000002
 21
1166.1070999999999
  0
LINE
  8
_0-0_1
  6
CONTINUOUS
 62
    5
 10
1851.2892999999999
 20
1174.0035
 11
1853.3512000000001
 21
1174.7802999999999
  0
LINE
  8
_0-0_1
  6
CONTINUOUS
 62
    5
 10
1853.3512000000001
 20
1174.7802999999999
 11
1856.9187000000002
 21
1176.1269
  0
LINE
  8
_0-0_1
  6
CONTINUOUS
 62
    5
 10
1856.9187000000002
 20
1176.1269
 11
1860.5106000000001
 21
1177.4891
  0
LINE
  8
_0-0_1
  6
CONTINUOUS
 62
    5
 10
1860.5106000000001
 20
1177.4891
 11
1864.1309999999999
 21
1178.8729000000001
  0
LINE
  8
_0-0_1
  6
CONTINUOUS
 62
    5
 10
1864.1309999999999
 20
1178.8729000000001
 11
1867.7840000000001
 21
1180.2841000000001
  0
LINE
  8
_0-0_1
  6
CONTINUOUS
 62
    5
 10
1867.7840000000001
 20
1180.2841000000001
 11
1871.4632000000001
 21
1181.7245
  0
LINE
  8
_0-0_1
  6
CONTINUOUS
 62
    5
 10
1871.4632000000001
 20
1181.7245
 11
1873.6183999999998
 21
1182.5785000000001
  0
LINE
  8
_0-0_1
  6
CONTINUOUS
 62
    5
 10
1873.6183999999998
 20
1182.5785000000001
 11
1875.6419999999998
 21
1183.3851999999999
  0
LINE
  8
_0-0_1
  6
CONTINUOUS
 62
    5
 10
1875.6419999999998
 20
1183.3851999999999
 11
1878.9137999999998
 21
1184.6566
  0
LINE
  8
_0-0_1
  6
CONTINUOUS
 62
    5
 10
1878.9137999999998
 20
1184.6566
 11
1881.8090000000002
 21
1185.6787999999999
  0
LINE
  8
_0-0_1
  6
CONTINUOUS
 62
    5
 10
1881.8090000000002
 20
1185.6787999999999
 11
1884.2770999999998
 21
1186.3985
  0
LINE
  8
_0-0_1
  6
CONTINUOUS
 62
    5
 10
1884.2770999999998
 20
1186.3985
 11
1886.2687999999998
 21
1186.806
  0
LINE
  8
_0-0_1
  6
CONTINUOUS
 62
    5
 10
1886.2687999999998
 20
1186.806
 11
1888.0481
 21
1186.9704999999999
  0
LINE
  8
_0-0_1
  6
CONTINUOUS
 62
    5
 10
1888.0481
 20
1186.9704999999999
 11
1888.7276999999999
 21
1186.9617000000001
  0
LINE
  8
_0-0_1
  6
CONTINUOUS
 62
    5
 10
1888.7276999999999
 20
1186.9617000000001
 11
1888.6516000000001
 21
1186.9672
  0
LINE
  8
_0-0_1
  6
CONTINUOUS
 62
    5
 10
1888.6516000000001
 20
1186.9672
 11
1889.2651999999998
 21
1186.8957
  0
LINE
  8
_0-0_1
  6
CONTINUOUS
 62
    5
 10
1889.2651999999998
 20
1186.8957
 11
1889.8555999999999
 21
1186.796
  0
LINE
  8
_0-0_1
  6
CONTINUOUS
 62
    5
 10
1889.8555999999999
 20
1186.796
 11
1890.5230999999999
 21
1186.6509000000001
  0
LINE
  8
_0-0_1
  6
CONTINUOUS
 62
    5
 10
1890.5230999999999
 20
1186.6509000000001
 11
1891.2566000000002
 21
1186.4584
  0
LINE
  8
_0-0_1
  6
CONTINUOUS
 62
    5
 10
1891.2566000000002
 20
1186.4584
 11
1892.1057999999998
 21
1186.1999000000001
  0
LINE
  8
_0-0_1
  6
CONTINUOUS
 62
    5
 10
1892.1057999999998
 20
1186.1999000000001
 11
1892.3499000000002
 21
1186.1179999999999
  0
LINE
  8
_0-0_1
  6
CONTINUOUS
 62
    5
 10
1892.3499000000002
 20
1186.1179999999999
 11
1893.9097999999999
 21
1185.5259000000001
  0
LINE
  8
_0-0_1
  6
CONTINUOUS
 62
    5
 10
1893.9097999999999
 20
1185.5259000000001
 11
1896.8575000000001
 21
1184.1555000000001
  0
LINE
  8
_0-0_1
  6
CONTINUOUS
 62
    5
 10
1896.8575000000001
 20
1184.1555000000001
 11
1899.8184999999999
 21
1182.4948999999999
  0
LINE
  8
_0-0_1
  6
CONTINUOUS
 62
    5
 10
1899.8184999999999
 20
1182.4948999999999
 11
1902.9861999999998
 21
1180.4736
  0
LINE
  8
_0-0_1
  6
CONTINUOUS
 62
    5
 10
1902.9861999999998
 20
1180.4736
 11
1906.3708999999999
 21
1178.1286
  0
LINE
  8
_0-0_1
  6
CONTINUOUS
 62
    5
 10
1906.3708999999999
 20
1178.1286
 11
1909.9767000000002
 21
1175.5262
  0
LINE
  8
_0-0_1
  6
CONTINUOUS
 62
    5
 10
1909.9767000000002
 20
1175.5262
 11
1912.1835999999998
 21
1173.9237000000001
  0
LINE
  8
_0-0_1
  6
CONTINUOUS
 62
    5
 10
1912.1835999999998
 20
1173.9237000000001
 11
1915.6736000000001
 21
1171.4233999999999
  0
LINE
  8
_0-0_1
  6
CONTINUOUS
 62
    5
 10
1915.6736000000001
 20
1171.4233999999999
 11
1921.7658000000001
 21
1167.1985
  0
LINE
  8
_0-0_1
  6
CONTINUOUS
 62
    5
 10
1921.7658000000001
 20
1167.1985
 11
1928.0695000000001
 21
1163.0583999999999
  0
LINE
  8
_0-0_1
  6
CONTINUOUS
 62
    5
 10
1928.0695000000001
 20
1163.0583999999999
 11
1934.5902000000001
 21
1159.0696
  0
LINE
  8
_0-0_1
  6
CONTINUOUS
 62
    5
 10
1934.5902000000001
 20
1159.0696
 11
1941.3562000000002
 21
1155.2855999999999
  0
LINE
  8
_0-0_1
  6
CONTINUOUS
 62
    5
 10
1941.3562000000002
 20
1155.2855999999999
 11
1948.2991999999999
 21
1151.8110999999999
  0
LINE
  8
_0-0_1
  6
CONTINUOUS
 62
    5
 10
1948.2991999999999
 20
1151.8110999999999
 11
1952.5726
 21
1149.8867
  0
LINE
  8
_0-0_1
  6
CONTINUOUS
 62
    5
 10
1952.5726
 20
1149.8867
 11
1956.1777000000002
 21
1148.3887999999999
  0
LINE
  8
_0-0_1
  6
CONTINUOUS
 62
    5
 10
1956.1777000000002
 20
1148.3887999999999
 11
1962.2338
 21
1146.1268
  0
LINE
  8
_0-0_1
  6
CONTINUOUS
 62
    5
 10
1962.2338
 20
1146.1268
 11
1968.4837000000002
 21
1144.1158
  0
LINE
  8
_0-0_1
  6
CONTINUOUS
 62
    5
 10
1968.4837000000002
 20
1144.1158
 11
1974.8323999999998
 21
1142.3943999999999
  0
LINE
  8
_0-0_1
  6
CONTINUOUS
 62
    5
 10
1974.8323999999998
 20
1142.3943999999999
 11
1981.2667000000001
 21
1140.9715000000001
  0
LINE
  8
_0-0_1
  6
CONTINUOUS
 62
    5
 10
1981.2667000000001
 20
1140.9715000000001
 11
1987.6804000000002
 21
1139.8728000000001
  0
LINE
  8
_0-0_1
  6
CONTINUOUS
 62
    5
 10
1987.6804000000002
 20
1139.8728000000001
 11
1991.5392000000002
 21
1139.364
  0
LINE
  8
_0-0_1
  6
CONTINUOUS
 62
    5
 10
1991.5392000000002
 20
1139.364
 11
1994.5338000000002
 21
1139.0455999999999
  0
LINE
  8
_0-0_1
  6
CONTINUOUS
 62
    5
 10
1994.5338000000002
 20
1139.0455999999999
 11
1999.4261999999999
 21
1138.6633999999999
  0
LINE
  8
_0-0_1
  6
CONTINUOUS
 62
    5
 10
1999.4261999999999
 20
1138.6633999999999
 11
2004.3337999999999
 21
1138.4389000000001
  0
LINE
  8
_0-0_1
  6
CONTINUOUS
 62
    5
 10
2004.3337999999999
 20
1138.4389000000001
 11
2009.1810999999998
 21
1138.356
  0
LINE
  8
_0-0_1
  6
CONTINUOUS
 62
    5
 10
2009.1810999999998
 20
1138.356
 11
2013.9650000000001
 21
1138.3937000000001
  0
LINE
  8
_0-0_1
  6
CONTINUOUS
 62
    5
 10
2013.9650000000001
 20
1138.3937000000001
 11
2018.6527000000001
 21
1138.5306
  0
LINE
  8
_0-0_1
  6
CONTINUOUS
 62
    5
 10
2018.6527000000001
 20
1138.5306
 11
2021.4299000000001
 21
1138.6519000000001
  0
LINE
  8
_0-0_1
  6
CONTINUOUS
 62
    5
 10
2021.4299000000001
 20
1138.6519000000001
 11
2026.4621999999999
 21
1138.9373000000001
  0
LINE
  8
_0-0_1
  6
CONTINUOUS
 62
    5
 10
2026.4621999999999
 20
1138.9373000000001
 11
2034.9883
 21
1139.5984000000001
  0
LINE
  8
_0-0_1
  6
CONTINUOUS
 62
    5
 10
2034.9883
 20
1139.5984000000001
 11
2043.4731999999999
 21
1140.4486999999999
  0
LINE
  8
_0-0_1
  6
CONTINUOUS
 62
    5
 10
2043.4731999999999
 20
1140.4486999999999
 11
2051.8645000000001
 21
1141.4439
  0
LINE
  8
_0-0_1
  6
CONTINUOUS
 62
    5
 10
2051.8645000000001
 20
1141.4439
 11
2060.1651999999999
 21
1142.5445
  0
LINE
  8
_0-0_1
  6
CONTINUOUS
 62
    5
 10
2060.1651999999999
 20
1142.5445
 11
2068.373
 21
1143.7118
  0
LINE
  8
_0-0_1
  6
CONTINUOUS
 62
    5
 10
2068.373
 20
1143.7118
 11
2073.1100999999999
 21
1144.4072000000001
  0
LINE
  8
_0-0_1
  6
CONTINUOUS
 62
    5
 10
2073.1100999999999
 20
1144.4072000000001
 11
2075.5655000000002
 21
1144.7710999999999
  0
LINE
  8
_0-0_1
  6
CONTINUOUS
 62
    5
 10
2075.5655000000002
 20
1144.7710999999999
 11
2079.7795999999998
 21
1145.3996999999999
  0
LINE
  8
_0-0_1
  6
CONTINUOUS
 62
    5
 10
2079.7795999999998
 20
1145.3996999999999
 11
2083.9911000000002
 21
1146.0320999999999
  0
LINE
  8
_0-0_1
  6
CONTINUOUS
 62
    5
 10
2083.9911000000002
 20
1146.0320999999999
 11
2088.1979000000001
 21
1146.6672000000001
  0
LINE
  8
_0-0_1
  6
CONTINUOUS
 62
    5
 10
2088.1979000000001
 20
1146.6672000000001
 11
2092.4000999999998
 21
1147.3040000000001
  0
LINE
  8
_0-0_1
  6
CONTINUOUS
 62
    5
 10
2092.4000999999998
 20
1147.3040000000001
 11
2096.598
 21
1147.9416000000001
  0
LINE
  8
_0-0_1
  6
CONTINUOUS
 62
    5
 10
2096.598
 20
1147.9416000000001
 11
2098.2157000000002
 21
1148.1875
  0
LINE
  8
_0-0_1
  6
CONTINUOUS
 62
    5
 10
1845.7604000000001
 20
1191.1536000000001
 11
1846.1864
 21
1191.3167000000001
  0
ARC
  8
_0-0_1
  6
CONTINUOUS
 62
    5
 10
1846.8330000000001
 20
1188.3518999999999
 40
3
 50
110.94902000000002
 51
178.70000000000002
  0
LINE
  8
_0-0_1
  6
CONTINUOUS
 62
    5
 10
1843.7244999999998
 20
1172.5808999999999
 11
1843.7244999999998
 21
1188.3034
  0
LINE
  8
_0-0_1
  6
CONTINUOUS
 62
    5
 10
1845.0785000000001
 20
1171.6456000000001
 11
1851.2532999999999
 21
1173.9828
  0
ARC
  8
_0-0_1
  6
CONTINUOUS
 62
    5
 10
1844.7244999999998
 20
1172.5808999999999
 40
1
 50
180
 51
290.73165999999998
  0
LINE
  8
_0-0_1
  6
CONTINUOUS
 62
    5
 10
2108.7244999999998
 20
1151.2587000000001
 11
2108.7244999999998
 21
1168.4559999999999
  0
LINE
  8
_0-0_1
  6
CONTINUOUS
 62
    5
 10
2096.451
 20
1166.1424999999999
 11
2122.0837000000001
 21
1171.7055
  0
LINE
  8
_0-0_1
  6
CONTINUOUS
 62
    5
 10
2103.1963000000001
 20
1146.3088
 11
2122.0837000000001
 21
1150.7288000000001
  0
LINE
  8
_0-0_1
  6
CONTINUOUS
 62
    5
 10
2122.0837000000001
 20
1153.2864999999999
 11
2097.9834999999998
 21
1148.056
  0
LINE
  8
_0-0_1
  6
CONTINUOUS
 62
    5
 10
2122.0837000000001
 20
1132.3833999999999
 11
2098.5392000000002
 21
1127.1279999999999
  0
LINE
  8
_0-0_1
  6
CONTINUOUS
 62
    5
 10
1704.5048999999999
 20
1107.9492
 11
1695.9694
 21
1122.4826
  0
LINE
  8
_0-0_1
  6
CONTINUOUS
 62
    5
 10
1712.6727999999998
 20
1107.2989
 11
1720.9789999999998
 21
1117.3643999999999
  0
ARC
  8
_0-0_1
  6
CONTINUOUS
 62
    5
 10
1708.8163
 20
1110.4812999999999
 40
5
 50
210.42578
 51
320.47001
  0
LINE
  8
_0-0_1
  6
CONTINUOUS
 62
    5
 10
1788.6183999999998
 20
1106.8290999999999
 11
1781.2930000000001
 21
1118.1351
  0
LINE
  8
_0-0_1
  6
CONTINUOUS
 62
    5
 10
1797.1279
 20
1107.019
 11
1806.0664000000002
 21
1122.2646999999999
  0
ARC
  8
_0-0_1
  6
CONTINUOUS
 62
    5
 10
1792.8146000000002
 20
1109.5479
 40
5
 50
212.93986000000001
 51
329.61716000000001
  0
LINE
  8
_0-0_1
  6
CONTINUOUS
 62
    5
 10
1836.4099999999999
 20
1146.5766000000001
 11
1838.8380999999999
 21
1146.9804999999999
  0
LINE
  8
_0-0_1
  6
CONTINUOUS
 62
    5
 10
1832.2208999999998
 20
1145.8804
 11
1836.4099999999999
 21
1146.5766000000001
  0
LINE
  8
_0-0_1
  6
CONTINUOUS
 62
    5
 10
1828.0270999999998
 20
1145.1848
 11
1832.2208999999998
 21
1145.8804
  0
LINE
  8
_0-0_1
  6
CONTINUOUS
 62
    5
 10
1823.8283000000001
 20
1144.4908
 11
1828.0270999999998
 21
1145.1848
  0
LINE
  8
_0-0_1
  6
CONTINUOUS
 62
    5
 10
1819.6242999999999
 20
1143.7992999999999
 11
1823.8283000000001
 21
1144.4908
  0
LINE
  8
_0-0_1
  6
CONTINUOUS
 62
    5
 10
1815.4175
 20
1143.1116999999999
 11
1819.6242999999999
 21
1143.7992999999999
  0
LINE
  8
_0-0_1
  6
CONTINUOUS
 62
    5
 10
1812.9652000000001
 20
1142.7131999999999
 11
1815.4175
 21
1143.1116999999999
  0
LINE
  8
_0-0_1
  6
CONTINUOUS
 62
    5
 10
1808.2323999999999
 20
1141.9507000000001
 11
1812.9652000000001
 21
1142.7131999999999
  0
LINE
  8
_0-0_1
  6
CONTINUOUS
 62
    5
 10
1800.0279999999998
 20
1140.6668999999999
 11
1808.2323999999999
 21
1141.9507000000001
  0
LINE
  8
_0-0_1
  6
CONTINUOUS
 62
    5
 10
1791.7204999999999
 20
1139.4469999999999
 11
1800.0279999999998
 21
1140.6668999999999
  0
LINE
  8
_0-0_1
  6
CONTINUOUS
 62
    5
 10
1783.3121999999998
 20
1138.3307
 11
1791.7204999999999
 21
1139.4469999999999
  0
LINE
  8
_0-0_1
  6
CONTINUOUS
 62
    5
 10
1774.7997
 20
1137.3572999999999
 11
1783.3121999999998
 21
1138.3307
  0
LINE
  8
_0-0_1
  6
CONTINUOUS
 62
    5
 10
1766.2404999999999
 20
1136.5733
 11
1774.7997
 21
1137.3572999999999
  0
LINE
  8
_0-0_1
  6
CONTINUOUS
 62
    5
 10
1761.1790000000001
 20
1136.2153000000001
 11
1766.2404999999999
 21
1136.5733
  0
LINE
  8
_0-0_1
  6
CONTINUOUS
 62
    5
 10
1758.3764000000001
 20
1136.0536999999999
 11
1761.1790000000001
 21
1136.2153000000001
  0
LINE
  8
_0-0_1
  6
CONTINUOUS
 62
    5
 10
1753.6554000000001
 20
1135.8497
 11
1758.3764000000001
 21
1136.0536999999999
  0
LINE
  8
_0-0_1
  6
CONTINUOUS
 62
    5
 10
1748.8261000000002
 20
1135.7443000000001
 11
1753.6554000000001
 21
1135.8497
  0
LINE
  8
_0-0_1
  6
CONTINUOUS
 62
    5
 10
1743.9245000000001
 20
1135.7596000000001
 11
1748.8261000000002
 21
1135.7443000000001
  0
LINE
  8
_0-0_1
  6
CONTINUOUS
 62
    5
 10
1738.9535000000001
 20
1135.9175
 11
1743.9245000000001
 21
1135.7596000000001
  0
LINE
  8
_0-0_1
  6
CONTINUOUS
 62
    5
 10
1733.9960999999998
 20
1136.2353000000001
 11
1738.9535000000001
 21
1135.9175
  0
LINE
  8
_0-0_1
  6
CONTINUOUS
 62
    5
 10
1730.9443999999999
 20
1136.5166999999999
 11
1733.9960999999998
 21
1136.2353000000001
  0
LINE
  8
_0-0_1
  6
CONTINUOUS
 62
    5
 10
1727.0156000000002
 20
1136.9789000000001
 11
1730.9443999999999
 21
1136.5166999999999
  0
LINE
  8
_0-0_1
  6
CONTINUOUS
 62
    5
 10
1720.5016000000001
 20
1138.0015000000001
 11
1727.0156000000002
 21
1136.9789000000001
  0
LINE
  8
_0-0_1
  6
CONTINUOUS
 62
    5
 10
1713.9549999999999
 20
1139.3535999999999
 11
1720.5016000000001
 21
1138.0015000000001
  0
LINE
  8
_0-0_1
  6
CONTINUOUS
 62
    5
 10
1707.4920999999999
 20
1141.0094999999999
 11
1713.9549999999999
 21
1139.3535999999999
  0
LINE
  8
_0-0_1
  6
CONTINUOUS
 62
    5
 10
1701.1261
 20
1142.9602
 11
1707.4920999999999
 21
1141.0094999999999
  0
LINE
  8
_0-0_1
  6
CONTINUOUS
 62
    5
 10
1694.9614000000001
 20
1145.1650999999999
 11
1701.1261
 21
1142.9602
  0
LINE
  8
_0-0_1
  6
CONTINUOUS
 62
    5
 10
1691.2746999999999
 20
1146.6369
 11
1694.9614000000001
 21
1145.1650999999999
  0
LINE
  8
_0-0_1
  6
CONTINUOUS
 62
    5
 10
1686.9105
 20
1148.5293999999999
 11
1691.2746999999999
 21
1146.6369
  0
LINE
  8
_0-0_1
  6
CONTINUOUS
 62
    5
 10
1679.8413999999998
 20
1151.9444000000001
 11
1686.9105
 21
1148.5293999999999
  0
LINE
  8
_0-0_1
  6
CONTINUOUS
 62
    5
 10
1672.9485
 20
1155.674
 11
1679.8413999999998
 21
1151.9444000000001
  0
LINE
  8
_0-0_1
  6
CONTINUOUS
 62
    5
 10
1666.3114999999998
 20
1159.6077
 11
1672.9485
 21
1155.674
  0
LINE
  8
_0-0_1
  6
CONTINUOUS
 62
    5
 10
1659.9022
 20
1163.6902
 11
1666.3114999999998
 21
1159.6077
  0
LINE
  8
_0-0_1
  6
CONTINUOUS
 62
    5
 10
1653.7179999999998
 20
1167.8523
 11
1659.9022
 21
1163.6902
  0
LINE
  8
_0-0_1
  6
CONTINUOUS
 62
    5
 10
1650.1756
 20
1170.316
 11
1653.7179999999998
 21
1167.8523
  0
LINE
  8
_0-0_1
  6
CONTINUOUS
 62
    5
 10
1647.9436000000001
 20
1171.8895
 11
1650.1756
 21
1170.316
  0
LINE
  8
_0-0_1
  6
CONTINUOUS
 62
    5
 10
1644.3200999999999
 20
1174.4286999999999
 11
1647.9436000000001
 21
1171.8895
  0
LINE
  8
_0-0_1
  6
CONTINUOUS
 62
    5
 10
1640.9504000000002
 20
1176.6940999999999
 11
1644.3200999999999
 21
1174.4286999999999
  0
LINE
  8
_0-0_1
  6
CONTINUOUS
 62
    5
 10
1637.8353999999999
 20
1178.6212
 11
1640.9504000000002
 21
1176.6940999999999
  0
LINE
  8
_0-0_1
  6
CONTINUOUS
 62
    5
 10
1634.9681999999998
 20
1180.1769999999999
 11
1637.8353999999999
 21
1178.6212
  0
LINE
  8
_0-0_1
  6
CONTINUOUS
 62
    5
 10
1632.1370999999999
 20
1181.4454000000001
 11
1634.9681999999998
 21
1180.1769999999999
  0
LINE
  8
_0-0_1
  6
CONTINUOUS
 62
    5
 10
1630.6738999999998
 20
1181.9775
 11
1632.1370999999999
 21
1181.4454000000001
  0
LINE
  8
_0-0_1
  6
CONTINUOUS
 62
    5
 10
1630.4928
 20
1182.0355
 11
1630.6738999999998
 21
1181.9775
  0
LINE
  8
_0-0_1
  6
CONTINUOUS
 62
    5
 10
1629.7044999999998
 20
1182.2634
 11
1630.4928
 21
1182.0355
  0
LINE
  8
_0-0_1
  6
CONTINUOUS
 62
    5
 10
1629.0473000000002
 20
1182.4262000000001
 11
1629.7044999999998
 21
1182.2634
  0
LINE
  8
_0-0_1
  6
CONTINUOUS
 62
    5
 10
1628.4656
 20
1182.5441000000001
 11
1629.0473000000002
 21
1182.4262000000001
  0
LINE
  8
_0-0_1
  6
CONTINUOUS
 62
    5
 10
1628.4254999999998
 20
1182.5503000000001
 11
1628.4656
 21
1182.5441000000001
  0
LINE
  8
_0-0_1
  6
CONTINUOUS
 62
    5
 10
1832.3993999999998
 20
1127.3891000000001
 11
1834.0135
 21
1127.6576
  0
LINE
  8
_0-0_1
  6
CONTINUOUS
 62
    5
 10
1828.2107999999998
 20
1126.693
 11
1832.3993999999998
 21
1127.3891000000001
  0
LINE
  8
_0-0_1
  6
CONTINUOUS
 62
    5
 10
1824.0178999999998
 20
1125.9974999999999
 11
1828.2107999999998
 21
1126.693
  0
LINE
  8
_0-0_1
  6
CONTINUOUS
 62
    5
 10
1819.8204000000001
 20
1125.3037999999999
 11
1824.0178999999998
 21
1125.9974999999999
  0
LINE
  8
_0-0_1
  6
CONTINUOUS
 62
    5
 10
1815.6181000000001
 20
1124.6125999999999
 11
1819.8204000000001
 21
1125.3037999999999
  0
LINE
  8
_0-0_1
  6
CONTINUOUS
 62
    5
 10
1811.4132
 20
1123.9253000000001
 11
1815.6181000000001
 21
1124.6125999999999
  0
LINE
  8
_0-0_1
  6
CONTINUOUS
 62
    5
 10
1808.9630999999999
 20
1123.5271
 11
1811.4132
 21
1123.9253000000001
  0
LINE
  8
_0-0_1
  6
CONTINUOUS
 62
    5
 10
1804.2361999999998
 20
1122.7655999999999
 11
1808.9630999999999
 21
1123.5271
  0
LINE
  8
_0-0_1
  6
CONTINUOUS
 62
    5
 10
1796.0455000000002
 20
1121.4838999999999
 11
1804.2361999999998
 21
1122.7655999999999
  0
LINE
  8
_0-0_1
  6
CONTINUOUS
 62
    5
 10
1787.761
 20
1120.2674
 11
1796.0455000000002
 21
1121.4838999999999
  0
LINE
  8
_0-0_1
  6
CONTINUOUS
 62
    5
 10
1779.3843999999999
 20
1119.1551999999999
 11
1787.761
 21
1120.2674
  0
LINE
  8
_0-0_1
  6
CONTINUOUS
 62
    5
 10
1770.9122000000002
 20
1118.1865
 11
1779.3843999999999
 21
1119.1551999999999
  0
LINE
  8
_0-0_1
  6
CONTINUOUS
 62
    5
 10
1762.3960999999999
 20
1117.4064000000001
 11
1770.9122000000002
 21
1118.1865
  0
LINE
  8
_0-0_1
  6
CONTINUOUS
 62
    5
 10
1757.3683000000001
 20
1117.0508
 11
1762.3960999999999
 21
1117.4064000000001
  0
LINE
  8
_0-0_1
  6
CONTINUOUS
 62
    5
 10
1754.5931
 20
1116.8907999999999
 11
1757.3683000000001
 21
1117.0508
  0
LINE
  8
_0-0_1
  6
CONTINUOUS
 62
    5
 10
1749.9078
 20
1116.6884
 11
1754.5931
 21
1116.8907999999999
  0
LINE
  8
_0-0_1
  6
CONTINUOUS
 62
    5
 10
1745.1248999999998
 20
1116.5839000000001
 11
1749.9078
 21
1116.6884
  0
LINE
  8
_0-0_1
  6
CONTINUOUS
 62
    5
 10
1740.2768000000001
 20
1116.5990999999999
 11
1745.1248999999998
 21
1116.5839000000001
  0
LINE
  8
_0-0_1
  6
CONTINUOUS
 62
    5
 10
1735.3665999999998
 20
1116.7551000000001
 11
1740.2768000000001
 21
1116.5990999999999
  0
LINE
  8
_0-0_1
  6
CONTINUOUS
 62
    5
 10
1730.4693000000002
 20
1117.069
 11
1735.3665999999998
 21
1116.7551000000001
  0
LINE
  8
_0-0_1
  6
CONTINUOUS
 62
    5
 10
1727.4706000000001
 20
1117.3454999999999
 11
1730.4693000000002
 21
1117.069
  0
LINE
  8
_0-0_1
  6
CONTINUOUS
 62
    5
 10
1723.605
 20
1117.8003000000001
 11
1727.4706000000001
 21
1117.3454999999999
  0
LINE
  8
_0-0_1
  6
CONTINUOUS
 62
    5
 10
1717.1765999999998
 20
1118.8094000000001
 11
1723.605
 21
1117.8003000000001
  0
LINE
  8
_0-0_1
  6
CONTINUOUS
 62
    5
 10
1710.7231000000002
 20
1120.1423
 11
1717.1765999999998
 21
1118.8094000000001
  0
LINE
  8
_0-0_1
  6
CONTINUOUS
 62
    5
 10
1704.3510000000001
 20
1121.7750000000001
 11
1710.7231000000002
 21
1120.1423
  0
LINE
  8
_0-0_1
  6
CONTINUOUS
 62
    5
 10
1698.0736999999999
 20
1123.6985
 11
1704.3510000000001
 21
1121.7750000000001
  0
LINE
  8
_0-0_1
  6
CONTINUOUS
 62
    5
 10
1691.9866000000002
 20
1125.8757000000001
 11
1698.0736999999999
 21
1123.6985
  0
LINE
  8
_0-0_1
  6
CONTINUOUS
 62
    5
 10
1688.3609000000001
 20
1127.3231000000001
 11
1691.9866000000002
 21
1125.8757000000001
  0
LINE
  8
_0-0_1
  6
CONTINUOUS
 62
    5
 10
1684.0610999999999
 20
1129.1876999999999
 11
1688.3609000000001
 21
1127.3231000000001
  0
LINE
  8
_0-0_1
  6
CONTINUOUS
 62
    5
 10
1677.0702000000001
 20
1132.5649000000001
 11
1684.0610999999999
 21
1129.1876999999999
  0
LINE
  8
_0-0_1
  6
CONTINUOUS
 62
    5
 10
1670.252
 20
1136.2541000000001
 11
1677.0702000000001
 21
1132.5649000000001
  0
LINE
  8
_0-0_1
  6
CONTINUOUS
 62
    5
 10
1663.6763000000001
 20
1140.1514
 11
1670.252
 21
1136.2541000000001
  0
LINE
  8
_0-0_1
  6
CONTINUOUS
 62
    5
 10
1657.3153000000002
 20
1144.2030999999999
 11
1663.6763000000001
 21
1140.1514
  0
LINE
  8
_0-0_1
  6
CONTINUOUS
 62
    5
 10
1651.1648
 20
1148.3425
 11
1657.3153000000002
 21
1144.2030999999999
  0
LINE
  8
_0-0_1
  6
CONTINUOUS
 62
    5
 10
1647.6401999999998
 20
1150.7938999999999
 11
1651.1648
 21
1148.3425
  0
LINE
  8
_0-0_1
  6
CONTINUOUS
 62
    5
 10
1645.4110999999998
 20
1152.3652999999999
 11
1647.6401999999998
 21
1150.7938999999999
  0
LINE
  8
_0-0_1
  6
CONTINUOUS
 62
    5
 10
1641.7694000000001
 20
1154.9172000000001
 11
1645.4110999999998
 21
1152.3652999999999
  0
LINE
  8
_0-0_1
  6
CONTINUOUS
 62
    5
 10
1638.3523
 20
1157.2147
 11
1641.7694000000001
 21
1154.9172000000001
  0
LINE
  8
_0-0_1
  6
CONTINUOUS
 62
    5
 10
1635.1567
 20
1159.1916000000001
 11
1638.3523
 21
1157.2147
  0
LINE
  8
_0-0_1
  6
CONTINUOUS
 62
    5
 10
1632.1727000000001
 20
1160.8107
 11
1635.1567
 21
1159.1916000000001
  0
LINE
  8
_0-0_1
  6
CONTINUOUS
 62
    5
 10
1629.2060999999999
 20
1162.1397999999999
 11
1632.1727000000001
 21
1160.8107
  0
LINE
  8
_0-0_1
  6
CONTINUOUS
 62
    5
 10
1628.4562000000001
 20
1162.4126000000001
 11
1629.2060999999999
 21
1162.1397999999999
  0
LINE
  8
_0-0_1
  6
CONTINUOUS
 62
    5
 10
1628.7892999999999
 20
1182.4557
 11
1628.6131999999998
 21
1162.2823000000001
  0
LINE
  8
_0-0_1
  6
CONTINUOUS
 62
    5
 10
1829.1149
 20
1116.9679000000001
 11
1826.8694
 21
1125.5413000000001
  0
ARC
  8
_0-0_1
  6
CONTINUOUS
 62
    5
 10
1832.0169999999998
 20
1117.7280000000001
 40
3
 50
194.67639000000003
 51
270.00000000000006
  0
LINE
  8
_0-0_1
  6
CONTINUOUS
 62
    5
 10
1835.4594999999999
 20
1114.7237
 11
1832.0416
 21
1114.7237
  0
LINE
  8
_0-0_1
  6
CONTINUOUS
 62
    5
 10
1838.4186
 20
1117.2304999999999
 11
1840.3526999999999
 21
1128.8345999999999
  0
ARC
  8
_0-0_1
  6
CONTINUOUS
 62
    5
 10
1835.4594999999999
 20
1117.7237
 40
3
 50
270
 51
350.53766999999999
  0
LINE
  8
_0-0_1
  6
CONTINUOUS
 62
    5
 10
1581.6931
 20
1191.8459
 11
1582.5070000000001
 21
1192.1524999999999
  0
LINE
  8
_0-0_1
  6
CONTINUOUS
 62
    5
 10
1582.5070000000001
 20
1192.1524999999999
 11
1586.0563000000002
 21
1193.4920999999999
  0
LINE
  8
_0-0_1
  6
CONTINUOUS
 62
    5
 10
1586.0563000000002
 20
1193.4920999999999
 11
1589.6129000000001
 21
1194.8409999999999
  0
LINE
  8
_0-0_1
  6
CONTINUOUS
 62
    5
 10
1589.6129000000001
 20
1194.8409999999999
 11
1593.1815000000001
 21
1196.2049999999999
  0
LINE
  8
_0-0_1
  6
CONTINUOUS
 62
    5
 10
1593.1815000000001
 20
1196.2049999999999
 11
1596.7669000000001
 21
1197.5900999999999
  0
LINE
  8
_0-0_1
  6
CONTINUOUS
 62
    5
 10
1596.7669000000001
 20
1197.5900999999999
 11
1600.3735999999999
 21
1199.0020999999999
  0
LINE
  8
_0-0_1
  6
CONTINUOUS
 62
    5
 10
1600.3735999999999
 20
1199.0020999999999
 11
1602.4771000000001
 21
1199.8357000000001
  0
LINE
  8
_0-0_1
  6
CONTINUOUS
 62
    5
 10
1602.4771000000001
 20
1199.8357000000001
 11
1604.5565000000001
 21
1200.6646000000001
  0
LINE
  8
_0-0_1
  6
CONTINUOUS
 62
    5
 10
1604.5565000000001
 20
1200.6646000000001
 11
1608.163
 21
1202.066
  0
LINE
  8
_0-0_1
  6
CONTINUOUS
 62
    5
 10
1608.163
 20
1202.066
 11
1611.7957000000001
 21
1203.3487
  0
LINE
  8
_0-0_1
  6
CONTINUOUS
 62
    5
 10
1611.7957000000001
 20
1203.3487
 11
1615.4537
 21
1204.4154000000001
  0
LINE
  8
_0-0_1
  6
CONTINUOUS
 62
    5
 10
1615.4537
 20
1204.4154000000001
 11
1619.1358
 21
1205.1686
  0
LINE
  8
_0-0_1
  6
CONTINUOUS
 62
    5
 10
1619.1358
 20
1205.1686
 11
1622.8411000000001
 21
1205.5110999999999
  0
LINE
  8
_0-0_1
  6
CONTINUOUS
 62
    5
 10
1622.8411000000001
 20
1205.5110999999999
 11
1625.0003999999999
 21
1205.4831999999999
  0
LINE
  8
_0-0_1
  6
CONTINUOUS
 62
    5
 10
1625.0003999999999
 20
1205.4831999999999
 11
1625.8494999999998
 21
1205.4218000000001
  0
LINE
  8
_0-0_1
  6
CONTINUOUS
 62
    5
 10
1625.8494999999998
 20
1205.4218000000001
 11
1627.3139000000001
 21
1205.2511999999999
  0
LINE
  8
_0-0_1
  6
CONTINUOUS
 62
    5
 10
1627.3139000000001
 20
1205.2511999999999
 11
1628.7750000000001
 21
1205.0045
  0
LINE
  8
_0-0_1
  6
CONTINUOUS
 62
    5
 10
1628.7750000000001
 20
1205.0045
 11
1630.2285999999999
 21
1204.6885
  0
LINE
  8
_0-0_1
  6
CONTINUOUS
 62
    5
 10
1630.2285999999999
 20
1204.6885
 11
1631.6707999999999
 21
1204.3099999999999
  0
LINE
  8
_0-0_1
  6
CONTINUOUS
 62
    5
 10
1631.6707999999999
 20
1204.3099999999999
 11
1633.0972000000002
 21
1203.8759
  0
LINE
  8
_0-0_1
  6
CONTINUOUS
 62
    5
 10
1633.0972000000002
 20
1203.8759
 11
1633.9157
 21
1203.6013
  0
LINE
  8
_0-0_1
  6
CONTINUOUS
 62
    5
 10
1633.9157
 20
1203.6013
 11
1636.4139
 21
1202.653
  0
LINE
  8
_0-0_1
  6
CONTINUOUS
 62
    5
 10
1636.4139
 20
1202.653
 11
1640.5727999999999
 21
1200.7194999999999
  0
LINE
  8
_0-0_1
  6
CONTINUOUS
 62
    5
 10
1640.5727999999999
 20
1200.7194999999999
 11
1644.5767000000001
 21
1198.4740999999999
  0
LINE
  8
_0-0_1
  6
CONTINUOUS
 62
    5
 10
1644.5767000000001
 20
1198.4740999999999
 11
1648.4634999999998
 21
1195.9938
  0
LINE
  8
_0-0_1
  6
CONTINUOUS
 62
    5
 10
1648.4634999999998
 20
1195.9938
 11
1652.2714999999998
 21
1193.3557000000001
  0
LINE
  8
_0-0_1
  6
CONTINUOUS
 62
    5
 10
1652.2714999999998
 20
1193.3557000000001
 11
1656.0387999999998
 21
1190.6366
  0
LINE
  8
_0-0_1
  6
CONTINUOUS
 62
    5
 10
1656.0387999999998
 20
1190.6366
 11
1658.2201
 21
1189.0527999999999
  0
LINE
  8
_0-0_1
  6
CONTINUOUS
 62
    5
 10
1658.2201
 20
1189.0527999999999
 11
1661.5517
 21
1186.6659999999999
  0
LINE
  8
_0-0_1
  6
CONTINUOUS
 62
    5
 10
1661.5517
 20
1186.6659999999999
 11
1667.3438999999998
 21
1182.6489999999999
  0
LINE
  8
_0-0_1
  6
CONTINUOUS
 62
    5
 10
1667.3438999999998
 20
1182.6489999999999
 11
1673.2161000000001
 21
1178.7924
  0
LINE
  8
_0-0_1
  6
CONTINUOUS
 62
    5
 10
1673.2161000000001
 20
1178.7924
 11
1679.1902
 21
1175.1378999999999
  0
LINE
  8
_0-0_1
  6
CONTINUOUS
 62
    5
 10
1679.1902
 20
1175.1378999999999
 11
1685.2883999999999
 21
1171.7274
  0
LINE
  8
_0-0_1
  6
CONTINUOUS
 62
    5
 10
1685.2883999999999
 20
1171.7274
 11
1691.5327000000002
 21
1168.6025999999999
  0
LINE
  8
_0-0_1
  6
CONTINUOUS
 62
    5
 10
1691.5327000000002
 20
1168.6025999999999
 11
1695.23
 21
1166.9376
  0
LINE
  8
_0-0_1
  6
CONTINUOUS
 62
    5
 10
1695.23
 20
1166.9376
 11
1698.2892000000002
 21
1165.6665
  0
LINE
  8
_0-0_1
  6
CONTINUOUS
 62
    5
 10
1698.2892000000002
 20
1165.6665
 11
1703.6498000000001
 21
1163.6642999999999
  0
LINE
  8
_0-0_1
  6
CONTINUOUS
 62
    5
 10
1703.6498000000001
 20
1163.6642999999999
 11
1709.1055000000001
 21
1161.9087999999999
  0
LINE
  8
_0-0_1
  6
CONTINUOUS
 62
    5
 10
1709.1055000000001
 20
1161.9087999999999
 11
1714.6404000000002
 21
1160.4081000000001
  0
LINE
  8
_0-0_1
  6
CONTINUOUS
 62
    5
 10
1714.6404000000002
 20
1160.4081000000001
 11
1720.2386999999999
 21
1159.1701
  0
LINE
  8
_0-0_1
  6
CONTINUOUS
 62
    5
 10
1720.2386999999999
 20
1159.1701
 11
1725.8845000000001
 21
1158.2029
  0
LINE
  8
_0-0_1
  6
CONTINUOUS
 62
    5
 10
1725.8845000000001
 20
1158.2029
 11
1729.1743999999999
 21
1157.7691
  0
LINE
  8
_0-0_1
  6
CONTINUOUS
 62
    5
 10
1729.1743999999999
 20
1157.7691
 11
1731.6936999999998
 21
1157.5012999999999
  0
LINE
  8
_0-0_1
  6
CONTINUOUS
 62
    5
 10
1731.6936999999998
 20
1157.5012999999999
 11
1736.0457999999999
 21
1157.1612
  0
LINE
  8
_0-0_1
  6
CONTINUOUS
 62
    5
 10
1736.0457999999999
 20
1157.1612
 11
1740.4059999999999
 21
1156.9618
  0
LINE
  8
_0-0_1
  6
CONTINUOUS
 62
    5
 10
1740.4059999999999
 20
1156.9618
 11
1744.7712000000001
 21
1156.8871999999999
  0
LINE
  8
_0-0_1
  6
CONTINUOUS
 62
    5
 10
1744.7712000000001
 20
1156.8871999999999
 11
1749.1383000000001
 21
1156.9214999999999
  0
LINE
  8
_0-0_1
  6
CONTINUOUS
 62
    5
 10
1749.1383000000001
 20
1156.9214999999999
 11
1753.5043000000001
 21
1157.0491
  0
LINE
  8
_0-0_1
  6
CONTINUOUS
 62
    5
 10
1753.5043000000001
 20
1157.0491
 11
1756.0347000000002
 21
1157.1596
  0
LINE
  8
_0-0_1
  6
CONTINUOUS
 62
    5
 10
1756.0347000000002
 20
1157.1596
 11
1760.7638000000002
 21
1157.4277999999999
  0
LINE
  8
_0-0_1
  6
CONTINUOUS
 62
    5
 10
1760.7638000000002
 20
1157.4277999999999
 11
1768.902
 21
1158.0588
  0
LINE
  8
_0-0_1
  6
CONTINUOUS
 62
    5
 10
1768.902
 20
1158.0588
 11
1777.0227
 21
1158.8725999999999
  0
LINE
  8
_0-0_1
  6
CONTINUOUS
 62
    5
 10
1777.0227
 20
1158.8725999999999
 11
1785.1286
 21
1159.8339000000001
  0
LINE
  8
_0-0_1
  6
CONTINUOUS
 62
    5
 10
1785.1286
 20
1159.8339000000001
 11
1793.2220000000002
 21
1160.9070999999999
  0
LINE
  8
_0-0_1
  6
CONTINUOUS
 62
    5
 10
1793.2220000000002
 20
1160.9070999999999
 11
1801.3056000000001
 21
1162.0567000000001
  0
LINE
  8
_0-0_1
  6
CONTINUOUS
 62
    5
 10
1801.3056000000001
 20
1162.0567000000001
 11
1805.9904999999999
 21
1162.7444
  0
LINE
  8
_0-0_1
  6
CONTINUOUS
 62
    5
 10
1805.9904999999999
 20
1162.7444
 11
1808.4254000000001
 21
1163.1052999999999
  0
LINE
  8
_0-0_1
  6
CONTINUOUS
 62
    5
 10
1808.4254000000001
 20
1163.1052999999999
 11
1812.6223
 21
1163.7312999999999
  0
LINE
  8
_0-0_1
  6
CONTINUOUS
 62
    5
 10
1812.6223
 20
1163.7312999999999
 11
1816.8181
 21
1164.3614
  0
LINE
  8
_0-0_1
  6
CONTINUOUS
 62
    5
 10
1816.8181
 20
1164.3614
 11
1821.0129999999999
 21
1164.9947
  0
LINE
  8
_0-0_1
  6
CONTINUOUS
 62
    5
 10
1821.0129999999999
 20
1164.9947
 11
1825.2071000000001
 21
1165.6303
  0
LINE
  8
_0-0_1
  6
CONTINUOUS
 62
    5
 10
1825.2071000000001
 20
1165.6303
 11
1829.4009000000001
 21
1166.2673
  0
LINE
  8
_0-0_1
  6
CONTINUOUS
 62
    5
 10
1829.4009000000001
 20
1166.2673
 11
1831.8332
 21
1166.6369999999999
  0
LINE
  8
_0-0_1
  6
CONTINUOUS
 62
    5
 10
1586.7963
 20
1174.5334
 11
1588.8582000000001
 21
1175.3103000000001
  0
LINE
  8
_0-0_1
  6
CONTINUOUS
 62
    5
 10
1588.8582000000001
 20
1175.3103000000001
 11
1592.4258
 21
1176.6568
  0
LINE
  8
_0-0_1
  6
CONTINUOUS
 62
    5
 10
1592.4258
 20
1176.6568
 11
1596.0176999999999
 21
1178.019
  0
LINE
  8
_0-0_1
  6
CONTINUOUS
 62
    5
 10
1596.0176999999999
 20
1178.019
 11
1599.6381000000001
 21
1179.4028000000001
  0
LINE
  8
_0-0_1
  6
CONTINUOUS
 62
    5
 10
1599.6381000000001
 20
1179.4028000000001
 11
1603.2910999999999
 21
1180.8140000000001
  0
LINE
  8
_0-0_1
  6
CONTINUOUS
 62
    5
 10
1603.2910999999999
 20
1180.8140000000001
 11
1606.9702000000002
 21
1182.2544
  0
LINE
  8
_0-0_1
  6
CONTINUOUS
 62
    5
 10
1606.9702000000002
 20
1182.2544
 11
1609.1253999999999
 21
1183.1084000000001
  0
LINE
  8
_0-0_1
  6
CONTINUOUS
 62
    5
 10
1609.1253999999999
 20
1183.1084000000001
 11
1611.1489999999999
 21
1183.9150999999999
  0
LINE
  8
_0-0_1
  6
CONTINUOUS
 62
    5
 10
1611.1489999999999
 20
1183.9150999999999
 11
1614.4209000000001
 21
1185.1865
  0
LINE
  8
_0-0_1
  6
CONTINUOUS
 62
    5
 10
1614.4209000000001
 20
1185.1865
 11
1617.3159999999998
 21
1186.2088000000001
  0
LINE
  8
_0-0_1
  6
CONTINUOUS
 62
    5
 10
1617.3159999999998
 20
1186.2088000000001
 11
1619.7840999999999
 21
1186.9285
  0
LINE
  8
_0-0_1
  6
CONTINUOUS
 62
    5
 10
1619.7840999999999
 20
1186.9285
 11
1621.7759000000001
 21
1187.3359
  0
LINE
  8
_0-0_1
  6
CONTINUOUS
 62
    5
 10
1621.7759000000001
 20
1187.3359
 11
1623.5551999999998
 21
1187.5003999999999
  0
LINE
  8
_0-0_1
  6
CONTINUOUS
 62
    5
 10
1623.5551999999998
 20
1187.5003999999999
 11
1624.2347
 21
1187.4916000000001
  0
LINE
  8
_0-0_1
  6
CONTINUOUS
 62
    5
 10
1624.2347
 20
1187.4916000000001
 11
1624.1586000000002
 21
1187.4971
  0
LINE
  8
_0-0_1
  6
CONTINUOUS
 62
    5
 10
1624.1586000000002
 20
1187.4971
 11
1624.7723000000001
 21
1187.4256
  0
LINE
  8
_0-0_1
  6
CONTINUOUS
 62
    5
 10
1624.7723000000001
 20
1187.4256
 11
1625.3627000000001
 21
1187.3259
  0
LINE
  8
_0-0_1
  6
CONTINUOUS
 62
    5
 10
1625.3627000000001
 20
1187.3259
 11
1626.0300999999999
 21
1187.1808000000001
  0
LINE
  8
_0-0_1
  6
CONTINUOUS
 62
    5
 10
1626.0300999999999
 20
1187.1808000000001
 11
1626.7636000000002
 21
1186.9883
  0
LINE
  8
_0-0_1
  6
CONTINUOUS
 62
    5
 10
1626.7636000000002
 20
1186.9883
 11
1627.6127999999999
 21
1186.7298000000001
  0
LINE
  8
_0-0_1
  6
CONTINUOUS
 62
    5
 10
1627.6127999999999
 20
1186.7298000000001
 11
1627.8569000000002
 21
1186.6478999999999
  0
LINE
  8
_0-0_1
  6
CONTINUOUS
 62
    5
 10
1627.8569000000002
 20
1186.6478999999999
 11
1629.4168
 21
1186.0559000000001
  0
LINE
  8
_0-0_1
  6
CONTINUOUS
 62
    5
 10
1629.4168
 20
1186.0559000000001
 11
1632.3645000000001
 21
1184.6854000000001
  0
LINE
  8
_0-0_1
  6
CONTINUOUS
 62
    5
 10
1632.3645000000001
 20
1184.6854000000001
 11
1635.3256000000001
 21
1183.0247999999999
  0
LINE
  8
_0-0_1
  6
CONTINUOUS
 62
    5
 10
1635.3256000000001
 20
1183.0247999999999
 11
1638.4933000000001
 21
1181.0035
  0
LINE
  8
_0-0_1
  6
CONTINUOUS
 62
    5
 10
1638.4933000000001
 20
1181.0035
 11
1641.8780000000002
 21
1178.6586
  0
LINE
  8
_0-0_1
  6
CONTINUOUS
 62
    5
 10
1641.8780000000002
 20
1178.6586
 11
1645.4837000000002
 21
1176.0561
  0
LINE
  8
_0-0_1
  6
CONTINUOUS
 62
    5
 10
1645.4837000000002
 20
1176.0561
 11
1647.6907000000001
 21
1174.4537
  0
LINE
  8
_0-0_1
  6
CONTINUOUS
 62
    5
 10
1647.6907000000001
 20
1174.4537
 11
1651.1806999999999
 21
1171.9532999999999
  0
LINE
  8
_0-0_1
  6
CONTINUOUS
 62
    5
 10
1651.1806999999999
 20
1171.9532999999999
 11
1657.2728000000002
 21
1167.7284
  0
LINE
  8
_0-0_1
  6
CONTINUOUS
 62
    5
 10
1657.2728000000002
 20
1167.7284
 11
1663.5765999999999
 21
1163.5882999999999
  0
LINE
  8
_0-0_1
  6
CONTINUOUS
 62
    5
 10
1663.5765999999999
 20
1163.5882999999999
 11
1670.0972999999999
 21
1159.5995
  0
LINE
  8
_0-0_1
  6
CONTINUOUS
 62
    5
 10
1670.0972999999999
 20
1159.5995
 11
1676.8631999999998
 21
1155.8154999999999
  0
LINE
  8
_0-0_1
  6
CONTINUOUS
 62
    5
 10
1676.8631999999998
 20
1155.8154999999999
 11
1683.8063000000002
 21
1152.3409999999999
  0
LINE
  8
_0-0_1
  6
CONTINUOUS
 62
    5
 10
1683.8063000000002
 20
1152.3409999999999
 11
1688.0796999999998
 21
1150.4166
  0
LINE
  8
_0-0_1
  6
CONTINUOUS
 62
    5
 10
1688.0796999999998
 20
1150.4166
 11
1691.6848
 21
1148.9186999999999
  0
LINE
  8
_0-0_1
  6
CONTINUOUS
 62
    5
 10
1691.6848
 20
1148.9186999999999
 11
1697.7408999999998
 21
1146.6568
  0
LINE
  8
_0-0_1
  6
CONTINUOUS
 62
    5
 10
1697.7408999999998
 20
1146.6568
 11
1703.9906999999998
 21
1144.6457
  0
LINE
  8
_0-0_1
  6
CONTINUOUS
 62
    5
 10
1703.9906999999998
 20
1144.6457
 11
1710.3395
 21
1142.9242999999999
  0
LINE
  8
_0-0_1
  6
CONTINUOUS
 62
    5
 10
1710.3395
 20
1142.9242999999999
 11
1716.7737000000002
 21
1141.5015000000001
  0
LINE
  8
_0-0_1
  6
CONTINUOUS
 62
    5
 10
1716.7737000000002
 20
1141.5015000000001
 11
1723.1873999999998
 21
1140.4027000000001
  0
LINE
  8
_0-0_1
  6
CONTINUOUS
 62
    5
 10
1723.1873999999998
 20
1140.4027000000001
 11
1727.0462000000002
 21
1139.8939
  0
LINE
  8
_0-0_1
  6
CONTINUOUS
 62
    5
 10
1727.0462000000002
 20
1139.8939
 11
1730.0408000000002
 21
1139.5755999999999
  0
LINE
  8
_0-0_1
  6
CONTINUOUS
 62
    5
 10
1730.0408000000002
 20
1139.5755999999999
 11
1734.9333000000001
 21
1139.1932999999999
  0
LINE
  8
_0-0_1
  6
CONTINUOUS
 62
    5
 10
1734.9333000000001
 20
1139.1932999999999
 11
1739.8407999999999
 21
1138.9688000000001
  0
LINE
  8
_0-0_1
  6
CONTINUOUS
 62
    5
 10
1739.8407999999999
 20
1138.9688000000001
 11
1744.6882000000001
 21
1138.8859
  0
LINE
  8
_0-0_1
  6
CONTINUOUS
 62
    5
 10
1744.6882000000001
 20
1138.8859
 11
1749.4721
 21
1138.9236000000001
  0
LINE
  8
_0-0_1
  6
CONTINUOUS
 62
    5
 10
1749.4721
 20
1138.9236000000001
 11
1754.1597000000002
 21
1139.0606
  0
LINE
  8
_0-0_1
  6
CONTINUOUS
 62
    5
 10
1754.1597000000002
 20
1139.0606
 11
1756.9369000000002
 21
1139.1818000000001
  0
LINE
  8
_0-0_1
  6
CONTINUOUS
 62
    5
 10
1756.9369000000002
 20
1139.1818000000001
 11
1761.9692
 21
1139.4672
  0
LINE
  8
_0-0_1
  6
CONTINUOUS
 62
    5
 10
1761.9692
 20
1139.4672
 11
1770.4953999999998
 21
1140.1283000000001
  0
LINE
  8
_0-0_1
  6
CONTINUOUS
 62
    5
 10
1770.4953999999998
 20
1140.1283000000001
 11
1778.9803000000002
 21
1140.9786999999999
  0
LINE
  8
_0-0_1
  6
CONTINUOUS
 62
    5
 10
1778.9803000000002
 20
1140.9786999999999
 11
1787.3715999999999
 21
1141.9738
  0
LINE
  8
_0-0_1
  6
CONTINUOUS
 62
    5
 10
1787.3715999999999
 20
1141.9738
 11
1795.6723000000002
 21
1143.0744
  0
LINE
  8
_0-0_1
  6
CONTINUOUS
 62
    5
 10
1795.6723000000002
 20
1143.0744
 11
1803.8800000000001
 21
1144.2417
  0
LINE
  8
_0-0_1
  6
CONTINUOUS
 62
    5
 10
1803.8800000000001
 20
1144.2417
 11
1808.6172000000001
 21
1144.9371000000001
  0
LINE
  8
_0-0_1
  6
CONTINUOUS
 62
    5
 10
1808.6172000000001
 20
1144.9371000000001
 11
1811.0725000000002
 21
1145.3009999999999
  0
LINE
  8
_0-0_1
  6
CONTINUOUS
 62
    5
 10
1811.0725000000002
 20
1145.3009999999999
 11
1815.2865999999999
 21
1145.9295999999999
  0
LINE
  8
_0-0_1
  6
CONTINUOUS
 62
    5
 10
1815.2865999999999
 20
1145.9295999999999
 11
1819.4982
 21
1146.5619999999999
  0
LINE
  8
_0-0_1
  6
CONTINUOUS
 62
    5
 10
1819.4982
 20
1146.5619999999999
 11
1823.7049000000002
 21
1147.1971000000001
  0
LINE
  8
_0-0_1
  6
CONTINUOUS
 62
    5
 10
1823.7049000000002
 20
1147.1971000000001
 11
1827.9070999999999
 21
1147.8339000000001
  0
LINE
  8
_0-0_1
  6
CONTINUOUS
 62
    5
 10
1827.9070999999999
 20
1147.8339000000001
 11
1832.105
 21
1148.4715000000001
  0
LINE
  8
_0-0_1
  6
CONTINUOUS
 62
    5
 10
1832.105
 20
1148.4715000000001
 11
1833.7226999999998
 21
1148.7175
  0
LINE
  8
_0-0_1
  6
CONTINUOUS
 62
    5
 10
1581.2674999999999
 20
1191.6835000000001
 11
1581.6934999999999
 21
1191.8466000000001
  0
ARC
  8
_0-0_1
  6
CONTINUOUS
 62
    5
 10
1582.3400999999999
 20
1188.8818000000001
 40
3
 50
110.94902000000002
 51
178.70000000000002
  0
LINE
  8
_0-0_1
  6
CONTINUOUS
 62
    5
 10
1579.2314999999999
 20
1173.1107999999999
 11
1579.2314999999999
 21
1188.8333
  0
LINE
  8
_0-0_1
  6
CONTINUOUS
 62
    5
 10
1580.5855000000001
 20
1172.1755000000001
 11
1586.7602999999999
 21
1174.5127
  0
ARC
  8
_0-0_1
  6
CONTINUOUS
 62
    5
 10
1580.2314999999999
 20
1173.1107999999999
 40
1
 50
180
 51
290.73165999999998
  0
LINE
  8
_0-0_1
  6
CONTINUOUS
 62
    5
 10
1844.2314999999999
 20
1151.7886000000001
 11
1844.2314999999999
 21
1168.9860000000001
  0
LINE
  8
_0-0_1
  6
CONTINUOUS
 62
    5
 10
1831.9580999999998
 20
1166.6723999999999
 11
1876.4124000000002
 21
1176.3203000000001
  0
LINE
  8
_0-0_1
  6
CONTINUOUS
 62
    5
 10
1838.7033000000001
 20
1146.8387
 11
1877.3751000000002
 21
1155.8886
  0
LINE
  8
_0-0_1
  6
CONTINUOUS
 62
    5
 10
1877.3751000000002
 20
1156.8451
 11
1877.3751000000002
 21
1155.8886
  0
ARC
  8
_0-0_1
  6
CONTINUOUS
 62
    5
 10
1878.3751000000002
 20
1156.8451
 40
1
 50
102.72435
 51
180
  0
LINE
  8
_0-0_1
  6
CONTINUOUS
 62
    5
 10
1883.1921000000002
 20
1158.9580000000001
 11
1878.1547999999998
 21
1157.8206
  0
ARC
  8
_0-0_1
  6
CONTINUOUS
 62
    5
 10
1883.4124000000002
 20
1157.9826
 40
1
 50
0
 51
102.72435
  0
LINE
  8
_0-0_1
  6
CONTINUOUS
 62
    5
 10
1883.6244999999999
 20
1159.4665
 11
1833.4904999999999
 21
1148.5859
  0
ARC
  8
_0-0_1
  6
CONTINUOUS
 62
    5
 10
1883.4124000000002
 20
1160.4437
 40
1
 50
282.24497000000002
 51
0
  0
LINE
  8
_0-0_1
  6
CONTINUOUS
 62
    5
 10
1883.6302000000001
 20
1138.7257
 11
1834.0463
 21
1127.6578999999999
  0
LINE
  8
_0-0_1
  6
CONTINUOUS
 62
    5
 10
1884.4124000000002
 20
1139.7017000000001
 11
1884.4124000000002
 21
1157.9826
  0
ARC
  8
_0-0_1
  6
CONTINUOUS
 62
    5
 10
1883.4124000000002
 20
1139.7017000000001
 40
1
 50
282.58296000000001
 51
0.0000000000000254
  0
LINE
  8
_0-0_1
  6
CONTINUOUS
 62
    5
 10
1876.4124000000002
 20
1177.7773
 11
1876.4124000000002
 21
1176.3203000000001
  0
ARC
  8
_0-0_1
  6
CONTINUOUS
 62
    5
 10
1877.4124000000002
 20
1177.7773
 40
1
 50
101.73308
 51
180
  0
LINE
  8
_0-0_1
  6
CONTINUOUS
 62
    5
 10
1883.2089999999998
 20
1180.0026
 11
1877.2089999999998
 21
1178.7564
  0
LINE
  8
_0-0_1
  6
CONTINUOUS
 62
    5
 10
1884.4124000000002
 20
1179.0235
 11
1884.4124000000002
 21
1160.4437
  0
ARC
  8
_0-0_1
  6
CONTINUOUS
 62
    5
 10
1883.4124000000002
 20
1179.0235
 40
1
 50
0
 51
101.73308
  0
LINE
  8
_0-0_1
  6
CONTINUOUS
 62
    5
 10
1439.6453000000001
 20
1108.7557999999999
 11
1431.1098999999999
 21
1123.2891
  0
LINE
  8
_0-0_1
  6
CONTINUOUS
 62
    5
 10
1447.8132000000001
 20
1108.1054999999999
 11
1456.1194
 21
1118.171
  0
ARC
  8
_0-0_1
  6
CONTINUOUS
 62
    5
 10
1443.9567999999999
 20
1111.2879
 40
5
 50
210.42578
 51
320.47001
  0
LINE
  8
_0-0_1
  6
CONTINUOUS
 62
    5
 10
1523.7588000000001
 20
1107.6356000000001
 11
1516.4333999999999
 21
1118.9417000000001
  0
LINE
  8
_0-0_1
  6
CONTINUOUS
 62
    5
 10
1532.2683999999999
 20
1107.8254999999999
 11
1541.2067999999999
 21
1123.0712000000001
  0
ARC
  8
_0-0_1
  6
CONTINUOUS
 62
    5
 10
1527.9549999999999
 20
1110.3543999999999
 40
5
 50
212.93986000000001
 51
329.61716000000001
  0
LINE
  8
_0-0_1
  6
CONTINUOUS
 62
    5
 10
1571.5504000000001
 20
1147.3832
 11
1573.9785000000002
 21
1147.787
  0
LINE
  8
_0-0_1
  6
CONTINUOUS
 62
    5
 10
1567.3613999999998
 20
1146.6868999999999
 11
1571.5504000000001
 21
1147.3832
  0
LINE
  8
_0-0_1
  6
CONTINUOUS
 62
    5
 10
1563.1676000000002
 20
1145.9912999999999
 11
1567.3613999999998
 21
1146.6868999999999
  0
LINE
  8
_0-0_1
  6
CONTINUOUS
 62
    5
 10
1558.9688000000001
 20
1145.2973999999999
 11
1563.1676000000002
 21
1145.9912999999999
  0
LINE
  8
_0-0_1
  6
CONTINUOUS
 62
    5
 10
1554.7647000000002
 20
1144.6059
 11
1558.9688000000001
 21
1145.2973999999999
  0
LINE
  8
_0-0_1
  6
CONTINUOUS
 62
    5
 10
1550.5578999999998
 20
1143.9182000000001
 11
1554.7647000000002
 21
1144.6059
  0
LINE
  8
_0-0_1
  6
CONTINUOUS
 62
    5
 10
1548.1055999999999
 20
1143.5197000000001
 11
1550.5578999999998
 21
1143.9182000000001
  0
LINE
  8
_0-0_1
  6
CONTINUOUS
 62
    5
 10
1543.3728000000001
 20
1142.7573
 11
1548.1055999999999
 21
1143.5197000000001
  0
LINE
  8
_0-0_1
  6
CONTINUOUS
 62
    5
 10
1535.1684
 20
1141.4734000000001
 11
1543.3728000000001
 21
1142.7573
  0
LINE
  8
_0-0_1
  6
CONTINUOUS
 62
    5
 10
1526.8609000000001
 20
1140.2536
 11
1535.1684
 21
1141.4734000000001
  0
LINE
  8
_0-0_1
  6
CONTINUOUS
 62
    5
 10
1518.4526999999998
 20
1139.1371999999999
 11
1526.8609000000001
 21
1140.2536
  0
LINE
  8
_0-0_1
  6
CONTINUOUS
 62
    5
 10
1509.9400999999998
 20
1138.1638
 11
1518.4526999999998
 21
1139.1371999999999
  0
LINE
  8
_0-0_1
  6
CONTINUOUS
 62
    5
 10
1501.3809000000001
 20
1137.3797999999999
 11
1509.9400999999998
 21
1138.1638
  0
LINE
  8
_0-0_1
  6
CONTINUOUS
 62
    5
 10
1496.3193999999999
 20
1137.0218
 11
1501.3809000000001
 21
1137.3797999999999
  0
LINE
  8
_0-0_1
  6
CONTINUOUS
 62
    5
 10
1493.5167999999999
 20
1136.8602000000001
 11
1496.3193999999999
 21
1137.0218
  0
LINE
  8
_0-0_1
  6
CONTINUOUS
 62
    5
 10
1488.7957999999999
 20
1136.6563000000001
 11
1493.5167999999999
 21
1136.8602000000001
  0
LINE
  8
_0-0_1
  6
CONTINUOUS
 62
    5
 10
1483.9666000000002
 20
1136.5508
 11
1488.7957999999999
 21
1136.6563000000001
  0
LINE
  8
_0-0_1
  6
CONTINUOUS
 62
    5
 10
1479.0648999999999
 20
1136.5662
 11
1483.9666000000002
 21
1136.5508
  0
LINE
  8
_0-0_1
  6
CONTINUOUS
 62
    5
 10
1474.0938999999998
 20
1136.7240999999999
 11
1479.0648999999999
 21
1136.5662
  0
LINE
  8
_0-0_1
  6
CONTINUOUS
 62
    5
 10
1469.1365000000001
 20
1137.0418
 11
1474.0938999999998
 21
1136.7240999999999
  0
LINE
  8
_0-0_1
  6
CONTINUOUS
 62
    5
 10
1466.0848999999998
 20
1137.3232
 11
1469.1365000000001
 21
1137.0418
  0
LINE
  8
_0-0_1
  6
CONTINUOUS
 62
    5
 10
1462.1559999999999
 20
1137.7855
 11
1466.0848999999998
 21
1137.3232
  0
LINE
  8
_0-0_1
  6
CONTINUOUS
 62
    5
 10
1455.6421
 20
1138.808
 11
1462.1559999999999
 21
1137.7855
  0
LINE
  8
_0-0_1
  6
CONTINUOUS
 62
    5
 10
1449.0954000000002
 20
1140.1602
 11
1455.6421
 21
1138.808
  0
LINE
  8
_0-0_1
  6
CONTINUOUS
 62
    5
 10
1442.6325000000002
 20
1141.816
 11
1449.0954000000002
 21
1140.1602
  0
LINE
  8
_0-0_1
  6
CONTINUOUS
 62
    5
 10
1436.2665999999999
 20
1143.7666999999999
 11
1442.6325000000002
 21
1141.816
  0
LINE
  8
_0-0_1
  6
CONTINUOUS
 62
    5
 10
1430.1017999999999
 20
1145.9717000000001
 11
1436.2665999999999
 21
1143.7666999999999
  0
LINE
  8
_0-0_1
  6
CONTINUOUS
 62
    5
 10
1426.4151999999999
 20
1147.4435000000001
 11
1430.1017999999999
 21
1145.9717000000001
  0
LINE
  8
_0-0_1
  6
CONTINUOUS
 62
    5
 10
1422.0508999999997
 20
1149.336
 11
1426.4151999999999
 21
1147.4435000000001
  0
LINE
  8
_0-0_1
  6
CONTINUOUS
 62
    5
 10
1414.9818
 20
1152.751
 11
1422.0508999999997
 21
1149.336
  0
LINE
  8
_0-0_1
  6
CONTINUOUS
 62
    5
 10
1408.0889
 20
1156.4806000000001
 11
1414.9818
 21
1152.751
  0
LINE
  8
_0-0_1
  6
CONTINUOUS
 62
    5
 10
1401.4519
 20
1160.4141999999999
 11
1408.0889
 21
1156.4806000000001
  0
LINE
  8
_0-0_1
  6
CONTINUOUS
 62
    5
 10
1395.0425999999998
 20
1164.4966999999999
 11
1401.4519
 21
1160.4141999999999
  0
LINE
  8
_0-0_1
  6
CONTINUOUS
 62
    5
 10
1388.8584000000001
 20
1168.6587999999999
 11
1395.0425999999998
 21
1164.4966999999999
  0
LINE
  8
_0-0_1
  6
CONTINUOUS
 62
    5
 10
1385.3161
 20
1171.1224999999999
 11
1388.8584000000001
 21
1168.6587999999999
  0
LINE
  8
_0-0_1
  6
CONTINUOUS
 62
    5
 10
1383.0841
 20
1172.6959999999999
 11
1385.3161
 21
1171.1224999999999
  0
LINE
  8
_0-0_1
  6
CONTINUOUS
 62
    5
 10
1379.4604999999999
 20
1175.2352000000001
 11
1383.0841
 21
1172.6959999999999
  0
LINE
  8
_0-0_1
  6
CONTINUOUS
 62
    5
 10
1376.0907999999999
 20
1177.5007000000001
 11
1379.4604999999999
 21
1175.2352000000001
  0
LINE
  8
_0-0_1
  6
CONTINUOUS
 62
    5
 10
1372.9757999999997
 20
1179.4277999999999
 11
1376.0907999999999
 21
1177.5007000000001
  0
LINE
  8
_0-0_1
  6
CONTINUOUS
 62
    5
 10
1370.1086
 20
1180.9835
 11
1372.9757999999997
 21
1179.4277999999999
  0
LINE
  8
_0-0_1
  6
CONTINUOUS
 62
    5
 10
1367.2774999999999
 20
1182.252
 11
1370.1086
 21
1180.9835
  0
LINE
  8
_0-0_1
  6
CONTINUOUS
 62
    5
 10
1365.8143
 20
1182.7841000000001
 11
1367.2774999999999
 21
1182.252
  0
LINE
  8
_0-0_1
  6
CONTINUOUS
 62
    5
 10
1365.6332
 20
1182.8420000000001
 11
1365.8143
 21
1182.7841000000001
  0
LINE
  8
_0-0_1
  6
CONTINUOUS
 62
    5
 10
1364.8449000000001
 20
1183.0699999999999
 11
1365.6332
 21
1182.8420000000001
  0
LINE
  8
_0-0_1
  6
CONTINUOUS
 62
    5
 10
1364.1877999999999
 20
1183.2327
 11
1364.8449000000001
 21
1183.0699999999999
  0
LINE
  8
_0-0_1
  6
CONTINUOUS
 62
    5
 10
1363.606
 20
1183.3507
 11
1364.1877999999999
 21
1183.2327
  0
LINE
  8
_0-0_1
  6
CONTINUOUS
 62
    5
 10
1363.5659000000001
 20
1183.3569
 11
1363.606
 21
1183.3507
  0
LINE
  8
_0-0_1
  6
CONTINUOUS
 62
    5
 10
1567.5398
 20
1128.1957
 11
1569.1538999999998
 21
1128.4641999999999
  0
LINE
  8
_0-0_1
  6
CONTINUOUS
 62
    5
 10
1563.3512000000001
 20
1127.4994999999999
 11
1567.5398
 21
1128.1957
  0
LINE
  8
_0-0_1
  6
CONTINUOUS
 62
    5
 10
1559.1583000000001
 20
1126.8041000000001
 11
1563.3512000000001
 21
1127.4994999999999
  0
LINE
  8
_0-0_1
  6
CONTINUOUS
 62
    5
 10
1554.9607999999998
 20
1126.1103000000001
 11
1559.1583000000001
 21
1126.8041000000001
  0
LINE
  8
_0-0_1
  6
CONTINUOUS
 62
    5
 10
1550.7584999999999
 20
1125.4191000000001
 11
1554.9607999999998
 21
1126.1103000000001
  0
LINE
  8
_0-0_1
  6
CONTINUOUS
 62
    5
 10
1546.5536000000002
 20
1124.7318
 11
1550.7584999999999
 21
1125.4191000000001
  0
LINE
  8
_0-0_1
  6
CONTINUOUS
 62
    5
 10
1544.1035999999999
 20
1124.3336999999999
 11
1546.5536000000002
 21
1124.7318
  0
LINE
  8
_0-0_1
  6
CONTINUOUS
 62
    5
 10
1539.3766000000001
 20
1123.5721000000001
 11
1544.1035999999999
 21
1124.3336999999999
  0
LINE
  8
_0-0_1
  6
CONTINUOUS
 62
    5
 10
1531.1860000000001
 20
1122.2904000000001
 11
1539.3766000000001
 21
1123.5721000000001
  0
LINE
  8
_0-0_1
  6
CONTINUOUS
 62
    5
 10
1522.9014000000002
 20
1121.0740000000001
 11
1531.1860000000001
 21
1122.2904000000001
  0
LINE
  8
_0-0_1
  6
CONTINUOUS
 62
    5
 10
1514.5248000000001
 20
1119.9618
 11
1522.9014000000002
 21
1121.0740000000001
  0
LINE
  8
_0-0_1
  6
CONTINUOUS
 62
    5
 10
1506.0527000000002
 20
1118.9929999999999
 11
1514.5248000000001
 21
1119.9618
  0
LINE
  8
_0-0_1
  6
CONTINUOUS
 62
    5
 10
1497.5365999999999
 20
1118.213
 11
1506.0527000000002
 21
1118.9929999999999
  0
LINE
  8
_0-0_1
  6
CONTINUOUS
 62
    5
 10
1492.5086999999999
 20
1117.8574000000001
 11
1497.5365999999999
 21
1118.213
  0
LINE
  8
_0-0_1
  6
CONTINUOUS
 62
    5
 10
1489.7334999999998
 20
1117.6973
 11
1492.5086999999999
 21
1117.8574000000001
  0
LINE
  8
_0-0_1
  6
CONTINUOUS
 62
    5
 10
1485.0482000000002
 20
1117.4948999999999
 11
1489.7334999999998
 21
1117.6973
  0
LINE
  8
_0-0_1
  6
CONTINUOUS
 62
    5
 10
1480.2653
 20
1117.3905
 11
1485.0482000000002
 21
1117.4948999999999
  0
LINE
  8
_0-0_1
  6
CONTINUOUS
 62
    5
 10
1475.4171999999999
 20
1117.4057
 11
1480.2653
 21
1117.3905
  0
LINE
  8
_0-0_1
  6
CONTINUOUS
 62
    5
 10
1470.5070999999998
 20
1117.5616
 11
1475.4171999999999
 21
1117.4057
  0
LINE
  8
_0-0_1
  6
CONTINUOUS
 62
    5
 10
1465.6098000000002
 20
1117.8755000000001
 11
1470.5070999999998
 21
1117.5616
  0
LINE
  8
_0-0_1
  6
CONTINUOUS
 62
    5
 10
1462.6109999999999
 20
1118.1521
 11
1465.6098000000002
 21
1117.8755000000001
  0
LINE
  8
_0-0_1
  6
CONTINUOUS
 62
    5
 10
1458.7455
 20
1118.6069
 11
1462.6109999999999
 21
1118.1521
  0
LINE
  8
_0-0_1
  6
CONTINUOUS
 62
    5
 10
1452.317
 20
1119.616
 11
1458.7455
 21
1118.6069
  0
LINE
  8
_0-0_1
  6
CONTINUOUS
 62
    5
 10
1445.8636000000001
 20
1120.9489000000001
 11
1452.317
 21
1119.616
  0
LINE
  8
_0-0_1
  6
CONTINUOUS
 62
    5
 10
1439.4913999999999
 20
1122.5815
 11
1445.8636000000001
 21
1120.9489000000001
  0
LINE
  8
_0-0_1
  6
CONTINUOUS
 62
    5
 10
1433.2141000000001
 20
1124.5051000000001
 11
1439.4913999999999
 21
1122.5815
  0
LINE
  8
_0-0_1
  6
CONTINUOUS
 62
    5
 10
1427.127
 20
1126.6822
 11
1433.2141000000001
 21
1124.5051000000001
  0
LINE
  8
_0-0_1
  6
CONTINUOUS
 62
    5
 10
1423.5012999999999
 20
1128.1297
 11
1427.127
 21
1126.6822
  0
LINE
  8
_0-0_1
  6
CONTINUOUS
 62
    5
 10
1419.2014999999997
 20
1129.9942000000001
 11
1423.5012999999999
 21
1128.1297
  0
LINE
  8
_0-0_1
  6
CONTINUOUS
 62
    5
 10
1412.2106000000003
 20
1133.3714
 11
1419.2014999999997
 21
1129.9942000000001
  0
LINE
  8
_0-0_1
  6
CONTINUOUS
 62
    5
 10
1405.3924999999999
 20
1137.0606
 11
1412.2106000000003
 21
1133.3714
  0
LINE
  8
_0-0_1
  6
CONTINUOUS
 62
    5
 10
1398.8167000000001
 20
1140.9580000000001
 11
1405.3924999999999
 21
1137.0606
  0
LINE
  8
_0-0_1
  6
CONTINUOUS
 62
    5
 10
1392.4558
 20
1145.0096000000001
 11
1398.8167000000001
 21
1140.9580000000001
  0
LINE
  8
_0-0_1
  6
CONTINUOUS
 62
    5
 10
1386.3051999999998
 20
1149.1491000000001
 11
1392.4558
 21
1145.0096000000001
  0
LINE
  8
_0-0_1
  6
CONTINUOUS
 62
    5
 10
1382.7807000000003
 20
1151.6004
 11
1386.3051999999998
 21
1149.1491000000001
  0
LINE
  8
_0-0_1
  6
CONTINUOUS
 62
    5
 10
1380.5515
 20
1153.1719000000001
 11
1382.7807000000003
 21
1151.6004
  0
LINE
  8
_0-0_1
  6
CONTINUOUS
 62
    5
 10
1376.9097999999999
 20
1155.7238
 11
1380.5515
 21
1153.1719000000001
  0
LINE
  8
_0-0_1
  6
CONTINUOUS
 62
    5
 10
1373.4926999999998
 20
1158.0211999999999
 11
1376.9097999999999
 21
1155.7238
  0
LINE
  8
_0-0_1
  6
CONTINUOUS
 62
    5
 10
1370.2971
 20
1159.9981
 11
1373.4926999999998
 21
1158.0211999999999
  0
LINE
  8
_0-0_1
  6
CONTINUOUS
 62
    5
 10
1367.3131000000001
 20
1161.6171999999999
 11
1370.2971
 21
1159.9981
  0
LINE
  8
_0-0_1
  6
CONTINUOUS
 62
    5
 10
1364.3466000000001
 20
1162.9464
 11
1367.3131000000001
 21
1161.6171999999999
  0
LINE
  8
_0-0_1
  6
CONTINUOUS
 62
    5
 10
1363.5966000000003
 20
1163.2191
 11
1364.3466000000001
 21
1162.9464
  0
LINE
  8
_0-0_1
  6
CONTINUOUS
 62
    5
 10
1363.9296999999999
 20
1183.2621999999999
 11
1363.7536
 21
1163.0888
  0
LINE
  8
_0-0_1
  6
CONTINUOUS
 62
    5
 10
1564.2552999999998
 20
1117.7745
 11
1562.0099
 21
1126.3479
  0
ARC
  8
_0-0_1
  6
CONTINUOUS
 62
    5
 10
1567.1574000000001
 20
1118.5345
 40
3
 50
194.67639000000003
 51
270.00000000000006
  0
LINE
  8
_0-0_1
  6
CONTINUOUS
 62
    5
 10
1570.5999000000002
 20
1115.5301999999999
 11
1567.1821
 21
1115.5301999999999
  0
LINE
  8
_0-0_1
  6
CONTINUOUS
 62
    5
 10
1573.5590999999999
 20
1118.037
 11
1575.4931000000001
 21
1129.6412
  0
ARC
  8
_0-0_1
  6
CONTINUOUS
 62
    5
 10
1570.5999000000002
 20
1118.5301999999999
 40
3
 50
270
 51
350.53766999999999
  0
LINE
  8
_0-0_1
  6
CONTINUOUS
 62
    5
 10
1316.8335
 20
1192.6523999999999
 11
1317.6474000000003
 21
1192.9591
  0
LINE
  8
_0-0_1
  6
CONTINUOUS
 62
    5
 10
1317.6474000000003
 20
1192.9591
 11
1321.1967
 21
1194.2987000000001
  0
LINE
  8
_0-0_1
  6
CONTINUOUS
 62
    5
 10
1321.1967
 20
1194.2987000000001
 11
1324.7533000000001
 21
1195.6475
  0
LINE
  8
_0-0_1
  6
CONTINUOUS
 62
    5
 10
1324.7533000000001
 20
1195.6475
 11
1328.3220000000001
 21
1197.0116
  0
LINE
  8
_0-0_1
  6
CONTINUOUS
 62
    5
 10
1328.3220000000001
 20
1197.0116
 11
1331.9073000000001
 21
1198.3966
  0
LINE
  8
_0-0_1
  6
CONTINUOUS
 62
    5
 10
1331.9073000000001
 20
1198.3966
 11
1335.5140000000001
 21
1199.8086000000001
  0
LINE
  8
_0-0_1
  6
CONTINUOUS
 62
    5
 10
1335.5140000000001
 20
1199.8086000000001
 11
1337.6175000000001
 21
1200.6422
  0
LINE
  8
_0-0_1
  6
CONTINUOUS
 62
    5
 10
1337.6175000000001
 20
1200.6422
 11
1339.6968999999999
 21
1201.4711
  0
LINE
  8
_0-0_1
  6
CONTINUOUS
 62
    5
 10
1339.6968999999999
 20
1201.4711
 11
1343.3034
 21
1202.8724999999999
  0
LINE
  8
_0-0_1
  6
CONTINUOUS
 62
    5
 10
1343.3034
 20
1202.8724999999999
 11
1346.9362000000001
 21
1204.1552999999999
  0
LINE
  8
_0-0_1
  6
CONTINUOUS
 62
    5
 10
1346.9362000000001
 20
1204.1552999999999
 11
1350.5941000000003
 21
1205.2219
  0
LINE
  8
_0-0_1
  6
CONTINUOUS
 62
    5
 10
1350.5941000000003
 20
1205.2219
 11
1354.2761999999998
 21
1205.9751000000001
  0
LINE
  8
_0-0_1
  6
CONTINUOUS
 62
    5
 10
1354.2761999999998
 20
1205.9751000000001
 11
1357.9815000000003
 21
1206.3176000000001
  0
LINE
  8
_0-0_1
  6
CONTINUOUS
 62
    5
 10
1357.9815000000003
 20
1206.3176000000001
 11
1360.1407999999997
 21
1206.2897
  0
LINE
  8
_0-0_1
  6
CONTINUOUS
 62
    5
 10
1360.1407999999997
 20
1206.2897
 11
1360.9899999999998
 21
1206.2284
  0
LINE
  8
_0-0_1
  6
CONTINUOUS
 62
    5
 10
1360.9899999999998
 20
1206.2284
 11
1362.4542999999999
 21
1206.0578
  0
LINE
  8
_0-0_1
  6
CONTINUOUS
 62
    5
 10
1362.4542999999999
 20
1206.0578
 11
1363.9154000000003
 21
1205.8110999999999
  0
LINE
  8
_0-0_1
  6
CONTINUOUS
 62
    5
 10
1363.9154000000003
 20
1205.8110999999999
 11
1365.3690999999999
 21
1205.4949999999999
  0
LINE
  8
_0-0_1
  6
CONTINUOUS
 62
    5
 10
1365.3690999999999
 20
1205.4949999999999
 11
1366.8112000000001
 21
1205.1165000000001
  0
LINE
  8
_0-0_1
  6
CONTINUOUS
 62
    5
 10
1366.8112000000001
 20
1205.1165000000001
 11
1368.2375999999999
 21
1204.6823999999999
  0
LINE
  8
_0-0_1
  6
CONTINUOUS
 62
    5
 10
1368.2375999999999
 20
1204.6823999999999
 11
1369.0561
 21
1204.4078
  0
LINE
  8
_0-0_1
  6
CONTINUOUS
 62
    5
 10
1369.0561
 20
1204.4078
 11
1371.5544
 21
1203.4595999999999
  0
LINE
  8
_0-0_1
  6
CONTINUOUS
 62
    5
 10
1371.5544
 20
1203.4595999999999
 11
1375.7132999999999
 21
1201.5260000000001
  0
LINE
  8
_0-0_1
  6
CONTINUOUS
 62
    5
 10
1375.7132999999999
 20
1201.5260000000001
 11
1379.7171000000001
 21
1199.2806
  0
LINE
  8
_0-0_1
  6
CONTINUOUS
 62
    5
 10
1379.7171000000001
 20
1199.2806
 11
1383.6039000000001
 21
1196.8004000000001
  0
LINE
  8
_0-0_1
  6
CONTINUOUS
 62
    5
 10
1383.6039000000001
 20
1196.8004000000001
 11
1387.4119000000001
 21
1194.1622
  0
LINE
  8
_0-0_1
  6
CONTINUOUS
 62
    5
 10
1387.4119000000001
 20
1194.1622
 11
1391.1792
 21
1191.4431
  0
LINE
  8
_0-0_1
  6
CONTINUOUS
 62
    5
 10
1391.1792
 20
1191.4431
 11
1393.3605
 21
1189.8593000000001
  0
LINE
  8
_0-0_1
  6
CONTINUOUS
 62
    5
 10
1393.3605
 20
1189.8593000000001
 11
1396.6921
 21
1187.4725000000001
  0
LINE
  8
_0-0_1
  6
CONTINUOUS
 62
    5
 10
1396.6921
 20
1187.4725000000001
 11
1402.4843000000001
 21
1183.4556
  0
LINE
  8
_0-0_1
  6
CONTINUOUS
 62
    5
 10
1402.4843000000001
 20
1183.4556
 11
1408.3565000000001
 21
1179.5989
  0
LINE
  8
_0-0_1
  6
CONTINUOUS
 62
    5
 10
1408.3565000000001
 20
1179.5989
 11
1414.3307
 21
1175.9445000000001
  0
LINE
  8
_0-0_1
  6
CONTINUOUS
 62
    5
 10
1414.3307
 20
1175.9445000000001
 11
1420.4288999999999
 21
1172.5338999999999
  0
LINE
  8
_0-0_1
  6
CONTINUOUS
 62
    5
 10
1420.4288999999999
 20
1172.5338999999999
 11
1426.6731
 21
1169.4091000000001
  0
LINE
  8
_0-0_1
  6
CONTINUOUS
 62
    5
 10
1426.6731
 20
1169.4091000000001
 11
1430.3703999999998
 21
1167.7440999999999
  0
LINE
  8
_0-0_1
  6
CONTINUOUS
 62
    5
 10
1430.3703999999998
 20
1167.7440999999999
 11
1433.4297000000001
 21
1166.473
  0
LINE
  8
_0-0_1
  6
CONTINUOUS
 62
    5
 10
1433.4297000000001
 20
1166.473
 11
1438.7901999999999
 21
1164.4709
  0
LINE
  8
_0-0_1
  6
CONTINUOUS
 62
    5
 10
1438.7901999999999
 20
1164.4709
 11
1444.2458999999999
 21
1162.7154
  0
LINE
  8
_0-0_1
  6
CONTINUOUS
 62
    5
 10
1444.2458999999999
 20
1162.7154
 11
1449.7809000000002
 21
1161.2146
  0
LINE
  8
_0-0_1
  6
CONTINUOUS
 62
    5
 10
1449.7809000000002
 20
1161.2146
 11
1455.3791999999999
 21
1159.9766
  0
LINE
  8
_0-0_1
  6
CONTINUOUS
 62
    5
 10
1455.3791999999999
 20
1159.9766
 11
1461.0248999999999
 21
1159.0093999999999
  0
LINE
  8
_0-0_1
  6
CONTINUOUS
 62
    5
 10
1461.0248999999999
 20
1159.0093999999999
 11
1464.3148999999999
 21
1158.5757000000001
  0
LINE
  8
_0-0_1
  6
CONTINUOUS
 62
    5
 10
1464.3148999999999
 20
1158.5757000000001
 11
1466.8341999999998
 21
1158.3078
  0
LINE
  8
_0-0_1
  6
CONTINUOUS
 62
    5
 10
1466.8341999999998
 20
1158.3078
 11
1471.1862999999998
 21
1157.9677999999999
  0
LINE
  8
_0-0_1
  6
CONTINUOUS
 62
    5
 10
1471.1862999999998
 20
1157.9677999999999
 11
1475.5464999999999
 21
1157.7683
  0
LINE
  8
_0-0_1
  6
CONTINUOUS
 62
    5
 10
1475.5464999999999
 20
1157.7683
 11
1479.9117000000001
 21
1157.6937
  0
LINE
  8
_0-0_1
  6
CONTINUOUS
 62
    5
 10
1479.9117000000001
 20
1157.6937
 11
1484.2788
 21
1157.7281
  0
LINE
  8
_0-0_1
  6
CONTINUOUS
 62
    5
 10
1484.2788
 20
1157.7281
 11
1488.6446999999998
 21
1157.8556000000001
  0
LINE
  8
_0-0_1
  6
CONTINUOUS
 62
    5
 10
1488.6446999999998
 20
1157.8556000000001
 11
1491.1750999999999
 21
1157.9661000000001
  0
LINE
  8
_0-0_1
  6
CONTINUOUS
 62
    5
 10
1491.1750999999999
 20
1157.9661000000001
 11
1495.9041999999999
 21
1158.2343000000001
  0
LINE
  8
_0-0_1
  6
CONTINUOUS
 62
    5
 10
1495.9041999999999
 20
1158.2343000000001
 11
1504.0423999999998
 21
1158.8652999999999
  0
LINE
  8
_0-0_1
  6
CONTINUOUS
 62
    5
 10
1504.0423999999998
 20
1158.8652999999999
 11
1512.1632
 21
1159.6792
  0
LINE
  8
_0-0_1
  6
CONTINUOUS
 62
    5
 10
1512.1632
 20
1159.6792
 11
1520.2689999999998
 21
1160.6405
  0
LINE
  8
_0-0_1
  6
CONTINUOUS
 62
    5
 10
1520.2689999999998
 20
1160.6405
 11
1528.3625000000002
 21
1161.7136
  0
LINE
  8
_0-0_1
  6
CONTINUOUS
 62
    5
 10
1528.3625000000002
 20
1161.7136
 11
1536.4459999999999
 21
1162.8632
  0
LINE
  8
_0-0_1
  6
CONTINUOUS
 62
    5
 10
1536.4459999999999
 20
1162.8632
 11
1541.1309000000001
 21
1163.5509999999999
  0
LINE
  8
_0-0_1
  6
CONTINUOUS
 62
    5
 10
1541.1309000000001
 20
1163.5509999999999
 11
1543.5657999999999
 21
1163.9118000000001
  0
LINE
  8
_0-0_1
  6
CONTINUOUS
 62
    5
 10
1543.5657999999999
 20
1163.9118000000001
 11
1547.7628
 21
1164.5379
  0
LINE
  8
_0-0_1
  6
CONTINUOUS
 62
    5
 10
1547.7628
 20
1164.5379
 11
1551.9585999999999
 21
1165.1678999999999
  0
LINE
  8
_0-0_1
  6
CONTINUOUS
 62
    5
 10
1551.9585999999999
 20
1165.1678999999999
 11
1556.1534000000001
 21
1165.8012000000001
  0
LINE
  8
_0-0_1
  6
CONTINUOUS
 62
    5
 10
1556.1534000000001
 20
1165.8012000000001
 11
1560.3476000000001
 21
1166.4367999999999
  0
LINE
  8
_0-0_1
  6
CONTINUOUS
 62
    5
 10
1560.3476000000001
 20
1166.4367999999999
 11
1564.5412999999999
 21
1167.0737999999999
  0
LINE
  8
_0-0_1
  6
CONTINUOUS
 62
    5
 10
1564.5412999999999
 20
1167.0737999999999
 11
1566.9735999999998
 21
1167.4436000000001
  0
LINE
  8
_0-0_1
  6
CONTINUOUS
 62
    5
 10
1321.9367
 20
1175.3398999999999
 11
1323.9985999999999
 21
1176.1168
  0
LINE
  8
_0-0_1
  6
CONTINUOUS
 62
    5
 10
1323.9985999999999
 20
1176.1168
 11
1327.5662
 21
1177.4632999999999
  0
LINE
  8
_0-0_1
  6
CONTINUOUS
 62
    5
 10
1327.5662
 20
1177.4632999999999
 11
1331.1581000000001
 21
1178.8255999999999
  0
LINE
  8
_0-0_1
  6
CONTINUOUS
 62
    5
 10
1331.1581000000001
 20
1178.8255999999999
 11
1334.7784999999999
 21
1180.2094
  0
LINE
  8
_0-0_1
  6
CONTINUOUS
 62
    5
 10
1334.7784999999999
 20
1180.2094
 11
1338.4314999999997
 21
1181.6206
  0
LINE
  8
_0-0_1
  6
CONTINUOUS
 62
    5
 10
1338.4314999999997
 20
1181.6206
 11
1342.1107000000002
 21
1183.0608999999999
  0
LINE
  8
_0-0_1
  6
CONTINUOUS
 62
    5
 10
1342.1107000000002
 20
1183.0608999999999
 11
1344.2659000000001
 21
1183.915
  0
LINE
  8
_0-0_1
  6
CONTINUOUS
 62
    5
 10
1344.2659000000001
 20
1183.915
 11
1346.2894000000001
 21
1184.7216000000001
  0
LINE
  8
_0-0_1
  6
CONTINUOUS
 62
    5
 10
1346.2894000000001
 20
1184.7216000000001
 11
1349.5613000000001
 21
1185.9929999999999
  0
LINE
  8
_0-0_1
  6
CONTINUOUS
 62
    5
 10
1349.5613000000001
 20
1185.9929999999999
 11
1352.4564
 21
1187.0153
  0
LINE
  8
_0-0_1
  6
CONTINUOUS
 62
    5
 10
1352.4564
 20
1187.0153
 11
1354.9245999999998
 21
1187.7349999999999
  0
LINE
  8
_0-0_1
  6
CONTINUOUS
 62
    5
 10
1354.9245999999998
 20
1187.7349999999999
 11
1356.9163000000001
 21
1188.1424
  0
LINE
  8
_0-0_1
  6
CONTINUOUS
 62
    5
 10
1356.9163000000001
 20
1188.1424
 11
1358.6956
 21
1188.3069
  0
LINE
  8
_0-0_1
  6
CONTINUOUS
 62
    5
 10
1358.6956
 20
1188.3069
 11
1359.3751999999999
 21
1188.2981
  0
LINE
  8
_0-0_1
  6
CONTINUOUS
 62
    5
 10
1359.3751999999999
 20
1188.2981
 11
1359.2991000000002
 21
1188.3036
  0
LINE
  8
_0-0_1
  6
CONTINUOUS
 62
    5
 10
1359.2991000000002
 20
1188.3036
 11
1359.9127000000001
 21
1188.2320999999999
  0
LINE
  8
_0-0_1
  6
CONTINUOUS
 62
    5
 10
1359.9127000000001
 20
1188.2320999999999
 11
1360.5030999999999
 21
1188.1324999999999
  0
LINE
  8
_0-0_1
  6
CONTINUOUS
 62
    5
 10
1360.5030999999999
 20
1188.1324999999999
 11
1361.1705000000002
 21
1187.9874
  0
LINE
  8
_0-0_1
  6
CONTINUOUS
 62
    5
 10
1361.1705000000002
 20
1187.9874
 11
1361.9040999999997
 21
1187.7947999999999
  0
LINE
  8
_0-0_1
  6
CONTINUOUS
 62
    5
 10
1361.9040999999997
 20
1187.7947999999999
 11
1362.7532000000001
 21
1187.5364
  0
LINE
  8
_0-0_1
  6
CONTINUOUS
 62
    5
 10
1362.7532000000001
 20
1187.5364
 11
1362.9973
 21
1187.4545000000001
  0
LINE
  8
_0-0_1
  6
CONTINUOUS
 62
    5
 10
1362.9973
 20
1187.4545000000001
 11
1364.5571999999997
 21
1186.8624
  0
LINE
  8
_0-0_1
  6
CONTINUOUS
 62
    5
 10
1364.5571999999997
 20
1186.8624
 11
1367.5048999999999
 21
1185.492
  0
LINE
  8
_0-0_1
  6
CONTINUOUS
 62
    5
 10
1367.5048999999999
 20
1185.492
 11
1370.4659999999999
 21
1183.8314
  0
LINE
  8
_0-0_1
  6
CONTINUOUS
 62
    5
 10
1370.4659999999999
 20
1183.8314
 11
1373.6337000000001
 21
1181.8099999999999
  0
LINE
  8
_0-0_1
  6
CONTINUOUS
 62
    5
 10
1373.6337000000001
 20
1181.8099999999999
 11
1377.0183999999999
 21
1179.4650999999999
  0
LINE
  8
_0-0_1
  6
CONTINUOUS
 62
    5
 10
1377.0183999999999
 20
1179.4650999999999
 11
1380.6241
 21
1176.8625999999999
  0
LINE
  8
_0-0_1
  6
CONTINUOUS
 62
    5
 10
1380.6241
 20
1176.8625999999999
 11
1382.8311000000003
 21
1175.2601999999999
  0
LINE
  8
_0-0_1
  6
CONTINUOUS
 62
    5
 10
1382.8311000000003
 20
1175.2601999999999
 11
1386.3210999999999
 21
1172.7599
  0
LINE
  8
_0-0_1
  6
CONTINUOUS
 62
    5
 10
1386.3210999999999
 20
1172.7599
 11
1392.4133000000002
 21
1168.5349000000001
  0
LINE
  8
_0-0_1
  6
CONTINUOUS
 62
    5
 10
1392.4133000000002
 20
1168.5349000000001
 11
1398.7170000000001
 21
1164.3949
  0
LINE
  8
_0-0_1
  6
CONTINUOUS
 62
    5
 10
1398.7170000000001
 20
1164.3949
 11
1405.2376999999999
 21
1160.4060999999999
  0
LINE
  8
_0-0_1
  6
CONTINUOUS
 62
    5
 10
1405.2376999999999
 20
1160.4060999999999
 11
1412.0037
 21
1156.6221
  0
LINE
  8
_0-0_1
  6
CONTINUOUS
 62
    5
 10
1412.0037
 20
1156.6221
 11
1418.9467
 21
1153.1476
  0
LINE
  8
_0-0_1
  6
CONTINUOUS
 62
    5
 10
1418.9467
 20
1153.1476
 11
1423.2201
 21
1151.2231999999999
  0
LINE
  8
_0-0_1
  6
CONTINUOUS
 62
    5
 10
1423.2201
 20
1151.2231999999999
 11
1426.8252000000002
 21
1149.7252000000001
  0
LINE
  8
_0-0_1
  6
CONTINUOUS
 62
    5
 10
1426.8252000000002
 20
1149.7252000000001
 11
1432.8813
 21
1147.4632999999999
  0
LINE
  8
_0-0_1
  6
CONTINUOUS
 62
    5
 10
1432.8813
 20
1147.4632999999999
 11
1439.1311999999998
 21
1145.4522999999999
  0
LINE
  8
_0-0_1
  6
CONTINUOUS
 62
    5
 10
1439.1311999999998
 20
1145.4522999999999
 11
1445.4798999999998
 21
1143.7309
  0
LINE
  8
_0-0_1
  6
CONTINUOUS
 62
    5
 10
1445.4798999999998
 20
1143.7309
 11
1451.9141
 21
1142.308
  0
LINE
  8
_0-0_1
  6
CONTINUOUS
 62
    5
 10
1451.9141
 20
1142.308
 11
1458.3278
 21
1141.2092
  0
LINE
  8
_0-0_1
  6
CONTINUOUS
 62
    5
 10
1458.3278
 20
1141.2092
 11
1462.1867000000002
 21
1140.7004999999999
  0
LINE
  8
_0-0_1
  6
CONTINUOUS
 62
    5
 10
1462.1867000000002
 20
1140.7004999999999
 11
1465.1813000000002
 21
1140.3821
  0
LINE
  8
_0-0_1
  6
CONTINUOUS
 62
    5
 10
1465.1813000000002
 20
1140.3821
 11
1470.0736999999999
 21
1139.9999
  0
LINE
  8
_0-0_1
  6
CONTINUOUS
 62
    5
 10
1470.0736999999999
 20
1139.9999
 11
1474.9812000000002
 21
1139.7754
  0
LINE
  8
_0-0_1
  6
CONTINUOUS
 62
    5
 10
1474.9812000000002
 20
1139.7754
 11
1479.8285999999998
 21
1139.6925000000001
  0
LINE
  8
_0-0_1
  6
CONTINUOUS
 62
    5
 10
1479.8285999999998
 20
1139.6925000000001
 11
1484.6125000000002
 21
1139.7301
  0
LINE
  8
_0-0_1
  6
CONTINUOUS
 62
    5
 10
1484.6125000000002
 20
1139.7301
 11
1489.3002000000001
 21
1139.8670999999999
  0
LINE
  8
_0-0_1
  6
CONTINUOUS
 62
    5
 10
1489.3002000000001
 20
1139.8670999999999
 11
1492.0772999999999
 21
1139.9884
  0
LINE
  8
_0-0_1
  6
CONTINUOUS
 62
    5
 10
1492.0772999999999
 20
1139.9884
 11
1497.1097
 21
1140.2737999999999
  0
LINE
  8
_0-0_1
  6
CONTINUOUS
 62
    5
 10
1497.1097
 20
1140.2737999999999
 11
1505.6358
 21
1140.9348
  0
LINE
  8
_0-0_1
  6
CONTINUOUS
 62
    5
 10
1505.6358
 20
1140.9348
 11
1514.1206999999999
 21
1141.7852
  0
LINE
  8
_0-0_1
  6
CONTINUOUS
 62
    5
 10
1514.1206999999999
 20
1141.7852
 11
1522.5120000000002
 21
1142.7802999999999
  0
LINE
  8
_0-0_1
  6
CONTINUOUS
 62
    5
 10
1522.5120000000002
 20
1142.7802999999999
 11
1530.8126999999999
 21
1143.8810000000001
  0
LINE
  8
_0-0_1
  6
CONTINUOUS
 62
    5
 10
1530.8126999999999
 20
1143.8810000000001
 11
1539.0205000000001
 21
1145.0482
  0
LINE
  8
_0-0_1
  6
CONTINUOUS
 62
    5
 10
1539.0205000000001
 20
1145.0482
 11
1543.7575999999999
 21
1145.7437
  0
LINE
  8
_0-0_1
  6
CONTINUOUS
 62
    5
 10
1543.7575999999999
 20
1145.7437
 11
1546.2129
 21
1146.1076
  0
LINE
  8
_0-0_1
  6
CONTINUOUS
 62
    5
 10
1546.2129
 20
1146.1076
 11
1550.4270999999999
 21
1146.7361000000001
  0
LINE
  8
_0-0_1
  6
CONTINUOUS
 62
    5
 10
1550.4270999999999
 20
1146.7361000000001
 11
1554.6386000000002
 21
1147.3686
  0
LINE
  8
_0-0_1
  6
CONTINUOUS
 62
    5
 10
1554.6386000000002
 20
1147.3686
 11
1558.8453
 21
1148.0037
  0
LINE
  8
_0-0_1
  6
CONTINUOUS
 62
    5
 10
1558.8453
 20
1148.0037
 11
1563.0475000000001
 21
1148.6405
  0
LINE
  8
_0-0_1
  6
CONTINUOUS
 62
    5
 10
1563.0475000000001
 20
1148.6405
 11
1567.2453999999998
 21
1149.2781
  0
LINE
  8
_0-0_1
  6
CONTINUOUS
 62
    5
 10
1567.2453999999998
 20
1149.2781
 11
1568.8631
 21
1149.5239999999999
  0
LINE
  8
_0-0_1
  6
CONTINUOUS
 62
    5
 10
1316.4078999999997
 20
1192.4901
 11
1316.8339000000001
 21
1192.6532
  0
ARC
  8
_0-0_1
  6
CONTINUOUS
 62
    5
 10
1317.4804999999997
 20
1189.6884
 40
3
 50
110.94902000000002
 51
178.70000000000002
  0
LINE
  8
_0-0_1
  6
CONTINUOUS
 62
    5
 10
1314.3719000000001
 20
1173.9173000000001
 11
1314.3719000000001
 21
1189.6397999999999
  0
LINE
  8
_0-0_1
  6
CONTINUOUS
 62
    5
 10
1315.7258999999999
 20
1172.9820999999999
 11
1321.9007999999999
 21
1175.3193000000001
  0
ARC
  8
_0-0_1
  6
CONTINUOUS
 62
    5
 10
1315.3719000000001
 20
1173.9173000000001
 40
1
 50
180
 51
290.73165999999998
  0
LINE
  8
_0-0_1
  6
CONTINUOUS
 62
    5
 10
1579.3719000000001
 20
1152.5951
 11
1579.3719000000001
 21
1169.7925
  0
LINE
  8
_0-0_1
  6
CONTINUOUS
 62
    5
 10
1567.0985000000001
 20
1167.4789000000001
 11
1611.5527999999999
 21
1177.1268
  0
LINE
  8
_0-0_1
  6
CONTINUOUS
 62
    5
 10
1573.8436999999999
 20
1147.6451999999999
 11
1612.5155
 21
1156.6952000000001
  0
LINE
  8
_0-0_1
  6
CONTINUOUS
 62
    5
 10
1612.5155
 20
1157.6516999999999
 11
1612.5155
 21
1156.6952000000001
  0
ARC
  8
_0-0_1
  6
CONTINUOUS
 62
    5
 10
1613.5155
 20
1157.6516999999999
 40
1
 50
102.72435
 51
180
  0
LINE
  8
_0-0_1
  6
CONTINUOUS
 62
    5
 10
1618.3325
 20
1159.7646
 11
1613.2953000000002
 21
1158.6270999999999
  0
ARC
  8
_0-0_1
  6
CONTINUOUS
 62
    5
 10
1618.5527999999999
 20
1158.7891
 40
1
 50
0
 51
102.72435
  0
LINE
  8
_0-0_1
  6
CONTINUOUS
 62
    5
 10
1618.7649000000001
 20
1160.2729999999999
 11
1568.6309000000001
 21
1149.3924999999999
  0
ARC
  8
_0-0_1
  6
CONTINUOUS
 62
    5
 10
1618.5527999999999
 20
1161.2502999999999
 40
1
 50
282.24497000000002
 51
0
  0
LINE
  8
_0-0_1
  6
CONTINUOUS
 62
    5
 10
1618.7705999999998
 20
1139.5323000000001
 11
1569.1867000000002
 21
1128.4644000000001
  0
LINE
  8
_0-0_1
  6
CONTINUOUS
 62
    5
 10
1619.5527999999999
 20
1140.5083
 11
1619.5527999999999
 21
1158.7891
  0
ARC
  8
_0-0_1
  6
CONTINUOUS
 62
    5
 10
1618.5527999999999
 20
1140.5083
 40
1
 50
282.58296000000001
 51
0.0000000000000254
  0
LINE
  8
_0-0_1
  6
CONTINUOUS
 62
    5
 10
1611.5527999999999
 20
1178.5839000000001
 11
1611.5527999999999
 21
1177.1268
  0
ARC
  8
_0-0_1
  6
CONTINUOUS
 62
    5
 10
1612.5527999999999
 20
1178.5839000000001
 40
1
 50
101.73308
 51
180
  0
LINE
  8
_0-0_1
  6
CONTINUOUS
 62
    5
 10
1618.3494000000001
 20
1180.8090999999999
 11
1612.3494000000001
 21
1179.5630000000001
  0
LINE
  8
_0-0_1
  6
CONTINUOUS
 62
    5
 10
1619.5527999999999
 20
1179.8299999999999
 11
1619.5527999999999
 21
1161.2502999999999
  0
ARC
  8
_0-0_1
  6
CONTINUOUS
 62
    5
 10
1618.5527999999999
 20
1179.8299999999999
 40
1
 50
0
 51
101.73308
  0
LINE
  8
_0-0_1
  6
CONTINUOUS
 62
    5
 10
1096.7997
 20
1186.9882
 11
1101.0757000000001
 21
1185.0376000000001
  0
LINE
  8
_0-0_1
  6
CONTINUOUS
 62
    5
 10
1101.0757000000001
 20
1185.0376000000001
 11
1108.4002
 21
1181.7257
  0
LINE
  8
_0-0_1
  6
CONTINUOUS
 62
    5
 10
1108.4002
 20
1181.7257
 11
1115.6511
 21
1178.5281
  0
LINE
  8
_0-0_1
  6
CONTINUOUS
 62
    5
 10
1115.6511
 20
1178.5281
 11
1122.8422
 21
1175.4869000000001
  0
LINE
  8
_0-0_1
  6
CONTINUOUS
 62
    5
 10
1122.8422
 20
1175.4869000000001
 11
1129.9865
 21
1172.6424
  0
LINE
  8
_0-0_1
  6
CONTINUOUS
 62
    5
 10
1129.9865
 20
1172.6424
 11
1137.1612
 21
1170.0093999999999
  0
LINE
  8
_0-0_1
  6
CONTINUOUS
 62
    5
 10
1137.1612
 20
1170.0093999999999
 11
1141.2509
 21
1168.626
  0
LINE
  8
_0-0_1
  6
CONTINUOUS
 62
    5
 10
1141.2509
 20
1168.626
 11
1144.1395
 21
1167.7055
  0
LINE
  8
_0-0_1
  6
CONTINUOUS
 62
    5
 10
1144.1395
 20
1167.7055
 11
1149.347
 21
1166.1548
  0
LINE
  8
_0-0_1
  6
CONTINUOUS
 62
    5
 10
1149.347
 20
1166.1548
 11
1154.5930000000001
 21
1164.7158999999999
  0
LINE
  8
_0-0_1
  6
CONTINUOUS
 62
    5
 10
1154.5930000000001
 20
1164.7158999999999
 11
1159.9194
 21
1163.3628000000001
  0
LINE
  8
_0-0_1
  6
CONTINUOUS
 62
    5
 10
1159.9194
 20
1163.3628000000001
 11
1165.3207
 21
1162.0831000000001
  0
LINE
  8
_0-0_1
  6
CONTINUOUS
 62
    5
 10
1165.3207
 20
1162.0831000000001
 11
1170.8081999999999
 21
1160.8602000000001
  0
LINE
  8
_0-0_1
  6
CONTINUOUS
 62
    5
 10
1170.8081999999999
 20
1160.8602000000001
 11
1173.9899
 21
1160.1802
  0
LINE
  8
_0-0_1
  6
CONTINUOUS
 62
    5
 10
1173.9899
 20
1160.1802
 11
1176.444
 21
1159.6686
  0
LINE
  8
_0-0_1
  6
CONTINUOUS
 62
    5
 10
1176.444
 20
1159.6686
 11
1180.6877999999999
 21
1158.8189
  0
LINE
  8
_0-0_1
  6
CONTINUOUS
 62
    5
 10
1180.6877999999999
 20
1158.8189
 11
1184.8514
 21
1158.0444
  0
LINE
  8
_0-0_1
  6
CONTINUOUS
 62
    5
 10
1184.8514
 20
1158.0444
 11
1188.9481000000001
 21
1157.3579999999999
  0
LINE
  8
_0-0_1
  6
CONTINUOUS
 62
    5
 10
1188.9481000000001
 20
1157.3579999999999
 11
1192.9775999999999
 21
1156.7746
  0
LINE
  8
_0-0_1
  6
CONTINUOUS
 62
    5
 10
1192.9775999999999
 20
1156.7746
 11
1197.0021999999999
 21
1156.3003000000001
  0
LINE
  8
_0-0_1
  6
CONTINUOUS
 62
    5
 10
1197.0021999999999
 20
1156.3003000000001
 11
1199.2211
 21
1156.0924
  0
LINE
  8
_0-0_1
  6
CONTINUOUS
 62
    5
 10
1199.2211
 20
1156.0924
 11
1201.4323999999999
 21
1155.9269999999999
  0
LINE
  8
_0-0_1
  6
CONTINUOUS
 62
    5
 10
1201.4323999999999
 20
1155.9269999999999
 11
1205.4619
 21
1155.7215000000001
  0
LINE
  8
_0-0_1
  6
CONTINUOUS
 62
    5
 10
1205.4619
 20
1155.7215000000001
 11
1209.5156999999999
 21
1155.6213
  0
LINE
  8
_0-0_1
  6
CONTINUOUS
 62
    5
 10
1209.5156999999999
 20
1155.6213
 11
1213.6536000000001
 21
1155.6098
  0
LINE
  8
_0-0_1
  6
CONTINUOUS
 62
    5
 10
1213.6536000000001
 20
1155.6098
 11
1217.8724999999999
 21
1155.6723
  0
LINE
  8
_0-0_1
  6
CONTINUOUS
 62
    5
 10
1217.8724999999999
 20
1155.6723
 11
1222.1824999999999
 21
1155.7935
  0
LINE
  8
_0-0_1
  6
CONTINUOUS
 62
    5
 10
1222.1824999999999
 20
1155.7935
 11
1224.6828
 21
1155.8829000000001
  0
LINE
  8
_0-0_1
  6
CONTINUOUS
 62
    5
 10
1224.6828
 20
1155.8829000000001
 11
1227.5456999999999
 21
1155.9979000000001
  0
LINE
  8
_0-0_1
  6
CONTINUOUS
 62
    5
 10
1227.5456999999999
 20
1155.9979000000001
 11
1232.5011
 21
1156.2307000000001
  0
LINE
  8
_0-0_1
  6
CONTINUOUS
 62
    5
 10
1232.5011
 20
1156.2307000000001
 11
1237.4079999999999
 21
1156.5101999999999
  0
LINE
  8
_0-0_1
  6
CONTINUOUS
 62
    5
 10
1237.4079999999999
 20
1156.5101999999999
 11
1242.2793999999999
 21
1156.8440000000001
  0
LINE
  8
_0-0_1
  6
CONTINUOUS
 62
    5
 10
1242.2793999999999
 20
1156.8440000000001
 11
1247.1137000000001
 21
1157.239
  0
LINE
  8
_0-0_1
  6
CONTINUOUS
 62
    5
 10
1247.1137000000001
 20
1157.239
 11
1251.9418000000001
 21
1157.7049999999999
  0
LINE
  8
_0-0_1
  6
CONTINUOUS
 62
    5
 10
1251.9418000000001
 20
1157.7049999999999
 11
1254.6002000000001
 21
1157.9956
  0
LINE
  8
_0-0_1
  6
CONTINUOUS
 62
    5
 10
1254.6002000000001
 20
1157.9956
 11
1262.3683000000001
 21
1158.9903999999999
  0
LINE
  8
_0-0_1
  6
CONTINUOUS
 62
    5
 10
1262.3683000000001
 20
1158.9903999999999
 11
1275.8770999999999
 21
1161.1858999999999
  0
LINE
  8
_0-0_1
  6
CONTINUOUS
 62
    5
 10
1275.8770999999999
 20
1161.1858999999999
 11
1289.3666000000003
 21
1163.8788999999999
  0
LINE
  8
_0-0_1
  6
CONTINUOUS
 62
    5
 10
1289.3666000000003
 20
1163.8788999999999
 11
1302.9404
 21
1166.9860000000001
  0
LINE
  8
_0-0_1
  6
CONTINUOUS
 62
    5
 10
1302.9404
 20
1166.9860000000001
 11
1316.6118000000001
 21
1170.4059999999999
  0
LINE
  8
_0-0_1
  6
CONTINUOUS
 62
    5
 10
1316.6118000000001
 20
1170.4059999999999
 11
1330.3951000000002
 21
1174.0342000000001
  0
LINE
  8
_0-0_1
  6
CONTINUOUS
 62
    5
 10
1330.3951000000002
 20
1174.0342000000001
 11
1336.1840999999999
 21
1175.5853999999999
  0
LINE
  8
_0-0_1
  6
CONTINUOUS
 62
    5
 10
1335.0745000000002
 20
1154.5847000000001
 11
1321.5843999999997
 21
1151.0336
  0
LINE
  8
_0-0_1
  6
CONTINUOUS
 62
    5
 10
1321.5843999999997
 20
1151.0336
 11
1307.5989999999999
 21
1147.5351000000001
  0
LINE
  8
_0-0_1
  6
CONTINUOUS
 62
    5
 10
1307.5989999999999
 20
1147.5351000000001
 11
1293.5563999999999
 21
1144.3207
  0
LINE
  8
_0-0_1
  6
CONTINUOUS
 62
    5
 10
1293.5563999999999
 20
1144.3207
 11
1279.4401
 21
1141.5026
  0
LINE
  8
_0-0_1
  6
CONTINUOUS
 62
    5
 10
1279.4401
 20
1141.5026
 11
1265.2436
 21
1139.1953000000001
  0
LINE
  8
_0-0_1
  6
CONTINUOUS
 62
    5
 10
1265.2436
 20
1139.1953000000001
 11
1256.9574
 21
1138.1341
  0
LINE
  8
_0-0_1
  6
CONTINUOUS
 62
    5
 10
1256.9574
 20
1138.1341
 11
1253.9892
 21
1137.8096
  0
LINE
  8
_0-0_1
  6
CONTINUOUS
 62
    5
 10
1253.9892
 20
1137.8096
 11
1248.8887999999999
 21
1137.3173999999999
  0
LINE
  8
_0-0_1
  6
CONTINUOUS
 62
    5
 10
1248.8887999999999
 20
1137.3173999999999
 11
1243.7774999999999
 21
1136.8997999999999
  0
LINE
  8
_0-0_1
  6
CONTINUOUS
 62
    5
 10
1243.7774999999999
 20
1136.8997999999999
 11
1238.6604
 21
1136.5491
  0
LINE
  8
_0-0_1
  6
CONTINUOUS
 62
    5
 10
1238.6604
 20
1136.5491
 11
1233.539
 21
1136.2574
  0
LINE
  8
_0-0_1
  6
CONTINUOUS
 62
    5
 10
1233.539
 20
1136.2574
 11
1228.4163000000001
 21
1136.0168000000001
  0
LINE
  8
_0-0_1
  6
CONTINUOUS
 62
    5
 10
1228.4163000000001
 20
1136.0168000000001
 11
1225.4414999999999
 21
1135.8973000000001
  0
LINE
  8
_0-0_1
  6
CONTINUOUS
 62
    5
 10
1225.4414999999999
 20
1135.8973000000001
 11
1222.8209999999999
 21
1135.8036
  0
LINE
  8
_0-0_1
  6
CONTINUOUS
 62
    5
 10
1222.8209999999999
 20
1135.8036
 11
1218.3018999999999
 21
1135.6765
  0
LINE
  8
_0-0_1
  6
CONTINUOUS
 62
    5
 10
1218.3018999999999
 20
1135.6765
 11
1213.7738999999999
 21
1135.6094000000001
  0
LINE
  8
_0-0_1
  6
CONTINUOUS
 62
    5
 10
1213.7738999999999
 20
1135.6094000000001
 11
1209.2409
 21
1135.6220000000001
  0
LINE
  8
_0-0_1
  6
CONTINUOUS
 62
    5
 10
1209.2409
 20
1135.6220000000001
 11
1204.7054000000001
 21
1135.7339999999999
  0
LINE
  8
_0-0_1
  6
CONTINUOUS
 62
    5
 10
1204.7054000000001
 20
1135.7339999999999
 11
1200.1769999999999
 21
1135.9649999999999
  0
LINE
  8
_0-0_1
  6
CONTINUOUS
 62
    5
 10
1200.1769999999999
 20
1135.9649999999999
 11
1197.5419999999999
 21
1136.1621
  0
LINE
  8
_0-0_1
  6
CONTINUOUS
 62
    5
 10
1197.5419999999999
 20
1136.1621
 11
1194.8986
 21
1136.4097999999999
  0
LINE
  8
_0-0_1
  6
CONTINUOUS
 62
    5
 10
1194.8986
 20
1136.4097999999999
 11
1190.3739
 21
1136.943
  0
LINE
  8
_0-0_1
  6
CONTINUOUS
 62
    5
 10
1190.3739
 20
1136.943
 11
1185.8623
 21
1137.5962999999999
  0
LINE
  8
_0-0_1
  6
CONTINUOUS
 62
    5
 10
1185.8623
 20
1137.5962999999999
 11
1181.3698999999999
 21
1138.3489
  0
LINE
  8
_0-0_1
  6
CONTINUOUS
 62
    5
 10
1181.3698999999999
 20
1138.3489
 11
1176.8956000000001
 21
1139.1812
  0
LINE
  8
_0-0_1
  6
CONTINUOUS
 62
    5
 10
1176.8956000000001
 20
1139.1812
 11
1172.4399000000001
 21
1140.0733
  0
LINE
  8
_0-0_1
  6
CONTINUOUS
 62
    5
 10
1172.4399000000001
 20
1140.0733
 11
1169.8588
 21
1140.6114
  0
LINE
  8
_0-0_1
  6
CONTINUOUS
 62
    5
 10
1169.8588
 20
1140.6114
 11
1166.5427
 21
1141.3202000000001
  0
LINE
  8
_0-0_1
  6
CONTINUOUS
 62
    5
 10
1166.5427
 20
1141.3202000000001
 11
1160.8398999999999
 21
1142.5911000000001
  0
LINE
  8
_0-0_1
  6
CONTINUOUS
 62
    5
 10
1160.8398999999999
 20
1142.5911000000001
 11
1155.1514999999999
 21
1143.9387999999999
  0
LINE
  8
_0-0_1
  6
CONTINUOUS
 62
    5
 10
1155.1514999999999
 20
1143.9387999999999
 11
1149.4853000000001
 21
1145.3782000000001
  0
LINE
  8
_0-0_1
  6
CONTINUOUS
 62
    5
 10
1149.4853000000001
 20
1145.3782000000001
 11
1143.8472999999999
 21
1146.9246000000001
  0
LINE
  8
_0-0_1
  6
CONTINUOUS
 62
    5
 10
1143.8472999999999
 20
1146.9246000000001
 11
1138.2489
 21
1148.5916999999999
  0
LINE
  8
_0-0_1
  6
CONTINUOUS
 62
    5
 10
1138.2489
 20
1148.5916999999999
 11
1135.0099
 21
1149.6238000000001
  0
LINE
  8
_0-0_1
  6
CONTINUOUS
 62
    5
 10
1135.0099
 20
1149.6238000000001
 11
1130.5105000000001
 21
1151.1459
  0
LINE
  8
_0-0_1
  6
CONTINUOUS
 62
    5
 10
1130.5105000000001
 20
1151.1459
 11
1122.8408999999999
 21
1153.9604999999999
  0
LINE
  8
_0-0_1
  6
CONTINUOUS
 62
    5
 10
1122.8408999999999
 20
1153.9604999999999
 11
1115.2472
 21
1156.9838999999999
  0
LINE
  8
_0-0_1
  6
CONTINUOUS
 62
    5
 10
1115.2472
 20
1156.9838999999999
 11
1107.7204999999999
 21
1160.1669999999999
  0
LINE
  8
_0-0_1
  6
CONTINUOUS
 62
    5
 10
1107.7204999999999
 20
1160.1669999999999
 11
1107.3445999999999
 21
1160.3327999999999
  0
LINE
  8
_0-0_1
  6
CONTINUOUS
 62
    5
 10
1340.7639999999997
 20
1137.472
 11
1340.1493
 21
1137.3072999999999
  0
LINE
  8
_0-0_1
  6
CONTINUOUS
 62
    5
 10
1340.1493
 20
1137.3072999999999
 11
1326.0597000000002
 21
1133.5985000000001
  0
LINE
  8
_0-0_1
  6
CONTINUOUS
 62
    5
 10
1326.0597000000002
 20
1133.5985000000001
 11
1311.7918
 21
1130.0292999999999
  0
LINE
  8
_0-0_1
  6
CONTINUOUS
 62
    5
 10
1311.7918
 20
1130.0292999999999
 11
1297.3272999999999
 21
1126.7183
  0
LINE
  8
_0-0_1
  6
CONTINUOUS
 62
    5
 10
1297.3272999999999
 20
1126.7183
 11
1282.6469
 21
1123.7876000000001
  0
LINE
  8
_0-0_1
  6
CONTINUOUS
 62
    5
 10
1282.6469
 20
1123.7876000000001
 11
1267.8314
 21
1121.3797
  0
LINE
  8
_0-0_1
  6
CONTINUOUS
 62
    5
 10
1267.8314
 20
1121.3797
 11
1259.0789
 21
1120.2588000000001
  0
LINE
  8
_0-0_1
  6
CONTINUOUS
 62
    5
 10
1259.0789
 20
1120.2588000000001
 11
1255.8320000000001
 21
1119.9039
  0
LINE
  8
_0-0_1
  6
CONTINUOUS
 62
    5
 10
1255.8320000000001
 20
1119.9039
 11
1250.4863
 21
1119.3879999999999
  0
LINE
  8
_0-0_1
  6
CONTINUOUS
 62
    5
 10
1250.4863
 20
1119.3879999999999
 11
1245.1257000000001
 21
1118.95
  0
LINE
  8
_0-0_1
  6
CONTINUOUS
 62
    5
 10
1245.1257000000001
 20
1118.95
 11
1239.7876000000001
 21
1118.5841
  0
LINE
  8
_0-0_1
  6
CONTINUOUS
 62
    5
 10
1239.7876000000001
 20
1118.5841
 11
1234.4731999999999
 21
1118.2814000000001
  0
LINE
  8
_0-0_1
  6
CONTINUOUS
 62
    5
 10
1234.4731999999999
 20
1118.2814000000001
 11
1229.1999000000001
 21
1118.0337
  0
LINE
  8
_0-0_1
  6
CONTINUOUS
 62
    5
 10
1229.1999000000001
 20
1118.0337
 11
1226.1242999999999
 21
1117.9102
  0
LINE
  8
_0-0_1
  6
CONTINUOUS
 62
    5
 10
1226.1242999999999
 20
1117.9102
 11
1223.3956000000001
 21
1117.8126
  0
LINE
  8
_0-0_1
  6
CONTINUOUS
 62
    5
 10
1223.3956000000001
 20
1117.8126
 11
1218.6883
 21
1117.6802
  0
LINE
  8
_0-0_1
  6
CONTINUOUS
 62
    5
 10
1218.6883
 20
1117.6802
 11
1213.8821
 21
1117.6089999999999
  0
LINE
  8
_0-0_1
  6
CONTINUOUS
 62
    5
 10
1213.8821
 20
1117.6089999999999
 11
1208.9935
 21
1117.6225999999999
  0
LINE
  8
_0-0_1
  6
CONTINUOUS
 62
    5
 10
1208.9935
 20
1117.6225999999999
 11
1204.0246
 21
1117.7454
  0
LINE
  8
_0-0_1
  6
CONTINUOUS
 62
    5
 10
1204.0246
 20
1117.7454
 11
1199.047
 21
1117.9992
  0
LINE
  8
_0-0_1
  6
CONTINUOUS
 62
    5
 10
1199.047
 20
1117.9992
 11
1196.0308
 21
1118.2248999999999
  0
LINE
  8
_0-0_1
  6
CONTINUOUS
 62
    5
 10
1196.0308
 20
1118.2248999999999
 11
1193.0054
 21
1118.5083999999999
  0
LINE
  8
_0-0_1
  6
CONTINUOUS
 62
    5
 10
1193.0054
 20
1118.5083999999999
 11
1188.0305000000001
 21
1119.0945999999999
  0
LINE
  8
_0-0_1
  6
CONTINUOUS
 62
    5
 10
1188.0305000000001
 20
1119.0945999999999
 11
1183.0851
 21
1119.8107
  0
LINE
  8
_0-0_1
  6
CONTINUOUS
 62
    5
 10
1183.0851
 20
1119.8107
 11
1178.2366
 21
1120.623
  0
LINE
  8
_0-0_1
  6
CONTINUOUS
 62
    5
 10
1178.2366
 20
1120.623
 11
1173.4827
 21
1121.5073
  0
LINE
  8
_0-0_1
  6
CONTINUOUS
 62
    5
 10
1173.4827
 20
1121.5073
 11
1168.8362
 21
1122.4376
  0
LINE
  8
_0-0_1
  6
CONTINUOUS
 62
    5
 10
1168.8362
 20
1122.4376
 11
1166.1407999999999
 21
1122.9994999999999
  0
LINE
  8
_0-0_1
  6
CONTINUOUS
 62
    5
 10
1166.1407999999999
 20
1122.9994999999999
 11
1162.7039
 21
1123.7340999999999
  0
LINE
  8
_0-0_1
  6
CONTINUOUS
 62
    5
 10
1162.7039
 20
1123.7340999999999
 11
1156.8072
 21
1125.0482
  0
LINE
  8
_0-0_1
  6
CONTINUOUS
 62
    5
 10
1156.8072
 20
1125.0482
 11
1150.8604
 21
1126.4572000000001
  0
LINE
  8
_0-0_1
  6
CONTINUOUS
 62
    5
 10
1150.8604
 20
1126.4572000000001
 11
1144.8883000000001
 21
1127.9743000000001
  0
LINE
  8
_0-0_1
  6
CONTINUOUS
 62
    5
 10
1144.8883000000001
 20
1127.9743000000001
 11
1138.8976
 21
1129.6174000000001
  0
LINE
  8
_0-0_1
  6
CONTINUOUS
 62
    5
 10
1138.8976
 20
1129.6174000000001
 11
1132.9474
 21
1131.3893
  0
LINE
  8
_0-0_1
  6
CONTINUOUS
 62
    5
 10
1132.9474
 20
1131.3893
 11
1129.393
 21
1132.5219
  0
LINE
  8
_0-0_1
  6
CONTINUOUS
 62
    5
 10
1129.393
 20
1132.5219
 11
1124.5248999999999
 21
1134.1686
  0
LINE
  8
_0-0_1
  6
CONTINUOUS
 62
    5
 10
1124.5248999999999
 20
1134.1686
 11
1116.4099000000001
 21
1137.1467
  0
LINE
  8
_0-0_1
  6
CONTINUOUS
 62
    5
 10
1116.4099000000001
 20
1137.1467
 11
1108.4115999999999
 21
1140.3312000000001
  0
LINE
  8
_0-0_1
  6
CONTINUOUS
 62
    5
 10
1108.4115999999999
 20
1140.3312000000001
 11
1107.0011999999999
 21
1140.9277
  0
LINE
  8
_0-0_1
  6
CONTINUOUS
 62
    5
 10
1335.0155
 20
1156.6373000000001
 11
1341.8045000000002
 21
1158.4564
  0
LINE
  8
_0-0_1
  6
CONTINUOUS
 62
    5
 10
1321.0871
 20
1152.9709
 11
1335.0155
 21
1156.6373000000001
  0
LINE
  8
_0-0_1
  6
CONTINUOUS
 62
    5
 10
1307.1331
 20
1149.4802
 11
1321.0871
 21
1152.9709
  0
LINE
  8
_0-0_1
  6
CONTINUOUS
 62
    5
 10
1293.1374000000001
 20
1146.2764999999999
 11
1307.1331
 21
1149.4802
  0
LINE
  8
_0-0_1
  6
CONTINUOUS
 62
    5
 10
1279.0838000000001
 20
1143.4709
 11
1293.1374000000001
 21
1146.2764999999999
  0
LINE
  8
_0-0_1
  6
CONTINUOUS
 62
    5
 10
1264.9561000000001
 20
1141.1748
 11
1279.0838000000001
 21
1143.4709
  0
LINE
  8
_0-0_1
  6
CONTINUOUS
 62
    5
 10
1256.7217000000001
 20
1140.1203
 11
1264.9561000000001
 21
1141.1748
  0
LINE
  8
_0-0_1
  6
CONTINUOUS
 62
    5
 10
1253.7845
 20
1139.7991999999999
 11
1256.7217000000001
 21
1140.1203
  0
LINE
  8
_0-0_1
  6
CONTINUOUS
 62
    5
 10
1248.7112
 20
1139.3096
 11
1253.7845
 21
1139.7991999999999
  0
LINE
  8
_0-0_1
  6
CONTINUOUS
 62
    5
 10
1243.6277
 20
1138.8942
 11
1248.7112
 21
1139.3096
  0
LINE
  8
_0-0_1
  6
CONTINUOUS
 62
    5
 10
1238.5352
 20
1138.5452
 11
1243.6277
 21
1138.8942
  0
LINE
  8
_0-0_1
  6
CONTINUOUS
 62
    5
 10
1233.4351999999999
 20
1138.2547
 11
1238.5352
 21
1138.5452
  0
LINE
  8
_0-0_1
  6
CONTINUOUS
 62
    5
 10
1228.3293000000001
 20
1138.0148999999999
 11
1233.4351999999999
 21
1138.2547
  0
LINE
  8
_0-0_1
  6
CONTINUOUS
 62
    5
 10
1225.3656000000001
 20
1137.8958
 11
1228.3293000000001
 21
1138.0148999999999
  0
LINE
  8
_0-0_1
  6
CONTINUOUS
 62
    5
 10
1222.7571
 20
1137.8026
 11
1225.3656000000001
 21
1137.8958
  0
LINE
  8
_0-0_1
  6
CONTINUOUS
 62
    5
 10
1218.2589
 20
1137.6759999999999
 11
1222.7571
 21
1137.8026
  0
LINE
  8
_0-0_1
  6
CONTINUOUS
 62
    5
 10
1213.7618
 20
1137.6094000000001
 11
1218.2589
 21
1137.6759999999999
  0
LINE
  8
_0-0_1
  6
CONTINUOUS
 62
    5
 10
1209.2683999999999
 20
1137.6219000000001
 11
1213.7618
 21
1137.6094000000001
  0
LINE
  8
_0-0_1
  6
CONTINUOUS
 62
    5
 10
1204.7810999999999
 20
1137.7328
 11
1209.2683999999999
 21
1137.6219000000001
  0
LINE
  8
_0-0_1
  6
CONTINUOUS
 62
    5
 10
1200.3025
 20
1137.9612
 11
1204.7810999999999
 21
1137.7328
  0
LINE
  8
_0-0_1
  6
CONTINUOUS
 62
    5
 10
1197.7099000000001
 20
1138.1550999999999
 11
1200.3025
 21
1137.9612
  0
LINE
  8
_0-0_1
  6
CONTINUOUS
 62
    5
 10
1195.1089999999999
 20
1138.3988999999999
 11
1197.7099000000001
 21
1138.1550999999999
  0
LINE
  8
_0-0_1
  6
CONTINUOUS
 62
    5
 10
1190.6342
 20
1138.9262000000001
 11
1195.1089999999999
 21
1138.3988999999999
  0
LINE
  8
_0-0_1
  6
CONTINUOUS
 62
    5
 10
1186.1709000000001
 20
1139.5724
 11
1190.6342
 21
1138.9262000000001
  0
LINE
  8
_0-0_1
  6
CONTINUOUS
 62
    5
 10
1181.7181
 20
1140.3185000000001
 11
1186.1709000000001
 21
1139.5724
  0
LINE
  8
_0-0_1
  6
CONTINUOUS
 62
    5
 10
1177.2747999999999
 20
1141.145
 11
1181.7181
 21
1140.3185000000001
  0
LINE
  8
_0-0_1
  6
CONTINUOUS
 62
    5
 10
1172.8403000000001
 20
1142.0328
 11
1177.2747999999999
 21
1141.145
  0
LINE
  8
_0-0_1
  6
CONTINUOUS
 62
    5
 10
1170.2719
 20
1142.5682999999999
 11
1172.8403000000001
 21
1142.0328
  0
LINE
  8
_0-0_1
  6
CONTINUOUS
 62
    5
 10
1166.9693
 20
1143.2742000000001
 11
1170.2719
 21
1142.5682999999999
  0
LINE
  8
_0-0_1
  6
CONTINUOUS
 62
    5
 10
1161.288
 20
1144.5402999999999
 11
1166.9693
 21
1143.2742000000001
  0
LINE
  8
_0-0_1
  6
CONTINUOUS
 62
    5
 10
1155.6283000000001
 20
1145.8812
 11
1161.288
 21
1144.5402999999999
  0
LINE
  8
_0-0_1
  6
CONTINUOUS
 62
    5
 10
1149.9960000000001
 20
1147.3119999999999
 11
1155.6283000000001
 21
1145.8812
  0
LINE
  8
_0-0_1
  6
CONTINUOUS
 62
    5
 10
1144.3973000000001
 20
1148.8476000000001
 11
1149.9960000000001
 21
1147.3119999999999
  0
LINE
  8
_0-0_1
  6
CONTINUOUS
 62
    5
 10
1138.838
 20
1150.5030999999999
 11
1144.3973000000001
 21
1148.8476000000001
  0
LINE
  8
_0-0_1
  6
CONTINUOUS
 62
    5
 10
1135.634
 20
1151.5239999999999
 11
1138.838
 21
1150.5030999999999
  0
LINE
  8
_0-0_1
  6
CONTINUOUS
 62
    5
 10
1131.1756
 20
1153.0322000000001
 11
1135.634
 21
1151.5239999999999
  0
LINE
  8
_0-0_1
  6
CONTINUOUS
 62
    5
 10
1123.5554999999999
 20
1155.8287
 11
1131.1756
 21
1153.0322000000001
  0
LINE
  8
_0-0_1
  6
CONTINUOUS
 62
    5
 10
1116.0066999999999
 20
1158.8342
 11
1123.5554999999999
 21
1155.8287
  0
LINE
  8
_0-0_1
  6
CONTINUOUS
 62
    5
 10
1108.5135
 20
1162.0030999999999
 11
1116.0066999999999
 21
1158.8342
  0
LINE
  8
_0-0_1
  6
CONTINUOUS
 62
    5
 10
1107.2871
 20
1162.5440000000001
 11
1108.5135
 21
1162.0030999999999
  0
ARC
  8
_0-0_1
  6
CONTINUOUS
 62
    5
 10
1090.6467
 20
1129.4943000000001
 40
36.94905
 50
62.626221000000001
 51
91.897946000000005
  0
LINE
  8
_0-0_1
  6
CONTINUOUS
 62
    5
 10
1089.6356000000001
 20
1109.0083999999999
 11
1107.6356000000001
 21
1109.0083999999999
  0
LINE
  8
_0-0_1
  6
CONTINUOUS
 62
    5
 10
1107.6356000000001
 20
1162.306
 11
1107.6356000000001
 21
1109.0083999999999
  0
LINE
  8
_0-0_1
  6
CONTINUOUS
 62
    5
 10
1089.6356000000001
 20
1190.4984999999999
 11
1089.6356000000001
 21
1109.0083999999999
  0
LINE
  8
_0-0_1
  6
CONTINUOUS
 62
    5
 10
1096.7698
 20
1187.0207
 11
1089.6356000000001
 21
1190.4984999999999
  0
LINE
  8
_0-0_1
  6
CONTINUOUS
 62
    5
 10
1086.0074999999999
 20
1167.6886999999999
 11
1089.6356000000001
 21
1110.9581000000001
  0
LINE
  8
_0-0_1
  6
CONTINUOUS
 62
    5
 10
1089.6356000000001
 20
1165.8747000000001
 11
1086.0074999999999
 21
1167.6886999999999
  0
LINE
  8
_0-0_1
  6
CONTINUOUS
 62
    5
 10
1314.5012999999999
 20
1169.4491
 11
1314.5012999999999
 21
1151.9018000000001
  0
ARC
  8
_0-0_1
  6
CONTINUOUS
 62
    5
 10
1347.4768999999997
 20
1180.3683000000001
 40
1
 50
105.29948999999999
 51
176.99999999999997
  0
LINE
  8
_0-0_1
  6
CONTINUOUS
 62
    5
 10
1345.3495
 20
1158.1409000000001
 11
1345.2902999999997
 21
1157.0103999999999
  0
ARC
  8
_0-0_1
  6
CONTINUOUS
 62
    5
 10
1346.3480999999999
 20
1158.0885000000001
 40
1
 50
105.35783000000001
 51
177
  0
LINE
  8
_0-0_1
  6
CONTINUOUS
 62
    5
 10
1352.7499
 20
1160.8839
 11
1346.0833
 21
1159.0527999999999
  0
ARC
  8
_0-0_1
  6
CONTINUOUS
 62
    5
 10
1353.0147999999999
 20
1159.9195999999999
 40
1
 50
0
 51
105.35783000000001
  0
LINE
  8
_0-0_1
  6
CONTINUOUS
 62
    5
 10
1352.9036000000001
 20
1182.8895
 11
1347.2130999999999
 21
1181.3327999999999
  0
ARC
  8
_0-0_1
  6
CONTINUOUS
 62
    5
 10
1353.1675
 20
1181.925
 40
1
 50
0
 51
105.29948999999999
  0
LINE
  8
_0-0_1
  6
CONTINUOUS
 62
    5
 10
1353.4638999999997
 20
1161.2352000000001
 11
1352.0051000000001
 21
1160.7825
  0
LINE
  8
_0-0_1
  6
CONTINUOUS
 62
    5
 10
1354.1675
 20
1162.1903
 11
1354.1675
 21
1181.925
  0
ARC
  8
_0-0_1
  6
CONTINUOUS
 62
    5
 10
1353.1675
 20
1162.1903
 40
1
 50
287.24145000000004
 51
0.0000000000000508
  0
LINE
  8
_0-0_1
  6
CONTINUOUS
 62
    5
 10
1345.7083
 20
1178.4132
 11
1336.2497000000003
 21
1175.5861
  0
LINE
  8
_0-0_1
  6
CONTINUOUS
 62
    5
 10
1346.4205999999999
 20
1179.319
 11
1346.4783
 21
1180.4205999999999
  0
ARC
  8
_0-0_1
  6
CONTINUOUS
 62
    5
 10
1345.4219000000001
 20
1179.3714
 40
1
 50
286.64103
 51
357
  0
LINE
  8
_0-0_1
  6
CONTINUOUS
 62
    5
 10
1341.9448
 20
1158.4358
 11
1353.8851999999999
 21
1162.2444
  0
LINE
  8
_0-0_1
  6
CONTINUOUS
 62
    5
 10
1335.4373000000001
 20
1154.5871
 11
1345.2419
 21
1157.3884
  0
LINE
  8
_0-0_1
  6
CONTINUOUS
 62
    5
 10
1353.3154999999999
 20
1141.4215999999999
 11
1340.8206999999998
 21
1137.4818
  0
LINE
  8
_0-0_1
  6
CONTINUOUS
 62
    5
 10
1354.0147999999999
 20
1142.3753999999999
 11
1354.0147999999999
 21
1159.9195999999999
  0
ARC
  8
_0-0_1
  6
CONTINUOUS
 62
    5
 10
1353.0147999999999
 20
1142.3753999999999
 40
1
 50
287.50085999999999
 51
0
  0
LINE
  8
_0-0_1
  6
DASHED1
 62
    3
 10
1420.5936999999999
 20
1154.9554000000001
 11
1436.5936999999999
 21
1154.9554000000001
  0
LINE
  8
_0-0_1
  6
DASHED1
 62
    3
 10
1436.5936999999999
 20
1154.9554000000001
 11
1436.5936999999999
 21
1151.9554000000001
  0
LINE
  8
_0-0_1
  6
DASHED1
 62
    3
 10
1420.5936999999999
 20
1154.9554000000001
 11
1420.5936999999999
 21
1151.9554000000001
  0
LINE
  8
_0-0_1
  6
DASHED1
 62
    3
 10
1420.5936999999999
 20
1151.9554000000001
 11
1436.5936999999999
 21
1151.9554000000001
  0
LINE
  8
_0-0_1
  6
DASHED1
 62
    3
 10
1431.5936999999999
 20
1097.0592999999999
 11
1428.5435000000002
 21
1082.5504000000001
  0
LINE
  8
_0-0_1
  6
DASHED1
 62
    3
 10
1431.5936999999999
 20
1151.9554000000001
 11
1431.5936999999999
 21
1097.0592999999999
  0
LINE
  8
_0-0_1
  6
DASHED1
 62
    3
 10
1428.5435000000002
 20
1082.5504000000001
 11
1425.5936999999999
 21
1096.8079
  0
LINE
  8
_0-0_1
  6
DASHED1
 62
    3
 10
1425.5936999999999
 20
1151.9554000000001
 11
1425.5936999999999
 21
1096.8079
  0
LINE
  8
_0-0_1
  6
DASHED1
 62
    3
 10
1683.3002000000001
 20
1150.2361000000001
 11
1699.3002000000001
 21
1150.2361000000001
  0
LINE
  8
_0-0_1
  6
DASHED1
 62
    3
 10
1699.3002000000001
 20
1150.2361000000001
 11
1699.3002000000001
 21
1147.2361000000001
  0
LINE
  8
_0-0_1
  6
DASHED1
 62
    3
 10
1683.3002000000001
 20
1150.2361000000001
 11
1683.3002000000001
 21
1147.2361000000001
  0
LINE
  8
_0-0_1
  6
DASHED1
 62
    3
 10
1683.3002000000001
 20
1147.2361000000001
 11
1699.3002000000001
 21
1147.2361000000001
  0
LINE
  8
_0-0_1
  6
DASHED1
 62
    3
 10
1694.3002000000001
 20
1092.3399999999999
 11
1691.2501000000002
 21
1077.8311000000001
  0
LINE
  8
_0-0_1
  6
DASHED1
 62
    3
 10
1694.3002000000001
 20
1147.2361000000001
 11
1694.3002000000001
 21
1092.3399999999999
  0
LINE
  8
_0-0_1
  6
DASHED1
 62
    3
 10
1691.2501000000002
 20
1077.8311000000001
 11
1688.3002000000001
 21
1092.0886
  0
LINE
  8
_0-0_1
  6
DASHED1
 62
    3
 10
1688.3002000000001
 20
1147.2361000000001
 11
1688.3002000000001
 21
1092.0886
  0
LINE
  8
_0-0_1
  6
DASHED1
 62
    3
 10
1947.5799000000002
 20
1150.2361000000001
 11
1963.5799000000002
 21
1150.2361000000001
  0
LINE
  8
_0-0_1
  6
DASHED1
 62
    3
 10
1963.5799000000002
 20
1150.2361000000001
 11
1963.5799000000002
 21
1147.2361000000001
  0
LINE
  8
_0-0_1
  6
DASHED1
 62
    3
 10
1947.5799000000002
 20
1150.2361000000001
 11
1947.5799000000002
 21
1147.2361000000001
  0
LINE
  8
_0-0_1
  6
DASHED1
 62
    3
 10
1947.5799000000002
 20
1147.2361000000001
 11
1963.5799000000002
 21
1147.2361000000001
  0
LINE
  8
_0-0_1
  6
DASHED1
 62
    3
 10
1958.5799000000002
 20
1092.3399999999999
 11
1955.5297
 21
1077.8311000000001
  0
LINE
  8
_0-0_1
  6
DASHED1
 62
    3
 10
1958.5799000000002
 20
1147.2361000000001
 11
1958.5799000000002
 21
1092.3399999999999
  0
LINE
  8
_0-0_1
  6
DASHED1
 62
    3
 10
1955.5297
 20
1077.8311000000001
 11
1952.5799000000002
 21
1092.0886
  0
LINE
  8
_0-0_1
  6
DASHED1
 62
    3
 10
1952.5799000000002
 20
1147.2361000000001
 11
1952.5799000000002
 21
1092.0886
  0
LINE
  8
_0-1_2
  6
CONTINUOUS
 62
   18
 10
943.5320999999999
 20
1220.6012000000001
 11
1074.0320999999999
 21
1220.6012000000001
  0
LINE
  8
_0-1_2
  6
CONTINUOUS
 62
   18
 10
1074.0320999999999
 20
1220.6012000000001
 11
943.5320999999999
 21
1220.6012000000001
  0
LINE
  8
_0-1_2
  6
CONTINUOUS
 62
   18
 10
1084.056
 20
1339.1043
 11
1084.056
 21
1286.6043
  0
LINE
  8
_0-1_2
  6
CONTINUOUS
 62
   18
 10
1084.056
 20
1336.6043
 11
2104.056
 21
1336.6043
  0
LINE
  8
_0-1_2
  6
CONTINUOUS
 62
   18
 10
2104.056
 20
1339.1043
 11
2104.056
 21
1286.6043
  0
LINE
  8
_0-1_2
  6
CONTINUOUS
 62
   18
 10
1839.056
 20
1339.1043
 11
1839.056
 21
1286.6043
  0
LINE
  8
_0-1_2
  6
CONTINUOUS
 62
   18
 10
1574.056
 20
1339.1043
 11
1574.056
 21
1286.6043
  0
LINE
  8
_0-1_2
  6
CONTINUOUS
 62
   18
 10
1309.056
 20
1339.1043
 11
1309.056
 21
1286.6043
  0
LINE
  8
_0-1_2
  6
CONTINUOUS
 62
   18
 10
1118.0326
 20
1132.4177999999999
 11
1118.0326
 21
1098.4827
  0
LINE
  8
_0-1_2
  6
CONTINUOUS
 62
   18
 10
1118.0326
 20
1098.4827
 11
1153.0326
 21
1098.4827
  0
LINE
  8
_0-1_2
  6
CONTINUOUS
 62
   18
 10
1153.0326
 20
1098.4827
 11
1153.0326
 21
1119.0689
  0
LINE
  8
_0-1_2
  6
CONTINUOUS
 62
   18
 10
1167.6356000000001
 20
1114.4827
 11
1167.6356000000001
 21
1099.4827
  0
LINE
  8
_0-1_2
  6
CONTINUOUS
 62
   18
 10
1167.6356000000001
 20
1099.4827
 11
2122.0837000000001
 21
1099.4827
  0
LINE
  8
_0-1_2
  6
CONTINUOUS
 62
   18
 10
2122.0837000000001
 20
1114.4827
 11
1167.6356000000001
 21
1114.4827
  0
LINE
  8
_0-1_2
  6
CONTINUOUS
 62
   18
 10
1119.6356000000001
 20
1094.4827
 11
2122.0837000000001
 21
1094.4827
  0
LINE
  8
_0-1_2
  6
CONTINUOUS
 62
   18
 10
2122.0837000000001
 20
1044.4827
 11
1119.6356000000001
 21
1044.4827
  0
LINE
  8
_0-1_2
  6
CONTINUOUS
 62
   18
 10
1119.6356000000001
 20
1044.4827
 11
1119.6356000000001
 21
1096.4827
  0
LINE
  8
_0-1_2
  6
CONTINUOUS
 62
   18
 10
1119.6356000000001
 20
1096.4827
 11
2122.0837000000001
 21
1096.4827
  0
LINE
  8
_0-1_2
  6
CONTINUOUS
 62
   18
 10
2122.0837000000001
 20
1042.1831999999999
 11
1234.6364000000001
 21
1042.1831999999999
  0
LINE
  8
_0-1_2
  6
CONTINUOUS
 62
   18
 10
1234.6364000000001
 20
1044.4827
 11
1234.6364000000001
 21
944.48270000000002
  0
LINE
  8
_0-1_2
  6
CONTINUOUS
 62
   18
 10
1234.6364000000001
 20
944.48270000000002
 11
2122.0837000000001
 21
944.48270000000002
  0
LINE
  8
_0-1_2
  6
CONTINUOUS
 62
   18
 10
2122.0837000000001
 20
946.7817
 11
1234.6364000000001
 21
946.7817
  0
LINE
  8
_0-1_2
  6
CONTINUOUS
 62
   18
 10
1654.4760000000001
 20
837.72409999999991
 11
1859.2986999999998
 21
837.72409999999991
  0
LINE
  8
_0-1_2
  6
CONTINUOUS
 62
   18
 10
1129.6356000000001
 20
1044.4827
 11
1129.6356000000001
 21
909.22600000000011
  0
LINE
  8
_0-1_2
  6
CONTINUOUS
 62
   18
 10
1118.2650000000001
 20
909.22600000000011
 11
1148.8770999999999
 21
909.22600000000011
  0
LINE
  8
_0-1_2
  6
CONTINUOUS
 62
   18
 10
1158.768
 20
909.22600000000011
 11
1189.1660999999999
 21
909.22600000000011
  0
LINE
  8
_0-1_2
  6
CONTINUOUS
 62
   18
 10
1179.6356000000001
 20
909.22600000000011
 11
1179.6356000000001
 21
1044.4827
  0
LINE
  8
_0-1_2
  6
CONTINUOUS
 62
   18
 10
1089.6356000000001
 20
859.79009999999994
 11
1089.6356000000001
 21
803.62079999999992
  0
LINE
  8
_0-1_2
  6
CONTINUOUS
 62
   18
 10
847.91619999999989
 20
861.97039999999993
 11
1065.7150999999999
 21
861.97039999999993
  0
LINE
  8
_0-1_2
  6
CONTINUOUS
 62
   18
 10
1089.6356000000001
 20
805.32079999999996
 11
1129.6356000000001
 21
805.32079999999996
  0
LINE
  8
_0-1_2
  6
CONTINUOUS
 62
   18
 10
1129.6356000000001
 20
805.32079999999996
 11
1129.6356000000001
 21
859.79009999999994
  0
LINE
  8
_0-1_2
  6
CONTINUOUS
 62
   18
 10
1117.6356000000001
 20
859.79009999999994
 11
1117.6356000000001
 21
803.62079999999992
  0
LINE
  8
_0-1_2
  6
CONTINUOUS
 62
   18
 10
1129.6356000000001
 20
803.62079999999992
 11
1129.6356000000001
 21
805.32079999999996
  0
LINE
  8
_0-1_2
  6
CONTINUOUS
 62
   18
 10
1136.2239
 20
984.09519999999998
 11
1130.9205999999999
 21
978.79189999999994
  0
LINE
  8
_0-1_2
  6
CONTINUOUS
 62
   18
 10
1136.2239
 20
984.09519999999998
 11
1134.2828
 21
976.85079999999994
  0
LINE
  8
_0-1_2
  6
CONTINUOUS
 62
   18
 10
1136.2239
 20
984.09519999999998
 11
1065.7150999999999
 21
861.97039999999993
  0
LINE
  8
_0-1_2
  6
CONTINUOUS
 62
   18
 10
1148.8770999999999
 20
909.22600000000011
 11
1151.1829
 21
903.95569999999998
  0
LINE
  8
_0-1_2
  6
CONTINUOUS
 62
   18
 10
1151.1829
 20
903.95569999999998
 11
1155.8416999999999
 21
913.1277
  0
LINE
  8
_0-1_2
  6
CONTINUOUS
 62
   18
 10
1155.8416999999999
 20
913.1277
 11
1158.768
 21
909.22600000000011
  0
LINE
  8
_0-1_2
  6
CONTINUOUS
 62
   18
 10
1179.6342999999999
 20
958.10059999999999
 11
1129.6356000000001
 21
1008.0995
  0
LINE
  8
_0-1_2
  6
CONTINUOUS
 62
   18
 10
1129.6356000000001
 20
1012.3422
 11
1179.6344999999999
 21
962.34320000000002
  0
LINE
  8
_0-1_2
  6
CONTINUOUS
 62
   18
 10
1257.2393999999999
 20
1094.4827
 11
1307.2393
 21
1044.4827
  0
LINE
  8
_0-1_2
  6
CONTINUOUS
 62
   18
 10
1311.482
 20
1044.4827
 11
1261.4820999999999
 21
1094.4827
  0
LINE
  8
_0-1_2
  6
CONTINUOUS
 62
   18
 10
1259.6053999999999
 20
1132.5730000000001
 11
1257.6642999999999
 21
1139.8175000000001
  0
LINE
  8
_0-1_2
  6
CONTINUOUS
 62
   18
 10
1259.6053999999999
 20
1132.5730000000001
 11
1196.6903
 21
1241.5452
  0
LINE
  8
_0-1_2
  6
CONTINUOUS
 62
   18
 10
1074.0320999999999
 20
1220.6012000000001
 11
1133.9059
 21
1116.8967
  0
LINE
  8
_0-1_2
  6
CONTINUOUS
 62
   18
 10
1133.9059
 20
1116.8967
 11
1131.9648
 21
1124.1412
  0
LINE
  8
_0-1_2
  6
CONTINUOUS
 62
   18
 10
1131.9648
 20
1124.1412
 11
1133.8585688395951
 21
1117.0733475666129
  0
LINE
  8
_0-1_2
  6
CONTINUOUS
 62
   18
 10
1133.8585688395951
 20
1117.0733475666129
 11
1129.6083348107809
 21
1121.1942651892193
  0
LINE
  8
_0-1_2
  6
CONTINUOUS
 62
   18
 10
1128.6025999999999
 20
1122.2
 11
1129.6083348107809
 21
1121.1942651892193
  0
LINE
  8
_0-1_2
  6
CONTINUOUS
 62
   18
 10
1118.0326
 20
1132.4177999999999
 11
1153.0326
 21
1119.0689
  0
LINE
  8
_0-1_2
  6
CONTINUOUS
 62
   18
 10
1153.0326
 20
1119.0689
 11
1118.0326
 21
1098.4827
  0
LINE
  8
_0-1_2
  6
CONTINUOUS
 62
   18
 10
1118.0326
 20
1132.4177999999999
 11
1153.0326
 21
1098.4827
  0
LINE
  8
_0-1_2
  6
CONTINUOUS
 62
   18
 10
1254.3313899110151
 20
1137.8470100889849
 11
1259.6053999999999
 21
1132.5730000000001
  0
LINE
  8
_0-1_2
  6
CONTINUOUS
 62
   18
 10
1523.6140999999998
 20
1044.4827
 11
1473.6140999999998
 21
1094.4827
  0
LINE
  8
_0-1_2
  6
CONTINUOUS
 62
   18
 10
1469.3714
 20
1094.4827
 11
1519.3714
 21
1044.4827
  0
LINE
  8
_0-1_2
  6
CONTINUOUS
 62
   18
 10
1681.5034000000003
 20
1094.4827
 11
1731.5034000000001
 21
1044.4827
  0
LINE
  8
_0-1_2
  6
CONTINUOUS
 62
   18
 10
1731.5034000000001
 20
1044.4827
 11
1735.7460999999998
 21
1044.4827
  0
LINE
  8
_0-1_2
  6
CONTINUOUS
 62
   18
 10
1735.7460999999998
 20
1044.4827
 11
1685.7460999999998
 21
1094.4827
  0
LINE
  8
_0-1_2
  6
CONTINUOUS
 62
   18
 10
1652.9032999999999
 20
1146.4067
 11
1652.9032999999999
 21
1138.9067
  0
LINE
  8
_0-1_2
  6
CONTINUOUS
 62
   18
 10
1652.9032999999999
 20
1138.9067
 11
1656.6532999999999
 21
1145.4019000000001
  0
LINE
  8
_0-1_2
  6
CONTINUOUS
 62
   18
 10
1584.3299999999999
 20
1090.3547000000001
 11
1584.3299999999999
 21
1097.8547000000001
  0
LINE
  8
_0-1_2
  6
CONTINUOUS
 62
   18
 10
1584.3299999999999
 20
1097.8547000000001
 11
1588.0799999999999
 21
1091.3595
  0
LINE
  8
_0-1_2
  6
CONTINUOUS
 62
   18
 10
1584.3299999999999
 20
1097.8547000000001
 11
1678.1012999999998
 21
747.89560000000006
  0
LINE
  8
_0-1_2
  6
CONTINUOUS
 62
   18
 10
1679.7184000000002
 20
1238.9820999999999
 11
1652.9032999999999
 21
1138.9067
  0
LINE
  8
_0-1_2
  6
CONTINUOUS
 62
   18
 10
1893.6354000000001
 20
1094.4827
 11
1943.6354999999999
 21
1044.4827
  0
LINE
  8
_0-1_2
  6
CONTINUOUS
 62
   18
 10
1947.8780999999999
 20
1044.4827
 11
1897.8780999999999
 21
1094.4827
  0
TEXT
  8
_0-0_1
 62
    7
 10
1193.6123000009611
 20
1353.5481590957652
 40
20
 41
1
 50
0
  1
225
  0
TEXT
  8
_0-0_1
 62
    7
 10
1435.5039890756034
 20
1350.3861762320444
 40
20
 41
1
 50
0
  1
265
  0
TEXT
  8
_0-0_1
 62
    7
 10
1696.3675753325708
 20
1350.3861762320444
 40
20
 41
1
 50
0
  1
265
  0
TEXT
  8
_0-0_1
 62
    7
 10
1957.2311615895383
 20
1350.3861762320444
 40
20
 41
1
 50
0
  1
265
  0
TEXT
  8
_0-2_3
 62
    7
 10
820.49832208190492
 20
869.7647809464803
 40
20
 41
1
 50
0
  1
破風板：薄型ALCパネル　
  0
TEXT
  8
_0-0_1
 62
    7
 10
1661.585763831642
 20
841.30693517299301
 40
20
 41
1
 50
0
  1
瓦桟：１５ｘ３０以上
  0
TEXT
  8
_0-1_2
 62
    7
 10
1680.5576610139667
 20
1241.2977674336762
 40
20
 41
1
 50
0
  1
桟　瓦
  0
TEXT
  8
_0-1_2
 62
    7
 10
1136.6966084539863
 20
1247.6217331611178
 40
20
 41
1
 50
0
  1
左袖瓦
  0
TEXT
  8
_0-0_1
 62
    7
 10
1671.0717124228042
 20
781.22926076229749
 40
20
 41
1
 50
0
  1
野地板：ＡＬＣｔ＝５０
  0
TEXT
  8
_0-0_1
 62
    7
 10
1663.1667552635022
 20
812.84908939950571
 40
20
 41
1
 50
0
  1
下葺材：ルーフィング
  0
LINE
  8
_0-0_1
  6
CONTINUOUS
 62
    3
 10
1661.3850000000002
 20
807.85750000000007
 11
1874.1355677105603
 21
807.85750000000007
  0
LINE
  8
_0-1_2
  6
CONTINUOUS
 62
   18
 10
1662.0345501613187
 20
807.85750000000007
 11
1870.6076336441461
 21
807.85750000000007
  0
LINE
  8
_0-0_1
  6
CONTINUOUS
 62
    3
 10
1670.9281000000001
 20
777.76219999999989
 11
1904.7109962861491
 21
777.76219999999989
  0
LINE
  8
_0-1_2
  6
CONTINUOUS
 62
   18
 10
1909.4149083747016
 20
777.76219999999989
 11
1670.9281000000001
 21
777.76219999999989
  0
LINE
  8
_0-0_1
  6
CONTINUOUS
 62
    3
 10
1678.1012999999998
 20
747.89560000000006
 11
1914.1188204632535
 21
747.89560000000006
  0
LINE
  8
_0-1_2
  6
CONTINUOUS
 62
   18
 10
1678.1012999999998
 20
747.89560000000006
 11
1909.4149083747016
 21
747.89560000000006
  0
TEXT
  8
_0-0_1
 62
    7
 10
1680.0991940577837
 20
752.36640157908778
 40
20
 41
1
 50
0
  1
鋼製：C－100x50x20x2.3　
  0
LINE
  8
_0-1_2
  6
CONTINUOUS
 62
    3
 10
1196.6903
 20
1241.5452
 11
1141.5012599185611
 21
1241.5452
  0
LINE
  8
_0-1_2
  6
CONTINUOUS
 62
   18
 10
1141.5012599185611
 20
1241.5452
 11
1196.6903
 21
1241.5452
  0
LINE
  8
_0-1_2
  6
CONTINUOUS
 62
    3
 10
1679.7184000000002
 20
1238.9820999999999
 11
1753.0098314303423
 21
1238.9820999999999
  0
LINE
  8
_0-1_2
  6
CONTINUOUS
 62
   18
 10
1679.7184000000002
 20
1238.9820999999999
 11
1753.0098314303423
 21
1238.9820999999999
  0
TEXT
  8
_0-1_2
 62
    7
 10
955.69673242075055
 20
1232.1654346114085
 40
20
 41
1
 50
0
  1
登淀：30x40
  0
TEXT
  8
_0-0_1
 62
    7
 10
1120.333655520076
 20
773.53400597757263
 40
20
 41
1
 50
0
  1
12
  0
TEXT
  8
_0-0_1
 62
    7
 10
1082.702358811659
 20
773.53400597757263
 40
20
 41
1
 50
0
  1
28
  0
ENDSEC
  0
EOF
