  0
SECTION
  2
HEADER
  9
$ACADVER
  1
AC1009
  9
$INSBASE
 10
0
 20
0
 30
0
  9
$EXTMIN
 10
0
 20
0
  9
$EXTMAX
 10
2970
 20
2100
  9
$LIMMIN
 10
0
 20
0
  9
$LIMMAX
 10
2970
 20
2100
  9
$LTSCALE
 40
10
  0
ENDSEC
  0
SECTION
  2
TABLES
  0
TABLE
  2
LTYPE
 70
     9
  0
LTYPE
  2
CONTINUOUS
 70
    64
  3
実線
 72
    65
 73
     0
 40
0.0
  0
LTYPE
  2
DASHED1
 70
    64
  3
--  --  --  --  --  --  --  --  
 72
    65
 73
     2
 40
2.5
 49
1.25
 49
-1.25
  0
LTYPE
  2
DASHED2
 70
    64
  3
----    ----    ----    ----    
 72
    65
 73
     2
 40
5.0
 49
2.5
 49
-2.5
  0
LTYPE
  2
DASHED3
 70
    64
  3
------  ------  ------  ------  
 72
    65
 73
     2
 40
5.0
 49
3.75
 49
-1.25
  0
LTYPE
  2
CENTER1
 70
    64
  3
----- - ----- - ----- - ----- - 
 72
    65
 73
     4
 40
10.0
 49
6.25
 49
-1.25
 49
1.25
 49
-1.25
  0
LTYPE
  2
CENTER2
 70
    64
  3
----------  --  ----------  --  
 72
    65
 73
     4
 40
20.0
 49
12.5
 49
-2.5
 49
2.5
 49
-2.5
  0
LTYPE
  2
PHANTOM1
 70
    64
  3
--- - - --- - - --- - - --- - - 
 72
    65
 73
     6
 40
10.0
 49
3.25
 49
-1.25
 49
1.25
 49
-1.25
 49
1.25
 49
-1.25
  0
LTYPE
  2
PHANTOM2
 70
    64
  3
--------  -  -  --------  -  -  
 72
    65
 73
     6
 40
20.0
 49
10.0
 49
-2.5
 49
1.25
 49
-2.5
 49
1.25
 49
-2.5
  0
LTYPE
  2
DOT
 70
    64
  3
-   -   -   -   -   -   -   -   
 72
    65
 73
     2
 40
2.5
 49
0.625
 49
-1.875
  0
LTYPE
  2
DUMMY
 70
    64
  3
ダミー
 72
    65
 73
     0
 40
0.0
  0
LTYPE
  2
RAND1
 70
    64
  3
ランダム線1
 72
    65
 73
     4
 40
10.0
 49
1.0
 49
-2.0
 49
3.0
 49
-4.0
  0
LTYPE
  2
RAND2
 70
    64
  3
ランダム線2
 72
    65
 73
     4
 40
14.0
 49
2.0
 49
-3.0
 49
4.0
 49
-5.0
  0
LTYPE
  2
RAND3
 70
    64
  3
ランダム線3
 72
    65
 73
     4
 40
18.0
 49
3.0
 49
-4.0
 49
5.0
 49
-6.0
  0
LTYPE
  2
RAND4
 70
    64
  3
ランダム線4
 72
    65
 73
     4
 40
22.0
 49
4.0
 49
-5.0
 49
6.0
 49
-7.0
  0
LTYPE
  2
RAND5
 70
    64
  3
ランダム線5
 72
    65
 73
     4
 40
26.0
 49
5.0
 49
-6.0
 49
7.0
 49
-8.0
  0
LTYPE
  2
LONG1
 70
    64
  3
----------  --  ----------  --  
 72
    65
 73
     4
 40
40.0
 49
32.5
 49
-2.5
 49
2.5
 49
-2.5
  0
LTYPE
  2
LONG2
 70
    64
  3
--------  -  -  --------  -  -  
 72
    65
 73
     6
 40
40.0
 49
30.0
 49
-2.5
 49
1.25
 49
-2.5
 49
1.25
 49
-2.5
  0
LTYPE
  2
LONG3
 70
    64
  3
+++++++++++++++..+++++++++++++++
 72
    65
 73
     2
 40
40.0
 49
37.5
 49
-2.5
  0
LTYPE
  2
LONG4
 70
    64
  3
+++++++++++++++..+++++++++++++++
 72
    65
 73
     2
 40
80.0
 49
75.0
 49
-5.0
  0
LTYPE
  2
LONG5
 70
    64
  3
----------  --  ----------  --  
 72
    65
 73
     4
 40
60.0
 49
37.5
 49
-7.5
 49
7.5
 49
-7.5
  0
LTYPE
  2
dashed
 70
   64
  3
-------   -------------   ------
 72
   65
 73
    2
 40
7.5
 49
6
 49
-1.5
  0
LTYPE
  2
dashed_spaced
 70
   64
  3
----        --------        ----
 72
   65
 73
    2
 40
12
 49
6
 49
-6
  0
LTYPE
  2
long_dashed_dotted
 70
   64
  3
------------- --- --------------
 72
   65
 73
    4
 40
15.25
 49
12
 49
-1.5
 49
0.25
 49
-1.5
  0
LTYPE
  2
long_dashed_double-dotted
 70
   64
  3
----------- --- --- ------------
 72
   65
 73
    6
 40
17
 49
12
 49
-1.5
 49
0.25
 49
-1.5
 49
0.25
 49
-1.5
  0
LTYPE
  2
long_dashed_triplicate-dotted
 70
   64
  3
--------- --- --- --- ----------
 72
   65
 73
    8
 40
18.75
 49
12
 49
-1.5
 49
0.25
 49
-1.5
 49
0.25
 49
-1.5
 49
0.25
 49
-1.5
  0
LTYPE
  2
dotted
 70
   64
  3
   -       -       -       -    
 72
   65
 73
    2
 40
1.75
 49
0.25
 49
-1.5
  0
LTYPE
  2
chain
 70
   64
  3
-------------- -- --------------
 72
   65
 73
    4
 40
18.5
 49
12
 49
-1.5
 49
3.5
 49
-1.5
  0
LTYPE
  2
chain_double_dash
 70
   64
  3
------------ -- -- -------------
 72
   65
 73
    6
 40
23.5
 49
12
 49
-1.5
 49
3.5
 49
-1.5
 49
3.5
 49
-1.5
  0
LTYPE
  2
dashed_dotted
 70
   64
  3
-----------     -     ----------
 72
   65
 73
    4
 40
9.25
 49
6
 49
-1.5
 49
0.25
 49
-1.5
  0
LTYPE
  2
double-dashed_dotted
 70
   64
  3
------   -----------   -   -----
 72
   65
 73
    6
 40
16.75
 49
6
 49
-1.5
 49
6
 49
-1.5
 49
0.25
 49
-1.5
  0
LTYPE
  2
dashed_double-dotted
 70
   64
  3
---------    -    -    ---------
 72
   65
 73
    6
 40
11
 49
6
 49
-1.5
 49
0.25
 49
-1.5
 49
0.25
 49
-1.5
  0
LTYPE
  2
double-dashed_double-dotted
 70
   64
  3
-----   ---------   -   -   ----
 72
   65
 73
    8
 40
18.5
 49
6
 49
-1.5
 49
6
 49
-1.5
 49
0.25
 49
-1.5
 49
0.25
 49
-1.5
  0
LTYPE
  2
dashed_triplicate-dotted
 70
   64
  3
-------    -    -    -    ------
 72
   65
 73
    8
 40
12.75
 49
6
 49
-1.5
 49
0.25
 49
-1.5
 49
0.25
 49
-1.5
 49
0.25
 49
-1.5
  0
LTYPE
  2
double-dashed_triplicate-dotted
 70
   64
  3
-----  ---------  -  -  -  -----
 72
   65
 73
   10
 40
20.25
 49
6
 49
-1.5
 49
6
 49
-1.5
 49
0.25
 49
-1.5
 49
0.25
 49
-1.5
 49
0.25
 49
-1.5
  0
LTYPE
  2
undefined
 70
   64
  3
--------------------------------
 72
   65
 73
    0
 40
0
  0
ENDTAB
  0
TABLE
  2
STYLE
  5
3
100
AcDbSymbolTable
 70
     1
  0
STYLE
  5
10
100
AcDbSymbolTableRecord
100
AcDbTextStyleTableRecord
  2
STANDARD
 70
     0
 40
0.0
 41
1.0
 50
0.0
 71
     0
 42
0.2
  3
txt
  4
bigfont.shx
  0
STYLE
  5
26
100
AcDbSymbolTableRecord
100
AcDbTextStyleTableRecord
  2
TATEGAKI
 70
    68
 40
0.0
 41
1.0
 50
0.0
 71
     0
 42
1.0
  3
txt
  4
bigfont.shx
  0
ENDTAB
  0
TABLE
  2
LAYER
 70
    6
  0
LAYER
  2
_0-0_1
 70
   64
 62
    7
  6
CONTINUOUS
  0
LAYER
  2
_0-1_2
 70
   64
 62
    7
  6
CONTINUOUS
  0
LAYER
  2
_0-2_3
 70
   64
 62
    7
  6
CONTINUOUS
  0
LAYER
  2
_0-3_4
 70
   64
 62
    7
  6
CONTINUOUS
  0
LAYER
  2
_0-4_5
 70
   64
 62
    7
  6
CONTINUOUS
  0
LAYER
  2
ADD_LINE
 70
   64
 62
    7
  6
CONTINUOUS
  0
ENDTAB
  0
ENDSEC
  0
SECTION
  2
BLOCKS
  0
ENDSEC
  0
SECTION
  2
ENTITIES
  0
LINE
  8
_0-1_2
  6
CONTINUOUS
 62
    3
 10
1110.4447
 20
1121.9911
 11
1112.3858
 21
1114.7466999999999
  0
LINE
  8
_0-1_2
  6
CONTINUOUS
 62
    3
 10
1112.3858
 20
1114.7466999999999
 11
1107.0825
 21
1120.05
  0
LINE
  8
_0-1_2
  6
CONTINUOUS
 62
    3
 10
1112.3858
 20
1114.7466999999999
 11
1052.5119999999999
 21
1218.4511
  0
LINE
  8
_0-1_2
  6
CONTINUOUS
 62
    3
 10
1052.5119999999999
 20
1218.4511
 11
922.01199999999994
 21
1218.4511
  0
LINE
  8
_0-4_5
  6
CONTINUOUS
 62
    3
 10
1113.0777
 20
989.87599999999998
 11
1118.3810000000001
 21
995.17930000000001
  0
LINE
  8
_0-4_5
  6
CONTINUOUS
 62
    3
 10
1118.3810000000001
 20
995.17930000000001
 11
1116.4399000000001
 21
987.93489999999997
  0
LINE
  8
_0-4_5
  6
CONTINUOUS
 62
    3
 10
1118.3810000000001
 20
995.17930000000001
 11
1047.8722
 21
873.05449999999996
  0
LINE
  8
_0-0_1
  6
CONTINUOUS
 62
    3
 10
1190.9213999999999
 20
1086.5708999999999
 11
1180.9203
 21
1086.5703000000001
  0
LINE
  8
_0-0_1
  6
CONTINUOUS
 62
    3
 10
1190.9204999999999
 20
1083.5708999999999
 11
1180.9214999999999
 21
1083.5704000000001
  0
LINE
  8
_0-0_1
  6
CONTINUOUS
 62
    3
 10
1180.9203
 20
1086.5703000000001
 11
1180.9214999999999
 21
1083.5704000000001
  0
LINE
  8
_0-0_1
  6
CONTINUOUS
 62
    3
 10
1190.9213999999999
 20
1086.5708999999999
 11
1190.9204999999999
 21
1083.5708999999999
  0
LINE
  8
_0-0_1
  6
CONTINUOUS
 62
    3
 10
1185.9208000000001
 20
1086.5706
 11
1185.9208000000001
 21
1083.5703000000001
  0
LINE
  8
_0-0_1
  6
CONTINUOUS
 62
    3
 10
1185.9269999999999
 20
1041.5704000000001
 11
1183.9262000000001
 21
1047.1705999999999
  0
LINE
  8
_0-0_1
  6
CONTINUOUS
 62
    3
 10
1185.9269999999999
 20
1041.5704000000001
 11
1187.9263000000001
 21
1047.1704
  0
LINE
  8
_0-0_1
  6
CONTINUOUS
 62
    3
 10
1182.6849999999999
 20
1067.4685999999999
 11
1189.3317999999999
 21
1068.5262
  0
LINE
  8
_0-0_1
  6
CONTINUOUS
 62
    3
 10
1182.6867999999999
 20
1067.4686999999999
 11
1189.3338000000001
 21
1068.5264
  0
LINE
  8
_0-0_1
  6
CONTINUOUS
 62
    3
 10
1182.6874
 20
1067.4685999999999
 11
1189.3342
 21
1068.5263
  0
LINE
  8
_0-0_1
  6
CONTINUOUS
 62
    3
 10
1182.6893
 20
1057.4680000000001
 11
1189.3348000000001
 21
1058.5251000000001
  0
LINE
  8
_0-0_1
  6
CONTINUOUS
 62
    3
 10
1182.6894
 20
1048.7261000000001
 11
1189.3362999999999
 21
1049.7837
  0
LINE
  8
_0-0_1
  6
CONTINUOUS
 62
    3
 10
1187.9236000000001
 20
1080.5727999999999
 11
1187.9263000000001
 21
1047.1704
  0
LINE
  8
_0-0_1
  6
CONTINUOUS
 62
    3
 10
1190.9204999999999
 20
1083.5708999999999
 11
1187.9219000000001
 21
1080.5727999999999
  0
LINE
  8
_0-0_1
  6
CONTINUOUS
 62
    3
 10
1183.9235000000001
 20
1080.5699999999999
 11
1183.9262000000001
 21
1047.1705999999999
  0
LINE
  8
_0-0_1
  6
CONTINUOUS
 62
    3
 10
1180.9214999999999
 20
1083.5704000000001
 11
1183.9218000000001
 21
1080.5699999999999
  0
LINE
  8
_0-1_2
  6
CONTINUOUS
 62
    3
 10
1763.3398999999999
 20
1086.5706
 11
1100.9262000000001
 21
1086.5706
  0
LINE
  8
_0-1_2
  6
CONTINUOUS
 62
    3
 10
1151.4204999999999
 20
1107.0496000000001
 11
1151.4204999999999
 21
1092.0496000000001
  0
LINE
  8
_0-0_1
  6
CONTINUOUS
 62
    3
 10
1134.7201
 20
930.21559999999999
 11
1139.3788999999999
 21
921.04359999999997
  0
LINE
  8
_0-0_1
  6
CONTINUOUS
 62
    3
 10
1131.7937999999999
 20
926.3139000000001
 11
1134.7201
 21
930.21559999999999
  0
LINE
  8
_0-0_1
  6
CONTINUOUS
 62
    3
 10
1139.3788999999999
 20
921.04359999999997
 11
1141.6846
 21
926.3139000000001
  0
LINE
  8
_0-0_1
  6
CONTINUOUS
 62
    3
 10
1101.3956000000001
 20
926.3139000000001
 11
1131.7937999999999
 21
926.3139000000001
  0
LINE
  8
_0-0_1
  6
CONTINUOUS
 62
    3
 10
1141.6846
 20
926.3139000000001
 11
1172.2968000000001
 21
926.3139000000001
  0
LINE
  8
_0-1_2
  6
CONTINUOUS
 62
    2
 10
2139.9265999999998
 20
1086.5706
 11
1100.9262000000001
 21
1086.5706
  0
LINE
  8
_0-1_2
  6
CONTINUOUS
 62
    3
 10
1624.9342000000001
 20
1152.9786999999999
 11
1621.1842000000001
 21
1146.4835
  0
LINE
  8
_0-1_2
  6
CONTINUOUS
 62
    3
 10
1621.1842000000001
 20
1146.4835
 11
1621.1842000000001
 21
1153.9835
  0
LINE
  8
_0-1_2
  6
CONTINUOUS
 62
    3
 10
1621.1842000000001
 20
1146.4835
 11
1647.9992999999999
 21
1246.5588
  0
LINE
  8
_0-1_2
  6
CONTINUOUS
 62
    3
 10
1248.1496999999999
 20
1136.5481
 11
1250.0907999999999
 21
1129.3036999999999
  0
LINE
  8
_0-1_2
  6
CONTINUOUS
 62
    3
 10
1250.0907999999999
 20
1129.3036999999999
 11
1244.7874999999999
 21
1134.607
  0
LINE
  8
_0-1_2
  6
CONTINUOUS
 62
    3
 10
1250.0907999999999
 20
1129.3036999999999
 11
1187.1757
 21
1238.2759000000001
  0
LINE
  8
_0-0_1
  6
CONTINUOUS
 62
    2
 10
2139.9265999999998
 20
1066.5706
 11
1100.9262000000001
 21
1066.5706
  0
LINE
  8
_0-0_1
  6
CONTINUOUS
 62
    2
 10
2139.9265999999998
 20
1071.5706
 11
1100.9262000000001
 21
1071.5706
  0
LINE
  8
_0-0_1
  6
CONTINUOUS
 62
    2
 10
2139.9265999999998
 20
1076.5706
 11
1100.9262000000001
 21
1076.5706
  0
LINE
  8
_0-0_1
  6
CONTINUOUS
 62
    2
 10
2139.9265999999998
 20
1081.5706
 11
1100.9262000000001
 21
1081.5706
  0
LINE
  8
_0-3_4
  6
CONTINUOUS
 62
    3
 10
1151.4204999999999
 20
1107.0496000000001
 11
2139.9265999999998
 21
1107.0496000000001
  0
LINE
  8
_0-2_3
  6
CONTINUOUS
 62
    3
 10
1151.4204999999999
 20
1092.0496000000001
 11
2139.9265999999998
 21
1092.0496000000001
  0
LINE
  8
_0-2_3
  6
DASHED3
 62
    3
 10
1100.9262000000001
 20
1087.3496
 11
2139.9265999999998
 21
1087.3496
  0
LINE
  8
_0-0_1
  6
CONTINUOUS
 62
    3
 10
1070.9262000000001
 20
842.95880000000011
 11
1070.9262000000001
 21
895.45880000000011
  0
CIRCLE
  8
_0-0_1
  6
CONTINUOUS
 62
    3
 10
1070.9262000000001
 20
845.45880000000011
 40
1.6999999999999997
  0
LINE
  8
_0-0_1
  6
CONTINUOUS
 62
    3
 10
1070.9262000000001
 20
845.45880000000011
 11
1098.9262000000001
 21
845.45880000000011
  0
CIRCLE
  8
_0-0_1
  6
CONTINUOUS
 62
    3
 10
1098.9262000000001
 20
845.45880000000011
 40
1.6999999999999997
  0
LINE
  8
_0-0_1
  6
CONTINUOUS
 62
    3
 10
1098.9262000000001
 20
842.95880000000011
 11
1098.9262000000001
 21
895.45880000000011
  0
CIRCLE
  8
_0-0_1
  6
CONTINUOUS
 62
    3
 10
1098.9262000000001
 20
845.45880000000011
 40
1.6999999999999997
  0
LINE
  8
_0-0_1
  6
CONTINUOUS
 62
    3
 10
1098.9262000000001
 20
845.45880000000011
 11
1110.9262000000001
 21
845.45880000000011
  0
CIRCLE
  8
_0-0_1
  6
CONTINUOUS
 62
    3
 10
1110.9262000000001
 20
845.45880000000011
 40
1.6999999999999997
  0
LINE
  8
_0-0_1
  6
CONTINUOUS
 62
    3
 10
1110.9262000000001
 20
842.95880000000011
 11
1110.9262000000001
 21
895.45880000000011
  0
LINE
  8
_0-0_1
  6
CONTINUOUS
 62
    3
 10
1064.8395
 20
1332.8262999999997
 11
1064.8395
 21
1280.3262999999997
  0
CIRCLE
  8
_0-0_1
  6
CONTINUOUS
 62
    3
 10
1064.8395
 20
1330.3262999999997
 40
1.6999999999999997
  0
LINE
  8
_0-0_1
  6
CONTINUOUS
 62
    3
 10
1064.8395
 20
1330.3262999999997
 11
1289.8395
 21
1330.3262999999997
  0
CIRCLE
  8
_0-0_1
  6
CONTINUOUS
 62
    3
 10
1289.8395
 20
1330.3262999999997
 40
1.6999999999999997
  0
LINE
  8
_0-0_1
  6
CONTINUOUS
 62
    3
 10
1289.8395
 20
1332.8262999999997
 11
1289.8395
 21
1280.3262999999997
  0
CIRCLE
  8
_0-0_1
  6
CONTINUOUS
 62
    3
 10
1289.8395
 20
1330.3262999999997
 40
1.6999999999999997
  0
LINE
  8
_0-0_1
  6
CONTINUOUS
 62
    3
 10
1289.8395
 20
1330.3262999999997
 11
1554.8395
 21
1330.3262999999997
  0
CIRCLE
  8
_0-0_1
  6
CONTINUOUS
 62
    3
 10
1554.8395
 20
1330.3262999999997
 40
1.6999999999999997
  0
LINE
  8
_0-0_1
  6
CONTINUOUS
 62
    3
 10
1554.8395
 20
1332.8262999999997
 11
1554.8395
 21
1280.3262999999997
  0
CIRCLE
  8
_0-0_1
  6
CONTINUOUS
 62
    3
 10
1554.8395
 20
1330.3262999999997
 40
1.6999999999999997
  0
LINE
  8
_0-0_1
  6
CONTINUOUS
 62
    3
 10
1554.8395
 20
1330.3262999999997
 11
1819.8395
 21
1330.3262999999997
  0
CIRCLE
  8
_0-0_1
  6
CONTINUOUS
 62
    3
 10
1819.8395
 20
1330.3262999999997
 40
1.6999999999999997
  0
LINE
  8
_0-0_1
  6
CONTINUOUS
 62
    3
 10
1819.8395
 20
1332.8262999999997
 11
1819.8395
 21
1280.3262999999997
  0
CIRCLE
  8
_0-0_1
  6
CONTINUOUS
 62
    3
 10
1819.8395
 20
1330.3262999999997
 40
1.6999999999999997
  0
LINE
  8
_0-0_1
  6
CONTINUOUS
 62
    3
 10
1819.8395
 20
1330.3262999999997
 11
2084.8395
 21
1330.3262999999997
  0
CIRCLE
  8
_0-0_1
  6
CONTINUOUS
 62
    3
 10
2084.8395
 20
1330.3262999999997
 40
1.6999999999999997
  0
LINE
  8
_0-0_1
  6
CONTINUOUS
 62
    3
 10
2084.8395
 20
1332.8262999999997
 11
2084.8395
 21
1280.3262999999997
  0
LINE
  8
_0-0_1
  6
CONTINUOUS
 62
    3
 10
1646.4657999999999
 20
844.23080000000004
 11
1851.2885000000001
 21
844.23080000000004
  0
LINE
  8
_0-0_1
  6
CONTINUOUS
 62
    3
 10
1580.1858999999999
 20
1088.6249
 11
1580.1858999999999
 21
1096.1249
  0
LINE
  8
_0-0_1
  6
CONTINUOUS
 62
    3
 10
1580.1858999999999
 20
1096.1249
 11
1583.9358999999999
 21
1089.6297
  0
LINE
  8
_0-0_1
  6
CONTINUOUS
 62
    3
 10
1580.1858999999999
 20
1096.1249
 11
1671.8114999999998
 21
754.17360000000008
  0
LINE
  8
_0-0_1
  6
CONTINUOUS
 62
    3
 10
1208.627
 20
981.57050000000004
 11
1210.9265
 21
981.57040000000006
  0
LINE
  8
_0-0_1
  6
CONTINUOUS
 62
    3
 10
1208.6261999999999
 20
1041.5706
 11
1210.9267
 21
1041.5702000000001
  0
LINE
  8
_0-0_1
  6
CONTINUOUS
 62
    3
 10
1208.6269
 20
1056.5713000000001
 11
1208.6261999999999
 21
1041.5706
  0
LINE
  8
_0-0_1
  6
CONTINUOUS
 62
    3
 10
1165.9275
 20
1059.2722000000001
 11
1205.9265
 21
1059.2713000000001
  0
LINE
  8
_0-0_1
  6
CONTINUOUS
 62
    3
 10
1205.9274
 20
1061.5704000000001
 11
1165.9265
 21
1061.5710999999999
  0
LINE
  8
_0-0_1
  6
CONTINUOUS
 62
    3
 10
1210.9269999999999
 20
1056.5708999999999
 11
1210.9267
 21
1041.5702000000001
  0
LINE
  8
_0-0_1
  6
CONTINUOUS
 62
    3
 10
1160.9248
 20
966.57040000000006
 11
1160.9268999999999
 21
1056.5713000000001
  0
LINE
  8
_0-0_1
  6
CONTINUOUS
 62
    3
 10
1205.9265
 20
961.56989999999996
 11
1165.9244000000001
 21
961.57079999999996
  0
LINE
  8
_0-0_1
  6
CONTINUOUS
 62
    3
 10
1210.9260999999999
 20
966.56960000000004
 11
1210.9265
 21
981.57040000000006
  0
LINE
  8
_0-0_1
  6
CONTINUOUS
 62
    3
 10
1208.6268
 20
966.56960000000004
 11
1208.627
 21
981.57050000000004
  0
LINE
  8
_0-0_1
  6
CONTINUOUS
 62
    3
 10
1165.9257
 20
963.86989999999992
 11
1205.9266
 21
963.86930000000007
  0
LINE
  8
_0-0_1
  6
CONTINUOUS
 62
    3
 10
1163.2253000000001
 20
966.56999999999994
 11
1163.2276999999999
 21
1056.5717999999999
  0
LINE
  8
_0-0_1
  6
CONTINUOUS
 62
    3
 10
1235.9278999999999
 20
1002.5708999999999
 11
1228.1334999999999
 21
1007.0707
  0
LINE
  8
_0-0_1
  6
CONTINUOUS
 62
    3
 10
1228.1334999999999
 20
1007.0707
 11
1228.1331
 21
1016.0706
  0
LINE
  8
_0-0_1
  6
CONTINUOUS
 62
    3
 10
1228.1331
 20
1016.0706
 11
1235.9269999999999
 21
1020.5708
  0
LINE
  8
_0-0_1
  6
CONTINUOUS
 62
    3
 10
1235.9269999999999
 20
1020.5708
 11
1243.7213999999999
 21
1016.0710999999999
  0
LINE
  8
_0-0_1
  6
CONTINUOUS
 62
    3
 10
1243.7213999999999
 20
1016.0710999999999
 11
1243.7218
 21
1007.0712000000001
  0
LINE
  8
_0-0_1
  6
CONTINUOUS
 62
    3
 10
1243.7218
 20
1007.0712000000001
 11
1235.9278999999999
 21
1002.5708999999999
  0
LINE
  8
_0-0_1
  6
CONTINUOUS
 62
    3
 10
1240.9269999999999
 20
1001.5707
 11
1240.9275
 21
1005.4575
  0
LINE
  8
_0-0_1
  6
CONTINUOUS
 62
    3
 10
1230.9276
 20
1001.5705
 11
1230.9273000000001
 21
1005.4576999999999
  0
LINE
  8
_0-0_1
  6
CONTINUOUS
 62
    3
 10
1230.9278999999999
 20
1021.5709999999999
 11
1230.9274
 21
1017.6841999999999
  0
LINE
  8
_0-0_1
  6
CONTINUOUS
 62
    3
 10
1240.9273000000001
 20
1021.5712000000001
 11
1240.9276
 21
1017.6840999999999
  0
LINE
  8
_0-0_1
  6
CONTINUOUS
 62
    3
 10
2139.9265999999998
 20
961.57060000000001
 11
1215.9269999999999
 21
961.57060000000001
  0
LINE
  8
_0-0_1
  6
CONTINUOUS
 62
    3
 10
1210.9269999999999
 20
1051.5708999999999
 11
1210.9269999999999
 21
971.57089999999994
  0
LINE
  8
_0-0_1
  6
CONTINUOUS
 62
    3
 10
1215.9269999999999
 20
963.86959999999999
 11
2139.9265999999998
 21
963.86959999999999
  0
LINE
  8
_0-0_1
  6
CONTINUOUS
 62
    3
 10
1215.9269999999999
 20
1059.2710999999999
 11
2139.9265999999998
 21
1059.2710999999999
  0
LINE
  8
_0-0_1
  6
CONTINUOUS
 62
    3
 10
1260.9269999999999
 20
1051.5708999999999
 11
1260.9269999999999
 21
1041.5702000000001
  0
LINE
  8
_0-0_1
  6
CONTINUOUS
 62
    3
 10
1214.127
 20
1051.5708999999999
 11
1214.127
 21
971.57089999999994
  0
LINE
  8
_0-0_1
  6
CONTINUOUS
 62
    3
 10
1210.9269999999999
 20
1051.5708999999999
 11
1215.9269999999999
 21
1051.5708999999999
  0
LINE
  8
_0-0_1
  6
CONTINUOUS
 62
    3
 10
1215.9269999999999
 20
1051.5708999999999
 11
1260.9269999999999
 21
1051.5708999999999
  0
LINE
  8
_0-0_1
  6
CONTINUOUS
 62
    3
 10
1260.9269999999999
 20
1041.5702000000001
 11
1260.9269999999999
 21
981.57040000000006
  0
LINE
  8
_0-0_1
  6
CONTINUOUS
 62
    3
 10
1260.9269999999999
 20
981.57040000000006
 11
1260.9269999999999
 21
971.57089999999994
  0
LINE
  8
_0-0_1
  6
CONTINUOUS
 62
    3
 10
1210.9269999999999
 20
971.57089999999994
 11
1215.9269999999999
 21
971.57089999999994
  0
LINE
  8
_0-0_1
  6
CONTINUOUS
 62
    3
 10
1215.9269999999999
 20
971.57089999999994
 11
1260.9269999999999
 21
971.57089999999994
  0
LINE
  8
_0-0_1
  6
CONTINUOUS
 62
    3
 10
1215.9269999999999
 20
1061.5706
 11
1215.9269999999999
 21
1041.5702000000001
  0
LINE
  8
_0-0_1
  6
CONTINUOUS
 62
    3
 10
1215.9269999999999
 20
1041.5702000000001
 11
1215.9269999999999
 21
971.57089999999994
  0
LINE
  8
_0-0_1
  6
CONTINUOUS
 62
    3
 10
1215.9269999999999
 20
971.57089999999994
 11
1215.9269999999999
 21
961.57060000000001
  0
LINE
  8
_0-0_1
  6
DASHED1
 62
    3
 10
1215.9269999999999
 20
1041.5702000000001
 11
2139.9265999999998
 21
1041.5702000000001
  0
LINE
  8
_0-0_1
  6
DASHED1
 62
    3
 10
1215.9269999999999
 20
981.57040000000006
 11
2139.9265999999998
 21
981.57040000000006
  0
LINE
  8
_0-0_1
  6
CONTINUOUS
 62
    3
 10
1160.9260999999999
 20
1061.5706
 11
1160.9260999999999
 21
926.3139000000001
  0
LINE
  8
_0-0_1
  6
CONTINUOUS
 62
    3
 10
1110.9262000000001
 20
1061.5706
 11
1110.9262000000001
 21
926.3139000000001
  0
LINE
  8
_0-0_1
  6
CONTINUOUS
 62
    3
 10
1160.9250999999999
 20
979.43110000000001
 11
1110.9262000000001
 21
1029.4301
  0
LINE
  8
_0-0_1
  6
CONTINUOUS
 62
    3
 10
1160.9249
 20
975.18849999999998
 11
1110.9262000000001
 21
1025.1874
  0
LINE
  8
_0-0_1
  6
CONTINUOUS
 62
    3
 10
1110.9258
 20
1016.5715
 11
1110.9265
 21
1006.5704000000001
  0
LINE
  8
_0-0_1
  6
CONTINUOUS
 62
    3
 10
1113.9259999999999
 20
1016.5705
 11
1113.9264000000001
 21
1006.5716
  0
LINE
  8
_0-0_1
  6
CONTINUOUS
 62
    3
 10
1110.9265
 20
1006.5704000000001
 11
1113.9264000000001
 21
1006.5716
  0
LINE
  8
_0-0_1
  6
CONTINUOUS
 62
    3
 10
1110.9258
 20
1016.5715
 11
1113.9259999999999
 21
1016.5705
  0
LINE
  8
_0-0_1
  6
CONTINUOUS
 62
    3
 10
1110.9262000000001
 20
1011.5708999999999
 11
1113.9266
 21
1011.5708999999999
  0
LINE
  8
_0-0_1
  6
CONTINUOUS
 62
    3
 10
1175.9260999999999
 20
1011.5771
 11
1170.3259
 21
1009.5763999999999
  0
LINE
  8
_0-0_1
  6
CONTINUOUS
 62
    3
 10
1175.9260999999999
 20
1011.5771
 11
1170.3261
 21
1013.5763999999999
  0
LINE
  8
_0-0_1
  6
CONTINUOUS
 62
    3
 10
1130.0282999999999
 20
1008.335
 11
1128.9704999999999
 21
1014.9819
  0
LINE
  8
_0-0_1
  6
CONTINUOUS
 62
    3
 10
1140.0288
 20
1008.337
 11
1138.9711
 21
1014.9838
  0
LINE
  8
_0-0_1
  6
CONTINUOUS
 62
    3
 10
1150.0278000000001
 20
1008.3375000000001
 11
1148.9701
 21
1014.9843000000001
  0
LINE
  8
_0-0_1
  6
CONTINUOUS
 62
    3
 10
1160.0283999999999
 20
1008.3394000000001
 11
1158.9713999999999
 21
1014.9848999999999
  0
LINE
  8
_0-0_1
  6
CONTINUOUS
 62
    3
 10
1168.7704000000001
 20
1008.3395
 11
1167.7128
 21
1014.9865
  0
LINE
  8
_0-0_1
  6
CONTINUOUS
 62
    3
 10
1116.924
 20
1013.5719999999999
 11
1170.3261
 21
1013.5763999999999
  0
LINE
  8
_0-0_1
  6
CONTINUOUS
 62
    3
 10
1113.9259999999999
 20
1016.5705
 11
1116.924
 21
1013.5719999999999
  0
LINE
  8
_0-0_1
  6
CONTINUOUS
 62
    3
 10
1116.9268999999999
 20
1009.5718999999999
 11
1170.3259
 21
1009.5763999999999
  0
LINE
  8
_0-0_1
  6
CONTINUOUS
 62
    3
 10
1113.9264000000001
 20
1006.5716
 11
1116.9268999999999
 21
1009.5718999999999
  0
LINE
  8
_0-0_1
  6
CONTINUOUS
 62
    3
 10
1100.9262000000001
 20
1086.5706
 11
1100.9262000000001
 21
1061.5706
  0
LINE
  8
_0-0_1
  6
CONTINUOUS
 62
    3
 10
2139.9265999999998
 20
1061.5706
 11
1100.9262000000001
 21
1061.5706
  0
ARC
  8
_0-0_1
  6
CONTINUOUS
 62
    3
 10
1205.9266
 20
1056.5710999999999
 40
2.7000000000000002
 50
0.01099
 51
90.003097999999994
  0
ARC
  8
_0-0_1
  6
CONTINUOUS
 62
    3
 10
1165.9277999999999
 20
1056.5719999999999
 40
2.7000000000000002
 50
90.003098000000008
 51
179.98340999999999
  0
ARC
  8
_0-0_1
  6
CONTINUOUS
 62
    3
 10
1165.9256
 20
1056.5718999999999
 40
4.9989999999999997
 50
89.991318000000007
 51
180.00197
  0
ARC
  8
_0-0_1
  6
CONTINUOUS
 62
    3
 10
1205.9280000000001
 20
1056.5717999999999
 40
4.9989999999999997
 50
359.99557999999996
 51
90.012588999999963
  0
ARC
  8
_0-0_1
  6
CONTINUOUS
 62
    3
 10
1165.924
 20
966.56960000000004
 40
4.9989999999999997
 50
179.98068000000001
 51
270.00623000000007
  0
ARC
  8
_0-0_1
  6
CONTINUOUS
 62
    3
 10
1205.9272000000001
 20
966.56909999999993
 40
4.9989999999999997
 50
269.98493999999999
 51
0.0168699999999887
  0
ARC
  8
_0-0_1
  6
CONTINUOUS
 62
    3
 10
1205.9263000000001
 20
966.56960000000004
 40
2.7000000000000002
 50
269.99128999999999
 51
0.0109900000000208
  0
ARC
  8
_0-0_1
  6
CONTINUOUS
 62
    3
 10
1165.9251999999999
 20
966.57009999999991
 40
2.7000000000000002
 50
179.98340999999999
 51
269.99128999999999
  0
ARC
  8
_0-0_1
  6
CONTINUOUS
 62
    3
 10
1235.9273000000001
 20
1001.5706
 40
5
 50
179.99697000000003
 51
0.0118600000000697
  0
ARC
  8
_0-0_1
  6
CONTINUOUS
 62
    3
 10
1235.9276
 20
1021.5710999999999
 40
5
 50
0.0118599999999999
 51
179.99697
  0
LINE
  8
_0-0_1
  6
CONTINUOUS
 62
    3
 10
1099.3232
 20
1124.9847
 11
1099.3232
 21
1088.6913
  0
LINE
  8
_0-0_1
  6
CONTINUOUS
 62
    3
 10
1134.3232
 20
1111.6358
 11
1134.3232
 21
1088.6913
  0
LINE
  8
_0-0_1
  6
CONTINUOUS
 62
    3
 10
1099.3232
 20
1124.9847
 11
1134.3232
 21
1111.6358
  0
LINE
  8
_0-0_1
  6
DASHED1
 62
    3
 10
1112.4350999999999
 20
1150.6685
 11
1128.4350999999999
 21
1150.6685
  0
LINE
  8
_0-0_1
  6
DASHED1
 62
    3
 10
1128.4350999999999
 20
1150.6685
 11
1128.4350999999999
 21
1147.6685
  0
LINE
  8
_0-0_1
  6
DASHED1
 62
    3
 10
1112.4350999999999
 20
1150.6685
 11
1112.4350999999999
 21
1147.6685
  0
LINE
  8
_0-0_1
  6
DASHED1
 62
    3
 10
1112.4350999999999
 20
1147.6685
 11
1128.4350999999999
 21
1147.6685
  0
LINE
  8
_0-0_1
  6
DASHED1
 62
    3
 10
1123.4350999999999
 20
1092.7724000000001
 11
1120.3849
 21
1078.2635
  0
LINE
  8
_0-0_1
  6
DASHED1
 62
    3
 10
1123.4350999999999
 20
1147.6685
 11
1123.4350999999999
 21
1092.7724000000001
  0
LINE
  8
_0-0_1
  6
DASHED1
 62
    3
 10
1120.3849
 20
1078.2635
 11
1117.4350999999999
 21
1092.521
  0
LINE
  8
_0-0_1
  6
DASHED1
 62
    3
 10
1117.4350999999999
 20
1147.6685
 11
1117.4350999999999
 21
1092.521
  0
LINE
  8
_0-0_1
  6
CONTINUOUS
 62
    5
 10
1950.2885000000001
 20
1099.9862000000001
 11
1941.7530000000002
 21
1114.5196000000001
  0
LINE
  8
_0-0_1
  6
CONTINUOUS
 62
    5
 10
1958.4562999999998
 20
1099.3359
 11
1966.7624999999998
 21
1109.4014
  0
ARC
  8
_0-0_1
  6
CONTINUOUS
 62
    5
 10
1954.5999000000002
 20
1102.5183
 40
5
 50
210.42578
 51
320.47001
  0
LINE
  8
_0-0_1
  6
CONTINUOUS
 62
    5
 10
2034.4018999999998
 20
1098.8661
 11
2027.0765999999999
 21
1110.1721
  0
LINE
  8
_0-0_1
  6
CONTINUOUS
 62
    5
 10
2042.9115000000002
 20
1099.056
 11
2051.8499000000002
 21
1114.3017
  0
ARC
  8
_0-0_1
  6
CONTINUOUS
 62
    5
 10
2038.5981999999999
 20
1101.5849000000001
 40
5
 50
212.93986000000001
 51
329.61716000000001
  0
LINE
  8
_0-0_1
  6
CONTINUOUS
 62
    5
 10
2082.1934999999999
 20
1138.6135999999999
 11
2084.6215999999999
 21
1139.0174999999999
  0
LINE
  8
_0-0_1
  6
CONTINUOUS
 62
    5
 10
2078.0045
 20
1137.9174
 11
2082.1934999999999
 21
1138.6135999999999
  0
LINE
  8
_0-0_1
  6
CONTINUOUS
 62
    5
 10
2073.8107
 20
1137.2218
 11
2078.0045
 21
1137.9174
  0
LINE
  8
_0-0_1
  6
CONTINUOUS
 62
    5
 10
2069.6118999999999
 20
1136.5278000000001
 11
2073.8107
 21
1137.2218
  0
LINE
  8
_0-0_1
  6
CONTINUOUS
 62
    5
 10
2065.4079000000002
 20
1135.8362999999999
 11
2069.6118999999999
 21
1136.5278000000001
  0
LINE
  8
_0-0_1
  6
CONTINUOUS
 62
    5
 10
2061.201
 20
1135.1487
 11
2065.4079000000002
 21
1135.8362999999999
  0
LINE
  8
_0-0_1
  6
CONTINUOUS
 62
    5
 10
2058.7487000000001
 20
1134.7501999999999
 11
2061.201
 21
1135.1487
  0
LINE
  8
_0-0_1
  6
CONTINUOUS
 62
    5
 10
2054.0160000000001
 20
1133.9876999999999
 11
2058.7487000000001
 21
1134.7501999999999
  0
LINE
  8
_0-0_1
  6
CONTINUOUS
 62
    5
 10
2045.8114999999998
 20
1132.7038
 11
2054.0160000000001
 21
1133.9876999999999
  0
LINE
  8
_0-0_1
  6
CONTINUOUS
 62
    5
 10
2037.5041000000001
 20
1131.4839999999999
 11
2045.8114999999998
 21
1132.7038
  0
LINE
  8
_0-0_1
  6
CONTINUOUS
 62
    5
 10
2029.0958000000001
 20
1130.3676
 11
2037.5041000000001
 21
1131.4839999999999
  0
LINE
  8
_0-0_1
  6
CONTINUOUS
 62
    5
 10
2020.5832
 20
1129.3942999999999
 11
2029.0958000000001
 21
1130.3676
  0
LINE
  8
_0-0_1
  6
CONTINUOUS
 62
    5
 10
2012.0241000000001
 20
1128.6103000000001
 11
2020.5832
 21
1129.3942999999999
  0
LINE
  8
_0-0_1
  6
CONTINUOUS
 62
    5
 10
2006.9625000000001
 20
1128.2523000000001
 11
2012.0241000000001
 21
1128.6103000000001
  0
LINE
  8
_0-0_1
  6
CONTINUOUS
 62
    5
 10
2004.1599000000001
 20
1128.0907
 11
2006.9625000000001
 21
1128.2523000000001
  0
LINE
  8
_0-0_1
  6
CONTINUOUS
 62
    5
 10
1999.4389000000001
 20
1127.8867
 11
2004.1599000000001
 21
1128.0907
  0
LINE
  8
_0-0_1
  6
CONTINUOUS
 62
    5
 10
1994.6097
 20
1127.7813000000001
 11
1999.4389000000001
 21
1127.8867
  0
LINE
  8
_0-0_1
  6
CONTINUOUS
 62
    5
 10
1989.7080999999998
 20
1127.7965999999999
 11
1994.6097
 21
1127.7813000000001
  0
LINE
  8
_0-0_1
  6
CONTINUOUS
 62
    5
 10
1984.7370000000001
 20
1127.9545000000001
 11
1989.7080999999998
 21
1127.7965999999999
  0
LINE
  8
_0-0_1
  6
CONTINUOUS
 62
    5
 10
1979.7795999999998
 20
1128.2722000000001
 11
1984.7370000000001
 21
1127.9545000000001
  0
LINE
  8
_0-0_1
  6
CONTINUOUS
 62
    5
 10
1976.7280000000001
 20
1128.5536999999999
 11
1979.7795999999998
 21
1128.2722000000001
  0
LINE
  8
_0-0_1
  6
CONTINUOUS
 62
    5
 10
1972.7991000000002
 20
1129.0159000000001
 11
1976.7280000000001
 21
1128.5536999999999
  0
LINE
  8
_0-0_1
  6
CONTINUOUS
 62
    5
 10
1966.2851999999998
 20
1130.0385000000001
 11
1972.7991000000002
 21
1129.0159000000001
  0
LINE
  8
_0-0_1
  6
CONTINUOUS
 62
    5
 10
1959.7386000000001
 20
1131.3905999999999
 11
1966.2851999999998
 21
1130.0385000000001
  0
LINE
  8
_0-0_1
  6
CONTINUOUS
 62
    5
 10
1953.2755999999999
 20
1133.0464999999999
 11
1959.7386000000001
 21
1131.3905999999999
  0
LINE
  8
_0-0_1
  6
CONTINUOUS
 62
    5
 10
1946.9097000000002
 20
1134.9972
 11
1953.2755999999999
 21
1133.0464999999999
  0
LINE
  8
_0-0_1
  6
CONTINUOUS
 62
    5
 10
1940.7449000000001
 20
1137.2021
 11
1946.9097000000002
 21
1134.9972
  0
LINE
  8
_0-0_1
  6
CONTINUOUS
 62
    5
 10
1937.0583000000001
 20
1138.6739
 11
1940.7449000000001
 21
1137.2021
  0
LINE
  8
_0-0_1
  6
CONTINUOUS
 62
    5
 10
1932.694
 20
1140.5663999999999
 11
1937.0583000000001
 21
1138.6739
  0
LINE
  8
_0-0_1
  6
CONTINUOUS
 62
    5
 10
1925.625
 20
1143.9813999999999
 11
1932.694
 21
1140.5663999999999
  0
LINE
  8
_0-0_1
  6
CONTINUOUS
 62
    5
 10
1918.7321000000002
 20
1147.711
 11
1925.625
 21
1143.9813999999999
  0
LINE
  8
_0-0_1
  6
CONTINUOUS
 62
    5
 10
1912.0951
 20
1151.6447000000001
 11
1918.7321000000002
 21
1147.711
  0
LINE
  8
_0-0_1
  6
CONTINUOUS
 62
    5
 10
1905.6857
 20
1155.7271000000001
 11
1912.0951
 21
1151.6447000000001
  0
LINE
  8
_0-0_1
  6
CONTINUOUS
 62
    5
 10
1899.5014999999999
 20
1159.8893
 11
1905.6857
 21
1155.7271000000001
  0
LINE
  8
_0-0_1
  6
CONTINUOUS
 62
    5
 10
1895.9591999999998
 20
1162.3530000000001
 11
1899.5014999999999
 21
1159.8893
  0
LINE
  8
_0-0_1
  6
CONTINUOUS
 62
    5
 10
1893.7271999999998
 20
1163.9265
 11
1895.9591999999998
 21
1162.3530000000001
  0
LINE
  8
_0-0_1
  6
CONTINUOUS
 62
    5
 10
1890.1035999999999
 20
1166.4656
 11
1893.7271999999998
 21
1163.9265
  0
LINE
  8
_0-0_1
  6
CONTINUOUS
 62
    5
 10
1886.7339999999999
 20
1168.7311
 11
1890.1035999999999
 21
1166.4656
  0
LINE
  8
_0-0_1
  6
CONTINUOUS
 62
    5
 10
1883.6190000000001
 20
1170.6582000000001
 11
1886.7339999999999
 21
1168.7311
  0
LINE
  8
_0-0_1
  6
CONTINUOUS
 62
    5
 10
1880.7518
 20
1172.2139
 11
1883.6190000000001
 21
1170.6582000000001
  0
LINE
  8
_0-0_1
  6
CONTINUOUS
 62
    5
 10
1877.9205999999999
 20
1173.4824000000001
 11
1880.7518
 21
1172.2139
  0
LINE
  8
_0-0_1
  6
CONTINUOUS
 62
    5
 10
1876.4573999999998
 20
1174.0145
 11
1877.9205999999999
 21
1173.4824000000001
  0
LINE
  8
_0-0_1
  6
CONTINUOUS
 62
    5
 10
1876.2763
 20
1174.0725
 11
1876.4573999999998
 21
1174.0145
  0
LINE
  8
_0-0_1
  6
CONTINUOUS
 62
    5
 10
1875.4879999999998
 20
1174.3004000000001
 11
1876.2763
 21
1174.0725
  0
LINE
  8
_0-0_1
  6
CONTINUOUS
 62
    5
 10
1874.8308999999999
 20
1174.4630999999999
 11
1875.4879999999998
 21
1174.3004000000001
  0
LINE
  8
_0-0_1
  6
CONTINUOUS
 62
    5
 10
1874.2491
 20
1174.5811000000001
 11
1874.8308999999999
 21
1174.4630999999999
  0
LINE
  8
_0-0_1
  6
CONTINUOUS
 62
    5
 10
1874.2089999999998
 20
1174.5872999999999
 11
1874.2491
 21
1174.5811000000001
  0
LINE
  8
_0-0_1
  6
CONTINUOUS
 62
    5
 10
2078.1828999999998
 20
1119.4260999999999
 11
2079.797
 21
1119.6946
  0
LINE
  8
_0-0_1
  6
CONTINUOUS
 62
    5
 10
2073.9942999999998
 20
1118.73
 11
2078.1828999999998
 21
1119.4260999999999
  0
LINE
  8
_0-0_1
  6
CONTINUOUS
 62
    5
 10
2069.8013999999998
 20
1118.0345
 11
2073.9942999999998
 21
1118.73
  0
LINE
  8
_0-0_1
  6
CONTINUOUS
 62
    5
 10
2065.6039999999998
 20
1117.3407999999999
 11
2069.8013999999998
 21
1118.0345
  0
LINE
  8
_0-0_1
  6
CONTINUOUS
 62
    5
 10
2061.4016999999999
 20
1116.6496
 11
2065.6039999999998
 21
1117.3407999999999
  0
LINE
  8
_0-0_1
  6
CONTINUOUS
 62
    5
 10
2057.1967
 20
1115.9621999999999
 11
2061.4016999999999
 21
1116.6496
  0
LINE
  8
_0-0_1
  6
CONTINUOUS
 62
    5
 10
2054.7467000000001
 20
1115.5641000000001
 11
2057.1967
 21
1115.9621999999999
  0
LINE
  8
_0-0_1
  6
CONTINUOUS
 62
    5
 10
2050.0196999999998
 20
1114.8026
 11
2054.7467000000001
 21
1115.5641000000001
  0
LINE
  8
_0-0_1
  6
CONTINUOUS
 62
    5
 10
2041.8290999999999
 20
1113.5209
 11
2050.0196999999998
 21
1114.8026
  0
LINE
  8
_0-0_1
  6
CONTINUOUS
 62
    5
 10
2033.5446000000002
 20
1112.3044
 11
2041.8290999999999
 21
1113.5209
  0
LINE
  8
_0-0_1
  6
CONTINUOUS
 62
    5
 10
2025.1680000000001
 20
1111.1922
 11
2033.5446000000002
 21
1112.3044
  0
LINE
  8
_0-0_1
  6
CONTINUOUS
 62
    5
 10
2016.6958
 20
1110.2235000000001
 11
2025.1680000000001
 21
1111.1922
  0
LINE
  8
_0-0_1
  6
CONTINUOUS
 62
    5
 10
2008.1797000000001
 20
1109.4434000000001
 11
2016.6958
 21
1110.2235000000001
  0
LINE
  8
_0-0_1
  6
CONTINUOUS
 62
    5
 10
2003.1518000000001
 20
1109.0878
 11
2008.1797000000001
 21
1109.4434000000001
  0
LINE
  8
_0-0_1
  6
CONTINUOUS
 62
    5
 10
2000.3766000000001
 20
1108.9277999999999
 11
2003.1518000000001
 21
1109.0878
  0
LINE
  8
_0-0_1
  6
CONTINUOUS
 62
    5
 10
1995.6913
 20
1108.7254
 11
2000.3766000000001
 21
1108.9277999999999
  0
LINE
  8
_0-0_1
  6
CONTINUOUS
 62
    5
 10
1990.9083999999998
 20
1108.6208999999999
 11
1995.6913
 21
1108.7254
  0
LINE
  8
_0-0_1
  6
CONTINUOUS
 62
    5
 10
1986.0603999999998
 20
1108.6360999999999
 11
1990.9083999999998
 21
1108.6208999999999
  0
LINE
  8
_0-0_1
  6
CONTINUOUS
 62
    5
 10
1981.1502
 20
1108.7920999999999
 11
1986.0603999999998
 21
1108.6360999999999
  0
LINE
  8
_0-0_1
  6
CONTINUOUS
 62
    5
 10
1976.2529
 20
1109.106
 11
1981.1502
 21
1108.7920999999999
  0
LINE
  8
_0-0_1
  6
CONTINUOUS
 62
    5
 10
1973.2541000000001
 20
1109.3824999999999
 11
1976.2529
 21
1109.106
  0
LINE
  8
_0-0_1
  6
CONTINUOUS
 62
    5
 10
1969.3886000000002
 20
1109.8372999999999
 11
1973.2541000000001
 21
1109.3824999999999
  0
LINE
  8
_0-0_1
  6
CONTINUOUS
 62
    5
 10
1962.9602
 20
1110.8463999999999
 11
1969.3886000000002
 21
1109.8372999999999
  0
LINE
  8
_0-0_1
  6
CONTINUOUS
 62
    5
 10
1956.5066999999999
 20
1112.1793
 11
1962.9602
 21
1110.8463999999999
  0
LINE
  8
_0-0_1
  6
CONTINUOUS
 62
    5
 10
1950.1345000000001
 20
1113.8118999999999
 11
1956.5066999999999
 21
1112.1793
  0
LINE
  8
_0-0_1
  6
CONTINUOUS
 62
    5
 10
1943.8571999999999
 20
1115.7355
 11
1950.1345000000001
 21
1113.8118999999999
  0
LINE
  8
_0-0_1
  6
CONTINUOUS
 62
    5
 10
1937.7701000000002
 20
1117.9127000000001
 11
1943.8571999999999
 21
1115.7355
  0
LINE
  8
_0-0_1
  6
CONTINUOUS
 62
    5
 10
1934.1444999999999
 20
1119.3601000000001
 11
1937.7701000000002
 21
1117.9127000000001
  0
LINE
  8
_0-0_1
  6
CONTINUOUS
 62
    5
 10
1929.8445999999999
 20
1121.2247
 11
1934.1444999999999
 21
1119.3601000000001
  0
LINE
  8
_0-0_1
  6
CONTINUOUS
 62
    5
 10
1922.8537000000001
 20
1124.6018999999999
 11
1929.8445999999999
 21
1121.2247
  0
LINE
  8
_0-0_1
  6
CONTINUOUS
 62
    5
 10
1916.0356000000002
 20
1128.2910999999999
 11
1922.8537000000001
 21
1124.6018999999999
  0
LINE
  8
_0-0_1
  6
CONTINUOUS
 62
    5
 10
1909.4598000000001
 20
1132.1884
 11
1916.0356000000002
 21
1128.2910999999999
  0
LINE
  8
_0-0_1
  6
CONTINUOUS
 62
    5
 10
1903.0989
 20
1136.2401
 11
1909.4598000000001
 21
1132.1884
  0
LINE
  8
_0-0_1
  6
CONTINUOUS
 62
    5
 10
1896.9483
 20
1140.3795
 11
1903.0989
 21
1136.2401
  0
LINE
  8
_0-0_1
  6
CONTINUOUS
 62
    5
 10
1893.4238
 20
1142.8308999999999
 11
1896.9483
 21
1140.3795
  0
LINE
  8
_0-0_1
  6
CONTINUOUS
 62
    5
 10
1891.1947
 20
1144.4023
 11
1893.4238
 21
1142.8308999999999
  0
LINE
  8
_0-0_1
  6
CONTINUOUS
 62
    5
 10
1887.5529999999999
 20
1146.9541999999999
 11
1891.1947
 21
1144.4023
  0
LINE
  8
_0-0_1
  6
CONTINUOUS
 62
    5
 10
1884.1358
 20
1149.2516000000001
 11
1887.5529999999999
 21
1146.9541999999999
  0
LINE
  8
_0-0_1
  6
CONTINUOUS
 62
    5
 10
1880.9402
 20
1151.2285999999999
 11
1884.1358
 21
1149.2516000000001
  0
LINE
  8
_0-0_1
  6
CONTINUOUS
 62
    5
 10
1877.9562000000001
 20
1152.8477
 11
1880.9402
 21
1151.2285999999999
  0
LINE
  8
_0-0_1
  6
CONTINUOUS
 62
    5
 10
1874.9897000000001
 20
1154.1768
 11
1877.9562000000001
 21
1152.8477
  0
LINE
  8
_0-0_1
  6
CONTINUOUS
 62
    5
 10
1874.2397000000001
 20
1154.4495999999999
 11
1874.9897000000001
 21
1154.1768
  0
LINE
  8
_0-0_1
  6
CONTINUOUS
 62
    5
 10
1874.5727999999999
 20
1174.4927
 11
1874.3968
 21
1154.3191999999999
  0
LINE
  8
_0-0_1
  6
CONTINUOUS
 62
    5
 10
2074.8984
 20
1109.0048999999999
 11
2072.6529999999998
 21
1117.5782999999999
  0
ARC
  8
_0-0_1
  6
CONTINUOUS
 62
    5
 10
2077.8004999999998
 20
1109.7650000000001
 40
3
 50
194.67639000000003
 51
270.00000000000006
  0
LINE
  8
_0-0_1
  6
CONTINUOUS
 62
    5
 10
2081.2429999999999
 20
1106.7607
 11
2077.8252000000002
 21
1106.7607
  0
LINE
  8
_0-0_1
  6
CONTINUOUS
 62
    5
 10
2084.2022000000002
 20
1109.2674999999999
 11
2086.1361999999999
 21
1120.8715999999999
  0
ARC
  8
_0-0_1
  6
CONTINUOUS
 62
    5
 10
2081.2429999999999
 20
1109.7607
 40
3
 50
270
 51
350.53766999999999
  0
LINE
  8
_0-0_1
  6
CONTINUOUS
 62
    5
 10
1827.4766
 20
1183.8829000000001
 11
1828.2905999999998
 21
1184.1895
  0
LINE
  8
_0-0_1
  6
CONTINUOUS
 62
    5
 10
1828.2905999999998
 20
1184.1895
 11
1831.8398000000002
 21
1185.5291
  0
LINE
  8
_0-0_1
  6
CONTINUOUS
 62
    5
 10
1831.8398000000002
 20
1185.5291
 11
1835.3964000000001
 21
1186.8779999999999
  0
LINE
  8
_0-0_1
  6
CONTINUOUS
 62
    5
 10
1835.3964000000001
 20
1186.8779999999999
 11
1838.9650999999999
 21
1188.242
  0
LINE
  8
_0-0_1
  6
CONTINUOUS
 62
    5
 10
1838.9650999999999
 20
1188.242
 11
1842.5504000000001
 21
1189.6270999999999
  0
LINE
  8
_0-0_1
  6
CONTINUOUS
 62
    5
 10
1842.5504000000001
 20
1189.6270999999999
 11
1846.1570999999999
 21
1191.0391
  0
LINE
  8
_0-0_1
  6
CONTINUOUS
 62
    5
 10
1846.1570999999999
 20
1191.0391
 11
1848.2606999999998
 21
1191.8726999999999
  0
LINE
  8
_0-0_1
  6
CONTINUOUS
 62
    5
 10
1848.2606999999998
 20
1191.8726999999999
 11
1850.3400000000001
 21
1192.7016000000001
  0
LINE
  8
_0-0_1
  6
CONTINUOUS
 62
    5
 10
1850.3400000000001
 20
1192.7016000000001
 11
1853.9466000000002
 21
1194.1030000000001
  0
LINE
  8
_0-0_1
  6
CONTINUOUS
 62
    5
 10
1853.9466000000002
 20
1194.1030000000001
 11
1857.5792999999999
 21
1195.3857
  0
LINE
  8
_0-0_1
  6
CONTINUOUS
 62
    5
 10
1857.5792999999999
 20
1195.3857
 11
1861.2372
 21
1196.4522999999999
  0
LINE
  8
_0-0_1
  6
CONTINUOUS
 62
    5
 10
1861.2372
 20
1196.4522999999999
 11
1864.9193
 21
1197.2056
  0
LINE
  8
_0-0_1
  6
CONTINUOUS
 62
    5
 10
1864.9193
 20
1197.2056
 11
1868.6246000000001
 21
1197.5481
  0
LINE
  8
_0-0_1
  6
CONTINUOUS
 62
    5
 10
1868.6246000000001
 20
1197.5481
 11
1870.7838999999999
 21
1197.5201999999999
  0
LINE
  8
_0-0_1
  6
CONTINUOUS
 62
    5
 10
1870.7838999999999
 20
1197.5201999999999
 11
1871.6331
 21
1197.4588000000001
  0
LINE
  8
_0-0_1
  6
CONTINUOUS
 62
    5
 10
1871.6331
 20
1197.4588000000001
 11
1873.0974000000001
 21
1197.2882
  0
LINE
  8
_0-0_1
  6
CONTINUOUS
 62
    5
 10
1873.0974000000001
 20
1197.2882
 11
1874.5585000000001
 21
1197.0415
  0
LINE
  8
_0-0_1
  6
CONTINUOUS
 62
    5
 10
1874.5585000000001
 20
1197.0415
 11
1876.0122000000001
 21
1196.7255
  0
LINE
  8
_0-0_1
  6
CONTINUOUS
 62
    5
 10
1876.0122000000001
 20
1196.7255
 11
1877.4542999999999
 21
1196.347
  0
LINE
  8
_0-0_1
  6
CONTINUOUS
 62
    5
 10
1877.4542999999999
 20
1196.347
 11
1878.8807000000002
 21
1195.9129
  0
LINE
  8
_0-0_1
  6
CONTINUOUS
 62
    5
 10
1878.8807000000002
 20
1195.9129
 11
1879.6992
 21
1195.6382000000001
  0
LINE
  8
_0-0_1
  6
CONTINUOUS
 62
    5
 10
1879.6992
 20
1195.6382000000001
 11
1882.1975000000002
 21
1194.6900000000001
  0
LINE
  8
_0-0_1
  6
CONTINUOUS
 62
    5
 10
1882.1975000000002
 20
1194.6900000000001
 11
1886.3564000000001
 21
1192.7565
  0
LINE
  8
_0-0_1
  6
CONTINUOUS
 62
    5
 10
1886.3564000000001
 20
1192.7565
 11
1890.3602000000001
 21
1190.5110999999999
  0
LINE
  8
_0-0_1
  6
CONTINUOUS
 62
    5
 10
1890.3602000000001
 20
1190.5110999999999
 11
1894.2471
 21
1188.0308
  0
LINE
  8
_0-0_1
  6
CONTINUOUS
 62
    5
 10
1894.2471
 20
1188.0308
 11
1898.0551
 21
1185.3927000000001
  0
LINE
  8
_0-0_1
  6
CONTINUOUS
 62
    5
 10
1898.0551
 20
1185.3927000000001
 11
1901.8222999999998
 21
1182.6736000000001
  0
LINE
  8
_0-0_1
  6
CONTINUOUS
 62
    5
 10
1901.8222999999998
 20
1182.6736000000001
 11
1904.0037000000002
 21
1181.0898
  0
LINE
  8
_0-0_1
  6
CONTINUOUS
 62
    5
 10
1904.0037000000002
 20
1181.0898
 11
1907.3352
 21
1178.7029
  0
LINE
  8
_0-0_1
  6
CONTINUOUS
 62
    5
 10
1907.3352
 20
1178.7029
 11
1913.1275000000001
 21
1174.6859999999999
  0
LINE
  8
_0-0_1
  6
CONTINUOUS
 62
    5
 10
1913.1275000000001
 20
1174.6859999999999
 11
1918.9996000000001
 21
1170.8294000000001
  0
LINE
  8
_0-0_1
  6
CONTINUOUS
 62
    5
 10
1918.9996000000001
 20
1170.8294000000001
 11
1924.9738000000002
 21
1167.1749
  0
LINE
  8
_0-0_1
  6
CONTINUOUS
 62
    5
 10
1924.9738000000002
 20
1167.1749
 11
1931.0720000000001
 21
1163.7644
  0
LINE
  8
_0-0_1
  6
CONTINUOUS
 62
    5
 10
1931.0720000000001
 20
1163.7644
 11
1937.3163
 21
1160.6396
  0
LINE
  8
_0-0_1
  6
CONTINUOUS
 62
    5
 10
1937.3163
 20
1160.6396
 11
1941.0136000000002
 21
1158.9746
  0
LINE
  8
_0-0_1
  6
CONTINUOUS
 62
    5
 10
1941.0136000000002
 20
1158.9746
 11
1944.0727999999999
 21
1157.7035000000001
  0
LINE
  8
_0-0_1
  6
CONTINUOUS
 62
    5
 10
1944.0727999999999
 20
1157.7035000000001
 11
1949.4333000000001
 21
1155.7012999999999
  0
LINE
  8
_0-0_1
  6
CONTINUOUS
 62
    5
 10
1949.4333000000001
 20
1155.7012999999999
 11
1954.8890000000001
 21
1153.9458
  0
LINE
  8
_0-0_1
  6
CONTINUOUS
 62
    5
 10
1954.8890000000001
 20
1153.9458
 11
1960.424
 21
1152.4450999999999
  0
LINE
  8
_0-0_1
  6
CONTINUOUS
 62
    5
 10
1960.424
 20
1152.4450999999999
 11
1966.0223000000001
 21
1151.2071000000001
  0
LINE
  8
_0-0_1
  6
CONTINUOUS
 62
    5
 10
1966.0223000000001
 20
1151.2071000000001
 11
1971.6680000000001
 21
1150.2398000000001
  0
LINE
  8
_0-0_1
  6
CONTINUOUS
 62
    5
 10
1971.6680000000001
 20
1150.2398000000001
 11
1974.9580000000001
 21
1149.8061
  0
LINE
  8
_0-0_1
  6
CONTINUOUS
 62
    5
 10
1974.9580000000001
 20
1149.8061
 11
1977.4773
 21
1149.5382999999999
  0
LINE
  8
_0-0_1
  6
CONTINUOUS
 62
    5
 10
1977.4773
 20
1149.5382999999999
 11
1981.8294000000001
 21
1149.1982
  0
LINE
  8
_0-0_1
  6
CONTINUOUS
 62
    5
 10
1981.8294000000001
 20
1149.1982
 11
1986.1896000000002
 21
1148.9988000000001
  0
LINE
  8
_0-0_1
  6
CONTINUOUS
 62
    5
 10
1986.1896000000002
 20
1148.9988000000001
 11
1990.5547999999999
 21
1148.9241
  0
LINE
  8
_0-0_1
  6
CONTINUOUS
 62
    5
 10
1990.5547999999999
 20
1148.9241
 11
1994.9218999999998
 21
1148.9585
  0
LINE
  8
_0-0_1
  6
CONTINUOUS
 62
    5
 10
1994.9218999999998
 20
1148.9585
 11
1999.2878000000001
 21
1149.0861
  0
LINE
  8
_0-0_1
  6
CONTINUOUS
 62
    5
 10
1999.2878000000001
 20
1149.0861
 11
2001.8182999999999
 21
1149.1966
  0
LINE
  8
_0-0_1
  6
CONTINUOUS
 62
    5
 10
2001.8182999999999
 20
1149.1966
 11
2006.5473999999999
 21
1149.4648
  0
LINE
  8
_0-0_1
  6
CONTINUOUS
 62
    5
 10
2006.5473999999999
 20
1149.4648
 11
2014.6855
 21
1150.0958000000001
  0
LINE
  8
_0-0_1
  6
CONTINUOUS
 62
    5
 10
2014.6855
 20
1150.0958000000001
 11
2022.8063000000002
 21
1150.9096
  0
LINE
  8
_0-0_1
  6
CONTINUOUS
 62
    5
 10
2022.8063000000002
 20
1150.9096
 11
2030.9121
 21
1151.8708999999999
  0
LINE
  8
_0-0_1
  6
CONTINUOUS
 62
    5
 10
2030.9121
 20
1151.8708999999999
 11
2039.0056
 21
1152.9440999999999
  0
LINE
  8
_0-0_1
  6
CONTINUOUS
 62
    5
 10
2039.0056
 20
1152.9440999999999
 11
2047.0891000000001
 21
1154.0936999999999
  0
LINE
  8
_0-0_1
  6
CONTINUOUS
 62
    5
 10
2047.0891000000001
 20
1154.0936999999999
 11
2051.7739999999999
 21
1154.7814000000001
  0
LINE
  8
_0-0_1
  6
CONTINUOUS
 62
    5
 10
2051.7739999999999
 20
1154.7814000000001
 11
2054.2089000000001
 21
1155.1423
  0
LINE
  8
_0-0_1
  6
CONTINUOUS
 62
    5
 10
2054.2089000000001
 20
1155.1423
 11
2058.4059000000002
 21
1155.7683
  0
LINE
  8
_0-0_1
  6
CONTINUOUS
 62
    5
 10
2058.4059000000002
 20
1155.7683
 11
2062.6017000000002
 21
1156.3984
  0
LINE
  8
_0-0_1
  6
CONTINUOUS
 62
    5
 10
2062.6017000000002
 20
1156.3984
 11
2066.7964999999999
 21
1157.0317
  0
LINE
  8
_0-0_1
  6
CONTINUOUS
 62
    5
 10
2066.7964999999999
 20
1157.0317
 11
2070.9906999999998
 21
1157.6673000000001
  0
LINE
  8
_0-0_1
  6
CONTINUOUS
 62
    5
 10
2070.9906999999998
 20
1157.6673000000001
 11
2075.1844000000001
 21
1158.3043
  0
LINE
  8
_0-0_1
  6
CONTINUOUS
 62
    5
 10
2075.1844000000001
 20
1158.3043
 11
2077.6167
 21
1158.674
  0
LINE
  8
_0-0_1
  6
CONTINUOUS
 62
    5
 10
1832.5799000000002
 20
1166.5704000000001
 11
1834.6417999999999
 21
1167.3472999999999
  0
LINE
  8
_0-0_1
  6
CONTINUOUS
 62
    5
 10
1834.6417999999999
 20
1167.3472999999999
 11
1838.2093
 21
1168.6938
  0
LINE
  8
_0-0_1
  6
CONTINUOUS
 62
    5
 10
1838.2093
 20
1168.6938
 11
1841.8011999999999
 21
1170.056
  0
LINE
  8
_0-0_1
  6
CONTINUOUS
 62
    5
 10
1841.8011999999999
 20
1170.056
 11
1845.4216000000001
 21
1171.4398000000001
  0
LINE
  8
_0-0_1
  6
CONTINUOUS
 62
    5
 10
1845.4216000000001
 20
1171.4398000000001
 11
1849.0745999999999
 21
1172.8510000000001
  0
LINE
  8
_0-0_1
  6
CONTINUOUS
 62
    5
 10
1849.0745999999999
 20
1172.8510000000001
 11
1852.7538
 21
1174.2914000000001
  0
LINE
  8
_0-0_1
  6
CONTINUOUS
 62
    5
 10
1852.7538
 20
1174.2914000000001
 11
1854.9090000000001
 21
1175.1454000000001
  0
LINE
  8
_0-0_1
  6
CONTINUOUS
 62
    5
 10
1854.9090000000001
 20
1175.1454000000001
 11
1856.9326000000001
 21
1175.9521
  0
LINE
  8
_0-0_1
  6
CONTINUOUS
 62
    5
 10
1856.9326000000001
 20
1175.9521
 11
1860.2044000000001
 21
1177.2235000000001
  0
LINE
  8
_0-0_1
  6
CONTINUOUS
 62
    5
 10
1860.2044000000001
 20
1177.2235000000001
 11
1863.0996
 21
1178.2457999999999
  0
LINE
  8
_0-0_1
  6
CONTINUOUS
 62
    5
 10
1863.0996
 20
1178.2457999999999
 11
1865.5677000000001
 21
1178.9654
  0
LINE
  8
_0-0_1
  6
CONTINUOUS
 62
    5
 10
1865.5677000000001
 20
1178.9654
 11
1867.5594000000001
 21
1179.3729000000001
  0
LINE
  8
_0-0_1
  6
CONTINUOUS
 62
    5
 10
1867.5594000000001
 20
1179.3729000000001
 11
1869.3386999999998
 21
1179.5373999999999
  0
LINE
  8
_0-0_1
  6
CONTINUOUS
 62
    5
 10
1869.3386999999998
 20
1179.5373999999999
 11
1870.0183000000002
 21
1179.5286000000001
  0
LINE
  8
_0-0_1
  6
CONTINUOUS
 62
    5
 10
1870.0183000000002
 20
1179.5286000000001
 11
1869.9422
 21
1179.5341000000001
  0
LINE
  8
_0-0_1
  6
CONTINUOUS
 62
    5
 10
1869.9422
 20
1179.5341000000001
 11
1870.5558000000001
 21
1179.4626000000001
  0
LINE
  8
_0-0_1
  6
CONTINUOUS
 62
    5
 10
1870.5558000000001
 20
1179.4626000000001
 11
1871.1462000000001
 21
1179.3629000000001
  0
LINE
  8
_0-0_1
  6
CONTINUOUS
 62
    5
 10
1871.1462000000001
 20
1179.3629000000001
 11
1871.8137000000002
 21
1179.2177999999999
  0
LINE
  8
_0-0_1
  6
CONTINUOUS
 62
    5
 10
1871.8137000000002
 20
1179.2177999999999
 11
1872.5472
 21
1179.0253
  0
LINE
  8
_0-0_1
  6
CONTINUOUS
 62
    5
 10
1872.5472
 20
1179.0253
 11
1873.3964000000001
 21
1178.7668000000001
  0
LINE
  8
_0-0_1
  6
CONTINUOUS
 62
    5
 10
1873.3964000000001
 20
1178.7668000000001
 11
1873.6405
 21
1178.6849
  0
LINE
  8
_0-0_1
  6
CONTINUOUS
 62
    5
 10
1873.6405
 20
1178.6849
 11
1875.2004000000002
 21
1178.0929000000001
  0
LINE
  8
_0-0_1
  6
CONTINUOUS
 62
    5
 10
1875.2004000000002
 20
1178.0929000000001
 11
1878.1480999999999
 21
1176.7224000000001
  0
LINE
  8
_0-0_1
  6
CONTINUOUS
 62
    5
 10
1878.1480999999999
 20
1176.7224000000001
 11
1881.1091000000001
 21
1175.0617999999999
  0
LINE
  8
_0-0_1
  6
CONTINUOUS
 62
    5
 10
1881.1091000000001
 20
1175.0617999999999
 11
1884.2768000000001
 21
1173.0405000000001
  0
LINE
  8
_0-0_1
  6
CONTINUOUS
 62
    5
 10
1884.2768000000001
 20
1173.0405000000001
 11
1887.6615000000002
 21
1170.6956
  0
LINE
  8
_0-0_1
  6
CONTINUOUS
 62
    5
 10
1887.6615000000002
 20
1170.6956
 11
1891.2673
 21
1168.0931
  0
LINE
  8
_0-0_1
  6
CONTINUOUS
 62
    5
 10
1891.2673
 20
1168.0931
 11
1893.4742000000001
 21
1166.4907000000001
  0
LINE
  8
_0-0_1
  6
CONTINUOUS
 62
    5
 10
1893.4742000000001
 20
1166.4907000000001
 11
1896.9641999999999
 21
1163.9902999999999
  0
LINE
  8
_0-0_1
  6
CONTINUOUS
 62
    5
 10
1896.9641999999999
 20
1163.9902999999999
 11
1903.0563999999999
 21
1159.7654
  0
LINE
  8
_0-0_1
  6
CONTINUOUS
 62
    5
 10
1903.0563999999999
 20
1159.7654
 11
1909.3600999999999
 21
1155.6252999999999
  0
LINE
  8
_0-0_1
  6
CONTINUOUS
 62
    5
 10
1909.3600999999999
 20
1155.6252999999999
 11
1915.8807999999999
 21
1151.6365000000001
  0
LINE
  8
_0-0_1
  6
CONTINUOUS
 62
    5
 10
1915.8807999999999
 20
1151.6365000000001
 11
1922.6468
 21
1147.8525
  0
LINE
  8
_0-0_1
  6
CONTINUOUS
 62
    5
 10
1922.6468
 20
1147.8525
 11
1929.5898000000002
 21
1144.3779999999999
  0
LINE
  8
_0-0_1
  6
CONTINUOUS
 62
    5
 10
1929.5898000000002
 20
1144.3779999999999
 11
1933.8631999999998
 21
1142.4536000000001
  0
LINE
  8
_0-0_1
  6
CONTINUOUS
 62
    5
 10
1933.8631999999998
 20
1142.4536000000001
 11
1937.4683
 21
1140.9557
  0
LINE
  8
_0-0_1
  6
CONTINUOUS
 62
    5
 10
1937.4683
 20
1140.9557
 11
1943.5243999999998
 21
1138.6937
  0
LINE
  8
_0-0_1
  6
CONTINUOUS
 62
    5
 10
1943.5243999999998
 20
1138.6937
 11
1949.7743
 21
1136.6827000000001
  0
LINE
  8
_0-0_1
  6
CONTINUOUS
 62
    5
 10
1949.7743
 20
1136.6827000000001
 11
1956.123
 21
1134.9612999999999
  0
LINE
  8
_0-0_1
  6
CONTINUOUS
 62
    5
 10
1956.123
 20
1134.9612999999999
 11
1962.5572999999999
 21
1133.5383999999999
  0
LINE
  8
_0-0_1
  6
CONTINUOUS
 62
    5
 10
1962.5572999999999
 20
1133.5383999999999
 11
1968.971
 21
1132.4396999999999
  0
LINE
  8
_0-0_1
  6
CONTINUOUS
 62
    5
 10
1968.971
 20
1132.4396999999999
 11
1972.8298
 21
1131.9309000000001
  0
LINE
  8
_0-0_1
  6
CONTINUOUS
 62
    5
 10
1972.8298
 20
1131.9309000000001
 11
1975.8244
 21
1131.6125
  0
LINE
  8
_0-0_1
  6
CONTINUOUS
 62
    5
 10
1975.8244
 20
1131.6125
 11
1980.7168000000001
 21
1131.2302999999999
  0
LINE
  8
_0-0_1
  6
CONTINUOUS
 62
    5
 10
1980.7168000000001
 20
1131.2302999999999
 11
1985.6244000000002
 21
1131.0057999999999
  0
LINE
  8
_0-0_1
  6
CONTINUOUS
 62
    5
 10
1985.6244000000002
 20
1131.0057999999999
 11
1990.4717000000001
 21
1130.9229
  0
LINE
  8
_0-0_1
  6
CONTINUOUS
 62
    5
 10
1990.4717000000001
 20
1130.9229
 11
1995.2556
 21
1130.9606000000001
  0
LINE
  8
_0-0_1
  6
CONTINUOUS
 62
    5
 10
1995.2556
 20
1130.9606000000001
 11
1999.9432999999999
 21
1131.0976000000001
  0
LINE
  8
_0-0_1
  6
CONTINUOUS
 62
    5
 10
1999.9432999999999
 20
1131.0976000000001
 11
2002.7204999999999
 21
1131.2188000000001
  0
LINE
  8
_0-0_1
  6
CONTINUOUS
 62
    5
 10
2002.7204999999999
 20
1131.2188000000001
 11
2007.7528000000002
 21
1131.5042000000001
  0
LINE
  8
_0-0_1
  6
CONTINUOUS
 62
    5
 10
2007.7528000000002
 20
1131.5042000000001
 11
2016.2788999999998
 21
1132.1652999999999
  0
LINE
  8
_0-0_1
  6
CONTINUOUS
 62
    5
 10
2016.2788999999998
 20
1132.1652999999999
 11
2024.7638000000002
 21
1133.0155999999999
  0
LINE
  8
_0-0_1
  6
CONTINUOUS
 62
    5
 10
2024.7638000000002
 20
1133.0155999999999
 11
2033.1550999999999
 21
1134.0108
  0
LINE
  8
_0-0_1
  6
CONTINUOUS
 62
    5
 10
2033.1550999999999
 20
1134.0108
 11
2041.4558000000002
 21
1135.1114
  0
LINE
  8
_0-0_1
  6
CONTINUOUS
 62
    5
 10
2041.4558000000002
 20
1135.1114
 11
2049.6635999999999
 21
1136.2787000000001
  0
LINE
  8
_0-0_1
  6
CONTINUOUS
 62
    5
 10
2049.6635999999999
 20
1136.2787000000001
 11
2054.4007000000001
 21
1136.9740999999999
  0
LINE
  8
_0-0_1
  6
CONTINUOUS
 62
    5
 10
2054.4007000000001
 20
1136.9740999999999
 11
2056.8561
 21
1137.338
  0
LINE
  8
_0-0_1
  6
CONTINUOUS
 62
    5
 10
2056.8561
 20
1137.338
 11
2061.0702000000001
 21
1137.9666
  0
LINE
  8
_0-0_1
  6
CONTINUOUS
 62
    5
 10
2061.0702000000001
 20
1137.9666
 11
2065.2817
 21
1138.5989999999999
  0
LINE
  8
_0-0_1
  6
CONTINUOUS
 62
    5
 10
2065.2817
 20
1138.5989999999999
 11
2069.4884999999999
 21
1139.2340999999999
  0
LINE
  8
_0-0_1
  6
CONTINUOUS
 62
    5
 10
2069.4884999999999
 20
1139.2340999999999
 11
2073.6907000000001
 21
1139.8708999999999
  0
LINE
  8
_0-0_1
  6
CONTINUOUS
 62
    5
 10
2073.6907000000001
 20
1139.8708999999999
 11
2077.8886000000002
 21
1140.5084999999999
  0
LINE
  8
_0-0_1
  6
CONTINUOUS
 62
    5
 10
2077.8886000000002
 20
1140.5084999999999
 11
2079.5063
 21
1140.7545
  0
LINE
  8
_0-0_1
  6
CONTINUOUS
 62
    5
 10
1827.0509999999999
 20
1183.7204999999999
 11
1827.4769999999999
 21
1183.8835999999999
  0
ARC
  8
_0-0_1
  6
CONTINUOUS
 62
    5
 10
1828.1235999999999
 20
1180.9187999999999
 40
3
 50
110.94902000000002
 51
178.70000000000002
  0
LINE
  8
_0-0_1
  6
CONTINUOUS
 62
    5
 10
1825.0151000000001
 20
1165.1478
 11
1825.0151000000001
 21
1180.8703
  0
LINE
  8
_0-0_1
  6
CONTINUOUS
 62
    5
 10
1826.3690999999999
 20
1164.2125000000001
 11
1832.5439000000001
 21
1166.5497
  0
ARC
  8
_0-0_1
  6
CONTINUOUS
 62
    5
 10
1826.0151000000001
 20
1165.1478
 40
1
 50
180
 51
290.73165999999998
  0
LINE
  8
_0-0_1
  6
CONTINUOUS
 62
    5
 10
2090.0151000000001
 20
1143.8255999999999
 11
2090.0151000000001
 21
1161.0228999999999
  0
LINE
  8
_0-0_1
  6
CONTINUOUS
 62
    5
 10
2077.7415999999998
 20
1158.7094
 11
2122.1959000000002
 21
1168.3572999999999
  0
LINE
  8
_0-0_1
  6
CONTINUOUS
 62
    5
 10
2084.4868999999999
 20
1138.8757000000001
 11
2123.1586000000002
 21
1147.9256
  0
LINE
  8
_0-0_1
  6
CONTINUOUS
 62
    5
 10
2123.1586000000002
 20
1148.8821
 11
2123.1586000000002
 21
1147.9256
  0
ARC
  8
_0-0_1
  6
CONTINUOUS
 62
    5
 10
2124.1586000000002
 20
1148.8821
 40
1
 50
102.72435
 51
180
  0
LINE
  8
_0-0_1
  6
CONTINUOUS
 62
    5
 10
2128.9757
 20
1150.9949999999999
 11
2123.9384
 21
1149.8576
  0
ARC
  8
_0-0_1
  6
CONTINUOUS
 62
    5
 10
2129.1959000000002
 20
1150.0196000000001
 40
1
 50
0
 51
102.72435
  0
LINE
  8
_0-0_1
  6
CONTINUOUS
 62
    5
 10
2129.4079999999999
 20
1151.5035
 11
2079.2741000000001
 21
1140.6229000000001
  0
ARC
  8
_0-0_1
  6
CONTINUOUS
 62
    5
 10
2129.1959000000002
 20
1152.4807000000001
 40
1
 50
282.24497000000002
 51
0
  0
LINE
  8
_0-0_1
  6
CONTINUOUS
 62
    5
 10
2129.4137999999998
 20
1130.7627
 11
2079.8298
 21
1119.6949
  0
LINE
  8
_0-0_1
  6
CONTINUOUS
 62
    5
 10
2130.1959000000002
 20
1131.7387000000001
 11
2130.1959000000002
 21
1150.0196000000001
  0
ARC
  8
_0-0_1
  6
CONTINUOUS
 62
    5
 10
2129.1959000000002
 20
1131.7387000000001
 40
1
 50
282.58296000000001
 51
0.0000000000000254
  0
LINE
  8
_0-0_1
  6
CONTINUOUS
 62
    5
 10
2122.1959000000002
 20
1169.8143
 11
2122.1959000000002
 21
1168.3572999999999
  0
ARC
  8
_0-0_1
  6
CONTINUOUS
 62
    5
 10
2123.1959000000002
 20
1169.8143
 40
1
 50
101.73308
 51
180
  0
LINE
  8
_0-0_1
  6
CONTINUOUS
 62
    5
 10
2128.9926
 20
1172.0396000000001
 11
2122.9926
 21
1170.7934
  0
LINE
  8
_0-0_1
  6
CONTINUOUS
 62
    5
 10
2130.1959000000002
 20
1171.0605
 11
2130.1959000000002
 21
1152.4807000000001
  0
ARC
  8
_0-0_1
  6
CONTINUOUS
 62
    5
 10
2129.1959000000002
 20
1171.0605
 40
1
 50
0
 51
101.73308
  0
LINE
  8
_0-0_1
  6
CONTINUOUS
 62
    5
 10
1685.7955000000002
 20
1100.5161000000001
 11
1677.2600000000002
 21
1115.0495000000001
  0
LINE
  8
_0-0_1
  6
CONTINUOUS
 62
    5
 10
1693.9634000000001
 20
1099.8658
 11
1702.2696000000001
 21
1109.9313
  0
ARC
  8
_0-0_1
  6
CONTINUOUS
 62
    5
 10
1690.1069000000002
 20
1103.0482
 40
5
 50
210.42578
 51
320.47001
  0
LINE
  8
_0-0_1
  6
CONTINUOUS
 62
    5
 10
1769.9090000000001
 20
1099.396
 11
1762.5835999999999
 21
1110.702
  0
LINE
  8
_0-0_1
  6
CONTINUOUS
 62
    5
 10
1778.4185000000002
 20
1099.5859
 11
1787.357
 21
1114.8316
  0
ARC
  8
_0-0_1
  6
CONTINUOUS
 62
    5
 10
1774.1052
 20
1102.1148000000001
 40
5
 50
212.93986000000001
 51
329.61716000000001
  0
LINE
  8
_0-0_1
  6
CONTINUOUS
 62
    5
 10
1817.7006000000001
 20
1139.1434999999999
 11
1820.1287000000002
 21
1139.5473999999999
  0
LINE
  8
_0-0_1
  6
CONTINUOUS
 62
    5
 10
1813.5115000000001
 20
1138.4473
 11
1817.7006000000001
 21
1139.1434999999999
  0
LINE
  8
_0-0_1
  6
CONTINUOUS
 62
    5
 10
1809.3177000000001
 20
1137.7517
 11
1813.5115000000001
 21
1138.4473
  0
LINE
  8
_0-0_1
  6
CONTINUOUS
 62
    5
 10
1805.1188999999999
 20
1137.0577000000001
 11
1809.3177000000001
 21
1137.7517
  0
LINE
  8
_0-0_1
  6
CONTINUOUS
 62
    5
 10
1800.9149000000002
 20
1136.3662999999999
 11
1805.1188999999999
 21
1137.0577000000001
  0
LINE
  8
_0-0_1
  6
CONTINUOUS
 62
    5
 10
1796.7080999999998
 20
1135.6786
 11
1800.9149000000002
 21
1136.3662999999999
  0
LINE
  8
_0-0_1
  6
CONTINUOUS
 62
    5
 10
1794.2557999999999
 20
1135.2800999999999
 11
1796.7080999999998
 21
1135.6786
  0
LINE
  8
_0-0_1
  6
CONTINUOUS
 62
    5
 10
1789.5230000000001
 20
1134.5175999999999
 11
1794.2557999999999
 21
1135.2800999999999
  0
LINE
  8
_0-0_1
  6
CONTINUOUS
 62
    5
 10
1781.3186000000001
 20
1133.2338
 11
1789.5230000000001
 21
1134.5175999999999
  0
LINE
  8
_0-0_1
  6
CONTINUOUS
 62
    5
 10
1773.0111000000002
 20
1132.0139999999999
 11
1781.3186000000001
 21
1133.2338
  0
LINE
  8
_0-0_1
  6
CONTINUOUS
 62
    5
 10
1764.6028000000001
 20
1130.8976
 11
1773.0111000000002
 21
1132.0139999999999
  0
LINE
  8
_0-0_1
  6
CONTINUOUS
 62
    5
 10
1756.0902000000001
 20
1129.9241999999999
 11
1764.6028000000001
 21
1130.8976
  0
LINE
  8
_0-0_1
  6
CONTINUOUS
 62
    5
 10
1747.5311000000002
 20
1129.1402
 11
1756.0902000000001
 21
1129.9241999999999
  0
LINE
  8
_0-0_1
  6
CONTINUOUS
 62
    5
 10
1742.4695999999999
 20
1128.7822000000001
 11
1747.5311000000002
 21
1129.1402
  0
LINE
  8
_0-0_1
  6
CONTINUOUS
 62
    5
 10
1739.6669999999999
 20
1128.6206
 11
1742.4695999999999
 21
1128.7822000000001
  0
LINE
  8
_0-0_1
  6
CONTINUOUS
 62
    5
 10
1734.9459999999999
 20
1128.4166
 11
1739.6669999999999
 21
1128.6206
  0
LINE
  8
_0-0_1
  6
CONTINUOUS
 62
    5
 10
1730.1167
 20
1128.3112000000001
 11
1734.9459999999999
 21
1128.4166
  0
LINE
  8
_0-0_1
  6
CONTINUOUS
 62
    5
 10
1725.2150999999999
 20
1128.3266000000001
 11
1730.1167
 21
1128.3112000000001
  0
LINE
  8
_0-0_1
  6
CONTINUOUS
 62
    5
 10
1720.2440999999999
 20
1128.4844000000001
 11
1725.2150999999999
 21
1128.3266000000001
  0
LINE
  8
_0-0_1
  6
CONTINUOUS
 62
    5
 10
1715.2867000000001
 20
1128.8022000000001
 11
1720.2440999999999
 21
1128.4844000000001
  0
LINE
  8
_0-0_1
  6
CONTINUOUS
 62
    5
 10
1712.2350000000001
 20
1129.0835999999999
 11
1715.2867000000001
 21
1128.8022000000001
  0
LINE
  8
_0-0_1
  6
CONTINUOUS
 62
    5
 10
1708.3062
 20
1129.5458000000001
 11
1712.2350000000001
 21
1129.0835999999999
  0
LINE
  8
_0-0_1
  6
CONTINUOUS
 62
    5
 10
1701.7921999999999
 20
1130.5684000000001
 11
1708.3062
 21
1129.5458000000001
  0
LINE
  8
_0-0_1
  6
CONTINUOUS
 62
    5
 10
1695.2456000000002
 20
1131.9204999999999
 11
1701.7921999999999
 21
1130.5684000000001
  0
LINE
  8
_0-0_1
  6
CONTINUOUS
 62
    5
 10
1688.7827000000002
 20
1133.5763999999999
 11
1695.2456000000002
 21
1131.9204999999999
  0
LINE
  8
_0-0_1
  6
CONTINUOUS
 62
    5
 10
1682.4167000000002
 20
1135.5271
 11
1688.7827000000002
 21
1133.5763999999999
  0
LINE
  8
_0-0_1
  6
CONTINUOUS
 62
    5
 10
1676.252
 20
1137.7320999999999
 11
1682.4167000000002
 21
1135.5271
  0
LINE
  8
_0-0_1
  6
CONTINUOUS
 62
    5
 10
1672.5653000000002
 20
1139.2038
 11
1676.252
 21
1137.7320999999999
  0
LINE
  8
_0-0_1
  6
CONTINUOUS
 62
    5
 10
1668.201
 20
1141.0962999999999
 11
1672.5653000000002
 21
1139.2038
  0
LINE
  8
_0-0_1
  6
CONTINUOUS
 62
    5
 10
1661.1320000000001
 20
1144.5112999999999
 11
1668.201
 21
1141.0962999999999
  0
LINE
  8
_0-0_1
  6
CONTINUOUS
 62
    5
 10
1654.2390999999998
 20
1148.2409
 11
1661.1320000000001
 21
1144.5112999999999
  0
LINE
  8
_0-0_1
  6
CONTINUOUS
 62
    5
 10
1647.6021000000001
 20
1152.1746000000001
 11
1654.2390999999998
 21
1148.2409
  0
LINE
  8
_0-0_1
  6
CONTINUOUS
 62
    5
 10
1641.1927999999998
 20
1156.2571
 11
1647.6021000000001
 21
1152.1746000000001
  0
LINE
  8
_0-0_1
  6
CONTINUOUS
 62
    5
 10
1635.0086000000001
 20
1160.4192
 11
1641.1927999999998
 21
1156.2571
  0
LINE
  8
_0-0_1
  6
CONTINUOUS
 62
    5
 10
1631.4661999999998
 20
1162.8829000000001
 11
1635.0086000000001
 21
1160.4192
  0
LINE
  8
_0-0_1
  6
CONTINUOUS
 62
    5
 10
1629.2341999999999
 20
1164.4564
 11
1631.4661999999998
 21
1162.8829000000001
  0
LINE
  8
_0-0_1
  6
CONTINUOUS
 62
    5
 10
1625.6106
 20
1166.9956
 11
1629.2341999999999
 21
1164.4564
  0
LINE
  8
_0-0_1
  6
CONTINUOUS
 62
    5
 10
1622.241
 20
1169.2610999999999
 11
1625.6106
 21
1166.9956
  0
LINE
  8
_0-0_1
  6
CONTINUOUS
 62
    5
 10
1619.1260000000002
 20
1171.1881000000001
 11
1622.241
 21
1169.2610999999999
  0
LINE
  8
_0-0_1
  6
CONTINUOUS
 62
    5
 10
1616.2588000000001
 20
1172.7438999999999
 11
1619.1260000000002
 21
1171.1881000000001
  0
LINE
  8
_0-0_1
  6
CONTINUOUS
 62
    5
 10
1613.4277000000002
 20
1174.0123000000001
 11
1616.2588000000001
 21
1172.7438999999999
  0
LINE
  8
_0-0_1
  6
CONTINUOUS
 62
    5
 10
1611.9645
 20
1174.5445
 11
1613.4277000000002
 21
1174.0123000000001
  0
LINE
  8
_0-0_1
  6
CONTINUOUS
 62
    5
 10
1611.7833999999998
 20
1174.6024
 11
1611.9645
 21
1174.5445
  0
LINE
  8
_0-0_1
  6
CONTINUOUS
 62
    5
 10
1610.9951000000001
 20
1174.8304000000001
 11
1611.7833999999998
 21
1174.6024
  0
LINE
  8
_0-0_1
  6
CONTINUOUS
 62
    5
 10
1610.3379
 20
1174.9930999999999
 11
1610.9951000000001
 21
1174.8304000000001
  0
LINE
  8
_0-0_1
  6
CONTINUOUS
 62
    5
 10
1609.7561999999998
 20
1175.1111000000001
 11
1610.3379
 21
1174.9930999999999
  0
LINE
  8
_0-0_1
  6
CONTINUOUS
 62
    5
 10
1609.7161000000001
 20
1175.1171999999999
 11
1609.7561999999998
 21
1175.1111000000001
  0
LINE
  8
_0-0_1
  6
CONTINUOUS
 62
    5
 10
1813.6900000000001
 20
1119.9559999999999
 11
1815.3040999999998
 21
1120.2245
  0
LINE
  8
_0-0_1
  6
CONTINUOUS
 62
    5
 10
1809.5014000000001
 20
1119.2599
 11
1813.6900000000001
 21
1119.9559999999999
  0
LINE
  8
_0-0_1
  6
CONTINUOUS
 62
    5
 10
1805.3085000000001
 20
1118.5645
 11
1809.5014000000001
 21
1119.2599
  0
LINE
  8
_0-0_1
  6
CONTINUOUS
 62
    5
 10
1801.1109999999999
 20
1117.8706999999999
 11
1805.3085000000001
 21
1118.5645
  0
LINE
  8
_0-0_1
  6
CONTINUOUS
 62
    5
 10
1796.9087
 20
1117.1795
 11
1801.1109999999999
 21
1117.8706999999999
  0
LINE
  8
_0-0_1
  6
CONTINUOUS
 62
    5
 10
1792.7037999999998
 20
1116.4921999999999
 11
1796.9087
 21
1117.1795
  0
LINE
  8
_0-0_1
  6
CONTINUOUS
 62
    5
 10
1790.2537000000002
 20
1116.0940000000001
 11
1792.7037999999998
 21
1116.4921999999999
  0
LINE
  8
_0-0_1
  6
CONTINUOUS
 62
    5
 10
1785.5268000000001
 20
1115.3325
 11
1790.2537000000002
 21
1116.0940000000001
  0
LINE
  8
_0-0_1
  6
CONTINUOUS
 62
    5
 10
1777.3361
 20
1114.0508
 11
1785.5268000000001
 21
1115.3325
  0
LINE
  8
_0-0_1
  6
CONTINUOUS
 62
    5
 10
1769.0515999999998
 20
1112.8343
 11
1777.3361
 21
1114.0508
  0
LINE
  8
_0-0_1
  6
CONTINUOUS
 62
    5
 10
1760.6750000000002
 20
1111.7221999999999
 11
1769.0515999999998
 21
1112.8343
  0
LINE
  8
_0-0_1
  6
CONTINUOUS
 62
    5
 10
1752.2028
 20
1110.7534000000001
 11
1760.6750000000002
 21
1111.7221999999999
  0
LINE
  8
_0-0_1
  6
CONTINUOUS
 62
    5
 10
1743.6867000000002
 20
1109.9733000000001
 11
1752.2028
 21
1110.7534000000001
  0
LINE
  8
_0-0_1
  6
CONTINUOUS
 62
    5
 10
1738.6588999999999
 20
1109.6177
 11
1743.6867000000002
 21
1109.9733000000001
  0
LINE
  8
_0-0_1
  6
CONTINUOUS
 62
    5
 10
1735.8836999999999
 20
1109.4576999999999
 11
1738.6588999999999
 21
1109.6177
  0
LINE
  8
_0-0_1
  6
CONTINUOUS
 62
    5
 10
1731.1984000000002
 20
1109.2553
 11
1735.8836999999999
 21
1109.4576999999999
  0
LINE
  8
_0-0_1
  6
CONTINUOUS
 62
    5
 10
1726.4155000000001
 20
1109.1509000000001
 11
1731.1984000000002
 21
1109.2553
  0
LINE
  8
_0-0_1
  6
CONTINUOUS
 62
    5
 10
1721.5673999999999
 20
1109.1660999999999
 11
1726.4155000000001
 21
1109.1509000000001
  0
LINE
  8
_0-0_1
  6
CONTINUOUS
 62
    5
 10
1716.6572000000001
 20
1109.3219999999999
 11
1721.5673999999999
 21
1109.1660999999999
  0
LINE
  8
_0-0_1
  6
CONTINUOUS
 62
    5
 10
1711.7599
 20
1109.6359
 11
1716.6572000000001
 21
1109.3219999999999
  0
LINE
  8
_0-0_1
  6
CONTINUOUS
 62
    5
 10
1708.7611999999999
 20
1109.9123999999999
 11
1711.7599
 21
1109.6359
  0
LINE
  8
_0-0_1
  6
CONTINUOUS
 62
    5
 10
1704.8955999999998
 20
1110.3671999999999
 11
1708.7611999999999
 21
1109.9123999999999
  0
LINE
  8
_0-0_1
  6
CONTINUOUS
 62
    5
 10
1698.4672
 20
1111.3764000000001
 11
1704.8955999999998
 21
1110.3671999999999
  0
LINE
  8
_0-0_1
  6
CONTINUOUS
 62
    5
 10
1692.0137
 20
1112.7093
 11
1698.4672
 21
1111.3764000000001
  0
LINE
  8
_0-0_1
  6
CONTINUOUS
 62
    5
 10
1685.6415999999999
 20
1114.3418999999999
 11
1692.0137
 21
1112.7093
  0
LINE
  8
_0-0_1
  6
CONTINUOUS
 62
    5
 10
1679.3642
 20
1116.2654
 11
1685.6415999999999
 21
1114.3418999999999
  0
LINE
  8
_0-0_1
  6
CONTINUOUS
 62
    5
 10
1673.2772
 20
1118.4426000000001
 11
1679.3642
 21
1116.2654
  0
LINE
  8
_0-0_1
  6
CONTINUOUS
 62
    5
 10
1669.6514999999999
 20
1119.8900000000001
 11
1673.2772
 21
1118.4426000000001
  0
LINE
  8
_0-0_1
  6
CONTINUOUS
 62
    5
 10
1665.3516
 20
1121.7546
 11
1669.6514999999999
 21
1119.8900000000001
  0
LINE
  8
_0-0_1
  6
CONTINUOUS
 62
    5
 10
1658.3607999999999
 20
1125.1318000000001
 11
1665.3516
 21
1121.7546
  0
LINE
  8
_0-0_1
  6
CONTINUOUS
 62
    5
 10
1651.5426000000002
 20
1128.8209999999999
 11
1658.3607999999999
 21
1125.1318000000001
  0
LINE
  8
_0-0_1
  6
CONTINUOUS
 62
    5
 10
1644.9668999999999
 20
1132.7183
 11
1651.5426000000002
 21
1128.8209999999999
  0
LINE
  8
_0-0_1
  6
CONTINUOUS
 62
    5
 10
1638.6059
 20
1136.77
 11
1644.9668999999999
 21
1132.7183
  0
LINE
  8
_0-0_1
  6
CONTINUOUS
 62
    5
 10
1632.4553999999998
 20
1140.9095
 11
1638.6059
 21
1136.77
  0
LINE
  8
_0-0_1
  6
CONTINUOUS
 62
    5
 10
1628.9308000000001
 20
1143.3607999999999
 11
1632.4553999999998
 21
1140.9095
  0
LINE
  8
_0-0_1
  6
CONTINUOUS
 62
    5
 10
1626.7017000000001
 20
1144.9322999999999
 11
1628.9308000000001
 21
1143.3607999999999
  0
LINE
  8
_0-0_1
  6
CONTINUOUS
 62
    5
 10
1623.0599999999999
 20
1147.4840999999999
 11
1626.7017000000001
 21
1144.9322999999999
  0
LINE
  8
_0-0_1
  6
CONTINUOUS
 62
    5
 10
1619.6428999999998
 20
1149.7816
 11
1623.0599999999999
 21
1147.4840999999999
  0
LINE
  8
_0-0_1
  6
CONTINUOUS
 62
    5
 10
1616.4472000000001
 20
1151.7584999999999
 11
1619.6428999999998
 21
1149.7816
  0
LINE
  8
_0-0_1
  6
CONTINUOUS
 62
    5
 10
1613.4632999999999
 20
1153.3776
 11
1616.4472000000001
 21
1151.7584999999999
  0
LINE
  8
_0-0_1
  6
CONTINUOUS
 62
    5
 10
1610.4967000000001
 20
1154.7067
 11
1613.4632999999999
 21
1153.3776
  0
LINE
  8
_0-0_1
  6
CONTINUOUS
 62
    5
 10
1609.7467999999999
 20
1154.9794999999999
 11
1610.4967000000001
 21
1154.7067
  0
LINE
  8
_0-0_1
  6
CONTINUOUS
 62
    5
 10
1610.0798
 20
1175.0226
 11
1609.9038
 21
1154.8492000000001
  0
LINE
  8
_0-0_1
  6
CONTINUOUS
 62
    5
 10
1810.4054999999998
 20
1109.5347999999999
 11
1808.1599999999999
 21
1118.1081999999999
  0
ARC
  8
_0-0_1
  6
CONTINUOUS
 62
    5
 10
1813.3076000000001
 20
1110.2949000000001
 40
3
 50
194.67639000000003
 51
270.00000000000006
  0
LINE
  8
_0-0_1
  6
CONTINUOUS
 62
    5
 10
1816.7501000000002
 20
1107.2906
 11
1813.3321999999998
 21
1107.2906
  0
LINE
  8
_0-0_1
  6
CONTINUOUS
 62
    5
 10
1819.7091999999998
 20
1109.7973999999999
 11
1821.6433000000002
 21
1121.4014999999999
  0
ARC
  8
_0-0_1
  6
CONTINUOUS
 62
    5
 10
1816.7501000000002
 20
1110.2906
 40
3
 50
270
 51
350.53766999999999
  0
LINE
  8
_0-0_1
  6
CONTINUOUS
 62
    5
 10
1562.9837000000002
 20
1184.4128000000001
 11
1563.7975999999999
 21
1184.7194
  0
LINE
  8
_0-0_1
  6
CONTINUOUS
 62
    5
 10
1563.7975999999999
 20
1184.7194
 11
1567.3467999999998
 21
1186.059
  0
LINE
  8
_0-0_1
  6
CONTINUOUS
 62
    5
 10
1567.3467999999998
 20
1186.059
 11
1570.9034999999999
 21
1187.4078999999999
  0
LINE
  8
_0-0_1
  6
CONTINUOUS
 62
    5
 10
1570.9034999999999
 20
1187.4078999999999
 11
1574.4721
 21
1188.7719
  0
LINE
  8
_0-0_1
  6
CONTINUOUS
 62
    5
 10
1574.4721
 20
1188.7719
 11
1578.0574999999999
 21
1190.1569999999999
  0
LINE
  8
_0-0_1
  6
CONTINUOUS
 62
    5
 10
1578.0574999999999
 20
1190.1569999999999
 11
1581.6642000000002
 21
1191.569
  0
LINE
  8
_0-0_1
  6
CONTINUOUS
 62
    5
 10
1581.6642000000002
 20
1191.569
 11
1583.7676999999999
 21
1192.4025999999999
  0
LINE
  8
_0-0_1
  6
CONTINUOUS
 62
    5
 10
1583.7676999999999
 20
1192.4025999999999
 11
1585.8471
 21
1193.2315000000001
  0
LINE
  8
_0-0_1
  6
CONTINUOUS
 62
    5
 10
1585.8471
 20
1193.2315000000001
 11
1589.4535999999998
 21
1194.6329000000001
  0
LINE
  8
_0-0_1
  6
CONTINUOUS
 62
    5
 10
1589.4535999999998
 20
1194.6329000000001
 11
1593.0862999999999
 21
1195.9156
  0
LINE
  8
_0-0_1
  6
CONTINUOUS
 62
    5
 10
1593.0862999999999
 20
1195.9156
 11
1596.7442999999998
 21
1196.9822999999999
  0
LINE
  8
_0-0_1
  6
CONTINUOUS
 62
    5
 10
1596.7442999999998
 20
1196.9822999999999
 11
1600.4263999999998
 21
1197.7355
  0
LINE
  8
_0-0_1
  6
CONTINUOUS
 62
    5
 10
1600.4263999999998
 20
1197.7355
 11
1604.1316999999999
 21
1198.078
  0
LINE
  8
_0-0_1
  6
CONTINUOUS
 62
    5
 10
1604.1316999999999
 20
1198.078
 11
1606.2909
 21
1198.0500999999999
  0
LINE
  8
_0-0_1
  6
CONTINUOUS
 62
    5
 10
1606.2909
 20
1198.0500999999999
 11
1607.1401000000001
 21
1197.9887000000001
  0
LINE
  8
_0-0_1
  6
CONTINUOUS
 62
    5
 10
1607.1401000000001
 20
1197.9887000000001
 11
1608.6044999999999
 21
1197.8181999999999
  0
LINE
  8
_0-0_1
  6
CONTINUOUS
 62
    5
 10
1608.6044999999999
 20
1197.8181999999999
 11
1610.0655000000002
 21
1197.5714
  0
LINE
  8
_0-0_1
  6
CONTINUOUS
 62
    5
 10
1610.0655000000002
 20
1197.5714
 11
1611.5192000000002
 21
1197.2554
  0
LINE
  8
_0-0_1
  6
CONTINUOUS
 62
    5
 10
1611.5192000000002
 20
1197.2554
 11
1612.9614000000001
 21
1196.8769
  0
LINE
  8
_0-0_1
  6
CONTINUOUS
 62
    5
 10
1612.9614000000001
 20
1196.8769
 11
1614.3878
 21
1196.4428
  0
LINE
  8
_0-0_1
  6
CONTINUOUS
 62
    5
 10
1614.3878
 20
1196.4428
 11
1615.2062999999998
 21
1196.1682000000001
  0
LINE
  8
_0-0_1
  6
CONTINUOUS
 62
    5
 10
1615.2062999999998
 20
1196.1682000000001
 11
1617.7044999999998
 21
1195.2199000000001
  0
LINE
  8
_0-0_1
  6
CONTINUOUS
 62
    5
 10
1617.7044999999998
 20
1195.2199000000001
 11
1621.8634000000002
 21
1193.2864
  0
LINE
  8
_0-0_1
  6
CONTINUOUS
 62
    5
 10
1621.8634000000002
 20
1193.2864
 11
1625.8672999999999
 21
1191.0409999999999
  0
LINE
  8
_0-0_1
  6
CONTINUOUS
 62
    5
 10
1625.8672999999999
 20
1191.0409999999999
 11
1629.7541000000001
 21
1188.5607
  0
LINE
  8
_0-0_1
  6
CONTINUOUS
 62
    5
 10
1629.7541000000001
 20
1188.5607
 11
1633.5621000000001
 21
1185.9226000000001
  0
LINE
  8
_0-0_1
  6
CONTINUOUS
 62
    5
 10
1633.5621000000001
 20
1185.9226000000001
 11
1637.3294000000001
 21
1183.2035000000001
  0
LINE
  8
_0-0_1
  6
CONTINUOUS
 62
    5
 10
1637.3294000000001
 20
1183.2035000000001
 11
1639.5106999999998
 21
1181.6197
  0
LINE
  8
_0-0_1
  6
CONTINUOUS
 62
    5
 10
1639.5106999999998
 20
1181.6197
 11
1642.8422999999998
 21
1179.2329
  0
LINE
  8
_0-0_1
  6
CONTINUOUS
 62
    5
 10
1642.8422999999998
 20
1179.2329
 11
1648.6345000000001
 21
1175.2158999999999
  0
LINE
  8
_0-0_1
  6
CONTINUOUS
 62
    5
 10
1648.6345000000001
 20
1175.2158999999999
 11
1654.5066999999999
 21
1171.3593000000001
  0
LINE
  8
_0-0_1
  6
CONTINUOUS
 62
    5
 10
1654.5066999999999
 20
1171.3593000000001
 11
1660.4807999999998
 21
1167.7048
  0
LINE
  8
_0-0_1
  6
CONTINUOUS
 62
    5
 10
1660.4807999999998
 20
1167.7048
 11
1666.5790000000002
 21
1164.2943
  0
LINE
  8
_0-0_1
  6
CONTINUOUS
 62
    5
 10
1666.5790000000002
 20
1164.2943
 11
1672.8233
 21
1161.1695
  0
LINE
  8
_0-0_1
  6
CONTINUOUS
 62
    5
 10
1672.8233
 20
1161.1695
 11
1676.5205999999998
 21
1159.5045
  0
LINE
  8
_0-0_1
  6
CONTINUOUS
 62
    5
 10
1676.5205999999998
 20
1159.5045
 11
1679.5798
 21
1158.2334000000001
  0
LINE
  8
_0-0_1
  6
CONTINUOUS
 62
    5
 10
1679.5798
 20
1158.2334000000001
 11
1684.9404
 21
1156.2311999999999
  0
LINE
  8
_0-0_1
  6
CONTINUOUS
 62
    5
 10
1684.9404
 20
1156.2311999999999
 11
1690.3960999999999
 21
1154.4757999999999
  0
LINE
  8
_0-0_1
  6
CONTINUOUS
 62
    5
 10
1690.3960999999999
 20
1154.4757999999999
 11
1695.931
 21
1152.9749999999999
  0
LINE
  8
_0-0_1
  6
CONTINUOUS
 62
    5
 10
1695.931
 20
1152.9749999999999
 11
1701.5293000000001
 21
1151.7370000000001
  0
LINE
  8
_0-0_1
  6
CONTINUOUS
 62
    5
 10
1701.5293000000001
 20
1151.7370000000001
 11
1707.1750999999999
 21
1150.7698
  0
LINE
  8
_0-0_1
  6
CONTINUOUS
 62
    5
 10
1707.1750999999999
 20
1150.7698
 11
1710.4650000000001
 21
1150.336
  0
LINE
  8
_0-0_1
  6
CONTINUOUS
 62
    5
 10
1710.4650000000001
 20
1150.336
 11
1712.9843000000001
 21
1150.0681999999999
  0
LINE
  8
_0-0_1
  6
CONTINUOUS
 62
    5
 10
1712.9843000000001
 20
1150.0681999999999
 11
1717.3364000000001
 21
1149.7282
  0
LINE
  8
_0-0_1
  6
CONTINUOUS
 62
    5
 10
1717.3364000000001
 20
1149.7282
 11
1721.6966000000002
 21
1149.5287000000001
  0
LINE
  8
_0-0_1
  6
CONTINUOUS
 62
    5
 10
1721.6966000000002
 20
1149.5287000000001
 11
1726.0617999999999
 21
1149.4540999999999
  0
LINE
  8
_0-0_1
  6
CONTINUOUS
 62
    5
 10
1726.0617999999999
 20
1149.4540999999999
 11
1730.4288999999999
 21
1149.4884
  0
LINE
  8
_0-0_1
  6
CONTINUOUS
 62
    5
 10
1730.4288999999999
 20
1149.4884
 11
1734.7948000000001
 21
1149.616
  0
LINE
  8
_0-0_1
  6
CONTINUOUS
 62
    5
 10
1734.7948000000001
 20
1149.616
 11
1737.3253
 21
1149.7265
  0
LINE
  8
_0-0_1
  6
CONTINUOUS
 62
    5
 10
1737.3253
 20
1149.7265
 11
1742.0544
 21
1149.9947
  0
LINE
  8
_0-0_1
  6
CONTINUOUS
 62
    5
 10
1742.0544
 20
1149.9947
 11
1750.1925999999999
 21
1150.6257000000001
  0
LINE
  8
_0-0_1
  6
CONTINUOUS
 62
    5
 10
1750.1925999999999
 20
1150.6257000000001
 11
1758.3132999999998
 21
1151.4395999999999
  0
LINE
  8
_0-0_1
  6
CONTINUOUS
 62
    5
 10
1758.3132999999998
 20
1151.4395999999999
 11
1766.4191999999998
 21
1152.4007999999999
  0
LINE
  8
_0-0_1
  6
CONTINUOUS
 62
    5
 10
1766.4191999999998
 20
1152.4007999999999
 11
1774.5126
 21
1153.4739999999999
  0
LINE
  8
_0-0_1
  6
CONTINUOUS
 62
    5
 10
1774.5126
 20
1153.4739999999999
 11
1782.5962
 21
1154.6235999999999
  0
LINE
  8
_0-0_1
  6
CONTINUOUS
 62
    5
 10
1782.5962
 20
1154.6235999999999
 11
1787.2811000000002
 21
1155.3114
  0
LINE
  8
_0-0_1
  6
CONTINUOUS
 62
    5
 10
1787.2811000000002
 20
1155.3114
 11
1789.7159999999999
 21
1155.6722
  0
LINE
  8
_0-0_1
  6
CONTINUOUS
 62
    5
 10
1789.7159999999999
 20
1155.6722
 11
1793.9128999999998
 21
1156.2982
  0
LINE
  8
_0-0_1
  6
CONTINUOUS
 62
    5
 10
1793.9128999999998
 20
1156.2982
 11
1798.1087000000002
 21
1156.9283
  0
LINE
  8
_0-0_1
  6
CONTINUOUS
 62
    5
 10
1798.1087000000002
 20
1156.9283
 11
1802.3036000000002
 21
1157.5616
  0
LINE
  8
_0-0_1
  6
CONTINUOUS
 62
    5
 10
1802.3036000000002
 20
1157.5616
 11
1806.4976999999999
 21
1158.1972000000001
  0
LINE
  8
_0-0_1
  6
CONTINUOUS
 62
    5
 10
1806.4976999999999
 20
1158.1972000000001
 11
1810.6914999999999
 21
1158.8342
  0
LINE
  8
_0-0_1
  6
CONTINUOUS
 62
    5
 10
1810.6914999999999
 20
1158.8342
 11
1813.1237999999998
 21
1159.2039
  0
LINE
  8
_0-0_1
  6
CONTINUOUS
 62
    5
 10
1568.0868999999998
 20
1167.1003000000001
 11
1570.1487999999999
 21
1167.8771999999999
  0
LINE
  8
_0-0_1
  6
CONTINUOUS
 62
    5
 10
1570.1487999999999
 20
1167.8771999999999
 11
1573.7163999999998
 21
1169.2237
  0
LINE
  8
_0-0_1
  6
CONTINUOUS
 62
    5
 10
1573.7163999999998
 20
1169.2237
 11
1577.3083000000001
 21
1170.5859
  0
LINE
  8
_0-0_1
  6
CONTINUOUS
 62
    5
 10
1577.3083000000001
 20
1170.5859
 11
1580.9286999999999
 21
1171.9697000000001
  0
LINE
  8
_0-0_1
  6
CONTINUOUS
 62
    5
 10
1580.9286999999999
 20
1171.9697000000001
 11
1584.5816
 21
1173.3809000000001
  0
LINE
  8
_0-0_1
  6
CONTINUOUS
 62
    5
 10
1584.5816
 20
1173.3809000000001
 11
1588.2608
 21
1174.8213000000001
  0
LINE
  8
_0-0_1
  6
CONTINUOUS
 62
    5
 10
1588.2608
 20
1174.8213000000001
 11
1590.4160000000002
 21
1175.6754000000001
  0
LINE
  8
_0-0_1
  6
CONTINUOUS
 62
    5
 10
1590.4160000000002
 20
1175.6754000000001
 11
1592.4396000000002
 21
1176.482
  0
LINE
  8
_0-0_1
  6
CONTINUOUS
 62
    5
 10
1592.4396000000002
 20
1176.482
 11
1595.7114999999999
 21
1177.7534000000001
  0
LINE
  8
_0-0_1
  6
CONTINUOUS
 62
    5
 10
1595.7114999999999
 20
1177.7534000000001
 11
1598.6066000000001
 21
1178.7756999999999
  0
LINE
  8
_0-0_1
  6
CONTINUOUS
 62
    5
 10
1598.6066000000001
 20
1178.7756999999999
 11
1601.0747000000001
 21
1179.4954
  0
LINE
  8
_0-0_1
  6
CONTINUOUS
 62
    5
 10
1601.0747000000001
 20
1179.4954
 11
1603.0664999999999
 21
1179.9028000000001
  0
LINE
  8
_0-0_1
  6
CONTINUOUS
 62
    5
 10
1603.0664999999999
 20
1179.9028000000001
 11
1604.8458000000001
 21
1180.0672999999999
  0
LINE
  8
_0-0_1
  6
CONTINUOUS
 62
    5
 10
1604.8458000000001
 20
1180.0672999999999
 11
1605.5252999999998
 21
1180.0585000000001
  0
LINE
  8
_0-0_1
  6
CONTINUOUS
 62
    5
 10
1605.5252999999998
 20
1180.0585000000001
 11
1605.4492
 21
1180.0640000000001
  0
LINE
  8
_0-0_1
  6
CONTINUOUS
 62
    5
 10
1605.4492
 20
1180.0640000000001
 11
1606.0628000000002
 21
1179.9925000000001
  0
LINE
  8
_0-0_1
  6
CONTINUOUS
 62
    5
 10
1606.0628000000002
 20
1179.9925000000001
 11
1606.6532999999999
 21
1179.8928000000001
  0
LINE
  8
_0-0_1
  6
CONTINUOUS
 62
    5
 10
1606.6532999999999
 20
1179.8928000000001
 11
1607.3207000000002
 21
1179.7476999999999
  0
LINE
  8
_0-0_1
  6
CONTINUOUS
 62
    5
 10
1607.3207000000002
 20
1179.7476999999999
 11
1608.0542
 21
1179.5552
  0
LINE
  8
_0-0_1
  6
CONTINUOUS
 62
    5
 10
1608.0542
 20
1179.5552
 11
1608.9034000000001
 21
1179.2967000000001
  0
LINE
  8
_0-0_1
  6
CONTINUOUS
 62
    5
 10
1608.9034000000001
 20
1179.2967000000001
 11
1609.1475
 21
1179.2148
  0
LINE
  8
_0-0_1
  6
CONTINUOUS
 62
    5
 10
1609.1475
 20
1179.2148
 11
1610.7073999999998
 21
1178.6228000000001
  0
LINE
  8
_0-0_1
  6
CONTINUOUS
 62
    5
 10
1610.7073999999998
 20
1178.6228000000001
 11
1613.6550999999999
 21
1177.2523000000001
  0
LINE
  8
_0-0_1
  6
CONTINUOUS
 62
    5
 10
1613.6550999999999
 20
1177.2523000000001
 11
1616.6161999999999
 21
1175.5916999999999
  0
LINE
  8
_0-0_1
  6
CONTINUOUS
 62
    5
 10
1616.6161999999999
 20
1175.5916999999999
 11
1619.7838999999999
 21
1173.5704000000001
  0
LINE
  8
_0-0_1
  6
CONTINUOUS
 62
    5
 10
1619.7838999999999
 20
1173.5704000000001
 11
1623.1686
 21
1171.2255
  0
LINE
  8
_0-0_1
  6
CONTINUOUS
 62
    5
 10
1623.1686
 20
1171.2255
 11
1626.7743
 21
1168.623
  0
LINE
  8
_0-0_1
  6
CONTINUOUS
 62
    5
 10
1626.7743
 20
1168.623
 11
1628.9812999999999
 21
1167.0206000000001
  0
LINE
  8
_0-0_1
  6
CONTINUOUS
 62
    5
 10
1628.9812999999999
 20
1167.0206000000001
 11
1632.4713000000002
 21
1164.5201999999999
  0
LINE
  8
_0-0_1
  6
CONTINUOUS
 62
    5
 10
1632.4713000000002
 20
1164.5201999999999
 11
1638.5634
 21
1160.2953
  0
LINE
  8
_0-0_1
  6
CONTINUOUS
 62
    5
 10
1638.5634
 20
1160.2953
 11
1644.8672000000001
 21
1156.1551999999999
  0
LINE
  8
_0-0_1
  6
CONTINUOUS
 62
    5
 10
1644.8672000000001
 20
1156.1551999999999
 11
1651.3879000000002
 21
1152.1664000000001
  0
LINE
  8
_0-0_1
  6
CONTINUOUS
 62
    5
 10
1651.3879000000002
 20
1152.1664000000001
 11
1658.1538
 21
1148.3824
  0
LINE
  8
_0-0_1
  6
CONTINUOUS
 62
    5
 10
1658.1538
 20
1148.3824
 11
1665.0969
 21
1144.9079999999999
  0
LINE
  8
_0-0_1
  6
CONTINUOUS
 62
    5
 10
1665.0969
 20
1144.9079999999999
 11
1669.3703
 21
1142.9835
  0
LINE
  8
_0-0_1
  6
CONTINUOUS
 62
    5
 10
1669.3703
 20
1142.9835
 11
1672.9753999999998
 21
1141.4856
  0
LINE
  8
_0-0_1
  6
CONTINUOUS
 62
    5
 10
1672.9753999999998
 20
1141.4856
 11
1679.0315000000001
 21
1139.2237
  0
LINE
  8
_0-0_1
  6
CONTINUOUS
 62
    5
 10
1679.0315000000001
 20
1139.2237
 11
1685.2813000000001
 21
1137.2127
  0
LINE
  8
_0-0_1
  6
CONTINUOUS
 62
    5
 10
1685.2813000000001
 20
1137.2127
 11
1691.6300999999999
 21
1135.4911999999999
  0
LINE
  8
_0-0_1
  6
CONTINUOUS
 62
    5
 10
1691.6300999999999
 20
1135.4911999999999
 11
1698.0643
 21
1134.0684000000001
  0
LINE
  8
_0-0_1
  6
CONTINUOUS
 62
    5
 10
1698.0643
 20
1134.0684000000001
 11
1704.4780000000001
 21
1132.9695999999999
  0
LINE
  8
_0-0_1
  6
CONTINUOUS
 62
    5
 10
1704.4780000000001
 20
1132.9695999999999
 11
1708.3368
 21
1132.4609
  0
LINE
  8
_0-0_1
  6
CONTINUOUS
 62
    5
 10
1708.3368
 20
1132.4609
 11
1711.3314
 21
1132.1424999999999
  0
LINE
  8
_0-0_1
  6
CONTINUOUS
 62
    5
 10
1711.3314
 20
1132.1424999999999
 11
1716.2239
 21
1131.7601999999999
  0
LINE
  8
_0-0_1
  6
CONTINUOUS
 62
    5
 10
1716.2239
 20
1131.7601999999999
 11
1721.1314000000002
 21
1131.5356999999999
  0
LINE
  8
_0-0_1
  6
CONTINUOUS
 62
    5
 10
1721.1314000000002
 20
1131.5356999999999
 11
1725.9787999999999
 21
1131.4529
  0
LINE
  8
_0-0_1
  6
CONTINUOUS
 62
    5
 10
1725.9787999999999
 20
1131.4529
 11
1730.7627000000002
 21
1131.4905000000001
  0
LINE
  8
_0-0_1
  6
CONTINUOUS
 62
    5
 10
1730.7627000000002
 20
1131.4905000000001
 11
1735.4503
 21
1131.6275000000001
  0
LINE
  8
_0-0_1
  6
CONTINUOUS
 62
    5
 10
1735.4503
 20
1131.6275000000001
 11
1738.2275
 21
1131.7487000000001
  0
LINE
  8
_0-0_1
  6
CONTINUOUS
 62
    5
 10
1738.2275
 20
1131.7487000000001
 11
1743.2597999999998
 21
1132.0341000000001
  0
LINE
  8
_0-0_1
  6
CONTINUOUS
 62
    5
 10
1743.2597999999998
 20
1132.0341000000001
 11
1751.7860000000001
 21
1132.6952000000001
  0
LINE
  8
_0-0_1
  6
CONTINUOUS
 62
    5
 10
1751.7860000000001
 20
1132.6952000000001
 11
1760.2709
 21
1133.5455999999999
  0
LINE
  8
_0-0_1
  6
CONTINUOUS
 62
    5
 10
1760.2709
 20
1133.5455999999999
 11
1768.6622000000002
 21
1134.5407
  0
LINE
  8
_0-0_1
  6
CONTINUOUS
 62
    5
 10
1768.6622000000002
 20
1134.5407
 11
1776.9629
 21
1135.6413
  0
LINE
  8
_0-0_1
  6
CONTINUOUS
 62
    5
 10
1776.9629
 20
1135.6413
 11
1785.1705999999999
 21
1136.8086000000001
  0
LINE
  8
_0-0_1
  6
CONTINUOUS
 62
    5
 10
1785.1705999999999
 20
1136.8086000000001
 11
1789.9078
 21
1137.5039999999999
  0
LINE
  8
_0-0_1
  6
CONTINUOUS
 62
    5
 10
1789.9078
 20
1137.5039999999999
 11
1792.3631
 21
1137.8679
  0
LINE
  8
_0-0_1
  6
CONTINUOUS
 62
    5
 10
1792.3631
 20
1137.8679
 11
1796.5772000000002
 21
1138.4965
  0
LINE
  8
_0-0_1
  6
CONTINUOUS
 62
    5
 10
1796.5772000000002
 20
1138.4965
 11
1800.7887999999998
 21
1139.1288999999999
  0
LINE
  8
_0-0_1
  6
CONTINUOUS
 62
    5
 10
1800.7887999999998
 20
1139.1288999999999
 11
1804.9955
 21
1139.7639999999999
  0
LINE
  8
_0-0_1
  6
CONTINUOUS
 62
    5
 10
1804.9955
 20
1139.7639999999999
 11
1809.1977000000002
 21
1140.4007999999999
  0
LINE
  8
_0-0_1
  6
CONTINUOUS
 62
    5
 10
1809.1977000000002
 20
1140.4007999999999
 11
1813.3955999999998
 21
1141.0385000000001
  0
LINE
  8
_0-0_1
  6
CONTINUOUS
 62
    5
 10
1813.3955999999998
 20
1141.0385000000001
 11
1815.0133000000001
 21
1141.2844
  0
LINE
  8
_0-0_1
  6
CONTINUOUS
 62
    5
 10
1562.558
 20
1184.2503999999999
 11
1562.9839999999999
 21
1184.4135000000001
  0
ARC
  8
_0-0_1
  6
CONTINUOUS
 62
    5
 10
1563.6307000000002
 20
1181.4486999999999
 40
3
 50
110.94902000000002
 51
178.70000000000002
  0
LINE
  8
_0-0_1
  6
CONTINUOUS
 62
    5
 10
1560.5221000000001
 20
1165.6777
 11
1560.5221000000001
 21
1181.4002
  0
LINE
  8
_0-0_1
  6
CONTINUOUS
 62
    5
 10
1561.8761
 20
1164.7425000000001
 11
1568.0509000000002
 21
1167.0796
  0
ARC
  8
_0-0_1
  6
CONTINUOUS
 62
    5
 10
1561.5221000000001
 20
1165.6777
 40
1
 50
180
 51
290.73165999999998
  0
LINE
  8
_0-0_1
  6
CONTINUOUS
 62
    5
 10
1825.5221000000001
 20
1144.3554999999999
 11
1825.5221000000001
 21
1161.5528999999999
  0
LINE
  8
_0-0_1
  6
CONTINUOUS
 62
    5
 10
1813.2487000000001
 20
1159.2393
 11
1857.703
 21
1168.8871999999999
  0
LINE
  8
_0-0_1
  6
CONTINUOUS
 62
    5
 10
1819.9938999999999
 20
1139.4056
 11
1858.6657
 21
1148.4555
  0
LINE
  8
_0-0_1
  6
CONTINUOUS
 62
    5
 10
1858.6657
 20
1149.412
 11
1858.6657
 21
1148.4555
  0
ARC
  8
_0-0_1
  6
CONTINUOUS
 62
    5
 10
1859.6657
 20
1149.412
 40
1
 50
102.72435
 51
180
  0
LINE
  8
_0-0_1
  6
CONTINUOUS
 62
    5
 10
1864.4827
 20
1151.5248999999999
 11
1859.4454000000001
 21
1150.3875
  0
ARC
  8
_0-0_1
  6
CONTINUOUS
 62
    5
 10
1864.703
 20
1150.5495000000001
 40
1
 50
0
 51
102.72435
  0
LINE
  8
_0-0_1
  6
CONTINUOUS
 62
    5
 10
1864.9151000000002
 20
1152.0334
 11
1814.7811000000002
 21
1141.1528000000001
  0
ARC
  8
_0-0_1
  6
CONTINUOUS
 62
    5
 10
1864.703
 20
1153.0106000000001
 40
1
 50
282.24497000000002
 51
0
  0
LINE
  8
_0-0_1
  6
CONTINUOUS
 62
    5
 10
1864.9207999999999
 20
1131.2927
 11
1815.3368999999998
 21
1120.2248
  0
LINE
  8
_0-0_1
  6
CONTINUOUS
 62
    5
 10
1865.703
 20
1132.2686000000001
 11
1865.703
 21
1150.5495000000001
  0
ARC
  8
_0-0_1
  6
CONTINUOUS
 62
    5
 10
1864.703
 20
1132.2686000000001
 40
1
 50
282.58296000000001
 51
0.0000000000000254
  0
LINE
  8
_0-0_1
  6
CONTINUOUS
 62
    5
 10
1857.703
 20
1170.3442
 11
1857.703
 21
1168.8871999999999
  0
ARC
  8
_0-0_1
  6
CONTINUOUS
 62
    5
 10
1858.703
 20
1170.3442
 40
1
 50
101.73308
 51
180
  0
LINE
  8
_0-0_1
  6
CONTINUOUS
 62
    5
 10
1864.4996000000001
 20
1172.5695000000001
 11
1858.4996000000001
 21
1171.3233
  0
LINE
  8
_0-0_1
  6
CONTINUOUS
 62
    5
 10
1865.703
 20
1171.5904
 11
1865.703
 21
1153.0106000000001
  0
ARC
  8
_0-0_1
  6
CONTINUOUS
 62
    5
 10
1864.703
 20
1171.5904
 40
1
 50
0
 51
101.73308
  0
LINE
  8
_0-0_1
  6
CONTINUOUS
 62
    5
 10
1420.9358999999999
 20
1101.3226999999999
 11
1412.4005
 21
1115.856
  0
LINE
  8
_0-0_1
  6
CONTINUOUS
 62
    5
 10
1429.1038000000001
 20
1100.6723999999999
 11
1437.4099999999999
 21
1110.7379000000001
  0
ARC
  8
_0-0_1
  6
CONTINUOUS
 62
    5
 10
1425.2473
 20
1103.8548000000001
 40
5
 50
210.42578
 51
320.47001
  0
LINE
  8
_0-0_1
  6
CONTINUOUS
 62
    5
 10
1505.0493999999999
 20
1100.2025000000001
 11
1497.7240000000002
 21
1111.5085999999999
  0
LINE
  8
_0-0_1
  6
CONTINUOUS
 62
    5
 10
1513.5589
 20
1100.3924
 11
1522.4974000000002
 21
1115.6380999999999
  0
ARC
  8
_0-0_1
  6
CONTINUOUS
 62
    5
 10
1509.2456000000002
 20
1102.9213
 40
5
 50
212.93986000000001
 51
329.61716000000001
  0
LINE
  8
_0-0_1
  6
CONTINUOUS
 62
    5
 10
1552.8409999999999
 20
1139.9501
 11
1555.2691
 21
1140.354
  0
LINE
  8
_0-0_1
  6
CONTINUOUS
 62
    5
 10
1548.6518999999998
 20
1139.2538
 11
1552.8409999999999
 21
1139.9501
  0
LINE
  8
_0-0_1
  6
CONTINUOUS
 62
    5
 10
1544.4582
 20
1138.5582999999999
 11
1548.6518999999998
 21
1139.2538
  0
LINE
  8
_0-0_1
  6
CONTINUOUS
 62
    5
 10
1540.2593999999999
 20
1137.8643
 11
1544.4582
 21
1138.5582999999999
  0
LINE
  8
_0-0_1
  6
CONTINUOUS
 62
    5
 10
1536.0553
 20
1137.1728000000001
 11
1540.2593999999999
 21
1137.8643
  0
LINE
  8
_0-0_1
  6
CONTINUOUS
 62
    5
 10
1531.8485000000001
 20
1136.4852000000001
 11
1536.0553
 21
1137.1728000000001
  0
LINE
  8
_0-0_1
  6
CONTINUOUS
 62
    5
 10
1529.3962000000001
 20
1136.0867000000001
 11
1531.8485000000001
 21
1136.4852000000001
  0
LINE
  8
_0-0_1
  6
CONTINUOUS
 62
    5
 10
1524.6633999999999
 20
1135.3242
 11
1529.3962000000001
 21
1136.0867000000001
  0
LINE
  8
_0-0_1
  6
CONTINUOUS
 62
    5
 10
1516.4589999999998
 20
1134.0402999999999
 11
1524.6633999999999
 21
1135.3242
  0
LINE
  8
_0-0_1
  6
CONTINUOUS
 62
    5
 10
1508.1514999999999
 20
1132.8205
 11
1516.4589999999998
 21
1134.0402999999999
  0
LINE
  8
_0-0_1
  6
CONTINUOUS
 62
    5
 10
1499.7431999999999
 20
1131.7040999999999
 11
1508.1514999999999
 21
1132.8205
  0
LINE
  8
_0-0_1
  6
CONTINUOUS
 62
    5
 10
1491.2307000000001
 20
1130.7307000000001
 11
1499.7431999999999
 21
1131.7040999999999
  0
LINE
  8
_0-0_1
  6
CONTINUOUS
 62
    5
 10
1482.6714999999999
 20
1129.9467
 11
1491.2307000000001
 21
1130.7307000000001
  0
LINE
  8
_0-0_1
  6
CONTINUOUS
 62
    5
 10
1477.6100000000001
 20
1129.5887
 11
1482.6714999999999
 21
1129.9467
  0
LINE
  8
_0-0_1
  6
CONTINUOUS
 62
    5
 10
1474.8074000000001
 20
1129.4271000000001
 11
1477.6100000000001
 21
1129.5887
  0
LINE
  8
_0-0_1
  6
CONTINUOUS
 62
    5
 10
1470.0864000000001
 20
1129.2231999999999
 11
1474.8074000000001
 21
1129.4271000000001
  0
LINE
  8
_0-0_1
  6
CONTINUOUS
 62
    5
 10
1465.2572
 20
1129.1177
 11
1470.0864000000001
 21
1129.2231999999999
  0
LINE
  8
_0-0_1
  6
CONTINUOUS
 62
    5
 10
1460.3555000000001
 20
1129.1331
 11
1465.2572
 21
1129.1177
  0
LINE
  8
_0-0_1
  6
CONTINUOUS
 62
    5
 10
1455.3845000000001
 20
1129.2909999999999
 11
1460.3555000000001
 21
1129.1331
  0
LINE
  8
_0-0_1
  6
CONTINUOUS
 62
    5
 10
1450.4270999999999
 20
1129.6087
 11
1455.3845000000001
 21
1129.2909999999999
  0
LINE
  8
_0-0_1
  6
CONTINUOUS
 62
    5
 10
1447.3755000000001
 20
1129.8901000000001
 11
1450.4270999999999
 21
1129.6087
  0
LINE
  8
_0-0_1
  6
CONTINUOUS
 62
    5
 10
1443.4466000000002
 20
1130.3524
 11
1447.3755000000001
 21
1129.8901000000001
  0
LINE
  8
_0-0_1
  6
CONTINUOUS
 62
    5
 10
1436.9326999999998
 20
1131.3749
 11
1443.4466000000002
 21
1130.3524
  0
LINE
  8
_0-0_1
  6
CONTINUOUS
 62
    5
 10
1430.386
 20
1132.7271000000001
 11
1436.9326999999998
 21
1131.3749
  0
LINE
  8
_0-0_1
  6
CONTINUOUS
 62
    5
 10
1423.9231
 20
1134.3829000000001
 11
1430.386
 21
1132.7271000000001
  0
LINE
  8
_0-0_1
  6
CONTINUOUS
 62
    5
 10
1417.5572
 20
1136.3336999999999
 11
1423.9231
 21
1134.3829000000001
  0
LINE
  8
_0-0_1
  6
CONTINUOUS
 62
    5
 10
1411.3924
 20
1138.5386000000001
 11
1417.5572
 21
1136.3336999999999
  0
LINE
  8
_0-0_1
  6
CONTINUOUS
 62
    5
 10
1407.7057
 20
1140.0103999999999
 11
1411.3924
 21
1138.5386000000001
  0
LINE
  8
_0-0_1
  6
CONTINUOUS
 62
    5
 10
1403.3415
 20
1141.9029
 11
1407.7057
 21
1140.0103999999999
  0
LINE
  8
_0-0_1
  6
CONTINUOUS
 62
    5
 10
1396.2724000000001
 20
1145.3179
 11
1403.3415
 21
1141.9029
  0
LINE
  8
_0-0_1
  6
CONTINUOUS
 62
    5
 10
1389.3795
 20
1149.0474999999999
 11
1396.2724000000001
 21
1145.3179
  0
LINE
  8
_0-0_1
  6
CONTINUOUS
 62
    5
 10
1382.7424999999998
 20
1152.9811999999999
 11
1389.3795
 21
1149.0474999999999
  0
LINE
  8
_0-0_1
  6
CONTINUOUS
 62
    5
 10
1376.3332
 20
1157.0636
 11
1382.7424999999998
 21
1152.9811999999999
  0
LINE
  8
_0-0_1
  6
CONTINUOUS
 62
    5
 10
1370.1489999999999
 20
1161.2257
 11
1376.3332
 21
1157.0636
  0
LINE
  8
_0-0_1
  6
CONTINUOUS
 62
    5
 10
1366.6067
 20
1163.6894
 11
1370.1489999999999
 21
1161.2257
  0
LINE
  8
_0-0_1
  6
CONTINUOUS
 62
    5
 10
1364.3747000000003
 20
1165.2628999999999
 11
1366.6067
 21
1163.6894
  0
LINE
  8
_0-0_1
  6
CONTINUOUS
 62
    5
 10
1360.7511
 20
1167.8021000000001
 11
1364.3747000000003
 21
1165.2628999999999
  0
LINE
  8
_0-0_1
  6
CONTINUOUS
 62
    5
 10
1357.3813999999998
 20
1170.0676000000001
 11
1360.7511
 21
1167.8021000000001
  0
LINE
  8
_0-0_1
  6
CONTINUOUS
 62
    5
 10
1354.2664
 20
1171.9947
 11
1357.3813999999998
 21
1170.0676000000001
  0
LINE
  8
_0-0_1
  6
CONTINUOUS
 62
    5
 10
1351.3992000000003
 20
1173.5504000000001
 11
1354.2664
 21
1171.9947
  0
LINE
  8
_0-0_1
  6
CONTINUOUS
 62
    5
 10
1348.5681
 20
1174.8189
 11
1351.3992000000003
 21
1173.5504000000001
  0
LINE
  8
_0-0_1
  6
CONTINUOUS
 62
    5
 10
1347.1048999999998
 20
1175.3510000000001
 11
1348.5681
 21
1174.8189
  0
LINE
  8
_0-0_1
  6
CONTINUOUS
 62
    5
 10
1346.9238
 20
1175.4090000000001
 11
1347.1048999999998
 21
1175.3510000000001
  0
LINE
  8
_0-0_1
  6
CONTINUOUS
 62
    5
 10
1346.1355000000001
 20
1175.6369
 11
1346.9238
 21
1175.4090000000001
  0
LINE
  8
_0-0_1
  6
CONTINUOUS
 62
    5
 10
1345.4784
 20
1175.7996000000001
 11
1346.1355000000001
 21
1175.6369
  0
LINE
  8
_0-0_1
  6
CONTINUOUS
 62
    5
 10
1344.8966
 20
1175.9176
 11
1345.4784
 21
1175.7996000000001
  0
LINE
  8
_0-0_1
  6
CONTINUOUS
 62
    5
 10
1344.8565000000003
 20
1175.9238
 11
1344.8966
 21
1175.9176
  0
LINE
  8
_0-0_1
  6
CONTINUOUS
 62
    5
 10
1548.8303999999998
 20
1120.7626
 11
1550.4445000000001
 21
1121.0310999999999
  0
LINE
  8
_0-0_1
  6
CONTINUOUS
 62
    5
 10
1544.6417999999999
 20
1120.0663999999999
 11
1548.8303999999998
 21
1120.7626
  0
LINE
  8
_0-0_1
  6
CONTINUOUS
 62
    5
 10
1540.4488999999999
 20
1119.3710000000001
 11
1544.6417999999999
 21
1120.0663999999999
  0
LINE
  8
_0-0_1
  6
CONTINUOUS
 62
    5
 10
1536.2514000000001
 20
1118.6772000000001
 11
1540.4488999999999
 21
1119.3710000000001
  0
LINE
  8
_0-0_1
  6
CONTINUOUS
 62
    5
 10
1532.0491000000002
 20
1117.9861000000001
 11
1536.2514000000001
 21
1118.6772000000001
  0
LINE
  8
_0-0_1
  6
CONTINUOUS
 62
    5
 10
1527.8442
 20
1117.2987000000001
 11
1532.0491000000002
 21
1117.9861000000001
  0
LINE
  8
_0-0_1
  6
CONTINUOUS
 62
    5
 10
1525.3942000000002
 20
1116.9005999999999
 11
1527.8442
 21
1117.2987000000001
  0
LINE
  8
_0-0_1
  6
CONTINUOUS
 62
    5
 10
1520.6671999999999
 20
1116.1391000000001
 11
1525.3942000000002
 21
1116.9005999999999
  0
LINE
  8
_0-0_1
  6
CONTINUOUS
 62
    5
 10
1512.4765000000002
 20
1114.8572999999999
 11
1520.6671999999999
 21
1116.1391000000001
  0
LINE
  8
_0-0_1
  6
CONTINUOUS
 62
    5
 10
1504.192
 20
1113.6409000000001
 11
1512.4765000000002
 21
1114.8572999999999
  0
LINE
  8
_0-0_1
  6
CONTINUOUS
 62
    5
 10
1495.8154
 20
1112.5287000000001
 11
1504.192
 21
1113.6409000000001
  0
LINE
  8
_0-0_1
  6
CONTINUOUS
 62
    5
 10
1487.3431999999998
 20
1111.5599
 11
1495.8154
 21
1112.5287000000001
  0
LINE
  8
_0-0_1
  6
CONTINUOUS
 62
    5
 10
1478.8272000000002
 20
1110.7799
 11
1487.3431999999998
 21
1111.5599
  0
LINE
  8
_0-0_1
  6
CONTINUOUS
 62
    5
 10
1473.7993000000001
 20
1110.4242999999999
 11
1478.8272000000002
 21
1110.7799
  0
LINE
  8
_0-0_1
  6
CONTINUOUS
 62
    5
 10
1471.0241000000001
 20
1110.2642000000001
 11
1473.7993000000001
 21
1110.4242999999999
  0
LINE
  8
_0-0_1
  6
CONTINUOUS
 62
    5
 10
1466.3388
 20
1110.0617999999999
 11
1471.0241000000001
 21
1110.2642000000001
  0
LINE
  8
_0-0_1
  6
CONTINUOUS
 62
    5
 10
1461.5558999999998
 20
1109.9574
 11
1466.3388
 21
1110.0617999999999
  0
LINE
  8
_0-0_1
  6
CONTINUOUS
 62
    5
 10
1456.7078000000001
 20
1109.9726000000001
 11
1461.5558999999998
 21
1109.9574
  0
LINE
  8
_0-0_1
  6
CONTINUOUS
 62
    5
 10
1451.7975999999999
 20
1110.1285
 11
1456.7078000000001
 21
1109.9726000000001
  0
LINE
  8
_0-0_1
  6
CONTINUOUS
 62
    5
 10
1446.9004
 20
1110.4423999999999
 11
1451.7975999999999
 21
1110.1285
  0
LINE
  8
_0-0_1
  6
CONTINUOUS
 62
    5
 10
1443.9016000000001
 20
1110.7190000000001
 11
1446.9004
 21
1110.4423999999999
  0
LINE
  8
_0-0_1
  6
CONTINUOUS
 62
    5
 10
1440.0360000000001
 20
1111.1738
 11
1443.9016000000001
 21
1110.7190000000001
  0
LINE
  8
_0-0_1
  6
CONTINUOUS
 62
    5
 10
1433.6075999999998
 20
1112.1829
 11
1440.0360000000001
 21
1111.1738
  0
LINE
  8
_0-0_1
  6
CONTINUOUS
 62
    5
 10
1427.1541999999999
 20
1113.5157999999999
 11
1433.6075999999998
 21
1112.1829
  0
LINE
  8
_0-0_1
  6
CONTINUOUS
 62
    5
 10
1420.7819999999997
 20
1115.1484
 11
1427.1541999999999
 21
1113.5157999999999
  0
LINE
  8
_0-0_1
  6
CONTINUOUS
 62
    5
 10
1414.5047
 20
1117.0719999999999
 11
1420.7819999999997
 21
1115.1484
  0
LINE
  8
_0-0_1
  6
CONTINUOUS
 62
    5
 10
1408.4176
 20
1119.2491
 11
1414.5047
 21
1117.0719999999999
  0
LINE
  8
_0-0_1
  6
CONTINUOUS
 62
    5
 10
1404.7918999999999
 20
1120.6966
 11
1408.4176
 21
1119.2491
  0
LINE
  8
_0-0_1
  6
CONTINUOUS
 62
    5
 10
1400.4920999999999
 20
1122.5610999999999
 11
1404.7918999999999
 21
1120.6966
  0
LINE
  8
_0-0_1
  6
CONTINUOUS
 62
    5
 10
1393.5012000000002
 20
1125.9384
 11
1400.4920999999999
 21
1122.5610999999999
  0
LINE
  8
_0-0_1
  6
CONTINUOUS
 62
    5
 10
1386.6831
 20
1129.6275000000001
 11
1393.5012000000002
 21
1125.9384
  0
LINE
  8
_0-0_1
  6
CONTINUOUS
 62
    5
 10
1380.1072999999999
 20
1133.5248999999999
 11
1386.6831
 21
1129.6275000000001
  0
LINE
  8
_0-0_1
  6
CONTINUOUS
 62
    5
 10
1373.7464
 20
1137.5764999999999
 11
1380.1072999999999
 21
1133.5248999999999
  0
LINE
  8
_0-0_1
  6
CONTINUOUS
 62
    5
 10
1367.5958000000001
 20
1141.7159999999999
 11
1373.7464
 21
1137.5764999999999
  0
LINE
  8
_0-0_1
  6
CONTINUOUS
 62
    5
 10
1364.0713000000001
 20
1144.1674
 11
1367.5958000000001
 21
1141.7159999999999
  0
LINE
  8
_0-0_1
  6
CONTINUOUS
 62
    5
 10
1361.8421000000001
 20
1145.7388000000001
 11
1364.0713000000001
 21
1144.1674
  0
LINE
  8
_0-0_1
  6
CONTINUOUS
 62
    5
 10
1358.2004000000002
 20
1148.2907
 11
1361.8421000000001
 21
1145.7388000000001
  0
LINE
  8
_0-0_1
  6
CONTINUOUS
 62
    5
 10
1354.7833000000001
 20
1150.5880999999999
 11
1358.2004000000002
 21
1148.2907
  0
LINE
  8
_0-0_1
  6
CONTINUOUS
 62
    5
 10
1351.5877
 20
1152.5650000000001
 11
1354.7833000000001
 21
1150.5880999999999
  0
LINE
  8
_0-0_1
  6
CONTINUOUS
 62
    5
 10
1348.6036999999999
 20
1154.1840999999999
 11
1351.5877
 21
1152.5650000000001
  0
LINE
  8
_0-0_1
  6
CONTINUOUS
 62
    5
 10
1345.6371999999999
 20
1155.5133000000001
 11
1348.6036999999999
 21
1154.1840999999999
  0
LINE
  8
_0-0_1
  6
CONTINUOUS
 62
    5
 10
1344.8872000000001
 20
1155.7860000000001
 11
1345.6371999999999
 21
1155.5133000000001
  0
LINE
  8
_0-0_1
  6
CONTINUOUS
 62
    5
 10
1345.2203
 20
1175.8291999999999
 11
1345.0442
 21
1155.6557
  0
LINE
  8
_0-0_1
  6
CONTINUOUS
 62
    5
 10
1545.5459000000001
 20
1110.3414
 11
1543.3004999999998
 21
1118.9148
  0
ARC
  8
_0-0_1
  6
CONTINUOUS
 62
    5
 10
1548.4479999999999
 20
1111.1014
 40
3
 50
194.67639000000003
 51
270.00000000000006
  0
LINE
  8
_0-0_1
  6
CONTINUOUS
 62
    5
 10
1551.8905
 20
1108.0971
 11
1548.4726999999998
 21
1108.0971
  0
LINE
  8
_0-0_1
  6
CONTINUOUS
 62
    5
 10
1554.8497000000002
 20
1110.6039000000001
 11
1556.7837
 21
1122.2081000000001
  0
ARC
  8
_0-0_1
  6
CONTINUOUS
 62
    5
 10
1551.8905
 20
1111.0971
 40
3
 50
270
 51
350.53766999999999
  0
LINE
  8
_0-0_1
  6
CONTINUOUS
 62
    5
 10
1298.1241
 20
1185.2193
 11
1298.9380000000001
 21
1185.5260000000001
  0
LINE
  8
_0-0_1
  6
CONTINUOUS
 62
    5
 10
1298.9380000000001
 20
1185.5260000000001
 11
1302.4873
 21
1186.8656000000001
  0
LINE
  8
_0-0_1
  6
CONTINUOUS
 62
    5
 10
1302.4873
 20
1186.8656000000001
 11
1306.0438999999999
 21
1188.2145
  0
LINE
  8
_0-0_1
  6
CONTINUOUS
 62
    5
 10
1306.0438999999999
 20
1188.2145
 11
1309.6125000000002
 21
1189.5785000000001
  0
LINE
  8
_0-0_1
  6
CONTINUOUS
 62
    5
 10
1309.6125000000002
 20
1189.5785000000001
 11
1313.1978999999999
 21
1190.9636
  0
LINE
  8
_0-0_1
  6
CONTINUOUS
 62
    5
 10
1313.1978999999999
 20
1190.9636
 11
1316.8045999999999
 21
1192.3755000000001
  0
LINE
  8
_0-0_1
  6
CONTINUOUS
 62
    5
 10
1316.8045999999999
 20
1192.3755000000001
 11
1318.9081000000001
 21
1193.2091
  0
LINE
  8
_0-0_1
  6
CONTINUOUS
 62
    5
 10
1318.9081000000001
 20
1193.2091
 11
1320.9875
 21
1194.038
  0
LINE
  8
_0-0_1
  6
CONTINUOUS
 62
    5
 10
1320.9875
 20
1194.038
 11
1324.5940000000001
 21
1195.4395
  0
LINE
  8
_0-0_1
  6
CONTINUOUS
 62
    5
 10
1324.5940000000001
 20
1195.4395
 11
1328.2267999999999
 21
1196.7221999999999
  0
LINE
  8
_0-0_1
  6
CONTINUOUS
 62
    5
 10
1328.2267999999999
 20
1196.7221999999999
 11
1331.8847000000001
 21
1197.7888
  0
LINE
  8
_0-0_1
  6
CONTINUOUS
 62
    5
 10
1331.8847000000001
 20
1197.7888
 11
1335.5668000000001
 21
1198.5419999999999
  0
LINE
  8
_0-0_1
  6
CONTINUOUS
 62
    5
 10
1335.5668000000001
 20
1198.5419999999999
 11
1339.2721000000001
 21
1198.8846000000001
  0
LINE
  8
_0-0_1
  6
CONTINUOUS
 62
    5
 10
1339.2721000000001
 20
1198.8846000000001
 11
1341.4313999999999
 21
1198.8567
  0
LINE
  8
_0-0_1
  6
CONTINUOUS
 62
    5
 10
1341.4313999999999
 20
1198.8567
 11
1342.2804999999998
 21
1198.7953
  0
LINE
  8
_0-0_1
  6
CONTINUOUS
 62
    5
 10
1342.2804999999998
 20
1198.7953
 11
1343.7448999999997
 21
1198.6247000000001
  0
LINE
  8
_0-0_1
  6
CONTINUOUS
 62
    5
 10
1343.7448999999997
 20
1198.6247000000001
 11
1345.2060000000001
 21
1198.3779999999999
  0
LINE
  8
_0-0_1
  6
CONTINUOUS
 62
    5
 10
1345.2060000000001
 20
1198.3779999999999
 11
1346.6596999999999
 21
1198.0619999999999
  0
LINE
  8
_0-0_1
  6
CONTINUOUS
 62
    5
 10
1346.6596999999999
 20
1198.0619999999999
 11
1348.1017999999999
 21
1197.6835000000001
  0
LINE
  8
_0-0_1
  6
CONTINUOUS
 62
    5
 10
1348.1017999999999
 20
1197.6835000000001
 11
1349.5282
 21
1197.2492999999999
  0
LINE
  8
_0-0_1
  6
CONTINUOUS
 62
    5
 10
1349.5282
 20
1197.2492999999999
 11
1350.3467000000001
 21
1196.9747
  0
LINE
  8
_0-0_1
  6
CONTINUOUS
 62
    5
 10
1350.3467000000001
 20
1196.9747
 11
1352.8449000000001
 21
1196.0264999999999
  0
LINE
  8
_0-0_1
  6
CONTINUOUS
 62
    5
 10
1352.8449000000001
 20
1196.0264999999999
 11
1357.0038999999999
 21
1194.0929000000001
  0
LINE
  8
_0-0_1
  6
CONTINUOUS
 62
    5
 10
1357.0038999999999
 20
1194.0929000000001
 11
1361.0077000000001
 21
1191.8475000000001
  0
LINE
  8
_0-0_1
  6
CONTINUOUS
 62
    5
 10
1361.0077000000001
 20
1191.8475000000001
 11
1364.8945000000001
 21
1189.3672999999999
  0
LINE
  8
_0-0_1
  6
CONTINUOUS
 62
    5
 10
1364.8945000000001
 20
1189.3672999999999
 11
1368.7024999999999
 21
1186.7291
  0
LINE
  8
_0-0_1
  6
CONTINUOUS
 62
    5
 10
1368.7024999999999
 20
1186.7291
 11
1372.4698000000001
 21
1184.01
  0
LINE
  8
_0-0_1
  6
CONTINUOUS
 62
    5
 10
1372.4698000000001
 20
1184.01
 11
1374.6511
 21
1182.4262000000001
  0
LINE
  8
_0-0_1
  6
CONTINUOUS
 62
    5
 10
1374.6511
 20
1182.4262000000001
 11
1377.9827
 21
1180.0393999999999
  0
LINE
  8
_0-0_1
  6
CONTINUOUS
 62
    5
 10
1377.9827
 20
1180.0393999999999
 11
1383.7748999999999
 21
1176.0225
  0
LINE
  8
_0-0_1
  6
CONTINUOUS
 62
    5
 10
1383.7748999999999
 20
1176.0225
 11
1389.6470999999999
 21
1172.1659
  0
LINE
  8
_0-0_1
  6
CONTINUOUS
 62
    5
 10
1389.6470999999999
 20
1172.1659
 11
1395.6213
 21
1168.5114000000001
  0
LINE
  8
_0-0_1
  6
CONTINUOUS
 62
    5
 10
1395.6213
 20
1168.5114000000001
 11
1401.7194
 21
1165.1007999999999
  0
LINE
  8
_0-0_1
  6
CONTINUOUS
 62
    5
 10
1401.7194
 20
1165.1007999999999
 11
1407.9637
 21
1161.9760000000001
  0
LINE
  8
_0-0_1
  6
CONTINUOUS
 62
    5
 10
1407.9637
 20
1161.9760000000001
 11
1411.6610000000001
 21
1160.3109999999999
  0
LINE
  8
_0-0_1
  6
CONTINUOUS
 62
    5
 10
1411.6610000000001
 20
1160.3109999999999
 11
1414.7203
 21
1159.0399
  0
LINE
  8
_0-0_1
  6
CONTINUOUS
 62
    5
 10
1414.7203
 20
1159.0399
 11
1420.0808000000002
 21
1157.0378000000001
  0
LINE
  8
_0-0_1
  6
CONTINUOUS
 62
    5
 10
1420.0808000000002
 20
1157.0378000000001
 11
1425.5365000000002
 21
1155.2823000000001
  0
LINE
  8
_0-0_1
  6
CONTINUOUS
 62
    5
 10
1425.5365000000002
 20
1155.2823000000001
 11
1431.0715
 21
1153.7815000000001
  0
LINE
  8
_0-0_1
  6
CONTINUOUS
 62
    5
 10
1431.0715
 20
1153.7815000000001
 11
1436.6698000000001
 21
1152.5435
  0
LINE
  8
_0-0_1
  6
CONTINUOUS
 62
    5
 10
1436.6698000000001
 20
1152.5435
 11
1442.3155000000002
 21
1151.5762999999999
  0
LINE
  8
_0-0_1
  6
CONTINUOUS
 62
    5
 10
1442.3155000000002
 20
1151.5762999999999
 11
1445.6055000000001
 21
1151.1425999999999
  0
LINE
  8
_0-0_1
  6
CONTINUOUS
 62
    5
 10
1445.6055000000001
 20
1151.1425999999999
 11
1448.1246999999998
 21
1150.8747000000001
  0
LINE
  8
_0-0_1
  6
CONTINUOUS
 62
    5
 10
1448.1246999999998
 20
1150.8747000000001
 11
1452.4767999999999
 21
1150.5346999999999
  0
LINE
  8
_0-0_1
  6
CONTINUOUS
 62
    5
 10
1452.4767999999999
 20
1150.5346999999999
 11
1456.8371000000002
 21
1150.3353
  0
LINE
  8
_0-0_1
  6
CONTINUOUS
 62
    5
 10
1456.8371000000002
 20
1150.3353
 11
1461.2022999999999
 21
1150.2606000000001
  0
LINE
  8
_0-0_1
  6
CONTINUOUS
 62
    5
 10
1461.2022999999999
 20
1150.2606000000001
 11
1465.5693999999999
 21
1150.2950000000001
  0
LINE
  8
_0-0_1
  6
CONTINUOUS
 62
    5
 10
1465.5693999999999
 20
1150.2950000000001
 11
1469.9353000000001
 21
1150.4224999999999
  0
LINE
  8
_0-0_1
  6
CONTINUOUS
 62
    5
 10
1469.9353000000001
 20
1150.4224999999999
 11
1472.4657000000002
 21
1150.5329999999999
  0
LINE
  8
_0-0_1
  6
CONTINUOUS
 62
    5
 10
1472.4657000000002
 20
1150.5329999999999
 11
1477.1948000000002
 21
1150.8012000000001
  0
LINE
  8
_0-0_1
  6
CONTINUOUS
 62
    5
 10
1477.1948000000002
 20
1150.8012000000001
 11
1485.3330000000001
 21
1151.4322
  0
LINE
  8
_0-0_1
  6
CONTINUOUS
 62
    5
 10
1485.3330000000001
 20
1151.4322
 11
1493.4537
 21
1152.2461000000001
  0
LINE
  8
_0-0_1
  6
CONTINUOUS
 62
    5
 10
1493.4537
 20
1152.2461000000001
 11
1501.5596
 21
1153.2074
  0
LINE
  8
_0-0_1
  6
CONTINUOUS
 62
    5
 10
1501.5596
 20
1153.2074
 11
1509.6531
 21
1154.2805000000001
  0
LINE
  8
_0-0_1
  6
CONTINUOUS
 62
    5
 10
1509.6531
 20
1154.2805000000001
 11
1517.7366000000002
 21
1155.4301
  0
LINE
  8
_0-0_1
  6
CONTINUOUS
 62
    5
 10
1517.7366000000002
 20
1155.4301
 11
1522.4214999999999
 21
1156.1179
  0
LINE
  8
_0-0_1
  6
CONTINUOUS
 62
    5
 10
1522.4214999999999
 20
1156.1179
 11
1524.8564000000001
 21
1156.4788000000001
  0
LINE
  8
_0-0_1
  6
CONTINUOUS
 62
    5
 10
1524.8564000000001
 20
1156.4788000000001
 11
1529.0533999999998
 21
1157.1048000000001
  0
LINE
  8
_0-0_1
  6
CONTINUOUS
 62
    5
 10
1529.0533999999998
 20
1157.1048000000001
 11
1533.2491
 21
1157.7348999999999
  0
LINE
  8
_0-0_1
  6
CONTINUOUS
 62
    5
 10
1533.2491
 20
1157.7348999999999
 11
1537.444
 21
1158.3680999999999
  0
LINE
  8
_0-0_1
  6
CONTINUOUS
 62
    5
 10
1537.444
 20
1158.3680999999999
 11
1541.6381000000001
 21
1159.0037
  0
LINE
  8
_0-0_1
  6
CONTINUOUS
 62
    5
 10
1541.6381000000001
 20
1159.0037
 11
1545.8319000000001
 21
1159.6406999999999
  0
LINE
  8
_0-0_1
  6
CONTINUOUS
 62
    5
 10
1545.8319000000001
 20
1159.6406999999999
 11
1548.2642000000001
 21
1160.0105000000001
  0
LINE
  8
_0-0_1
  6
CONTINUOUS
 62
    5
 10
1303.2273
 20
1167.9069
 11
1305.2891999999999
 21
1168.6837
  0
LINE
  8
_0-0_1
  6
CONTINUOUS
 62
    5
 10
1305.2891999999999
 20
1168.6837
 11
1308.8568
 21
1170.0301999999999
  0
LINE
  8
_0-0_1
  6
CONTINUOUS
 62
    5
 10
1308.8568
 20
1170.0301999999999
 11
1312.4486999999999
 21
1171.3924999999999
  0
LINE
  8
_0-0_1
  6
CONTINUOUS
 62
    5
 10
1312.4486999999999
 20
1171.3924999999999
 11
1316.0690999999999
 21
1172.7763
  0
LINE
  8
_0-0_1
  6
CONTINUOUS
 62
    5
 10
1316.0690999999999
 20
1172.7763
 11
1319.7221
 21
1174.1875
  0
LINE
  8
_0-0_1
  6
CONTINUOUS
 62
    5
 10
1319.7221
 20
1174.1875
 11
1323.4013
 21
1175.6278
  0
LINE
  8
_0-0_1
  6
CONTINUOUS
 62
    5
 10
1323.4013
 20
1175.6278
 11
1325.5563999999999
 21
1176.4819
  0
LINE
  8
_0-0_1
  6
CONTINUOUS
 62
    5
 10
1325.5563999999999
 20
1176.4819
 11
1327.5799999999999
 21
1177.2885000000001
  0
LINE
  8
_0-0_1
  6
CONTINUOUS
 62
    5
 10
1327.5799999999999
 20
1177.2885000000001
 11
1330.8518999999999
 21
1178.5599999999999
  0
LINE
  8
_0-0_1
  6
CONTINUOUS
 62
    5
 10
1330.8518999999999
 20
1178.5599999999999
 11
1333.7470000000003
 21
1179.5822000000001
  0
LINE
  8
_0-0_1
  6
CONTINUOUS
 62
    5
 10
1333.7470000000003
 20
1179.5822000000001
 11
1336.2150999999999
 21
1180.3018999999999
  0
LINE
  8
_0-0_1
  6
CONTINUOUS
 62
    5
 10
1336.2150999999999
 20
1180.3018999999999
 11
1338.2068999999999
 21
1180.7093
  0
LINE
  8
_0-0_1
  6
CONTINUOUS
 62
    5
 10
1338.2068999999999
 20
1180.7093
 11
1339.9862000000003
 21
1180.8738000000001
  0
LINE
  8
_0-0_1
  6
CONTINUOUS
 62
    5
 10
1339.9862000000003
 20
1180.8738000000001
 11
1340.6657
 21
1180.865
  0
LINE
  8
_0-0_1
  6
CONTINUOUS
 62
    5
 10
1340.6657
 20
1180.865
 11
1340.5896000000002
 21
1180.8705
  0
LINE
  8
_0-0_1
  6
CONTINUOUS
 62
    5
 10
1340.5896000000002
 20
1180.8705
 11
1341.2032999999999
 21
1180.7991
  0
LINE
  8
_0-0_1
  6
CONTINUOUS
 62
    5
 10
1341.2032999999999
 20
1180.7991
 11
1341.7937000000002
 21
1180.6994
  0
LINE
  8
_0-0_1
  6
CONTINUOUS
 62
    5
 10
1341.7937000000002
 20
1180.6994
 11
1342.4611
 21
1180.5543
  0
LINE
  8
_0-0_1
  6
CONTINUOUS
 62
    5
 10
1342.4611
 20
1180.5543
 11
1343.1947
 21
1180.3616999999999
  0
LINE
  8
_0-0_1
  6
CONTINUOUS
 62
    5
 10
1343.1947
 20
1180.3616999999999
 11
1344.0437999999999
 21
1180.1033
  0
LINE
  8
_0-0_1
  6
CONTINUOUS
 62
    5
 10
1344.0437999999999
 20
1180.1033
 11
1344.2878999999998
 21
1180.0214000000001
  0
LINE
  8
_0-0_1
  6
CONTINUOUS
 62
    5
 10
1344.2878999999998
 20
1180.0214000000001
 11
1345.8478
 21
1179.4293
  0
LINE
  8
_0-0_1
  6
CONTINUOUS
 62
    5
 10
1345.8478
 20
1179.4293
 11
1348.7954999999999
 21
1178.0589
  0
LINE
  8
_0-0_1
  6
CONTINUOUS
 62
    5
 10
1348.7954999999999
 20
1178.0589
 11
1351.7565999999999
 21
1176.3983000000001
  0
LINE
  8
_0-0_1
  6
CONTINUOUS
 62
    5
 10
1351.7565999999999
 20
1176.3983000000001
 11
1354.9242999999999
 21
1174.3769
  0
LINE
  8
_0-0_1
  6
CONTINUOUS
 62
    5
 10
1354.9242999999999
 20
1174.3769
 11
1358.3089999999997
 21
1172.0319999999999
  0
LINE
  8
_0-0_1
  6
CONTINUOUS
 62
    5
 10
1358.3089999999997
 20
1172.0319999999999
 11
1361.9147
 21
1169.4295
  0
LINE
  8
_0-0_1
  6
CONTINUOUS
 62
    5
 10
1361.9147
 20
1169.4295
 11
1364.1217000000001
 21
1167.8271
  0
LINE
  8
_0-0_1
  6
CONTINUOUS
 62
    5
 10
1364.1217000000001
 20
1167.8271
 11
1367.6116999999999
 21
1165.3268
  0
LINE
  8
_0-0_1
  6
CONTINUOUS
 62
    5
 10
1367.6116999999999
 20
1165.3268
 11
1373.7039
 21
1161.1017999999999
  0
LINE
  8
_0-0_1
  6
CONTINUOUS
 62
    5
 10
1373.7039
 20
1161.1017999999999
 11
1380.0075999999999
 21
1156.9618
  0
LINE
  8
_0-0_1
  6
CONTINUOUS
 62
    5
 10
1380.0075999999999
 20
1156.9618
 11
1386.5282999999999
 21
1152.973
  0
LINE
  8
_0-0_1
  6
CONTINUOUS
 62
    5
 10
1386.5282999999999
 20
1152.973
 11
1393.2943
 21
1149.1890000000001
  0
LINE
  8
_0-0_1
  6
CONTINUOUS
 62
    5
 10
1393.2943
 20
1149.1890000000001
 11
1400.2373
 21
1145.7145
  0
LINE
  8
_0-0_1
  6
CONTINUOUS
 62
    5
 10
1400.2373
 20
1145.7145
 11
1404.5107000000003
 21
1143.7900999999999
  0
LINE
  8
_0-0_1
  6
CONTINUOUS
 62
    5
 10
1404.5107000000003
 20
1143.7900999999999
 11
1408.1158
 21
1142.2922000000001
  0
LINE
  8
_0-0_1
  6
CONTINUOUS
 62
    5
 10
1408.1158
 20
1142.2922000000001
 11
1414.1719000000001
 21
1140.0301999999999
  0
LINE
  8
_0-0_1
  6
CONTINUOUS
 62
    5
 10
1414.1719000000001
 20
1140.0301999999999
 11
1420.4216999999999
 21
1138.0192
  0
LINE
  8
_0-0_1
  6
CONTINUOUS
 62
    5
 10
1420.4216999999999
 20
1138.0192
 11
1426.7705000000001
 21
1136.2978000000001
  0
LINE
  8
_0-0_1
  6
CONTINUOUS
 62
    5
 10
1426.7705000000001
 20
1136.2978000000001
 11
1433.2046999999998
 21
1134.8749
  0
LINE
  8
_0-0_1
  6
CONTINUOUS
 62
    5
 10
1433.2046999999998
 20
1134.8749
 11
1439.6183999999998
 21
1133.7761
  0
LINE
  8
_0-0_1
  6
CONTINUOUS
 62
    5
 10
1439.6183999999998
 20
1133.7761
 11
1443.4773
 21
1133.2674
  0
LINE
  8
_0-0_1
  6
CONTINUOUS
 62
    5
 10
1443.4773
 20
1133.2674
 11
1446.4719
 21
1132.9490000000001
  0
LINE
  8
_0-0_1
  6
CONTINUOUS
 62
    5
 10
1446.4719
 20
1132.9490000000001
 11
1451.3643000000002
 21
1132.5668000000001
  0
LINE
  8
_0-0_1
  6
CONTINUOUS
 62
    5
 10
1451.3643000000002
 20
1132.5668000000001
 11
1456.2718
 21
1132.3423
  0
LINE
  8
_0-0_1
  6
CONTINUOUS
 62
    5
 10
1456.2718
 20
1132.3423
 11
1461.1192000000001
 21
1132.2593999999999
  0
LINE
  8
_0-0_1
  6
CONTINUOUS
 62
    5
 10
1461.1192000000001
 20
1132.2593999999999
 11
1465.9031
 21
1132.297
  0
LINE
  8
_0-0_1
  6
CONTINUOUS
 62
    5
 10
1465.9031
 20
1132.297
 11
1470.5907999999999
 21
1132.434
  0
LINE
  8
_0-0_1
  6
CONTINUOUS
 62
    5
 10
1470.5907999999999
 20
1132.434
 11
1473.3679000000002
 21
1132.5553
  0
LINE
  8
_0-0_1
  6
CONTINUOUS
 62
    5
 10
1473.3679000000002
 20
1132.5553
 11
1478.4002999999998
 21
1132.8407
  0
LINE
  8
_0-0_1
  6
CONTINUOUS
 62
    5
 10
1478.4002999999998
 20
1132.8407
 11
1486.9263999999998
 21
1133.5017
  0
LINE
  8
_0-0_1
  6
CONTINUOUS
 62
    5
 10
1486.9263999999998
 20
1133.5017
 11
1495.4113000000002
 21
1134.3521000000001
  0
LINE
  8
_0-0_1
  6
CONTINUOUS
 62
    5
 10
1495.4113000000002
 20
1134.3521000000001
 11
1503.8026
 21
1135.3471999999999
  0
LINE
  8
_0-0_1
  6
CONTINUOUS
 62
    5
 10
1503.8026
 20
1135.3471999999999
 11
1512.1033000000002
 21
1136.4478999999999
  0
LINE
  8
_0-0_1
  6
CONTINUOUS
 62
    5
 10
1512.1033000000002
 20
1136.4478999999999
 11
1520.3110000000001
 21
1137.6151
  0
LINE
  8
_0-0_1
  6
CONTINUOUS
 62
    5
 10
1520.3110000000001
 20
1137.6151
 11
1525.0482000000002
 21
1138.3106
  0
LINE
  8
_0-0_1
  6
CONTINUOUS
 62
    5
 10
1525.0482000000002
 20
1138.3106
 11
1527.5034999999998
 21
1138.6745000000001
  0
LINE
  8
_0-0_1
  6
CONTINUOUS
 62
    5
 10
1527.5034999999998
 20
1138.6745000000001
 11
1531.7177000000001
 21
1139.3030000000001
  0
LINE
  8
_0-0_1
  6
CONTINUOUS
 62
    5
 10
1531.7177000000001
 20
1139.3030000000001
 11
1535.9292
 21
1139.9355
  0
LINE
  8
_0-0_1
  6
CONTINUOUS
 62
    5
 10
1535.9292
 20
1139.9355
 11
1540.1359000000002
 21
1140.5706
  0
LINE
  8
_0-0_1
  6
CONTINUOUS
 62
    5
 10
1540.1359000000002
 20
1140.5706
 11
1544.3380999999999
 21
1141.2074
  0
LINE
  8
_0-0_1
  6
CONTINUOUS
 62
    5
 10
1544.3380999999999
 20
1141.2074
 11
1548.5360000000001
 21
1141.845
  0
LINE
  8
_0-0_1
  6
CONTINUOUS
 62
    5
 10
1548.5360000000001
 20
1141.845
 11
1550.1536999999998
 21
1142.0908999999999
  0
LINE
  8
_0-0_1
  6
CONTINUOUS
 62
    5
 10
1297.6985
 20
1185.057
 11
1298.1244999999999
 21
1185.2201
  0
ARC
  8
_0-0_1
  6
CONTINUOUS
 62
    5
 10
1298.7710999999999
 20
1182.2553
 40
3
 50
110.94902000000002
 51
178.70000000000002
  0
LINE
  8
_0-0_1
  6
CONTINUOUS
 62
    5
 10
1295.6624999999999
 20
1166.4842000000001
 11
1295.6624999999999
 21
1182.2067
  0
LINE
  8
_0-0_1
  6
CONTINUOUS
 62
    5
 10
1297.0165
 20
1165.549
 11
1303.1914000000002
 21
1167.8861999999999
  0
ARC
  8
_0-0_1
  6
CONTINUOUS
 62
    5
 10
1296.6624999999999
 20
1166.4842000000001
 40
1
 50
180
 51
290.73165999999998
  0
LINE
  8
_0-0_1
  6
CONTINUOUS
 62
    5
 10
1560.6624999999999
 20
1145.162
 11
1560.6624999999999
 21
1162.3594000000001
  0
LINE
  8
_0-0_1
  6
CONTINUOUS
 62
    5
 10
1548.3890999999999
 20
1160.0458000000001
 11
1592.8434000000002
 21
1169.6937
  0
LINE
  8
_0-0_1
  6
CONTINUOUS
 62
    5
 10
1555.1343000000002
 20
1140.2121
 11
1593.8060999999998
 21
1149.2620999999999
  0
LINE
  8
_0-0_1
  6
CONTINUOUS
 62
    5
 10
1593.8060999999998
 20
1150.2185999999999
 11
1593.8060999999998
 21
1149.2620999999999
  0
ARC
  8
_0-0_1
  6
CONTINUOUS
 62
    5
 10
1594.8060999999998
 20
1150.2185999999999
 40
1
 50
102.72435
 51
180
  0
LINE
  8
_0-0_1
  6
CONTINUOUS
 62
    5
 10
1599.6230999999998
 20
1152.3315
 11
1594.5859
 21
1151.194
  0
ARC
  8
_0-0_1
  6
CONTINUOUS
 62
    5
 10
1599.8434000000002
 20
1151.356
 40
1
 50
0
 51
102.72435
  0
LINE
  8
_0-0_1
  6
CONTINUOUS
 62
    5
 10
1600.0554999999999
 20
1152.8398999999999
 11
1549.9214999999999
 21
1141.9594
  0
ARC
  8
_0-0_1
  6
CONTINUOUS
 62
    5
 10
1599.8434000000002
 20
1153.8172
 40
1
 50
282.24497000000002
 51
0
  0
LINE
  8
_0-0_1
  6
CONTINUOUS
 62
    5
 10
1600.0612000000001
 20
1132.0992000000001
 11
1550.4773
 21
1121.0314000000001
  0
LINE
  8
_0-0_1
  6
CONTINUOUS
 62
    5
 10
1600.8434000000002
 20
1133.0752
 11
1600.8434000000002
 21
1151.356
  0
ARC
  8
_0-0_1
  6
CONTINUOUS
 62
    5
 10
1599.8434000000002
 20
1133.0752
 40
1
 50
282.58296000000001
 51
0.0000000000000254
  0
LINE
  8
_0-0_1
  6
CONTINUOUS
 62
    5
 10
1592.8434000000002
 20
1171.1507999999999
 11
1592.8434000000002
 21
1169.6937
  0
ARC
  8
_0-0_1
  6
CONTINUOUS
 62
    5
 10
1593.8434000000002
 20
1171.1507999999999
 40
1
 50
101.73308
 51
180
  0
LINE
  8
_0-0_1
  6
CONTINUOUS
 62
    5
 10
1599.6399999999999
 20
1173.376
 11
1593.6399999999999
 21
1172.1298999999999
  0
LINE
  8
_0-0_1
  6
CONTINUOUS
 62
    5
 10
1600.8434000000002
 20
1172.3969
 11
1600.8434000000002
 21
1153.8172
  0
ARC
  8
_0-0_1
  6
CONTINUOUS
 62
    5
 10
1599.8434000000002
 20
1172.3969
 40
1
 50
0
 51
101.73308
  0
LINE
  8
_0-0_1
  6
CONTINUOUS
 62
    5
 10
1078.0903000000001
 20
1179.5551
 11
1082.3661999999999
 21
1177.6044999999999
  0
LINE
  8
_0-0_1
  6
CONTINUOUS
 62
    5
 10
1082.3661999999999
 20
1177.6044999999999
 11
1089.6908000000001
 21
1174.2926
  0
LINE
  8
_0-0_1
  6
CONTINUOUS
 62
    5
 10
1089.6908000000001
 20
1174.2926
 11
1096.9416000000001
 21
1171.095
  0
LINE
  8
_0-0_1
  6
CONTINUOUS
 62
    5
 10
1096.9416000000001
 20
1171.095
 11
1104.1328000000001
 21
1168.0537999999999
  0
LINE
  8
_0-0_1
  6
CONTINUOUS
 62
    5
 10
1104.1328000000001
 20
1168.0537999999999
 11
1111.2771
 21
1165.2093
  0
LINE
  8
_0-0_1
  6
CONTINUOUS
 62
    5
 10
1111.2771
 20
1165.2093
 11
1118.4517000000001
 21
1162.5762999999999
  0
LINE
  8
_0-0_1
  6
CONTINUOUS
 62
    5
 10
1118.4517000000001
 20
1162.5762999999999
 11
1122.5415
 21
1161.1929
  0
LINE
  8
_0-0_1
  6
CONTINUOUS
 62
    5
 10
1122.5415
 20
1161.1929
 11
1125.4301
 21
1160.2724000000001
  0
LINE
  8
_0-0_1
  6
CONTINUOUS
 62
    5
 10
1125.4301
 20
1160.2724000000001
 11
1130.6376
 21
1158.7217000000001
  0
LINE
  8
_0-0_1
  6
CONTINUOUS
 62
    5
 10
1130.6376
 20
1158.7217000000001
 11
1135.8835999999999
 21
1157.2828999999999
  0
LINE
  8
_0-0_1
  6
CONTINUOUS
 62
    5
 10
1135.8835999999999
 20
1157.2828999999999
 11
1141.21
 21
1155.9297999999999
  0
LINE
  8
_0-0_1
  6
CONTINUOUS
 62
    5
 10
1141.21
 20
1155.9297999999999
 11
1146.6113
 21
1154.6500000000001
  0
LINE
  8
_0-0_1
  6
CONTINUOUS
 62
    5
 10
1146.6113
 20
1154.6500000000001
 11
1152.0988
 21
1153.4272000000001
  0
LINE
  8
_0-0_1
  6
CONTINUOUS
 62
    5
 10
1152.0988
 20
1153.4272000000001
 11
1155.2805000000001
 21
1152.7471
  0
LINE
  8
_0-0_1
  6
CONTINUOUS
 62
    5
 10
1155.2805000000001
 20
1152.7471
 11
1157.7346
 21
1152.2355
  0
LINE
  8
_0-0_1
  6
CONTINUOUS
 62
    5
 10
1157.7346
 20
1152.2355
 11
1161.9784
 21
1151.3858
  0
LINE
  8
_0-0_1
  6
CONTINUOUS
 62
    5
 10
1161.9784
 20
1151.3858
 11
1166.1420000000001
 21
1150.6113
  0
LINE
  8
_0-0_1
  6
CONTINUOUS
 62
    5
 10
1166.1420000000001
 20
1150.6113
 11
1170.2387000000001
 21
1149.9249
  0
LINE
  8
_0-0_1
  6
CONTINUOUS
 62
    5
 10
1170.2387000000001
 20
1149.9249
 11
1174.2682
 21
1149.3415
  0
LINE
  8
_0-0_1
  6
CONTINUOUS
 62
    5
 10
1174.2682
 20
1149.3415
 11
1178.2927999999999
 21
1148.8671999999999
  0
LINE
  8
_0-0_1
  6
CONTINUOUS
 62
    5
 10
1178.2927999999999
 20
1148.8671999999999
 11
1180.5117
 21
1148.6593
  0
LINE
  8
_0-0_1
  6
CONTINUOUS
 62
    5
 10
1180.5117
 20
1148.6593
 11
1182.723
 21
1148.4938999999999
  0
LINE
  8
_0-0_1
  6
CONTINUOUS
 62
    5
 10
1182.723
 20
1148.4938999999999
 11
1186.7525000000001
 21
1148.2883999999999
  0
LINE
  8
_0-0_1
  6
CONTINUOUS
 62
    5
 10
1186.7525000000001
 20
1148.2883999999999
 11
1190.8063
 21
1148.1882000000001
  0
LINE
  8
_0-0_1
  6
CONTINUOUS
 62
    5
 10
1190.8063
 20
1148.1882000000001
 11
1194.9441999999999
 21
1148.1767
  0
LINE
  8
_0-0_1
  6
CONTINUOUS
 62
    5
 10
1194.9441999999999
 20
1148.1767
 11
1199.1631
 21
1148.2392
  0
LINE
  8
_0-0_1
  6
CONTINUOUS
 62
    5
 10
1199.1631
 20
1148.2392
 11
1203.4730999999999
 21
1148.3604
  0
LINE
  8
_0-0_1
  6
CONTINUOUS
 62
    5
 10
1203.4730999999999
 20
1148.3604
 11
1205.9734000000001
 21
1148.4498000000001
  0
LINE
  8
_0-0_1
  6
CONTINUOUS
 62
    5
 10
1205.9734000000001
 20
1148.4498000000001
 11
1208.8362999999999
 21
1148.5648000000001
  0
LINE
  8
_0-0_1
  6
CONTINUOUS
 62
    5
 10
1208.8362999999999
 20
1148.5648000000001
 11
1213.7916
 21
1148.7976000000001
  0
LINE
  8
_0-0_1
  6
CONTINUOUS
 62
    5
 10
1213.7916
 20
1148.7976000000001
 11
1218.6985999999999
 21
1149.0771
  0
LINE
  8
_0-0_1
  6
CONTINUOUS
 62
    5
 10
1218.6985999999999
 20
1149.0771
 11
1223.5699999999999
 21
1149.4109000000001
  0
LINE
  8
_0-0_1
  6
CONTINUOUS
 62
    5
 10
1223.5699999999999
 20
1149.4109000000001
 11
1228.4042999999999
 21
1149.8059000000001
  0
LINE
  8
_0-0_1
  6
CONTINUOUS
 62
    5
 10
1228.4042999999999
 20
1149.8059000000001
 11
1233.2324000000001
 21
1150.2719
  0
LINE
  8
_0-0_1
  6
CONTINUOUS
 62
    5
 10
1233.2324000000001
 20
1150.2719
 11
1235.8907999999999
 21
1150.5625
  0
LINE
  8
_0-0_1
  6
CONTINUOUS
 62
    5
 10
1235.8907999999999
 20
1150.5625
 11
1243.6588999999999
 21
1151.5572999999999
  0
LINE
  8
_0-0_1
  6
CONTINUOUS
 62
    5
 10
1243.6588999999999
 20
1151.5572999999999
 11
1257.1677
 21
1153.7529
  0
LINE
  8
_0-0_1
  6
CONTINUOUS
 62
    5
 10
1257.1677
 20
1153.7529
 11
1270.6572000000001
 21
1156.4458
  0
LINE
  8
_0-0_1
  6
CONTINUOUS
 62
    5
 10
1270.6572000000001
 20
1156.4458
 11
1284.231
 21
1159.5528999999999
  0
LINE
  8
_0-0_1
  6
CONTINUOUS
 62
    5
 10
1284.231
 20
1159.5528999999999
 11
1297.9023999999999
 21
1162.9729
  0
LINE
  8
_0-0_1
  6
CONTINUOUS
 62
    5
 10
1297.9023999999999
 20
1162.9729
 11
1311.6857
 21
1166.6011000000001
  0
LINE
  8
_0-0_1
  6
CONTINUOUS
 62
    5
 10
1311.6857
 20
1166.6011000000001
 11
1317.4747
 21
1168.1523
  0
LINE
  8
_0-0_1
  6
CONTINUOUS
 62
    5
 10
1316.3651
 20
1147.1515999999999
 11
1302.875
 21
1143.6005
  0
LINE
  8
_0-0_1
  6
CONTINUOUS
 62
    5
 10
1302.875
 20
1143.6005
 11
1288.8896
 21
1140.1020000000001
  0
LINE
  8
_0-0_1
  6
CONTINUOUS
 62
    5
 10
1288.8896
 20
1140.1020000000001
 11
1274.847
 21
1136.8876
  0
LINE
  8
_0-0_1
  6
CONTINUOUS
 62
    5
 10
1274.847
 20
1136.8876
 11
1260.7307000000001
 21
1134.0695000000001
  0
LINE
  8
_0-0_1
  6
CONTINUOUS
 62
    5
 10
1260.7307000000001
 20
1134.0695000000001
 11
1246.5342000000001
 21
1131.7621999999999
  0
LINE
  8
_0-0_1
  6
CONTINUOUS
 62
    5
 10
1246.5342000000001
 20
1131.7621999999999
 11
1238.248
 21
1130.701
  0
LINE
  8
_0-0_1
  6
CONTINUOUS
 62
    5
 10
1238.248
 20
1130.701
 11
1235.2798
 21
1130.3766000000001
  0
LINE
  8
_0-0_1
  6
CONTINUOUS
 62
    5
 10
1235.2798
 20
1130.3766000000001
 11
1230.1793
 21
1129.8842999999999
  0
LINE
  8
_0-0_1
  6
CONTINUOUS
 62
    5
 10
1230.1793
 20
1129.8842999999999
 11
1225.0681
 21
1129.4666999999999
  0
LINE
  8
_0-0_1
  6
CONTINUOUS
 62
    5
 10
1225.0681
 20
1129.4666999999999
 11
1219.951
 21
1129.116
  0
LINE
  8
_0-0_1
  6
CONTINUOUS
 62
    5
 10
1219.951
 20
1129.116
 11
1214.8296
 21
1128.8243
  0
LINE
  8
_0-0_1
  6
CONTINUOUS
 62
    5
 10
1214.8296
 20
1128.8243
 11
1209.7068999999999
 21
1128.5836999999999
  0
LINE
  8
_0-0_1
  6
CONTINUOUS
 62
    5
 10
1209.7068999999999
 20
1128.5836999999999
 11
1206.7320999999999
 21
1128.4641999999999
  0
LINE
  8
_0-0_1
  6
CONTINUOUS
 62
    5
 10
1206.7320999999999
 20
1128.4641999999999
 11
1204.1116
 21
1128.3705
  0
LINE
  8
_0-0_1
  6
CONTINUOUS
 62
    5
 10
1204.1116
 20
1128.3705
 11
1199.5925
 21
1128.2434000000001
  0
LINE
  8
_0-0_1
  6
CONTINUOUS
 62
    5
 10
1199.5925
 20
1128.2434000000001
 11
1195.0645
 21
1128.1763000000001
  0
LINE
  8
_0-0_1
  6
CONTINUOUS
 62
    5
 10
1195.0645
 20
1128.1763000000001
 11
1190.5315000000001
 21
1128.1889000000001
  0
LINE
  8
_0-0_1
  6
CONTINUOUS
 62
    5
 10
1190.5315000000001
 20
1128.1889000000001
 11
1185.9960000000001
 21
1128.3009999999999
  0
LINE
  8
_0-0_1
  6
CONTINUOUS
 62
    5
 10
1185.9960000000001
 20
1128.3009999999999
 11
1181.4675
 21
1128.5319
  0
LINE
  8
_0-0_1
  6
CONTINUOUS
 62
    5
 10
1181.4675
 20
1128.5319
 11
1178.8326
 21
1128.729
  0
LINE
  8
_0-0_1
  6
CONTINUOUS
 62
    5
 10
1178.8326
 20
1128.729
 11
1176.1892
 21
1128.9766999999999
  0
LINE
  8
_0-0_1
  6
CONTINUOUS
 62
    5
 10
1176.1892
 20
1128.9766999999999
 11
1171.6643999999999
 21
1129.5099
  0
LINE
  8
_0-0_1
  6
CONTINUOUS
 62
    5
 10
1171.6643999999999
 20
1129.5099
 11
1167.1529
 21
1130.1632
  0
LINE
  8
_0-0_1
  6
CONTINUOUS
 62
    5
 10
1167.1529
 20
1130.1632
 11
1162.6605
 21
1130.9158
  0
LINE
  8
_0-0_1
  6
CONTINUOUS
 62
    5
 10
1162.6605
 20
1130.9158
 11
1158.1862000000001
 21
1131.7482
  0
LINE
  8
_0-0_1
  6
CONTINUOUS
 62
    5
 10
1158.1862000000001
 20
1131.7482
 11
1153.7304999999999
 21
1132.6402
  0
LINE
  8
_0-0_1
  6
CONTINUOUS
 62
    5
 10
1153.7304999999999
 20
1132.6402
 11
1151.1494
 21
1133.1783
  0
LINE
  8
_0-0_1
  6
CONTINUOUS
 62
    5
 10
1151.1494
 20
1133.1783
 11
1147.8333
 21
1133.8870999999999
  0
LINE
  8
_0-0_1
  6
CONTINUOUS
 62
    5
 10
1147.8333
 20
1133.8870999999999
 11
1142.1305
 21
1135.1579999999999
  0
LINE
  8
_0-0_1
  6
CONTINUOUS
 62
    5
 10
1142.1305
 20
1135.1579999999999
 11
1136.4421
 21
1136.5056999999999
  0
LINE
  8
_0-0_1
  6
CONTINUOUS
 62
    5
 10
1136.4421
 20
1136.5056999999999
 11
1130.7759000000001
 21
1137.9452000000001
  0
LINE
  8
_0-0_1
  6
CONTINUOUS
 62
    5
 10
1130.7759000000001
 20
1137.9452000000001
 11
1125.1378999999999
 21
1139.4915000000001
  0
LINE
  8
_0-0_1
  6
CONTINUOUS
 62
    5
 10
1125.1378999999999
 20
1139.4915000000001
 11
1119.5395000000001
 21
1141.1586
  0
LINE
  8
_0-0_1
  6
CONTINUOUS
 62
    5
 10
1119.5395000000001
 20
1141.1586
 11
1116.3005000000001
 21
1142.1907000000001
  0
LINE
  8
_0-0_1
  6
CONTINUOUS
 62
    5
 10
1116.3005000000001
 20
1142.1907000000001
 11
1111.8010999999999
 21
1143.7128
  0
LINE
  8
_0-0_1
  6
CONTINUOUS
 62
    5
 10
1111.8010999999999
 20
1143.7128
 11
1104.1315
 21
1146.5273999999999
  0
LINE
  8
_0-0_1
  6
CONTINUOUS
 62
    5
 10
1104.1315
 20
1146.5273999999999
 11
1096.5377000000001
 21
1149.5508
  0
LINE
  8
_0-0_1
  6
CONTINUOUS
 62
    5
 10
1096.5377000000001
 20
1149.5508
 11
1089.0110999999999
 21
1152.7338999999999
  0
LINE
  8
_0-0_1
  6
CONTINUOUS
 62
    5
 10
1089.0110999999999
 20
1152.7338999999999
 11
1088.6351999999999
 21
1152.8996999999999
  0
LINE
  8
_0-0_1
  6
CONTINUOUS
 62
    5
 10
1322.0545999999999
 20
1130.039
 11
1321.4399000000001
 21
1129.8742999999999
  0
LINE
  8
_0-0_1
  6
CONTINUOUS
 62
    5
 10
1321.4399000000001
 20
1129.8742999999999
 11
1307.3503000000001
 21
1126.1654000000001
  0
LINE
  8
_0-0_1
  6
CONTINUOUS
 62
    5
 10
1307.3503000000001
 20
1126.1654000000001
 11
1293.0823
 21
1122.5962
  0
LINE
  8
_0-0_1
  6
CONTINUOUS
 62
    5
 10
1293.0823
 20
1122.5962
 11
1278.6179
 21
1119.2852
  0
LINE
  8
_0-0_1
  6
CONTINUOUS
 62
    5
 10
1278.6179
 20
1119.2852
 11
1263.9375
 21
1116.3544999999999
  0
LINE
  8
_0-0_1
  6
CONTINUOUS
 62
    5
 10
1263.9375
 20
1116.3544999999999
 11
1249.1220000000001
 21
1113.9466
  0
LINE
  8
_0-0_1
  6
CONTINUOUS
 62
    5
 10
1249.1220000000001
 20
1113.9466
 11
1240.3695
 21
1112.8257000000001
  0
LINE
  8
_0-0_1
  6
CONTINUOUS
 62
    5
 10
1240.3695
 20
1112.8257000000001
 11
1237.1225999999999
 21
1112.4708000000001
  0
LINE
  8
_0-0_1
  6
CONTINUOUS
 62
    5
 10
1237.1225999999999
 20
1112.4708000000001
 11
1231.7769000000001
 21
1111.9549
  0
LINE
  8
_0-0_1
  6
CONTINUOUS
 62
    5
 10
1231.7769000000001
 20
1111.9549
 11
1226.4163000000001
 21
1111.5169000000001
  0
LINE
  8
_0-0_1
  6
CONTINUOUS
 62
    5
 10
1226.4163000000001
 20
1111.5169000000001
 11
1221.0780999999999
 21
1111.1511
  0
LINE
  8
_0-0_1
  6
CONTINUOUS
 62
    5
 10
1221.0780999999999
 20
1111.1511
 11
1215.7637999999999
 21
1110.8484000000001
  0
LINE
  8
_0-0_1
  6
CONTINUOUS
 62
    5
 10
1215.7637999999999
 20
1110.8484000000001
 11
1210.4905000000001
 21
1110.6006
  0
LINE
  8
_0-0_1
  6
CONTINUOUS
 62
    5
 10
1210.4905000000001
 20
1110.6006
 11
1207.4148
 21
1110.4771000000001
  0
LINE
  8
_0-0_1
  6
CONTINUOUS
 62
    5
 10
1207.4148
 20
1110.4771000000001
 11
1204.6862000000001
 21
1110.3795
  0
LINE
  8
_0-0_1
  6
CONTINUOUS
 62
    5
 10
1204.6862000000001
 20
1110.3795
 11
1199.9788000000001
 21
1110.2471
  0
LINE
  8
_0-0_1
  6
CONTINUOUS
 62
    5
 10
1199.9788000000001
 20
1110.2471
 11
1195.1727000000001
 21
1110.1759
  0
LINE
  8
_0-0_1
  6
CONTINUOUS
 62
    5
 10
1195.1727000000001
 20
1110.1759
 11
1190.2841000000001
 21
1110.1895
  0
LINE
  8
_0-0_1
  6
CONTINUOUS
 62
    5
 10
1190.2841000000001
 20
1110.1895
 11
1185.3152
 21
1110.3123000000001
  0
LINE
  8
_0-0_1
  6
CONTINUOUS
 62
    5
 10
1185.3152
 20
1110.3123000000001
 11
1180.3376000000001
 21
1110.5662
  0
LINE
  8
_0-0_1
  6
CONTINUOUS
 62
    5
 10
1180.3376000000001
 20
1110.5662
 11
1177.3214
 21
1110.7918
  0
LINE
  8
_0-0_1
  6
CONTINUOUS
 62
    5
 10
1177.3214
 20
1110.7918
 11
1174.296
 21
1111.0753
  0
LINE
  8
_0-0_1
  6
CONTINUOUS
 62
    5
 10
1174.296
 20
1111.0753
 11
1169.3210999999999
 21
1111.6614999999999
  0
LINE
  8
_0-0_1
  6
CONTINUOUS
 62
    5
 10
1169.3210999999999
 20
1111.6614999999999
 11
1164.3757000000001
 21
1112.3776
  0
LINE
  8
_0-0_1
  6
CONTINUOUS
 62
    5
 10
1164.3757000000001
 20
1112.3776
 11
1159.5271
 21
1113.1899000000001
  0
LINE
  8
_0-0_1
  6
CONTINUOUS
 62
    5
 10
1159.5271
 20
1113.1899000000001
 11
1154.7733000000001
 21
1114.0743
  0
LINE
  8
_0-0_1
  6
CONTINUOUS
 62
    5
 10
1154.7733000000001
 20
1114.0743
 11
1150.1268
 21
1115.0045
  0
LINE
  8
_0-0_1
  6
CONTINUOUS
 62
    5
 10
1150.1268
 20
1115.0045
 11
1147.4313999999999
 21
1115.5663999999999
  0
LINE
  8
_0-0_1
  6
CONTINUOUS
 62
    5
 10
1147.4313999999999
 20
1115.5663999999999
 11
1143.9944
 21
1116.3010999999999
  0
LINE
  8
_0-0_1
  6
CONTINUOUS
 62
    5
 10
1143.9944
 20
1116.3010999999999
 11
1138.0978
 21
1117.6151
  0
LINE
  8
_0-0_1
  6
CONTINUOUS
 62
    5
 10
1138.0978
 20
1117.6151
 11
1132.1509000000001
 21
1119.0241000000001
  0
LINE
  8
_0-0_1
  6
CONTINUOUS
 62
    5
 10
1132.1509000000001
 20
1119.0241000000001
 11
1126.1789000000001
 21
1120.5411999999999
  0
LINE
  8
_0-0_1
  6
CONTINUOUS
 62
    5
 10
1126.1789000000001
 20
1120.5411999999999
 11
1120.1882000000001
 21
1122.1844000000001
  0
LINE
  8
_0-0_1
  6
CONTINUOUS
 62
    5
 10
1120.1882000000001
 20
1122.1844000000001
 11
1114.2380000000001
 21
1123.9562000000001
  0
LINE
  8
_0-0_1
  6
CONTINUOUS
 62
    5
 10
1114.2380000000001
 20
1123.9562000000001
 11
1110.6836000000001
 21
1125.0888
  0
LINE
  8
_0-0_1
  6
CONTINUOUS
 62
    5
 10
1110.6836000000001
 20
1125.0888
 11
1105.8154999999999
 21
1126.7356
  0
LINE
  8
_0-0_1
  6
CONTINUOUS
 62
    5
 10
1105.8154999999999
 20
1126.7356
 11
1097.7004999999999
 21
1129.7136
  0
LINE
  8
_0-0_1
  6
CONTINUOUS
 62
    5
 10
1097.7004999999999
 20
1129.7136
 11
1089.7021999999999
 21
1132.8981000000001
  0
LINE
  8
_0-0_1
  6
CONTINUOUS
 62
    5
 10
1089.7021999999999
 20
1132.8981000000001
 11
1088.2918
 21
1133.4946
  0
LINE
  8
_0-0_1
  6
CONTINUOUS
 62
    5
 10
1316.3060999999998
 20
1149.2041999999999
 11
1323.0950000000003
 21
1151.0233000000001
  0
LINE
  8
_0-0_1
  6
CONTINUOUS
 62
    5
 10
1302.3777
 20
1145.5378000000001
 11
1316.3060999999998
 21
1149.2041999999999
  0
LINE
  8
_0-0_1
  6
CONTINUOUS
 62
    5
 10
1288.4237000000003
 20
1142.0471
 11
1302.3777
 21
1145.5378000000001
  0
LINE
  8
_0-0_1
  6
CONTINUOUS
 62
    5
 10
1274.4280000000001
 20
1138.8434
 11
1288.4237000000003
 21
1142.0471
  0
LINE
  8
_0-0_1
  6
CONTINUOUS
 62
    5
 10
1260.3743999999999
 20
1136.0379
 11
1274.4280000000001
 21
1138.8434
  0
LINE
  8
_0-0_1
  6
CONTINUOUS
 62
    5
 10
1246.2466999999999
 20
1133.7417
 11
1260.3743999999999
 21
1136.0379
  0
LINE
  8
_0-0_1
  6
CONTINUOUS
 62
    5
 10
1238.0123000000001
 20
1132.6872000000001
 11
1246.2466999999999
 21
1133.7417
  0
LINE
  8
_0-0_1
  6
CONTINUOUS
 62
    5
 10
1235.0751
 20
1132.3661
 11
1238.0123000000001
 21
1132.6872000000001
  0
LINE
  8
_0-0_1
  6
CONTINUOUS
 62
    5
 10
1230.0018
 20
1131.8765000000001
 11
1235.0751
 21
1132.3661
  0
LINE
  8
_0-0_1
  6
CONTINUOUS
 62
    5
 10
1224.9182000000001
 20
1131.4611
 11
1230.0018
 21
1131.8765000000001
  0
LINE
  8
_0-0_1
  6
CONTINUOUS
 62
    5
 10
1219.8258000000001
 20
1131.1121000000001
 11
1224.9182000000001
 21
1131.4611
  0
LINE
  8
_0-0_1
  6
CONTINUOUS
 62
    5
 10
1214.7257999999999
 20
1130.8217
 11
1219.8258000000001
 21
1131.1121000000001
  0
LINE
  8
_0-0_1
  6
CONTINUOUS
 62
    5
 10
1209.6197999999999
 20
1130.5817999999999
 11
1214.7257999999999
 21
1130.8217
  0
LINE
  8
_0-0_1
  6
CONTINUOUS
 62
    5
 10
1206.6561999999999
 20
1130.4627
 11
1209.6197999999999
 21
1130.5817999999999
  0
LINE
  8
_0-0_1
  6
CONTINUOUS
 62
    5
 10
1204.0477000000001
 20
1130.3695
 11
1206.6561999999999
 21
1130.4627
  0
LINE
  8
_0-0_1
  6
CONTINUOUS
 62
    5
 10
1199.5495000000001
 20
1130.2429999999999
 11
1204.0477000000001
 21
1130.3695
  0
LINE
  8
_0-0_1
  6
CONTINUOUS
 62
    5
 10
1195.0524
 20
1130.1763000000001
 11
1199.5495000000001
 21
1130.2429999999999
  0
LINE
  8
_0-0_1
  6
CONTINUOUS
 62
    5
 10
1190.559
 20
1130.1887999999999
 11
1195.0524
 21
1130.1763000000001
  0
LINE
  8
_0-0_1
  6
CONTINUOUS
 62
    5
 10
1186.0717
 20
1130.2997
 11
1190.559
 21
1130.1887999999999
  0
LINE
  8
_0-0_1
  6
CONTINUOUS
 62
    5
 10
1181.5931
 20
1130.5281
 11
1186.0717
 21
1130.2997
  0
LINE
  8
_0-0_1
  6
CONTINUOUS
 62
    5
 10
1179.0005000000001
 20
1130.722
 11
1181.5931
 21
1130.5281
  0
LINE
  8
_0-0_1
  6
CONTINUOUS
 62
    5
 10
1176.3996
 20
1130.9657999999999
 11
1179.0005000000001
 21
1130.722
  0
LINE
  8
_0-0_1
  6
CONTINUOUS
 62
    5
 10
1171.9248
 20
1131.4930999999999
 11
1176.3996
 21
1130.9657999999999
  0
LINE
  8
_0-0_1
  6
CONTINUOUS
 62
    5
 10
1167.4614999999999
 20
1132.1394
 11
1171.9248
 21
1131.4930999999999
  0
LINE
  8
_0-0_1
  6
CONTINUOUS
 62
    5
 10
1163.0085999999999
 20
1132.8853999999999
 11
1167.4614999999999
 21
1132.1394
  0
LINE
  8
_0-0_1
  6
CONTINUOUS
 62
    5
 10
1158.5654
 20
1133.7119
 11
1163.0085999999999
 21
1132.8853999999999
  0
LINE
  8
_0-0_1
  6
CONTINUOUS
 62
    5
 10
1154.1309000000001
 20
1134.5998
 11
1158.5654
 21
1133.7119
  0
LINE
  8
_0-0_1
  6
CONTINUOUS
 62
    5
 10
1151.5625
 20
1135.1351999999999
 11
1154.1309000000001
 21
1134.5998
  0
LINE
  8
_0-0_1
  6
CONTINUOUS
 62
    5
 10
1148.2599
 20
1135.8411000000001
 11
1151.5625
 21
1135.1351999999999
  0
LINE
  8
_0-0_1
  6
CONTINUOUS
 62
    5
 10
1142.5786000000001
 20
1137.1071999999999
 11
1148.2599
 21
1135.8411000000001
  0
LINE
  8
_0-0_1
  6
CONTINUOUS
 62
    5
 10
1136.9188999999999
 20
1138.4481000000001
 11
1142.5786000000001
 21
1137.1071999999999
  0
LINE
  8
_0-0_1
  6
CONTINUOUS
 62
    5
 10
1131.2865999999999
 20
1139.8788999999999
 11
1136.9188999999999
 21
1138.4481000000001
  0
LINE
  8
_0-0_1
  6
CONTINUOUS
 62
    5
 10
1125.6878999999999
 20
1141.4146000000001
 11
1131.2865999999999
 21
1139.8788999999999
  0
LINE
  8
_0-0_1
  6
CONTINUOUS
 62
    5
 10
1120.1286
 20
1143.0699999999999
 11
1125.6878999999999
 21
1141.4146000000001
  0
LINE
  8
_0-0_1
  6
CONTINUOUS
 62
    5
 10
1116.9246000000001
 20
1144.0909999999999
 11
1120.1286
 21
1143.0699999999999
  0
LINE
  8
_0-0_1
  6
CONTINUOUS
 62
    5
 10
1112.4662000000001
 20
1145.5990999999999
 11
1116.9246000000001
 21
1144.0909999999999
  0
LINE
  8
_0-0_1
  6
CONTINUOUS
 62
    5
 10
1104.8461
 20
1148.3956000000001
 11
1112.4662000000001
 21
1145.5990999999999
  0
LINE
  8
_0-0_1
  6
CONTINUOUS
 62
    5
 10
1097.2972
 20
1151.4011
 11
1104.8461
 21
1148.3956000000001
  0
LINE
  8
_0-0_1
  6
CONTINUOUS
 62
    5
 10
1089.8041000000001
 20
1154.5700999999999
 11
1097.2972
 21
1151.4011
  0
LINE
  8
_0-0_1
  6
CONTINUOUS
 62
    5
 10
1088.5777
 20
1155.1108999999999
 11
1089.8041000000001
 21
1154.5700999999999
  0
ARC
  8
_0-0_1
  6
CONTINUOUS
 62
    5
 10
1071.9373000000001
 20
1122.0612000000001
 40
36.94905
 50
62.626221000000001
 51
91.897946000000005
  0
LINE
  8
_0-0_1
  6
CONTINUOUS
 62
    5
 10
1070.9262000000001
 20
1101.5753
 11
1088.9262000000001
 21
1101.5753
  0
LINE
  8
_0-0_1
  6
CONTINUOUS
 62
    5
 10
1088.9262000000001
 20
1154.8729000000001
 11
1088.9262000000001
 21
1101.5753
  0
LINE
  8
_0-0_1
  6
CONTINUOUS
 62
    5
 10
1070.9262000000001
 20
1183.0654
 11
1070.9262000000001
 21
1101.5753
  0
LINE
  8
_0-0_1
  6
CONTINUOUS
 62
    5
 10
1078.0604000000001
 20
1179.5876000000001
 11
1070.9262000000001
 21
1183.0654
  0
LINE
  8
_0-0_1
  6
CONTINUOUS
 62
    5
 10
1067.2981
 20
1160.2556999999999
 11
1070.9262000000001
 21
1103.5250000000001
  0
LINE
  8
_0-0_1
  6
CONTINUOUS
 62
    5
 10
1070.9262000000001
 20
1158.4416000000001
 11
1067.2981
 21
1160.2556999999999
  0
LINE
  8
_0-0_1
  6
CONTINUOUS
 62
    5
 10
1295.7918999999997
 20
1162.0160000000001
 11
1295.7918999999997
 21
1144.4686999999999
  0
ARC
  8
_0-0_1
  6
CONTINUOUS
 62
    5
 10
1328.7674999999999
 20
1172.9351999999999
 40
1
 50
105.29948999999999
 51
176.99999999999997
  0
LINE
  8
_0-0_1
  6
CONTINUOUS
 62
    5
 10
1326.6401000000001
 20
1150.7077999999999
 11
1326.5808999999999
 21
1149.5772999999999
  0
ARC
  8
_0-0_1
  6
CONTINUOUS
 62
    5
 10
1327.6387
 20
1150.6555000000001
 40
1
 50
105.35783000000001
 51
177
  0
LINE
  8
_0-0_1
  6
CONTINUOUS
 62
    5
 10
1334.0405000000001
 20
1153.4508000000001
 11
1327.3739
 21
1151.6197
  0
ARC
  8
_0-0_1
  6
CONTINUOUS
 62
    5
 10
1334.3054000000002
 20
1152.4865
 40
1
 50
0
 51
105.35783000000001
  0
LINE
  8
_0-0_1
  6
CONTINUOUS
 62
    5
 10
1334.1941999999999
 20
1175.4565
 11
1328.5037
 21
1173.8996999999999
  0
ARC
  8
_0-0_1
  6
CONTINUOUS
 62
    5
 10
1334.4580999999998
 20
1174.4919
 40
1
 50
0
 51
105.29948999999999
  0
LINE
  8
_0-0_1
  6
CONTINUOUS
 62
    5
 10
1334.7545
 20
1153.8022000000001
 11
1333.2956999999999
 21
1153.3494000000001
  0
LINE
  8
_0-0_1
  6
CONTINUOUS
 62
    5
 10
1335.4581000000003
 20
1154.7572
 11
1335.4581000000003
 21
1174.4919
  0
ARC
  8
_0-0_1
  6
CONTINUOUS
 62
    5
 10
1334.4580999999998
 20
1154.7572
 40
1
 50
287.24145000000004
 51
0.0000000000000508
  0
LINE
  8
_0-0_1
  6
CONTINUOUS
 62
    5
 10
1326.9989
 20
1170.9802
 11
1317.5403000000001
 21
1168.153
  0
LINE
  8
_0-0_1
  6
CONTINUOUS
 62
    5
 10
1327.7112
 20
1171.8859
 11
1327.7689
 21
1172.9875
  0
ARC
  8
_0-0_1
  6
CONTINUOUS
 62
    5
 10
1326.7125000000001
 20
1171.9383
 40
1
 50
286.64103
 51
357
  0
LINE
  8
_0-0_1
  6
CONTINUOUS
 62
    5
 10
1323.2354
 20
1151.0027
 11
1335.1758
 21
1154.8113000000001
  0
LINE
  8
_0-0_1
  6
CONTINUOUS
 62
    5
 10
1316.7279000000003
 20
1147.154
 11
1326.5325000000003
 21
1149.9553000000001
  0
LINE
  8
_0-0_1
  6
CONTINUOUS
 62
    5
 10
1334.6061
 20
1133.9885999999999
 11
1322.1111999999998
 21
1130.0487000000001
  0
LINE
  8
_0-0_1
  6
CONTINUOUS
 62
    5
 10
1335.3054
 20
1134.9422999999999
 11
1335.3054
 21
1152.4865
  0
ARC
  8
_0-0_1
  6
CONTINUOUS
 62
    5
 10
1334.3054000000002
 20
1134.9422999999999
 40
1
 50
287.50085999999999
 51
0
  0
LINE
  8
_0-0_1
  6
DASHED1
 62
    3
 10
1401.8842999999997
 20
1147.5223000000001
 11
1417.8843000000002
 21
1147.5223000000001
  0
LINE
  8
_0-0_1
  6
DASHED1
 62
    3
 10
1417.8843000000002
 20
1147.5223000000001
 11
1417.8843000000002
 21
1144.5223000000001
  0
LINE
  8
_0-0_1
  6
DASHED1
 62
    3
 10
1401.8842999999997
 20
1147.5223000000001
 11
1401.8842999999997
 21
1144.5223000000001
  0
LINE
  8
_0-0_1
  6
DASHED1
 62
    3
 10
1401.8842999999997
 20
1144.5223000000001
 11
1417.8843000000002
 21
1144.5223000000001
  0
LINE
  8
_0-0_1
  6
DASHED1
 62
    3
 10
1412.8843000000002
 20
1089.6261999999999
 11
1409.8341
 21
1075.1172999999999
  0
LINE
  8
_0-0_1
  6
DASHED1
 62
    3
 10
1412.8843000000002
 20
1144.5223000000001
 11
1412.8843000000002
 21
1089.6261999999999
  0
LINE
  8
_0-0_1
  6
DASHED1
 62
    3
 10
1409.8341
 20
1075.1172999999999
 11
1406.8842999999997
 21
1089.3748000000001
  0
LINE
  8
_0-0_1
  6
DASHED1
 62
    3
 10
1406.8842999999997
 20
1144.5223000000001
 11
1406.8842999999997
 21
1089.3748000000001
  0
LINE
  8
_0-0_1
  6
DASHED1
 62
    3
 10
1664.5907999999999
 20
1142.8030000000001
 11
1680.5907999999999
 21
1142.8030000000001
  0
LINE
  8
_0-0_1
  6
DASHED1
 62
    3
 10
1680.5907999999999
 20
1142.8030000000001
 11
1680.5907999999999
 21
1139.8030000000001
  0
LINE
  8
_0-0_1
  6
DASHED1
 62
    3
 10
1664.5907999999999
 20
1142.8030000000001
 11
1664.5907999999999
 21
1139.8030000000001
  0
LINE
  8
_0-0_1
  6
DASHED1
 62
    3
 10
1664.5907999999999
 20
1139.8030000000001
 11
1680.5907999999999
 21
1139.8030000000001
  0
LINE
  8
_0-0_1
  6
DASHED1
 62
    3
 10
1675.5907999999999
 20
1084.9069
 11
1672.5407
 21
1070.3979999999999
  0
LINE
  8
_0-0_1
  6
DASHED1
 62
    3
 10
1675.5907999999999
 20
1139.8030000000001
 11
1675.5907999999999
 21
1084.9069
  0
LINE
  8
_0-0_1
  6
DASHED1
 62
    3
 10
1672.5407
 20
1070.3979999999999
 11
1669.5907999999999
 21
1084.6555000000001
  0
LINE
  8
_0-0_1
  6
DASHED1
 62
    3
 10
1669.5907999999999
 20
1139.8030000000001
 11
1669.5907999999999
 21
1084.6555000000001
  0
LINE
  8
_0-0_1
  6
DASHED1
 62
    3
 10
1928.8705
 20
1142.8030000000001
 11
1944.8705
 21
1142.8030000000001
  0
LINE
  8
_0-0_1
  6
DASHED1
 62
    3
 10
1944.8705
 20
1142.8030000000001
 11
1944.8705
 21
1139.8030000000001
  0
LINE
  8
_0-0_1
  6
DASHED1
 62
    3
 10
1928.8705
 20
1142.8030000000001
 11
1928.8705
 21
1139.8030000000001
  0
LINE
  8
_0-0_1
  6
DASHED1
 62
    3
 10
1928.8705
 20
1139.8030000000001
 11
1944.8705
 21
1139.8030000000001
  0
LINE
  8
_0-0_1
  6
DASHED1
 62
    3
 10
1939.8705
 20
1084.9069
 11
1936.8202999999999
 21
1070.3979999999999
  0
LINE
  8
_0-0_1
  6
DASHED1
 62
    3
 10
1939.8705
 20
1139.8030000000001
 11
1939.8705
 21
1084.9069
  0
LINE
  8
_0-0_1
  6
DASHED1
 62
    3
 10
1936.8202999999999
 20
1070.3979999999999
 11
1933.8705
 21
1084.6555000000001
  0
LINE
  8
_0-0_1
  6
DASHED1
 62
    3
 10
1933.8705
 20
1139.8030000000001
 11
1933.8705
 21
1084.6555000000001
  0
LINE
  8
_0-1_2
  6
CONTINUOUS
 62
   18
 10
1064.8395
 20
1280.3262999999997
 11
1064.8395
 21
1332.0263
  0
LINE
  8
_0-1_2
  6
CONTINUOUS
 62
   18
 10
1064.8395
 20
1330.3262999999997
 11
2084.8395
 21
1330.3262999999997
  0
LINE
  8
_0-1_2
  6
CONTINUOUS
 62
   18
 10
2084.8395
 20
1280.3262999999997
 11
2084.8395
 21
1332.0263
  0
LINE
  8
_0-1_2
  6
CONTINUOUS
 62
   18
 10
1819.8395
 20
1332.0263
 11
1819.8395
 21
1280.3262999999997
  0
LINE
  8
_0-1_2
  6
CONTINUOUS
 62
   18
 10
1554.8395
 20
1332.0263
 11
1554.8395
 21
1280.3262999999997
  0
LINE
  8
_0-1_2
  6
CONTINUOUS
 62
   18
 10
1289.8395
 20
1332.0263
 11
1289.8395
 21
1280.3262999999997
  0
LINE
  8
_0-1_2
  6
CONTINUOUS
 62
   18
 10
922.01199999999994
 20
1218.4511
 11
1052.5119999999999
 21
1218.4511
  0
LINE
  8
_0-1_2
  6
CONTINUOUS
 62
   18
 10
1151.4204999999999
 20
1107.0496000000001
 11
1151.4204999999999
 21
1092.0496000000001
  0
LINE
  8
_0-1_2
  6
CONTINUOUS
 62
   18
 10
1151.4204999999999
 20
1092.0496000000001
 11
2139.9265999999998
 21
1092.0496000000001
  0
LINE
  8
_0-1_2
  6
CONTINUOUS
 62
   18
 10
2139.9265999999998
 20
1107.0496000000001
 11
1151.4204999999999
 21
1107.0496000000001
  0
LINE
  8
_0-1_2
  6
CONTINUOUS
 62
   18
 10
1099.3232
 20
1124.9847
 11
1099.3232
 21
1088.6913
  0
LINE
  8
_0-1_2
  6
CONTINUOUS
 62
   18
 10
1099.3232
 20
1088.6913
 11
1134.3232
 21
1088.6913
  0
LINE
  8
_0-1_2
  6
CONTINUOUS
 62
   18
 10
1134.3232
 20
1088.6913
 11
1134.3232
 21
1111.6358
  0
LINE
  8
_0-1_2
  6
CONTINUOUS
 62
   18
 10
1100.9262000000001
 20
1087.3496
 11
2139.9265999999998
 21
1087.3496
  0
LINE
  8
_0-1_2
  6
CONTINUOUS
 62
   18
 10
2139.9265999999998
 20
1061.5706
 11
1100.9262000000001
 21
1061.5706
  0
LINE
  8
_0-1_2
  6
CONTINUOUS
 62
   18
 10
1100.9262000000001
 20
1061.5706
 11
1100.9262000000001
 21
1087.3496
  0
LINE
  8
_0-1_2
  6
CONTINUOUS
 62
   18
 10
1101.227317115977
 20
1087.9131760685282
 11
2139.9265999999998
 21
1087.9131760685282
  0
LINE
  8
_0-1_2
  6
CONTINUOUS
 62
   18
 10
2139.9265999999998
 20
1059.2710999999999
 11
1215.9269999999999
 21
1059.2710999999999
  0
LINE
  8
_0-1_2
  6
CONTINUOUS
 62
   18
 10
1215.9269999999999
 20
1061.5706
 11
1215.9269999999999
 21
961.57060000000001
  0
LINE
  8
_0-1_2
  6
CONTINUOUS
 62
   18
 10
1215.9269999999999
 20
963.86959999999999
 11
2139.9265999999998
 21
963.86959999999999
  0
LINE
  8
_0-1_2
  6
CONTINUOUS
 62
   18
 10
2139.9265999999998
 20
961.57060000000001
 11
1215.9269999999999
 21
961.57060000000001
  0
LINE
  8
_0-1_2
  6
CONTINUOUS
 62
   18
 10
1118.3810000000001
 20
995.17930000000001
 11
1113.0777
 21
989.87599999999998
  0
LINE
  8
_0-1_2
  6
CONTINUOUS
 62
   18
 10
1118.3810000000001
 20
995.17930000000001
 11
1116.4399000000001
 21
987.93489999999997
  0
LINE
  8
_0-1_2
  6
CONTINUOUS
 62
   18
 10
1118.3810000000001
 20
995.17930000000001
 11
1047.8722
 21
873.05449999999996
  0
LINE
  8
_0-1_2
  6
CONTINUOUS
 62
   18
 10
1070.9262000000001
 20
845.45880000000011
 11
1110.9262000000001
 21
845.45880000000011
  0
LINE
  8
_0-1_2
  6
CONTINUOUS
 62
   18
 10
1110.9262000000001
 20
843.75880000000006
 11
1110.9262000000001
 21
895.45880000000011
  0
LINE
  8
_0-1_2
  6
CONTINUOUS
 62
   18
 10
1098.9262000000001
 20
895.45880000000011
 11
1098.9262000000001
 21
843.75880000000006
  0
LINE
  8
_0-1_2
  6
CONTINUOUS
 62
   18
 10
1070.9262000000001
 20
843.75880000000006
 11
1070.9262000000001
 21
895.45880000000011
  0
LINE
  8
_0-1_2
  6
CONTINUOUS
 62
   18
 10
1101.3956000000001
 20
926.3139000000001
 11
1131.7937999999999
 21
926.3139000000001
  0
LINE
  8
_0-1_2
  6
CONTINUOUS
 62
   18
 10
1131.7937999999999
 20
926.3139000000001
 11
1134.7201
 21
930.21559999999999
  0
LINE
  8
_0-1_2
  6
CONTINUOUS
 62
   18
 10
1134.7201
 20
930.21559999999999
 11
1139.3788999999999
 21
921.04359999999997
  0
LINE
  8
_0-1_2
  6
CONTINUOUS
 62
   18
 10
1139.3788999999999
 20
921.04359999999997
 11
1141.6846
 21
926.3139000000001
  0
LINE
  8
_0-1_2
  6
CONTINUOUS
 62
   18
 10
1141.6846
 20
926.3139000000001
 11
1172.2968000000001
 21
926.3139000000001
  0
LINE
  8
_0-1_2
  6
CONTINUOUS
 62
   18
 10
1160.9260999999999
 20
926.3139000000001
 11
1160.9260999999999
 21
1061.5706
  0
LINE
  8
_0-1_2
  6
CONTINUOUS
 62
   18
 10
1110.9262000000001
 20
1061.5706
 11
1110.9262000000001
 21
926.3139000000001
  0
LINE
  8
_0-1_2
  6
CONTINUOUS
 62
   18
 10
1134.3232
 20
1088.6913
 11
1099.3232
 21
1124.6736000000001
  0
LINE
  8
_0-1_2
  6
CONTINUOUS
 62
   18
 10
1099.3232
 20
1124.9847
 11
1134.3232
 21
1111.6358
  0
LINE
  8
_0-1_2
  6
CONTINUOUS
 62
   18
 10
1134.3232
 20
1111.6358
 11
1099.3232
 21
1088.6913
  0
LINE
  8
_0-1_2
  6
CONTINUOUS
 62
   18
 10
1107.0825
 20
1120.05
 11
1112.3858
 21
1114.7466999999999
  0
LINE
  8
_0-1_2
  6
CONTINUOUS
 62
   18
 10
1112.3858
 20
1114.7466999999999
 11
1110.4447
 21
1121.9911
  0
LINE
  8
_0-1_2
  6
CONTINUOUS
 62
   18
 10
1112.3858
 20
1114.7466999999999
 11
1052.5119999999999
 21
1218.4511
  0
LINE
  8
_0-1_2
  6
CONTINUOUS
 62
   18
 10
1250.0907999999999
 20
1129.3036999999999
 11
1248.1496999999999
 21
1136.5481
  0
LINE
  8
_0-1_2
  6
CONTINUOUS
 62
   18
 10
1250.0907999999999
 20
1129.3036999999999
 11
1244.7874999999999
 21
1134.607
  0
LINE
  8
_0-1_2
  6
CONTINUOUS
 62
   18
 10
1250.0907999999999
 20
1129.3036999999999
 11
1187.1757
 21
1238.2759000000001
  0
LINE
  8
_0-1_2
  6
CONTINUOUS
 62
   18
 10
1621.1842000000001
 20
1153.9835
 11
1621.1842000000001
 21
1146.4835
  0
LINE
  8
_0-1_2
  6
CONTINUOUS
 62
   18
 10
1621.1842000000001
 20
1146.4835
 11
1624.9342000000001
 21
1152.9786999999999
  0
LINE
  8
_0-1_2
  6
CONTINUOUS
 62
   18
 10
1621.6977317235239
 20
1148.4000261845435
 11
1647.9992999999999
 21
1246.5588
  0
LINE
  8
_0-1_2
  6
CONTINUOUS
 62
   18
 10
1621.6977317235239
 20
1148.4000261845435
 11
1621.1842000000001
 21
1146.4835
  0
LINE
  8
_0-1_2
  6
CONTINUOUS
 62
   18
 10
1647.6807393205697
 20
844.23080000000004
 11
1851.2885000000001
 21
844.23080000000004
  0
LINE
  8
_0-1_2
  6
CONTINUOUS
 62
   18
 10
1671.8114999999998
 20
754.17360000000008
 11
1580.1858999999999
 21
1096.1249
  0
LINE
  8
_0-1_2
  6
CONTINUOUS
 62
   18
 10
1580.1858999999999
 20
1096.1249
 11
1580.1858999999999
 21
1088.6249
  0
LINE
  8
_0-1_2
  6
CONTINUOUS
 62
   18
 10
1580.1858999999999
 20
1096.1249
 11
1583.9358999999999
 21
1089.6297
  0
TEXT
  8
_0-0_1
 62
    7
 10
1178.5511607910576
 20
1343.6801375752364
 40
20
 41
1
 50
0
  1
225
  0
TEXT
  8
_0-0_1
 62
    7
 10
1426.2639724849528
 20
1353.8950988822012
 40
20
 41
1
 50
0
  1
265
  0
TEXT
  8
_0-0_1
 62
    7
 10
1679.0842648323303
 20
1346.2338779019776
 40
20
 41
1
 50
0
  1
265
  0
TEXT
  8
_0-0_1
 62
    7
 10
1939.5657781599311
 20
1343.6801375752364
 40
20
 41
1
 50
0
  1
265
  0
TEXT
  8
_0-1_2
 62
    7
 10
1127.4763542562339
 20
1244.0842648323301
 40
20
 41
1
 50
0
  1
左袖瓦
  0
TEXT
  8
_0-1_2
 62
    7
 10
928.28460877042119
 20
1226.2080825451419
 40
20
 41
1
 50
0
  1
登淀：30x40
  0
TEXT
  8
_0-1_2
 62
    7
 10
1656.1006018916596
 20
1251.7454858125539
 40
20
 41
1
 50
0
  1
桟　瓦
  0
TEXT
  8
_0-4_5
 62
    7
 10
805.70507308684432
 20
884.00687876182292
 40
20
 41
1
 50
0
  1
破風板：薄型ALCパネル　
  0
TEXT
  8
_0-0_1
 62
    7
 10
1068.7403267411864
 20
812.50214961306961
 40
20
 41
1
 50
0
  1
2812
  0
TEXT
  8
_0-0_1
 62
    7
 10
1657.927074166962
 20
818.76528908801617
 40
20
 41
1
 50
0
  1
下葺材：ルーフィング
  0
TEXT
  8
_0-0_1
 62
    7
 10
1665.3392307460081
 20
789.94023572505967
 40
20
 41
1
 50
0
  1
野地板：硬質木片セメントパネルｔ＝25
  0
TEXT
  8
_0-0_1
 62
    7
 10
1673.5749602782812
 20
756.99731759596659
 40
20
 41
1
 50
0
  1
鋼製：Ｃ－100x50x20x2.3　@606
  0
TEXT
  8
_0-0_1
 62
    7
 10
1647.2206257750067
 20
850.06106131065451
 40
20
 41
1
 50
0
  1
瓦桟：１５ｘ３０以上
  0
LINE
  8
_0-1_2
  6
CONTINUOUS
 62
    3
 10
1647.9992999999999
 20
1246.5588
 11
1730.159071367154
 21
1246.5588
  0
LINE
  8
_0-1_2
  6
CONTINUOUS
 62
   18
 10
1647.9992999999999
 20
1246.5588
 11
1730.159071367154
 21
1246.5588
  0
LINE
  8
_0-1_2
  6
CONTINUOUS
 62
    3
 10
1187.1757
 20
1238.2759000000001
 11
1137.6913155631987
 21
1238.2759000000001
  0
LINE
  8
_0-0_1
  6
CONTINUOUS
 62
    3
 10
1671.8114999999998
 20
754.17360000000008
 11
2005.9630266552022
 21
754.17360000000008
  0
LINE
  8
_0-1_2
  6
CONTINUOUS
 62
   18
 10
1671.8114999999998
 20
754.17360000000008
 11
1993.1943250214963
 21
754.17360000000008
  0
LINE
  8
_0-0_1
  6
CONTINUOUS
 62
    3
 10
1664.6383000000001
 20
784.04019999999991
 11
2064.6990541702494
 21
784.04019999999991
  0
LINE
  8
_0-1_2
  6
CONTINUOUS
 62
   18
 10
1664.6383000000001
 20
784.04019999999991
 11
2062.1453138435081
 21
784.04019999999991
  0
LINE
  8
_0-0_1
  6
CONTINUOUS
 62
    3
 10
1655.0952000000002
 20
814.13550000000009
 11
1878.2760103181429
 21
814.13550000000009
  0
LINE
  8
_0-1_2
  6
CONTINUOUS
 62
   18
 10
1655.0952000000002
 20
814.13550000000009
 11
1875.7222699914016
 21
814.13550000000009
  0
LINE
  8
_0-4_5
  6
CONTINUOUS
 62
    3
 10
1047.8722
 20
873.05449999999996
 11
803.15133276010317
 21
873.05449999999996
  0
LINE
  8
_0-1_2
  6
CONTINUOUS
 62
   18
 10
1047.8722
 20
873.05449999999996
 11
813.36629406706788
 21
873.05449999999996
  0
LINE
  8
_0-0_1
  6
CONTINUOUS
 62
    7
 10
1187.1757
 20
1238.2759000000001
 11
1132.9125999192706
 21
1238.2759000000001
  0
ENDSEC
  0
EOF
