  0
SECTION
  2
HEADER
  9
$ACADVER
  1
AC1009
  9
$INSBASE
 10
0
 20
0
 30
0
  9
$EXTMIN
 10
0
 20
0
  9
$EXTMAX
 10
2970
 20
2100
  9
$LIMMIN
 10
0
 20
0
  9
$LIMMAX
 10
2970
 20
2100
  9
$LTSCALE
 40
10
  0
ENDSEC
  0
SECTION
  2
TABLES
  0
TABLE
  2
LTYPE
 70
     9
  0
LTYPE
  2
CONTINUOUS
 70
    64
  3
実線
 72
    65
 73
     0
 40
0.0
  0
LTYPE
  2
DASHED1
 70
    64
  3
--  --  --  --  --  --  --  --  
 72
    65
 73
     2
 40
2.5
 49
1.25
 49
-1.25
  0
LTYPE
  2
DASHED2
 70
    64
  3
----    ----    ----    ----    
 72
    65
 73
     2
 40
5.0
 49
2.5
 49
-2.5
  0
LTYPE
  2
DASHED3
 70
    64
  3
------  ------  ------  ------  
 72
    65
 73
     2
 40
5.0
 49
3.75
 49
-1.25
  0
LTYPE
  2
CENTER1
 70
    64
  3
----- - ----- - ----- - ----- - 
 72
    65
 73
     4
 40
10.0
 49
6.25
 49
-1.25
 49
1.25
 49
-1.25
  0
LTYPE
  2
CENTER2
 70
    64
  3
----------  --  ----------  --  
 72
    65
 73
     4
 40
20.0
 49
12.5
 49
-2.5
 49
2.5
 49
-2.5
  0
LTYPE
  2
PHANTOM1
 70
    64
  3
--- - - --- - - --- - - --- - - 
 72
    65
 73
     6
 40
10.0
 49
3.25
 49
-1.25
 49
1.25
 49
-1.25
 49
1.25
 49
-1.25
  0
LTYPE
  2
PHANTOM2
 70
    64
  3
--------  -  -  --------  -  -  
 72
    65
 73
     6
 40
20.0
 49
10.0
 49
-2.5
 49
1.25
 49
-2.5
 49
1.25
 49
-2.5
  0
LTYPE
  2
DOT
 70
    64
  3
-   -   -   -   -   -   -   -   
 72
    65
 73
     2
 40
2.5
 49
0.625
 49
-1.875
  0
LTYPE
  2
DUMMY
 70
    64
  3
ダミー
 72
    65
 73
     0
 40
0.0
  0
LTYPE
  2
RAND1
 70
    64
  3
ランダム線1
 72
    65
 73
     4
 40
10.0
 49
1.0
 49
-2.0
 49
3.0
 49
-4.0
  0
LTYPE
  2
RAND2
 70
    64
  3
ランダム線2
 72
    65
 73
     4
 40
14.0
 49
2.0
 49
-3.0
 49
4.0
 49
-5.0
  0
LTYPE
  2
RAND3
 70
    64
  3
ランダム線3
 72
    65
 73
     4
 40
18.0
 49
3.0
 49
-4.0
 49
5.0
 49
-6.0
  0
LTYPE
  2
RAND4
 70
    64
  3
ランダム線4
 72
    65
 73
     4
 40
22.0
 49
4.0
 49
-5.0
 49
6.0
 49
-7.0
  0
LTYPE
  2
RAND5
 70
    64
  3
ランダム線5
 72
    65
 73
     4
 40
26.0
 49
5.0
 49
-6.0
 49
7.0
 49
-8.0
  0
LTYPE
  2
LONG1
 70
    64
  3
----------  --  ----------  --  
 72
    65
 73
     4
 40
40.0
 49
32.5
 49
-2.5
 49
2.5
 49
-2.5
  0
LTYPE
  2
LONG2
 70
    64
  3
--------  -  -  --------  -  -  
 72
    65
 73
     6
 40
40.0
 49
30.0
 49
-2.5
 49
1.25
 49
-2.5
 49
1.25
 49
-2.5
  0
LTYPE
  2
LONG3
 70
    64
  3
+++++++++++++++..+++++++++++++++
 72
    65
 73
     2
 40
40.0
 49
37.5
 49
-2.5
  0
LTYPE
  2
LONG4
 70
    64
  3
+++++++++++++++..+++++++++++++++
 72
    65
 73
     2
 40
80.0
 49
75.0
 49
-5.0
  0
LTYPE
  2
LONG5
 70
    64
  3
----------  --  ----------  --  
 72
    65
 73
     4
 40
60.0
 49
37.5
 49
-7.5
 49
7.5
 49
-7.5
  0
LTYPE
  2
dashed
 70
   64
  3
-------   -------------   ------
 72
   65
 73
    2
 40
7.5
 49
6
 49
-1.5
  0
LTYPE
  2
dashed_spaced
 70
   64
  3
----        --------        ----
 72
   65
 73
    2
 40
12
 49
6
 49
-6
  0
LTYPE
  2
long_dashed_dotted
 70
   64
  3
------------- --- --------------
 72
   65
 73
    4
 40
15.25
 49
12
 49
-1.5
 49
0.25
 49
-1.5
  0
LTYPE
  2
long_dashed_double-dotted
 70
   64
  3
----------- --- --- ------------
 72
   65
 73
    6
 40
17
 49
12
 49
-1.5
 49
0.25
 49
-1.5
 49
0.25
 49
-1.5
  0
LTYPE
  2
long_dashed_triplicate-dotted
 70
   64
  3
--------- --- --- --- ----------
 72
   65
 73
    8
 40
18.75
 49
12
 49
-1.5
 49
0.25
 49
-1.5
 49
0.25
 49
-1.5
 49
0.25
 49
-1.5
  0
LTYPE
  2
dotted
 70
   64
  3
   -       -       -       -    
 72
   65
 73
    2
 40
1.75
 49
0.25
 49
-1.5
  0
LTYPE
  2
chain
 70
   64
  3
-------------- -- --------------
 72
   65
 73
    4
 40
18.5
 49
12
 49
-1.5
 49
3.5
 49
-1.5
  0
LTYPE
  2
chain_double_dash
 70
   64
  3
------------ -- -- -------------
 72
   65
 73
    6
 40
23.5
 49
12
 49
-1.5
 49
3.5
 49
-1.5
 49
3.5
 49
-1.5
  0
LTYPE
  2
dashed_dotted
 70
   64
  3
-----------     -     ----------
 72
   65
 73
    4
 40
9.25
 49
6
 49
-1.5
 49
0.25
 49
-1.5
  0
LTYPE
  2
double-dashed_dotted
 70
   64
  3
------   -----------   -   -----
 72
   65
 73
    6
 40
16.75
 49
6
 49
-1.5
 49
6
 49
-1.5
 49
0.25
 49
-1.5
  0
LTYPE
  2
dashed_double-dotted
 70
   64
  3
---------    -    -    ---------
 72
   65
 73
    6
 40
11
 49
6
 49
-1.5
 49
0.25
 49
-1.5
 49
0.25
 49
-1.5
  0
LTYPE
  2
double-dashed_double-dotted
 70
   64
  3
-----   ---------   -   -   ----
 72
   65
 73
    8
 40
18.5
 49
6
 49
-1.5
 49
6
 49
-1.5
 49
0.25
 49
-1.5
 49
0.25
 49
-1.5
  0
LTYPE
  2
dashed_triplicate-dotted
 70
   64
  3
-------    -    -    -    ------
 72
   65
 73
    8
 40
12.75
 49
6
 49
-1.5
 49
0.25
 49
-1.5
 49
0.25
 49
-1.5
 49
0.25
 49
-1.5
  0
LTYPE
  2
double-dashed_triplicate-dotted
 70
   64
  3
-----  ---------  -  -  -  -----
 72
   65
 73
   10
 40
20.25
 49
6
 49
-1.5
 49
6
 49
-1.5
 49
0.25
 49
-1.5
 49
0.25
 49
-1.5
 49
0.25
 49
-1.5
  0
LTYPE
  2
undefined
 70
   64
  3
--------------------------------
 72
   65
 73
    0
 40
0
  0
LTYPE
  2
HIDDEN
 70
   64
  3
----        --------        ----
 72
   65
 73
    0
 40
0
  0
LTYPE
  2
DASHED
 70
   64
  3
-------   -------------   ------
 72
   65
 73
    0
 40
0
  0
LTYPE
  2
CENTER
 70
   64
  3
------------   ---   -----------
 72
   65
 73
    0
 40
0
  0
LTYPE
  2
PHANTOM
 70
   64
  3
---------   ---   ---   --------
 72
   65
 73
    0
 40
0
  0
ENDTAB
  0
TABLE
  2
STYLE
  5
3
100
AcDbSymbolTable
 70
     1
  0
STYLE
  5
10
100
AcDbSymbolTableRecord
100
AcDbTextStyleTableRecord
  2
STANDARD
 70
     0
 40
0.0
 41
1.0
 50
0.0
 71
     0
 42
0.2
  3
txt
  4
bigfont.shx
  0
STYLE
  5
26
100
AcDbSymbolTableRecord
100
AcDbTextStyleTableRecord
  2
TATEGAKI
 70
    68
 40
0.0
 41
1.0
 50
0.0
 71
     0
 42
1.0
  3
txt
  4
bigfont.shx
  0
ENDTAB
  0
TABLE
  2
LAYER
 70
    4
  0
LAYER
  2
_0-0_LAYER001
 70
   64
 62
    7
  6
CONTINUOUS
  0
LAYER
  2
_0-1_LAYER004
 70
   64
 62
    7
  6
CONTINUOUS
  0
LAYER
  2
_0-2_ADD_LINE
 70
   64
 62
    7
  6
CONTINUOUS
  0
LAYER
  2
ADD_LINE
 70
   64
 62
    7
  6
CONTINUOUS
  0
ENDTAB
  0
ENDSEC
  0
SECTION
  2
BLOCKS
  0
ENDSEC
  0
SECTION
  2
ENTITIES
  0
LINE
  8
_0-0_LAYER001
  6
CONTINUOUS
 62
    2
 10
1312.9264000000001
 20
1156.1437000000001
 11
1312.9264000000001
 21
1163.6437000000001
  0
LINE
  8
_0-1_LAYER004
  6
CONTINUOUS
 62
    7
 10
1223.4767999999999
 20
1199.8927000000001
 11
1279.8171
 21
1400.1577
  0
LINE
  8
_0-0_LAYER001
  6
CONTINUOUS
 62
    2
 10
2142.7242999999999
 20
1052.8406
 11
1315.7636
 21
1052.8406
  0
LINE
  8
_0-0_LAYER001
  6
CONTINUOUS
 62
    2
 10
1781.9643999999998
 20
981.84059999999999
 11
1831.9641999999999
 21
1031.8406
  0
LINE
  8
_0-0_LAYER001
  6
CONTINUOUS
 62
    2
 10
1777.7217000000001
 20
981.84059999999999
 11
1827.7215999999999
 21
1031.8406
  0
LINE
  8
_0-0_LAYER001
  6
CONTINUOUS
 62
    2
 10
1994.0965000000001
 20
981.84059999999999
 11
2044.0963000000002
 21
1031.8406
  0
LINE
  8
_0-0_LAYER001
  6
CONTINUOUS
 62
    2
 10
1989.8539000000001
 20
981.84059999999999
 11
2039.8537000000001
 21
1031.8406
  0
LINE
  8
_0-0_LAYER001
  6
CONTINUOUS
 62
    2
 10
896.12619999999993
 20
1031.8406
 11
948.62619999999993
 21
1031.8406
  0
CIRCLE
  8
_0-0_LAYER001
  6
CONTINUOUS
 62
    2
 10
898.62619999999993
 20
1031.8406
 40
1.6999999999999997
  0
LINE
  8
_0-0_LAYER001
  6
CONTINUOUS
 62
    2
 10
898.62619999999993
 20
1031.8406
 11
898.62619999999993
 21
1231.8406
  0
CIRCLE
  8
_0-0_LAYER001
  6
CONTINUOUS
 62
    2
 10
898.62619999999993
 20
1231.8406
 40
1.6999999999999997
  0
LINE
  8
_0-0_LAYER001
  6
CONTINUOUS
 62
    2
 10
896.12619999999993
 20
1231.8406
 11
948.62619999999993
 21
1231.8406
  0
LINE
  8
_0-0_LAYER001
  6
CONTINUOUS
 62
    2
 10
2142.7242999999999
 20
1037.8406
 11
1315.7636
 21
1037.8406
  0
LINE
  8
_0-0_LAYER001
  6
CONTINUOUS
 62
    2
 10
1226.6295
 20
1030.5373
 11
1231.9328
 21
1035.8406
  0
LINE
  8
_0-0_LAYER001
  6
CONTINUOUS
 62
    2
 10
1231.9328
 20
1035.8406
 11
1229.9917
 21
1028.5961
  0
LINE
  8
_0-0_LAYER001
  6
CONTINUOUS
 62
    2
 10
1231.9328
 20
1035.8406
 11
1103.2201
 21
812.9036000000001
  0
LINE
  8
_0-0_LAYER001
  6
CONTINUOUS
 62
    2
 10
1193.7635
 20
829.83600000000001
 11
1193.7635
 21
882.33600000000001
  0
CIRCLE
  8
_0-0_LAYER001
  6
CONTINUOUS
 62
    2
 10
1193.7635
 20
832.33600000000001
 40
1.6999999999999997
  0
LINE
  8
_0-0_LAYER001
  6
CONTINUOUS
 62
    2
 10
1193.7635
 20
832.33600000000001
 11
1313.7635
 21
832.33600000000001
  0
CIRCLE
  8
_0-0_LAYER001
  6
CONTINUOUS
 62
    2
 10
1313.7635
 20
832.33600000000001
 40
1.6999999999999997
  0
LINE
  8
_0-0_LAYER001
  6
CONTINUOUS
 62
    2
 10
1313.7635
 20
829.83600000000001
 11
1313.7635
 21
882.33600000000001
  0
LINE
  8
_0-0_LAYER001
  6
CONTINUOUS
 62
    2
 10
1117.2827
 20
1024.499
 11
1122.586
 21
1029.8023000000001
  0
LINE
  8
_0-0_LAYER001
  6
CONTINUOUS
 62
    2
 10
1122.586
 20
1029.8023000000001
 11
1120.6449
 21
1022.5578
  0
LINE
  8
_0-0_LAYER001
  6
CONTINUOUS
 62
    2
 10
1122.586
 20
1029.8023000000001
 11
1060.4250999999999
 21
922.13650000000007
  0
LINE
  8
_0-0_LAYER001
  6
CONTINUOUS
 62
    2
 10
1060.4250999999999
 20
922.13650000000007
 11
827.27559999999994
 21
922.13650000000007
  0
LINE
  8
_0-0_LAYER001
  6
CONTINUOUS
 62
    2
 10
1200.3751999999999
 20
1183.3251
 11
1202.3163999999999
 21
1176.0806
  0
LINE
  8
_0-0_LAYER001
  6
CONTINUOUS
 62
    2
 10
1202.3163999999999
 20
1176.0806
 11
1197.0130999999999
 21
1181.3839
  0
LINE
  8
_0-0_LAYER001
  6
CONTINUOUS
 62
    2
 10
1093.1016999999999
 20
1365.2458999999999
 11
946.10169999999994
 21
1365.2458999999999
  0
LINE
  8
_0-0_LAYER001
  6
CONTINUOUS
 62
    2
 10
1218.0600999999999
 20
1123.4408000000001
 11
1223.3634
 21
1128.7440999999999
  0
LINE
  8
_0-0_LAYER001
  6
CONTINUOUS
 62
    2
 10
1223.3634
 20
1128.7440999999999
 11
1221.4222
 21
1121.4997000000001
  0
LINE
  8
_0-0_LAYER001
  6
CONTINUOUS
 62
    2
 10
1223.3634
 20
1128.7440999999999
 11
1069.7352000000001
 21
862.65229999999997
  0
LINE
  8
_0-0_LAYER001
  6
CONTINUOUS
 62
    2
 10
1069.7352000000001
 20
862.65229999999997
 11
990.8728000000001
 21
862.65229999999997
  0
LINE
  8
_0-0_LAYER001
  6
CONTINUOUS
 62
    2
 10
1649.2604999999999
 20
711.77420000000006
 11
1854.0832
 21
711.77420000000006
  0
LINE
  8
_0-0_LAYER001
  6
CONTINUOUS
 62
    2
 10
1560.9337
 20
1032.2569000000001
 11
1560.9337
 21
1039.7569000000001
  0
LINE
  8
_0-0_LAYER001
  6
CONTINUOUS
 62
    2
 10
1560.9337
 20
1039.7569000000001
 11
1564.6837
 21
1033.2617
  0
LINE
  8
_0-0_LAYER001
  6
CONTINUOUS
 62
    2
 10
1560.9337
 20
1039.7569000000001
 11
1672.8858
 21
621.94579999999996
  0
LINE
  8
_0-0_LAYER001
  6
CONTINUOUS
 62
    2
 10
1672.8858
 20
621.94579999999996
 11
1993.8858
 21
621.94579999999996
  0
LINE
  8
_0-0_LAYER001
  6
CONTINUOUS
 62
    2
 10
1665.7127
 20
651.81230000000005
 11
1877.3629999999998
 21
651.81230000000005
  0
LINE
  8
_0-0_LAYER001
  6
CONTINUOUS
 62
    2
 10
1656.1696000000002
 20
681.90769999999998
 11
1998.9342999999999
 21
681.90769999999998
  0
CIRCLE
  8
_0-0_LAYER001
  6
CONTINUOUS
 62
    2
 10
1255.2108000000001
 20
1101.5923
 40
0.8999999999999999
  0
CIRCLE
  8
_0-0_LAYER001
  6
CONTINUOUS
 62
    2
 10
1271.2959000000001
 20
1106.6386
 40
0.8999999999999999
  0
CIRCLE
  8
_0-0_LAYER001
  6
CONTINUOUS
 62
    2
 10
1258.4611
 20
1113.9942000000001
 40
0.8999999999999999
  0
CIRCLE
  8
_0-0_LAYER001
  6
CONTINUOUS
 62
    2
 10
1271.9712999999999
 20
1114.7245
 40
0.8999999999999999
  0
CIRCLE
  8
_0-0_LAYER001
  6
CONTINUOUS
 62
    2
 10
1265.0336
 20
1095.7373
 40
0.8999999999999999
  0
LINE
  8
_0-0_LAYER001
  6
CONTINUOUS
 62
    2
 10
1195.7635
 20
1463.4323999999997
 11
1195.7635
 21
1445.9323999999997
  0
CIRCLE
  8
_0-0_LAYER001
  6
CONTINUOUS
 62
    2
 10
1195.7635
 20
1460.9323999999997
 40
1.6999999999999997
  0
LINE
  8
_0-0_LAYER001
  6
CONTINUOUS
 62
    2
 10
1195.7635
 20
1460.9323999999997
 11
1287.7635
 21
1460.9323999999997
  0
CIRCLE
  8
_0-0_LAYER001
  6
CONTINUOUS
 62
    2
 10
1287.7635
 20
1460.9323999999997
 40
1.6999999999999997
  0
LINE
  8
_0-0_LAYER001
  6
CONTINUOUS
 62
    2
 10
1287.7635
 20
1463.4323999999997
 11
1287.7635
 21
1445.9323999999997
  0
ARC
  8
_0-0_LAYER001
  6
CONTINUOUS
 62
    2
 10
1304.9749999999999
 20
1164.0833
 40
30.723106000000001
 50
185.84963999999999
 51
210.05934999999999
  0
LINE
  8
_0-0_LAYER001
  6
CONTINUOUS
 62
    2
 10
1308.2951
 20
1174.2512999999999
 11
1284.7130999999999
 21
1182.8344999999999
  0
LINE
  8
_0-0_LAYER001
  6
CONTINUOUS
 62
    2
 10
1308.2951
 20
1174.2512999999999
 11
1302.3824999999999
 21
1175.2716
  0
LINE
  8
_0-0_LAYER001
  6
CONTINUOUS
 62
    2
 10
1282.3962000000001
 20
1181.2121999999999
 11
1193.7635
 21
1196.8406
  0
LINE
  8
_0-0_LAYER001
  6
CONTINUOUS
 62
    2
 10
1285.0008
 20
1195.9843000000001
 11
1196.3681999999999
 21
1211.6126999999999
  0
LINE
  8
_0-0_LAYER001
  6
CONTINUOUS
 62
    2
 10
1285.0008
 20
1195.9843000000001
 11
1282.3962000000001
 21
1181.2121999999999
  0
LINE
  8
_0-0_LAYER001
  6
CONTINUOUS
 62
    2
 10
1196.3681999999999
 20
1211.6126999999999
 11
1193.7635
 21
1196.8406
  0
LINE
  8
_0-0_LAYER001
  6
CONTINUOUS
 62
    2
 10
1193.7635
 20
1196.8406
 11
1285.0008
 21
1195.9843000000001
  0
LINE
  8
_0-0_LAYER001
  6
CONTINUOUS
 62
    2
 10
1287.3177000000001
 20
1197.6066000000001
 11
1284.7130999999999
 21
1182.8344999999999
  0
LINE
  8
_0-0_LAYER001
  6
CONTINUOUS
 62
    2
 10
1145.7635
 20
1176.8406
 11
1150.7636
 21
1179.8405
  0
LINE
  8
_0-0_LAYER001
  6
CONTINUOUS
 62
    2
 10
1150.7636
 20
1173.8406
 11
1145.7635
 21
1176.8406
  0
LINE
  8
_0-0_LAYER001
  6
CONTINUOUS
 62
    2
 10
1151.8385000000001
 20
1173.8406
 11
1148.9894999999999
 21
1178.7766999999999
  0
LINE
  8
_0-0_LAYER001
  6
CONTINUOUS
 62
    2
 10
1217.7636
 20
1173.8406
 11
1217.7636
 21
1179.8405
  0
LINE
  8
_0-0_LAYER001
  6
CONTINUOUS
 62
    2
 10
1223.7635
 20
1170.8405
 11
1223.7635
 21
1182.8406
  0
LINE
  8
_0-0_LAYER001
  6
CONTINUOUS
 62
    2
 10
1214.8766000000001
 20
1173.8406
 11
1211.4135000000001
 21
1179.8405
  0
LINE
  8
_0-0_LAYER001
  6
CONTINUOUS
 62
    2
 10
1223.7635
 20
1170.8405
 11
1217.7636
 21
1173.8406
  0
LINE
  8
_0-0_LAYER001
  6
CONTINUOUS
 62
    2
 10
1217.7636
 20
1179.8405
 11
1223.7635
 21
1182.8406
  0
LINE
  8
_0-0_LAYER001
  6
CONTINUOUS
 62
    2
 10
1150.7636
 20
1179.8405
 11
1160.7786000000001
 21
1179.8405
  0
LINE
  8
_0-0_LAYER001
  6
CONTINUOUS
 62
    2
 10
1169.4304999999999
 20
1175.3677
 11
1167.5364999999999
 21
1178.6486
  0
LINE
  8
_0-0_LAYER001
  6
CONTINUOUS
 62
    2
 10
1161.0464999999999
 20
1173.8896
 11
1157.6116
 21
1179.8405
  0
LINE
  8
_0-0_LAYER001
  6
CONTINUOUS
 62
    2
 10
1150.7636
 20
1173.8406
 11
1160.7705000000001
 21
1173.8406
  0
LINE
  8
_0-0_LAYER001
  6
CONTINUOUS
 62
    2
 10
1152.9146000000001
 20
1183.5636
 11
1152.5145
 21
1181.2976000000001
  0
LINE
  8
_0-0_LAYER001
  6
CONTINUOUS
 62
    2
 10
1153.0875000000001
 20
1170.1506999999999
 11
1152.6895999999999
 21
1172.4156
  0
LINE
  8
_0-0_LAYER001
  6
CONTINUOUS
 62
    2
 10
1157.5077000000001
 20
1182.5496000000001
 11
1155.8335
 21
1182.8445999999999
  0
LINE
  8
_0-0_LAYER001
  6
CONTINUOUS
 62
    2
 10
1161.8406
 20
1181.7855999999999
 11
1160.1676
 21
1182.0806
  0
LINE
  8
_0-0_LAYER001
  6
CONTINUOUS
 62
    2
 10
1166.1736000000001
 20
1181.0216
 11
1164.5006000000001
 21
1181.3166000000001
  0
LINE
  8
_0-0_LAYER001
  6
CONTINUOUS
 62
    2
 10
1166.4697000000001
 20
1182.6946
 11
1175.5636
 21
1181.0916999999999
  0
LINE
  8
_0-0_LAYER001
  6
CONTINUOUS
 62
    2
 10
1162.1366
 20
1183.4585999999999
 11
1164.7955999999999
 21
1182.9896000000001
  0
LINE
  8
_0-0_LAYER001
  6
CONTINUOUS
 62
    2
 10
1157.8036
 20
1184.2227
 11
1160.4625000000001
 21
1183.7537
  0
LINE
  8
_0-0_LAYER001
  6
CONTINUOUS
 62
    2
 10
1154.6516999999999
 20
1184.7786000000001
 11
1156.1295
 21
1184.5174999999999
  0
LINE
  8
_0-0_LAYER001
  6
CONTINUOUS
 62
    2
 10
1155.8335
 20
1182.8445999999999
 11
1156.1295
 21
1184.5186000000001
  0
LINE
  8
_0-0_LAYER001
  6
CONTINUOUS
 62
    2
 10
1157.5077000000001
 20
1182.5496000000001
 11
1157.8036
 21
1184.2237
  0
LINE
  8
_0-0_LAYER001
  6
CONTINUOUS
 62
    2
 10
1160.1665
 20
1182.0806
 11
1160.4625000000001
 21
1183.7547
  0
LINE
  8
_0-0_LAYER001
  6
CONTINUOUS
 62
    2
 10
1161.8406
 20
1181.7855999999999
 11
1162.1366
 21
1183.4595999999999
  0
LINE
  8
_0-0_LAYER001
  6
CONTINUOUS
 62
    2
 10
1164.4994999999999
 20
1181.3166000000001
 11
1164.7955999999999
 21
1182.9905000000001
  0
LINE
  8
_0-0_LAYER001
  6
CONTINUOUS
 62
    2
 10
1166.1736000000001
 20
1181.0216
 11
1166.4697000000001
 21
1182.6956
  0
LINE
  8
_0-0_LAYER001
  6
CONTINUOUS
 62
    2
 10
1157.6824999999999
 20
1171.1635000000001
 11
1156.0084999999999
 21
1170.8686
  0
LINE
  8
_0-0_LAYER001
  6
CONTINUOUS
 62
    2
 10
1162.0155
 20
1171.9276
 11
1160.3415
 21
1171.6325999999999
  0
LINE
  8
_0-0_LAYER001
  6
CONTINUOUS
 62
    2
 10
1166.3485000000001
 20
1172.6916000000001
 11
1164.6746000000001
 21
1172.3965000000001
  0
LINE
  8
_0-0_LAYER001
  6
CONTINUOUS
 62
    2
 10
1166.3475000000001
 20
1172.6916000000001
 11
1166.6436000000001
 21
1171.0187000000001
  0
LINE
  8
_0-0_LAYER001
  6
CONTINUOUS
 62
    2
 10
1164.6736000000001
 20
1172.3965000000001
 11
1164.9697000000001
 21
1170.7236
  0
LINE
  8
_0-0_LAYER001
  6
CONTINUOUS
 62
    2
 10
1162.0145
 20
1171.9276
 11
1162.3105
 21
1170.2546
  0
LINE
  8
_0-0_LAYER001
  6
CONTINUOUS
 62
    2
 10
1160.3405
 20
1171.6325999999999
 11
1160.6366
 21
1169.9595999999999
  0
LINE
  8
_0-0_LAYER001
  6
CONTINUOUS
 62
    2
 10
1157.6815999999999
 20
1171.1635000000001
 11
1157.9775
 21
1169.4906000000001
  0
LINE
  8
_0-0_LAYER001
  6
CONTINUOUS
 62
    2
 10
1156.0074999999999
 20
1170.8686
 11
1156.3036
 21
1169.1957
  0
LINE
  8
_0-0_LAYER001
  6
CONTINUOUS
 62
    2
 10
1166.6436000000001
 20
1171.0187000000001
 11
1175.5636
 21
1172.5906
  0
LINE
  8
_0-0_LAYER001
  6
CONTINUOUS
 62
    2
 10
1162.3105
 20
1170.2546
 11
1164.9697000000001
 21
1170.7236
  0
LINE
  8
_0-0_LAYER001
  6
CONTINUOUS
 62
    2
 10
1157.9775
 20
1169.4906000000001
 11
1160.6366
 21
1169.9595999999999
  0
LINE
  8
_0-0_LAYER001
  6
CONTINUOUS
 62
    2
 10
1154.8264999999999
 20
1168.9346
 11
1156.3036
 21
1169.1946
  0
LINE
  8
_0-0_LAYER001
  6
CONTINUOUS
 62
    2
 10
1177.7874999999999
 20
1176.8416999999999
 11
1152.5145
 21
1181.2976000000001
  0
LINE
  8
_0-0_LAYER001
  6
CONTINUOUS
 62
    2
 10
1177.7874999999999
 20
1176.8416999999999
 11
1152.6895999999999
 21
1172.4156
  0
LINE
  8
_0-0_LAYER001
  6
CONTINUOUS
 62
    2
 10
1193.7635
 20
1181.0906
 11
1175.5636
 21
1181.0906
  0
LINE
  8
_0-0_LAYER001
  6
CONTINUOUS
 62
    2
 10
1193.7635
 20
1172.5906
 11
1175.5636
 21
1172.5906
  0
LINE
  8
_0-0_LAYER001
  6
CONTINUOUS
 62
    2
 10
1193.7635
 20
1172.5906
 11
1193.7635
 21
1181.0906
  0
LINE
  8
_0-0_LAYER001
  6
CONTINUOUS
 62
    2
 10
1223.7635
 20
1156.8406
 11
1193.7635
 21
1156.8406
  0
LINE
  8
_0-0_LAYER001
  6
CONTINUOUS
 62
    2
 10
1193.7635
 20
1179.8405
 11
1217.7636
 21
1179.8405
  0
LINE
  8
_0-0_LAYER001
  6
CONTINUOUS
 62
    2
 10
1193.7635
 20
1173.8406
 11
1217.7636
 21
1173.8406
  0
LINE
  8
_0-0_LAYER001
  6
CONTINUOUS
 62
    2
 10
1209.1533999999999
 20
1173.8406
 11
1205.6904
 21
1179.8405
  0
LINE
  8
_0-0_LAYER001
  6
CONTINUOUS
 62
    2
 10
1203.4303
 20
1173.8406
 11
1199.9672
 21
1179.8405
  0
LINE
  8
_0-0_LAYER001
  6
CONTINUOUS
 62
    2
 10
1197.7072000000001
 20
1173.8406
 11
1194.2440999999999
 21
1179.8405
  0
LINE
  8
_0-0_LAYER001
  6
CONTINUOUS
 62
    2
 10
1223.7635
 20
1156.8406
 11
1223.7635
 21
1191.5507
  0
LINE
  8
_0-0_LAYER001
  6
CONTINUOUS
 62
    2
 10
1193.7635
 20
1156.8406
 11
1220.2594999999999
 21
1192.1686
  0
LINE
  8
_0-0_LAYER001
  6
CONTINUOUS
 62
    2
 10
1287.3177000000001
 20
1197.6066000000001
 11
1195.7635
 21
1213.7501
  0
LINE
  8
_0-0_LAYER001
  6
CONTINUOUS
 62
    2
 10
1214.5853999999999
 20
1208.4005
 11
1205.8159000000001
 21
1209.9467999999999
  0
LINE
  8
_0-0_LAYER001
  6
CONTINUOUS
 62
    2
 10
1207.0597
 20
1180.6885
 11
1203.6179999999999
 21
1172.4495999999999
  0
LINE
  8
_0-0_LAYER001
  6
CONTINUOUS
 62
    2
 10
1208.0995
 20
1207.9241999999999
 11
1203.4096
 21
1181.3323
  0
LINE
  8
_0-0_LAYER001
  6
CONTINUOUS
 62
    2
 10
1203.6179999999999
 20
1172.4495999999999
 11
1203.4096
 21
1181.3323
  0
LINE
  8
_0-0_LAYER001
  6
CONTINUOUS
 62
    2
 10
1211.7493999999999
 20
1207.2819
 11
1214.5853999999999
 21
1208.4005
  0
LINE
  8
_0-0_LAYER001
  6
CONTINUOUS
 62
    2
 10
1208.0995
 20
1207.9241999999999
 11
1205.8159000000001
 21
1209.9467999999999
  0
LINE
  8
_0-0_LAYER001
  6
CONTINUOUS
 62
    2
 10
1211.7493999999999
 20
1207.2819
 11
1207.0597
 21
1180.6885
  0
ARC
  8
_0-0_LAYER001
  6
CONTINUOUS
 62
    2
 10
1154.3995
 20
1183.2965999999999
 40
1.5049999999999999
 50
80.362472000000011
 51
169.54873000000001
  0
ARC
  8
_0-0_LAYER001
  6
CONTINUOUS
 62
    2
 10
1154.5675000000001
 20
1170.4136000000001
 40
1.4969999999999999
 50
189.85266999999999
 51
280.16100999999998
  0
LINE
  8
_0-0_LAYER001
  6
CONTINUOUS
 62
    2
 10
1316.6764000000001
 20
1162.6388999999999
 11
1312.9264000000001
 21
1156.1437000000001
  0
LINE
  8
_0-0_LAYER001
  6
CONTINUOUS
 62
    3
 10
1224.9629
 20
1188.5745999999999
 11
1224.952
 21
1188.1089999999999
  0
LINE
  8
_0-0_LAYER001
  6
CONTINUOUS
 62
    3
 10
1224.952
 20
1188.1089999999999
 11
1224.9222
 21
1186.8451
  0
LINE
  8
_0-0_LAYER001
  6
CONTINUOUS
 62
    3
 10
1224.9222
 20
1186.8451
 11
1224.8783000000001
 21
1184.9825000000001
  0
LINE
  8
_0-0_LAYER001
  6
CONTINUOUS
 62
    3
 10
1224.8783000000001
 20
1184.9825000000001
 11
1224.825
 21
1182.7207000000001
  0
LINE
  8
_0-0_LAYER001
  6
CONTINUOUS
 62
    3
 10
1224.825
 20
1182.7207000000001
 11
1224.7670000000001
 21
1180.2594999999999
  0
LINE
  8
_0-0_LAYER001
  6
CONTINUOUS
 62
    3
 10
1224.7670000000001
 20
1180.2594999999999
 11
1224.7090000000001
 21
1177.7982
  0
LINE
  8
_0-0_LAYER001
  6
CONTINUOUS
 62
    3
 10
1224.7090000000001
 20
1177.7982
 11
1224.6557
 21
1175.5364
  0
LINE
  8
_0-0_LAYER001
  6
CONTINUOUS
 62
    3
 10
1224.6557
 20
1175.5364
 11
1224.6117999999999
 21
1173.6738
  0
LINE
  8
_0-0_LAYER001
  6
CONTINUOUS
 62
    3
 10
1224.6117999999999
 20
1173.6738
 11
1224.5820000000001
 21
1172.4099000000001
  0
LINE
  8
_0-0_LAYER001
  6
CONTINUOUS
 62
    3
 10
1224.5820000000001
 20
1172.4099000000001
 11
1224.5709999999999
 21
1171.9443000000001
  0
LINE
  8
_0-0_LAYER001
  6
CONTINUOUS
 62
    3
 10
1224.5709999999999
 20
1171.9443000000001
 11
1225.7186999999999
 21
1171.9371000000001
  0
LINE
  8
_0-0_LAYER001
  6
CONTINUOUS
 62
    3
 10
1225.7186999999999
 20
1171.9371000000001
 11
1229.0900999999999
 21
1171.7620999999999
  0
LINE
  8
_0-0_LAYER001
  6
CONTINUOUS
 62
    3
 10
1229.0900999999999
 20
1171.7620999999999
 11
1234.578
 21
1171.1886999999999
  0
LINE
  8
_0-0_LAYER001
  6
CONTINUOUS
 62
    3
 10
1234.578
 20
1171.1886999999999
 11
1242.0753
 21
1169.9866
  0
LINE
  8
_0-0_LAYER001
  6
CONTINUOUS
 62
    3
 10
1242.0753
 20
1169.9866
 11
1251.4748
 21
1167.9253000000001
  0
LINE
  8
_0-0_LAYER001
  6
CONTINUOUS
 62
    3
 10
1251.4748
 20
1167.9253000000001
 11
1262.6691000000001
 21
1164.7743
  0
LINE
  8
_0-0_LAYER001
  6
CONTINUOUS
 62
    3
 10
1262.6691000000001
 20
1164.7743
 11
1275.5509999999999
 21
1160.3034
  0
LINE
  8
_0-0_LAYER001
  6
CONTINUOUS
 62
    3
 10
1275.5509999999999
 20
1160.3034
 11
1290.0134
 21
1154.2819
  0
LINE
  8
_0-0_LAYER001
  6
CONTINUOUS
 62
    3
 10
1290.0134
 20
1154.2819
 11
1305.9490000000001
 21
1146.4795999999999
  0
LINE
  8
_0-0_LAYER001
  6
CONTINUOUS
 62
    3
 10
1305.9490000000001
 20
1146.4795999999999
 11
1323.2506000000001
 21
1136.6659
  0
LINE
  8
_0-0_LAYER001
  6
CONTINUOUS
 62
    3
 10
1323.2506000000001
 20
1136.6659
 11
1323.2683999999999
 21
1137.4237000000001
  0
LINE
  8
_0-0_LAYER001
  6
CONTINUOUS
 62
    3
 10
1323.2683999999999
 20
1137.4237000000001
 11
1323.3169
 21
1139.4807000000001
  0
LINE
  8
_0-0_LAYER001
  6
CONTINUOUS
 62
    3
 10
1323.3169
 20
1139.4807000000001
 11
1323.3884
 21
1142.5119999999999
  0
LINE
  8
_0-0_LAYER001
  6
CONTINUOUS
 62
    3
 10
1323.3884
 20
1142.5119999999999
 11
1323.4751000000001
 21
1146.1929
  0
LINE
  8
_0-0_LAYER001
  6
CONTINUOUS
 62
    3
 10
1323.4751000000001
 20
1146.1929
 11
1323.5695000000001
 21
1150.1985999999999
  0
LINE
  8
_0-0_LAYER001
  6
CONTINUOUS
 62
    3
 10
1323.5695000000001
 20
1150.1985999999999
 11
1323.6639
 21
1154.2043000000001
  0
LINE
  8
_0-0_LAYER001
  6
CONTINUOUS
 62
    3
 10
1323.6639
 20
1154.2043000000001
 11
1323.7507000000001
 21
1157.8851999999999
  0
LINE
  8
_0-0_LAYER001
  6
CONTINUOUS
 62
    3
 10
1323.7507000000001
 20
1157.8851999999999
 11
1323.8221000000001
 21
1160.9165
  0
LINE
  8
_0-0_LAYER001
  6
CONTINUOUS
 62
    3
 10
1323.8221000000001
 20
1160.9165
 11
1323.8706
 21
1162.9735000000001
  0
LINE
  8
_0-0_LAYER001
  6
CONTINUOUS
 62
    3
 10
1323.8706
 20
1162.9735000000001
 11
1323.8884000000003
 21
1163.7312999999999
  0
LINE
  8
_0-0_LAYER001
  6
CONTINUOUS
 62
    3
 10
1323.8884000000003
 20
1163.7312999999999
 11
1322.2356
 21
1164.3565000000001
  0
LINE
  8
_0-0_LAYER001
  6
CONTINUOUS
 62
    3
 10
1322.2356
 20
1164.3565000000001
 11
1317.5721000000001
 21
1166.0648000000001
  0
LINE
  8
_0-0_LAYER001
  6
CONTINUOUS
 62
    3
 10
1317.5721000000001
 20
1166.0648000000001
 11
1310.3403000000001
 21
1168.6049
  0
LINE
  8
_0-0_LAYER001
  6
CONTINUOUS
 62
    3
 10
1310.3403000000001
 20
1168.6049
 11
1300.9824000000001
 21
1171.7256
  0
LINE
  8
_0-0_LAYER001
  6
CONTINUOUS
 62
    3
 10
1300.9824000000001
 20
1171.7256
 11
1289.941
 21
1175.1757
  0
LINE
  8
_0-0_LAYER001
  6
CONTINUOUS
 62
    3
 10
1289.941
 20
1175.1757
 11
1277.6584
 21
1178.7039
  0
LINE
  8
_0-0_LAYER001
  6
CONTINUOUS
 62
    3
 10
1277.6584
 20
1178.7039
 11
1264.5769
 21
1182.0591999999999
  0
LINE
  8
_0-0_LAYER001
  6
CONTINUOUS
 62
    3
 10
1264.5769
 20
1182.0591999999999
 11
1251.1388999999999
 21
1184.9902
  0
LINE
  8
_0-0_LAYER001
  6
CONTINUOUS
 62
    3
 10
1251.1388999999999
 20
1184.9902
 11
1237.7868000000001
 21
1187.2456999999999
  0
LINE
  8
_0-0_LAYER001
  6
CONTINUOUS
 62
    3
 10
1224.9629
 20
1188.5745999999999
 11
1237.8987
 21
1187.2267999999999
  0
LINE
  8
_0-0_LAYER001
  6
CONTINUOUS
 62
    3
 10
1241.6660999999999
 20
1154.2469000000001
 11
1241.6550999999999
 21
1153.7811999999999
  0
LINE
  8
_0-0_LAYER001
  6
CONTINUOUS
 62
    3
 10
1241.6550999999999
 20
1153.7811999999999
 11
1241.6252999999999
 21
1152.5173
  0
LINE
  8
_0-0_LAYER001
  6
CONTINUOUS
 62
    3
 10
1241.6252999999999
 20
1152.5173
 11
1241.5814
 21
1150.6547
  0
LINE
  8
_0-0_LAYER001
  6
CONTINUOUS
 62
    3
 10
1241.5814
 20
1150.6547
 11
1241.5281
 21
1148.393
  0
LINE
  8
_0-0_LAYER001
  6
CONTINUOUS
 62
    3
 10
1241.5281
 20
1148.393
 11
1241.4701
 21
1145.9317000000001
  0
LINE
  8
_0-0_LAYER001
  6
CONTINUOUS
 62
    3
 10
1241.4701
 20
1145.9317000000001
 11
1241.4121
 21
1143.4703999999999
  0
LINE
  8
_0-0_LAYER001
  6
CONTINUOUS
 62
    3
 10
1241.4121
 20
1143.4703999999999
 11
1241.3588
 21
1141.2086999999999
  0
LINE
  8
_0-0_LAYER001
  6
CONTINUOUS
 62
    3
 10
1241.3588
 20
1141.2086999999999
 11
1241.3149000000001
 21
1139.3461
  0
LINE
  8
_0-0_LAYER001
  6
CONTINUOUS
 62
    3
 10
1241.3149000000001
 20
1139.3461
 11
1241.2851000000001
 21
1138.0822000000001
  0
LINE
  8
_0-0_LAYER001
  6
CONTINUOUS
 62
    3
 10
1241.2851000000001
 20
1138.0822000000001
 11
1241.2742000000001
 21
1137.6165000000001
  0
LINE
  8
_0-0_LAYER001
  6
CONTINUOUS
 62
    3
 10
1241.2742000000001
 20
1137.6165000000001
 11
1242.4218000000001
 21
1137.6094000000001
  0
LINE
  8
_0-0_LAYER001
  6
CONTINUOUS
 62
    3
 10
1242.4218000000001
 20
1137.6094000000001
 11
1245.7932000000001
 21
1137.4342999999999
  0
LINE
  8
_0-0_LAYER001
  6
CONTINUOUS
 62
    3
 10
1245.7932000000001
 20
1137.4342999999999
 11
1251.2811999999999
 21
1136.8610000000001
  0
LINE
  8
_0-0_LAYER001
  6
CONTINUOUS
 62
    3
 10
1251.2811999999999
 20
1136.8610000000001
 11
1258.7784999999999
 21
1135.6587999999999
  0
LINE
  8
_0-0_LAYER001
  6
CONTINUOUS
 62
    3
 10
1258.7784999999999
 20
1135.6587999999999
 11
1268.1778999999999
 21
1133.5975000000001
  0
LINE
  8
_0-0_LAYER001
  6
CONTINUOUS
 62
    3
 10
1268.1778999999999
 20
1133.5975000000001
 11
1279.3722
 21
1130.4466
  0
LINE
  8
_0-0_LAYER001
  6
CONTINUOUS
 62
    3
 10
1279.3722
 20
1130.4466
 11
1292.2541000000001
 21
1125.9756
  0
LINE
  8
_0-0_LAYER001
  6
CONTINUOUS
 62
    3
 10
1292.2541000000001
 20
1125.9756
 11
1306.7165
 21
1119.9540999999999
  0
LINE
  8
_0-0_LAYER001
  6
CONTINUOUS
 62
    3
 10
1306.7165
 20
1119.9540999999999
 11
1322.6521
 21
1112.1518000000001
  0
LINE
  8
_0-0_LAYER001
  6
CONTINUOUS
 62
    3
 10
1322.6521
 20
1112.1518000000001
 11
1339.9537
 21
1102.3380999999999
  0
LINE
  8
_0-0_LAYER001
  6
CONTINUOUS
 62
    3
 10
1339.9537
 20
1102.3380999999999
 11
1339.9716000000001
 21
1103.0959
  0
LINE
  8
_0-0_LAYER001
  6
CONTINUOUS
 62
    3
 10
1339.9716000000001
 20
1103.0959
 11
1340.0200999999997
 21
1105.1529
  0
LINE
  8
_0-0_LAYER001
  6
CONTINUOUS
 62
    3
 10
1340.0200999999997
 20
1105.1529
 11
1340.0915
 21
1108.1841999999999
  0
LINE
  8
_0-0_LAYER001
  6
CONTINUOUS
 62
    3
 10
1340.0915
 20
1108.1841999999999
 11
1340.1782000000001
 21
1111.8651
  0
LINE
  8
_0-0_LAYER001
  6
CONTINUOUS
 62
    3
 10
1340.1782000000001
 20
1111.8651
 11
1340.2726000000002
 21
1115.8707999999999
  0
LINE
  8
_0-0_LAYER001
  6
CONTINUOUS
 62
    3
 10
1340.2726000000002
 20
1115.8707999999999
 11
1340.367
 21
1119.8765000000001
  0
LINE
  8
_0-0_LAYER001
  6
CONTINUOUS
 62
    3
 10
1340.367
 20
1119.8765000000001
 11
1340.4538
 21
1123.5573999999999
  0
LINE
  8
_0-0_LAYER001
  6
CONTINUOUS
 62
    3
 10
1340.4538
 20
1123.5573999999999
 11
1340.5252
 21
1126.5887
  0
LINE
  8
_0-0_LAYER001
  6
CONTINUOUS
 62
    3
 10
1340.5252
 20
1126.5887
 11
1340.5736999999999
 21
1128.6457
  0
LINE
  8
_0-0_LAYER001
  6
CONTINUOUS
 62
    3
 10
1340.5736999999999
 20
1128.6457
 11
1340.5916
 21
1129.4034999999999
  0
LINE
  8
_0-0_LAYER001
  6
CONTINUOUS
 62
    3
 10
1340.5916
 20
1129.4034999999999
 11
1338.9386999999999
 21
1130.0288
  0
LINE
  8
_0-0_LAYER001
  6
CONTINUOUS
 62
    3
 10
1338.9386999999999
 20
1130.0288
 11
1334.2752
 21
1131.7370000000001
  0
LINE
  8
_0-0_LAYER001
  6
CONTINUOUS
 62
    3
 10
1334.2752
 20
1131.7370000000001
 11
1327.0434
 21
1134.2771
  0
LINE
  8
_0-0_LAYER001
  6
CONTINUOUS
 62
    3
 10
1327.0434
 20
1134.2771
 11
1317.6856
 21
1137.3978
  0
LINE
  8
_0-0_LAYER001
  6
CONTINUOUS
 62
    3
 10
1317.6856
 20
1137.3978
 11
1306.6442000000002
 21
1140.8479
  0
LINE
  8
_0-0_LAYER001
  6
CONTINUOUS
 62
    3
 10
1306.6442000000002
 20
1140.8479
 11
1294.3615
 21
1144.3761999999999
  0
LINE
  8
_0-0_LAYER001
  6
CONTINUOUS
 62
    3
 10
1294.3615
 20
1144.3761999999999
 11
1281.2799999999997
 21
1147.7313999999999
  0
LINE
  8
_0-0_LAYER001
  6
CONTINUOUS
 62
    3
 10
1281.2799999999997
 20
1147.7313999999999
 11
1267.8420000000001
 21
1150.6623999999999
  0
LINE
  8
_0-0_LAYER001
  6
CONTINUOUS
 62
    3
 10
1267.8420000000001
 20
1150.6623999999999
 11
1254.4899
 21
1152.9179999999999
  0
LINE
  8
_0-0_LAYER001
  6
CONTINUOUS
 62
    3
 10
1241.6660999999999
 20
1154.2469000000001
 11
1254.6018999999999
 21
1152.8991000000001
  0
CIRCLE
  8
_0-0_LAYER001
  6
CONTINUOUS
 62
    2
 10
1246.903
 20
1135.6552999999999
 40
0.8999999999999999
  0
CIRCLE
  8
_0-0_LAYER001
  6
CONTINUOUS
 62
    2
 10
1256.6802
 20
1127.7705000000001
 40
0.8999999999999999
  0
CIRCLE
  8
_0-0_LAYER001
  6
CONTINUOUS
 62
    2
 10
1266.5029999999999
 20
1121.9155000000001
 40
0.8999999999999999
  0
CIRCLE
  8
_0-0_LAYER001
  6
CONTINUOUS
 62
    2
 10
1217.2304999999999
 20
1127.2164
 40
0.8999999999999999
  0
CIRCLE
  8
_0-0_LAYER001
  6
CONTINUOUS
 62
    2
 10
1208.7148
 20
1124.0624
 40
0.8999999999999999
  0
CIRCLE
  8
_0-0_LAYER001
  6
CONTINUOUS
 62
    2
 10
1227.0077000000001
 20
1119.3315
 40
0.8999999999999999
  0
CIRCLE
  8
_0-0_LAYER001
  6
CONTINUOUS
 62
    2
 10
1243.0927999999999
 20
1124.3778
 40
0.8999999999999999
  0
CIRCLE
  8
_0-0_LAYER001
  6
CONTINUOUS
 62
    2
 10
1204.3332
 20
1132.4637
 40
0.8999999999999999
  0
CIRCLE
  8
_0-0_LAYER001
  6
CONTINUOUS
 62
    2
 10
1230.258
 20
1131.7334000000001
 40
0.8999999999999999
  0
CIRCLE
  8
_0-0_LAYER001
  6
CONTINUOUS
 62
    2
 10
1243.7682
 20
1132.4637
 40
0.8999999999999999
  0
CIRCLE
  8
_0-0_LAYER001
  6
CONTINUOUS
 62
    2
 10
1236.8305
 20
1113.4765
 40
0.8999999999999999
  0
CIRCLE
  8
_0-0_LAYER001
  6
CONTINUOUS
 62
    2
 10
1235.6739
 20
1105.2689
 40
0.8999999999999999
  0
CIRCLE
  8
_0-0_LAYER001
  6
CONTINUOUS
 62
    2
 10
1264.6507999999999
 20
1090.6279
 40
0.8999999999999999
  0
LINE
  8
_0-0_LAYER001
  6
CONTINUOUS
 62
    2
 10
1227.2267999999999
 20
1206.3878999999999
 11
1223.4767999999999
 21
1199.8927000000001
  0
LINE
  8
_0-0_LAYER001
  6
CONTINUOUS
 62
    2
 10
1223.4767999999999
 20
1199.8927000000001
 11
1223.4767999999999
 21
1207.3927000000001
  0
LINE
  8
_0-0_LAYER001
  6
CONTINUOUS
 62
    2
 10
1279.8171
 20
1400.1577
 11
1426.8171000000002
 21
1400.1577
  0
LINE
  8
_0-0_LAYER001
  6
CONTINUOUS
 62
    2
 10
1186.8052
 20
1322.8639000000001
 11
1188.7463
 21
1315.6195
  0
LINE
  8
_0-0_LAYER001
  6
CONTINUOUS
 62
    2
 10
1188.7463
 20
1315.6195
 11
1183.443
 21
1320.9228000000003
  0
LINE
  8
_0-0_LAYER001
  6
CONTINUOUS
 62
    2
 10
1193.7635
 20
1323.1048000000001
 11
1193.7635
 21
1478.0540999999998
  0
LINE
  8
_0-0_LAYER001
  6
CONTINUOUS
 62
    2
 10
1233.7855999999999
 20
1188.5945999999999
 11
1216.4735000000001
 21
1188.5945999999999
  0
LINE
  8
_0-0_LAYER001
  6
CONTINUOUS
 62
    2
 10
1216.4735000000001
 20
1188.5945999999999
 11
1216.4735000000001
 21
1170.3117999999999
  0
LINE
  8
_0-0_LAYER001
  6
CONTINUOUS
 62
    2
 10
1216.4735000000001
 20
1170.3117999999999
 11
1233.7855999999999
 21
1170.3117999999999
  0
LINE
  8
_0-0_LAYER001
  6
CONTINUOUS
 62
    2
 10
1233.7855999999999
 20
1170.3117999999999
 11
1233.7855999999999
 21
1188.5945999999999
  0
LINE
  8
_0-0_LAYER001
  6
CONTINUOUS
 62
    2
 10
1249.0037
 20
1136.1946
 11
1241.2742000000001
 21
1137.6165000000001
  0
LINE
  8
_0-0_LAYER001
  6
CONTINUOUS
 62
    2
 10
1241.2742000000001
 20
1137.6165000000001
 11
1216.5773999999999
 21
1160.9321
  0
LINE
  8
_0-0_LAYER001
  6
CONTINUOUS
 62
    2
 10
1220.5889
 20
1165.9465
 11
1216.5773999999999
 21
1160.9321
  0
LINE
  8
_0-0_LAYER001
  6
CONTINUOUS
 62
    2
 10
1249.0037
 20
1153.4824000000001
 11
1249.0037
 21
1136.1946
  0
LINE
  8
_0-0_LAYER001
  6
CONTINUOUS
 62
    2
 10
1249.0037
 20
1153.4824000000001
 11
1220.5889
 21
1165.9465
  0
ARC
  8
_0-0_LAYER001
  6
CONTINUOUS
 62
    2
 10
1400.9282000000003
 20
1138.3078
 40
127.95164
 50
182.67926
 51
205.12650000000002
  0
LINE
  8
_0-0_LAYER001
  6
CONTINUOUS
 62
    2
 10
1569.8323
 20
981.84059999999999
 11
1619.8321000000001
 21
1031.8406
  0
LINE
  8
_0-0_LAYER001
  6
CONTINUOUS
 62
    2
 10
1565.5895999999998
 20
981.84059999999999
 11
1615.5893999999998
 21
1031.8406
  0
LINE
  8
_0-0_LAYER001
  6
CONTINUOUS
 62
    2
 10
1357.7001999999998
 20
981.84059999999999
 11
1407.7001999999998
 21
1031.8406
  0
LINE
  8
_0-0_LAYER001
  6
CONTINUOUS
 62
    2
 10
1353.4575
 20
981.84059999999999
 11
1403.4575999999997
 21
1031.8406
  0
LINE
  8
_0-0_LAYER001
  6
CONTINUOUS
 62
    2
 10
1315.7636
 20
1052.8406
 11
1315.7636
 21
1037.8406
  0
LINE
  8
_0-0_LAYER001
  6
CONTINUOUS
 62
    2
 10
1313.7635
 20
1035.8406
 11
1197.7635
 21
1035.8406
  0
LINE
  8
_0-0_LAYER001
  6
DASHED3
 62
    2
 10
2142.7242999999999
 20
1033.8406
 11
1195.7635
 21
1033.8406
  0
LINE
  8
_0-0_LAYER001
  6
CONTINUOUS
 62
    2
 10
1193.7635
 20
981.84059999999999
 11
2142.7242999999999
 21
981.84059999999999
  0
LINE
  8
_0-0_LAYER001
  6
CONTINUOUS
 62
    2
 10
1193.7635
 20
1031.8406
 11
2142.7242999999999
 21
1031.8406
  0
LINE
  8
_0-0_LAYER001
  6
CONTINUOUS
 62
    2
 10
1193.7635
 20
1031.8406
 11
1193.7635
 21
981.84059999999999
  0
LINE
  8
_0-0_LAYER001
  6
CONTINUOUS
 62
    2
 10
1193.7635
 20
981.84059999999999
 11
1093.7635
 21
981.84059999999999
  0
LINE
  8
_0-0_LAYER001
  6
CONTINUOUS
 62
    2
 10
1203.7635
 20
881.84059999999999
 11
2142.7242999999999
 21
881.84059999999999
  0
LINE
  8
_0-0_LAYER001
  6
CONTINUOUS
 62
    2
 10
1203.7635
 20
981.84059999999999
 11
1203.7635
 21
881.84059999999999
  0
LINE
  8
_0-0_LAYER001
  6
DASHED1
 62
    1
 10
1203.7635
 20
885.04060000000004
 11
2142.7242999999999
 21
885.04060000000004
  0
LINE
  8
_0-0_LAYER001
  6
DASHED1
 62
    1
 10
1203.7635
 20
978.64059999999995
 11
2142.7242999999999
 21
978.64059999999995
  0
LINE
  8
_0-0_LAYER001
  6
DASHED1
 62
    1
 10
1203.7635
 20
961.84059999999999
 11
2142.7242999999999
 21
961.84059999999999
  0
LINE
  8
_0-0_LAYER001
  6
DASHED1
 62
    1
 10
1203.7635
 20
901.84059999999999
 11
2142.7242999999999
 21
901.84059999999999
  0
LINE
  8
_0-0_LAYER001
  6
CONTINUOUS
 62
    2
 10
1093.7635
 20
1036.204
 11
1193.7635
 21
1136.2038
  0
LINE
  8
_0-0_LAYER001
  6
CONTINUOUS
 62
    2
 10
1093.7635
 20
1031.9612999999999
 11
1193.7635
 21
1131.9612999999999
  0
LINE
  8
_0-0_LAYER001
  6
CONTINUOUS
 62
    2
 10
1093.7635
 20
1248.204
 11
1193.7635
 21
1348.2038
  0
LINE
  8
_0-0_LAYER001
  6
CONTINUOUS
 62
    2
 10
1093.7635
 20
1243.9613999999999
 11
1193.7635
 21
1343.9612999999999
  0
LINE
  8
_0-0_LAYER001
  6
CONTINUOUS
 62
    2
 10
1093.7635
 20
1364.1640000000002
 11
1093.7635
 21
1107.9443000000001
  0
LINE
  8
_0-0_LAYER001
  6
CONTINUOUS
 62
    2
 10
1093.7635
 20
1110.8394000000001
 11
1093.7635
 21
981.84059999999999
  0
LINE
  8
_0-0_LAYER001
  6
CONTINUOUS
 62
    2
 10
1313.7635
 20
1053.5834
 11
1313.7635
 21
1035.8406
  0
LINE
  8
_0-0_LAYER001
  6
CONTINUOUS
 62
    2
 10
1178.1635000000001
 20
1302.3047999999999
 11
1178.1635000000001
 21
1323.1048000000001
  0
LINE
  8
_0-0_LAYER001
  6
CONTINUOUS
 62
    2
 10
1180.2435
 20
1304.3848
 11
1180.2435
 21
1319.9848999999999
  0
LINE
  8
_0-0_LAYER001
  6
CONTINUOUS
 62
    2
 10
1180.2435
 20
1304.3848
 11
1191.3384000000001
 21
1315.4795999999999
  0
LINE
  8
_0-0_LAYER001
  6
CONTINUOUS
 62
    2
 10
1184.6559
 20
1304.3848
 11
1191.2322999999999
 21
1310.9612999999999
  0
LINE
  8
_0-0_LAYER001
  6
CONTINUOUS
 62
    2
 10
1189.0681999999999
 20
1304.3848
 11
1191.8648000000001
 21
1307.1814999999997
  0
LINE
  8
_0-0_LAYER001
  6
CONTINUOUS
 62
    2
 10
1191.5296000000001
 20
1308.6986999999999
 11
1180.2435
 21
1319.9847
  0
LINE
  8
_0-0_LAYER001
  6
CONTINUOUS
 62
    2
 10
1191.1765
 20
1313.4641999999999
 11
1181.5358000000001
 21
1323.1048000000001
  0
LINE
  8
_0-0_LAYER001
  6
CONTINUOUS
 62
    2
 10
1191.6652999999999
 20
1317.3878
 11
1185.9483
 21
1323.1048000000001
  0
LINE
  8
_0-0_LAYER001
  6
CONTINUOUS
 62
    2
 10
1187.0188000000001
 20
1304.3848
 11
1181.8918000000001
 21
1309.5117
  0
LINE
  8
_0-0_LAYER001
  6
CONTINUOUS
 62
    2
 10
1182.6063999999999
 20
1304.3848
 11
1180.5582999999999
 21
1306.4329
  0
LINE
  8
_0-0_LAYER001
  6
CONTINUOUS
 62
    2
 10
1182.1569999999999
 20
1310.7106000000001
 11
1193.0219999999999
 21
1321.5755999999999
  0
LINE
  8
_0-0_LAYER001
  6
CONTINUOUS
 62
    2
 10
1182.0912000000001
 20
1315.0572
 11
1190.1387
 21
1323.1048000000001
  0
LINE
  8
_0-0_LAYER001
  6
CONTINUOUS
 62
    2
 10
1191.4312
 20
1304.3848
 11
1182.2958000000001
 21
1313.5201000000002
  0
LINE
  8
_0-0_LAYER001
  6
CONTINUOUS
 62
    2
 10
1192.6899000000001
 20
1320.7756999999997
 11
1190.3607999999999
 21
1323.1048000000001
  0
LINE
  8
_0-0_LAYER001
  6
CONTINUOUS
 62
    2
 10
1180.9351999999999
 20
1318.3137999999999
 11
1185.7262000000001
 21
1323.1048000000001
  0
LINE
  8
_0-0_LAYER001
  6
CONTINUOUS
 62
    2
 10
1180.2435
 20
1322.0344
 11
1181.3137999999999
 21
1323.1048000000001
  0
LINE
  8
_0-0_LAYER001
  6
CONTINUOUS
 62
    2
 10
1180.2435
 20
1319.9847
 11
1180.2435
 21
1323.1048000000001
  0
LINE
  8
_0-0_LAYER001
  6
CONTINUOUS
 62
    2
 10
1195.7635
 20
1213.7501
 11
1195.7635
 21
1302.3047999999999
  0
LINE
  8
_0-0_LAYER001
  6
CONTINUOUS
 62
    2
 10
1180.2435
 20
1304.3848
 11
1198.1635000000001
 21
1304.3848
  0
LINE
  8
_0-0_LAYER001
  6
CONTINUOUS
 62
    2
 10
1198.1635000000001
 20
1271.9048
 11
1198.1635000000001
 21
1304.3848
  0
LINE
  8
_0-0_LAYER001
  6
CONTINUOUS
 62
    2
 10
1197.7635
 20
1146.8406
 11
1197.7635
 21
1035.8406
  0
LINE
  8
_0-0_LAYER001
  6
CONTINUOUS
 62
    2
 10
1197.7635
 20
1146.8406
 11
1205.2635
 21
1133.8502000000001
  0
LINE
  8
_0-0_LAYER001
  6
DASHED3
 62
    2
 10
1195.7635
 20
1231.8406
 11
1195.7635
 21
1033.8406
  0
LINE
  8
_0-0_LAYER001
  6
CONTINUOUS
 62
    2
 10
1193.7635
 20
1292.3047999999999
 11
1193.7635
 21
1031.8406
  0
LINE
  8
_0-0_LAYER001
  6
CONTINUOUS
 62
    2
 10
1178.1635000000001
 20
1302.3047999999999
 11
1193.7635
 21
1302.3047999999999
  0
LINE
  8
_0-0_LAYER001
  6
CONTINUOUS
 62
    2
 10
1178.1635000000001
 20
1323.1048000000001
 11
1193.7635
 21
1323.1048000000001
  0
LINE
  8
_0-0_LAYER001
  6
CONTINUOUS
 62
    2
 10
1193.7635
 20
1254.0313000000001
 11
1193.7635
 21
1302.3047999999999
  0
CIRCLE
  8
_0-0_LAYER001
  6
CONTINUOUS
 62
    2
 10
1218.3194000000001
 20
1155.8
 40
0.8999999999999999
  0
CIRCLE
  8
_0-0_LAYER001
  6
CONTINUOUS
 62
    2
 10
1209.8036999999999
 20
1152.646
 40
0.8999999999999999
  0
CIRCLE
  8
_0-0_LAYER001
  6
CONTINUOUS
 62
    2
 10
1228.0966000000001
 20
1147.9150999999999
 40
0.8999999999999999
  0
ARC
  8
_0-0_LAYER001
  6
CONTINUOUS
 62
    2
 10
1213.2634
 20
1312.7048
 40
22.099882999999998
 50
151.92736000000002
 51
202.11535000000003
  0
CIRCLE
  8
_0-0_LAYER001
  6
CONTINUOUS
 62
    2
 10
1205.4221
 20
1146.0473
 40
0.8999999999999999
  0
CIRCLE
  8
_0-0_LAYER001
  6
CONTINUOUS
 62
    2
 10
1215.2808
 20
1139.8692000000001
 40
0.8999999999999999
  0
CIRCLE
  8
_0-0_LAYER001
  6
CONTINUOUS
 62
    2
 10
1231.3469
 20
1160.317
 40
0.8999999999999999
  0
CIRCLE
  8
_0-0_LAYER001
  6
CONTINUOUS
 62
    2
 10
1244.8570999999999
 20
1161.0473
 40
0.8999999999999999
  0
CIRCLE
  8
_0-0_LAYER001
  6
CONTINUOUS
 62
    2
 10
1237.9194
 20
1142.0600999999999
 40
0.8999999999999999
  0
LINE
  8
_0-0_LAYER001
  6
CONTINUOUS
 62
    2
 10
997.14650000000006
 20
1031.8406
 11
1049.6465000000001
 21
1031.8406
  0
CIRCLE
  8
_0-0_LAYER001
  6
CONTINUOUS
 62
    2
 10
999.64650000000006
 20
1031.8406
 40
1.6999999999999997
  0
LINE
  8
_0-0_LAYER001
  6
CONTINUOUS
 62
    2
 10
999.64650000000006
 20
1031.8406
 11
999.64650000000006
 21
1151.8406
  0
CIRCLE
  8
_0-0_LAYER001
  6
CONTINUOUS
 62
    2
 10
999.64650000000006
 20
1151.8406
 40
1.6999999999999997
  0
LINE
  8
_0-0_LAYER001
  6
CONTINUOUS
 62
    2
 10
997.14650000000006
 20
1151.8406
 11
1049.6465000000001
 21
1151.8406
  0
LINE
  8
_0-0_LAYER001
  6
CONTINUOUS
 62
    2
 10
997.14650000000006
 20
1151.8406
 11
1049.6465000000001
 21
1151.8406
  0
CIRCLE
  8
_0-0_LAYER001
  6
CONTINUOUS
 62
    2
 10
999.64650000000006
 20
1151.8406
 40
1.6999999999999997
  0
LINE
  8
_0-0_LAYER001
  6
CONTINUOUS
 62
    2
 10
999.64650000000006
 20
1151.8406
 11
999.64650000000006
 21
1213.7501
  0
CIRCLE
  8
_0-0_LAYER001
  6
CONTINUOUS
 62
    2
 10
999.64650000000006
 20
1213.7501
 40
1.6999999999999997
  0
LINE
  8
_0-0_LAYER001
  6
CONTINUOUS
 62
    2
 10
997.14650000000006
 20
1213.7501
 11
1049.6465000000001
 21
1213.7501
  0
CIRCLE
  8
_0-0_LAYER001
  6
CONTINUOUS
 62
    2
 10
999.64650000000006
 20
1213.7501
 40
1.6999999999999997
  0
LINE
  8
_0-0_LAYER001
  6
CONTINUOUS
 62
    2
 10
999.64650000000006
 20
1213.7501
 11
999.64650000000006
 21
1303.7501
  0
CIRCLE
  8
_0-0_LAYER001
  6
CONTINUOUS
 62
    2
 10
999.64650000000006
 20
1303.7501
 40
1.6999999999999997
  0
LINE
  8
_0-0_LAYER001
  6
CONTINUOUS
 62
    2
 10
997.14650000000006
 20
1303.7501
 11
1049.6465000000001
 21
1303.7501
  0
CIRCLE
  8
_0-0_LAYER001
  6
CONTINUOUS
 62
    2
 10
999.64650000000006
 20
1303.7501
 40
1.6999999999999997
  0
LINE
  8
_0-0_LAYER001
  6
CONTINUOUS
 62
    2
 10
999.64650000000006
 20
1303.7501
 11
999.64650000000006
 21
1323.7501
  0
CIRCLE
  8
_0-0_LAYER001
  6
CONTINUOUS
 62
    2
 10
999.64650000000006
 20
1323.7501
 40
1.6999999999999997
  0
LINE
  8
_0-0_LAYER001
  6
CONTINUOUS
 62
    2
 10
997.14650000000006
 20
1323.7501
 11
1049.6465000000001
 21
1323.7501
  0
LINE
  8
_0-0_LAYER001
  6
CONTINUOUS
 62
    2
 10
1203.9032999999999
 20
774.71440000000007
 11
1203.9032999999999
 21
827.21440000000007
  0
CIRCLE
  8
_0-0_LAYER001
  6
CONTINUOUS
 62
    2
 10
1203.9032999999999
 20
777.21440000000007
 40
1.6999999999999997
  0
LINE
  8
_0-0_LAYER001
  6
CONTINUOUS
 62
    2
 10
1203.9032999999999
 20
777.21440000000007
 11
1423.9032999999999
 21
777.21440000000007
  0
CIRCLE
  8
_0-0_LAYER001
  6
CONTINUOUS
 62
    2
 10
1423.9032999999999
 20
777.21440000000007
 40
1.6999999999999997
  0
LINE
  8
_0-0_LAYER001
  6
CONTINUOUS
 62
    2
 10
1423.9032999999999
 20
774.71440000000007
 11
1423.9032999999999
 21
827.21440000000007
  0
CIRCLE
  8
_0-0_LAYER001
  6
CONTINUOUS
 62
    2
 10
1423.9032999999999
 20
777.21440000000007
 40
1.6999999999999997
  0
LINE
  8
_0-0_LAYER001
  6
CONTINUOUS
 62
    2
 10
1423.9032999999999
 20
777.21440000000007
 11
1688.9032999999999
 21
777.21440000000007
  0
CIRCLE
  8
_0-0_LAYER001
  6
CONTINUOUS
 62
    2
 10
1688.9032999999999
 20
777.21440000000007
 40
1.6999999999999997
  0
LINE
  8
_0-0_LAYER001
  6
CONTINUOUS
 62
    2
 10
1688.9032999999999
 20
774.71440000000007
 11
1688.9032999999999
 21
827.21440000000007
  0
CIRCLE
  8
_0-0_LAYER001
  6
CONTINUOUS
 62
    2
 10
1688.9032999999999
 20
777.21440000000007
 40
1.6999999999999997
  0
LINE
  8
_0-0_LAYER001
  6
CONTINUOUS
 62
    2
 10
1688.9032999999999
 20
777.21440000000007
 11
1953.9032999999999
 21
777.21440000000007
  0
CIRCLE
  8
_0-0_LAYER001
  6
CONTINUOUS
 62
    2
 10
1953.9032999999999
 20
777.21440000000007
 40
1.6999999999999997
  0
LINE
  8
_0-0_LAYER001
  6
CONTINUOUS
 62
    2
 10
1953.9032999999999
 20
774.71440000000007
 11
1953.9032999999999
 21
827.21440000000007
  0
LINE
  8
_0-0_LAYER001
  6
CONTINUOUS
 62
    4
 10
2079.4609
 20
1049.3285000000001
 11
2070.9254999999998
 21
1063.8619000000001
  0
LINE
  8
_0-0_LAYER001
  6
CONTINUOUS
 62
    4
 10
2087.6288
 20
1048.6782000000001
 11
2095.9349999999999
 21
1058.7437
  0
ARC
  8
_0-0_LAYER001
  6
CONTINUOUS
 62
    4
 10
2083.7723999999998
 20
1051.8606
 40
5
 50
210.42578
 51
320.47001
  0
LINE
  8
_0-0_LAYER001
  6
CONTINUOUS
 62
    4
 10
2141.1965
 20
1077.9526000000001
 11
2142.7242999999999
 21
1078.0925
  0
LINE
  8
_0-0_LAYER001
  6
CONTINUOUS
 62
    4
 10
2136.1350000000002
 20
1077.5945999999999
 11
2141.1965
 21
1077.9526000000001
  0
LINE
  8
_0-0_LAYER001
  6
CONTINUOUS
 62
    4
 10
2133.3323999999998
 20
1077.433
 11
2136.1350000000002
 21
1077.5945999999999
  0
LINE
  8
_0-0_LAYER001
  6
CONTINUOUS
 62
    4
 10
2128.6113999999998
 20
1077.229
 11
2133.3323999999998
 21
1077.433
  0
LINE
  8
_0-0_LAYER001
  6
CONTINUOUS
 62
    4
 10
2123.7822000000001
 20
1077.1235999999999
 11
2128.6113999999998
 21
1077.229
  0
LINE
  8
_0-0_LAYER001
  6
CONTINUOUS
 62
    4
 10
2118.8806
 20
1077.1388999999999
 11
2123.7822000000001
 21
1077.1235999999999
  0
LINE
  8
_0-0_LAYER001
  6
CONTINUOUS
 62
    4
 10
2113.9095000000002
 20
1077.2968000000001
 11
2118.8806
 21
1077.1388999999999
  0
LINE
  8
_0-0_LAYER001
  6
CONTINUOUS
 62
    4
 10
2108.9521
 20
1077.6146000000001
 11
2113.9095000000002
 21
1077.2968000000001
  0
LINE
  8
_0-0_LAYER001
  6
CONTINUOUS
 62
    4
 10
2105.9005000000002
 20
1077.896
 11
2108.9521
 21
1077.6146000000001
  0
LINE
  8
_0-0_LAYER001
  6
CONTINUOUS
 62
    4
 10
2101.9715999999999
 20
1078.3581999999999
 11
2105.9005000000002
 21
1077.896
  0
LINE
  8
_0-0_LAYER001
  6
CONTINUOUS
 62
    4
 10
2095.4576999999999
 20
1079.3807999999999
 11
2101.9715999999999
 21
1078.3581999999999
  0
LINE
  8
_0-0_LAYER001
  6
CONTINUOUS
 62
    4
 10
2088.9110999999998
 20
1080.7329
 11
2095.4576999999999
 21
1079.3807999999999
  0
LINE
  8
_0-0_LAYER001
  6
CONTINUOUS
 62
    4
 10
2082.4481000000001
 20
1082.3887999999999
 11
2088.9110999999998
 21
1080.7329
  0
LINE
  8
_0-0_LAYER001
  6
CONTINUOUS
 62
    4
 10
2076.0821999999998
 20
1084.3395
 11
2082.4481000000001
 21
1082.3887999999999
  0
LINE
  8
_0-0_LAYER001
  6
CONTINUOUS
 62
    4
 10
2069.9173999999998
 20
1086.5444
 11
2076.0821999999998
 21
1084.3395
  0
LINE
  8
_0-0_LAYER001
  6
CONTINUOUS
 62
    4
 10
2066.2307999999998
 20
1088.0162
 11
2069.9173999999998
 21
1086.5444
  0
LINE
  8
_0-0_LAYER001
  6
CONTINUOUS
 62
    4
 10
2061.8665000000001
 20
1089.9087
 11
2066.2307999999998
 21
1088.0162
  0
LINE
  8
_0-0_LAYER001
  6
CONTINUOUS
 62
    4
 10
2054.7973999999999
 20
1093.3236999999999
 11
2061.8665000000001
 21
1089.9087
  0
LINE
  8
_0-0_LAYER001
  6
CONTINUOUS
 62
    4
 10
2047.9045999999998
 20
1097.0533
 11
2054.7973999999999
 21
1093.3236999999999
  0
LINE
  8
_0-0_LAYER001
  6
CONTINUOUS
 62
    4
 10
2041.2676000000001
 20
1100.9870000000001
 11
2047.9045999999998
 21
1097.0533
  0
LINE
  8
_0-0_LAYER001
  6
CONTINUOUS
 62
    4
 10
2034.8582000000001
 20
1105.0694000000001
 11
2041.2676000000001
 21
1100.9870000000001
  0
LINE
  8
_0-0_LAYER001
  6
CONTINUOUS
 62
    4
 10
2028.674
 20
1109.2316000000001
 11
2034.8582000000001
 21
1105.0694000000001
  0
LINE
  8
_0-0_LAYER001
  6
CONTINUOUS
 62
    4
 10
2025.1316999999999
 20
1111.6953000000001
 11
2028.674
 21
1109.2316000000001
  0
LINE
  8
_0-0_LAYER001
  6
CONTINUOUS
 62
    4
 10
2022.8996999999999
 20
1113.2688000000001
 11
2025.1316999999999
 21
1111.6953000000001
  0
LINE
  8
_0-0_LAYER001
  6
CONTINUOUS
 62
    4
 10
2019.2761
 20
1115.8079
 11
2022.8996999999999
 21
1113.2688000000001
  0
LINE
  8
_0-0_LAYER001
  6
CONTINUOUS
 62
    4
 10
2015.9065000000001
 20
1118.0734
 11
2019.2761
 21
1115.8079
  0
LINE
  8
_0-0_LAYER001
  6
CONTINUOUS
 62
    4
 10
2012.7914999999998
 20
1120.0005000000001
 11
2015.9065000000001
 21
1118.0734
  0
LINE
  8
_0-0_LAYER001
  6
CONTINUOUS
 62
    4
 10
2009.9243000000001
 20
1121.5563
 11
2012.7914999999998
 21
1120.0005000000001
  0
LINE
  8
_0-0_LAYER001
  6
CONTINUOUS
 62
    4
 10
2007.0931
 20
1122.8246999999999
 11
2009.9243000000001
 21
1121.5563
  0
LINE
  8
_0-0_LAYER001
  6
CONTINUOUS
 62
    4
 10
2005.6298999999999
 20
1123.3568
 11
2007.0931
 21
1122.8246999999999
  0
LINE
  8
_0-0_LAYER001
  6
CONTINUOUS
 62
    4
 10
2005.4488000000001
 20
1123.4148
 11
2005.6298999999999
 21
1123.3568
  0
LINE
  8
_0-0_LAYER001
  6
CONTINUOUS
 62
    4
 10
2004.6605
 20
1123.6427000000001
 11
2005.4488000000001
 21
1123.4148
  0
LINE
  8
_0-0_LAYER001
  6
CONTINUOUS
 62
    4
 10
2004.0034000000001
 20
1123.8054
 11
2004.6605
 21
1123.6427000000001
  0
LINE
  8
_0-0_LAYER001
  6
CONTINUOUS
 62
    4
 10
2003.4216000000001
 20
1123.9233999999999
 11
2004.0034000000001
 21
1123.8054
  0
LINE
  8
_0-0_LAYER001
  6
CONTINUOUS
 62
    4
 10
2003.3815
 20
1123.9295999999999
 11
2003.4216000000001
 21
1123.9233999999999
  0
LINE
  8
_0-0_LAYER001
  6
CONTINUOUS
 62
    4
 10
2137.3521999999998
 20
1058.7856999999999
 11
2142.7242999999999
 21
1059.2778000000001
  0
LINE
  8
_0-0_LAYER001
  6
CONTINUOUS
 62
    4
 10
2132.3243000000002
 20
1058.4301
 11
2137.3521999999998
 21
1058.7856999999999
  0
LINE
  8
_0-0_LAYER001
  6
CONTINUOUS
 62
    4
 10
2129.5491000000002
 20
1058.2701
 11
2132.3243000000002
 21
1058.4301
  0
LINE
  8
_0-0_LAYER001
  6
CONTINUOUS
 62
    4
 10
2124.8638000000001
 20
1058.0677000000001
 11
2129.5491000000002
 21
1058.2701
  0
LINE
  8
_0-0_LAYER001
  6
CONTINUOUS
 62
    4
 10
2120.0808999999999
 20
1057.9631999999999
 11
2124.8638000000001
 21
1058.0677000000001
  0
LINE
  8
_0-0_LAYER001
  6
CONTINUOUS
 62
    4
 10
2115.2329
 20
1057.9784
 11
2120.0808999999999
 21
1057.9631999999999
  0
LINE
  8
_0-0_LAYER001
  6
CONTINUOUS
 62
    4
 10
2110.3227000000002
 20
1058.1343999999999
 11
2115.2329
 21
1057.9784
  0
LINE
  8
_0-0_LAYER001
  6
CONTINUOUS
 62
    4
 10
2105.4254000000001
 20
1058.4483
 11
2110.3227000000002
 21
1058.1343999999999
  0
LINE
  8
_0-0_LAYER001
  6
CONTINUOUS
 62
    4
 10
2102.4265999999998
 20
1058.7248
 11
2105.4254000000001
 21
1058.4483
  0
LINE
  8
_0-0_LAYER001
  6
CONTINUOUS
 62
    4
 10
2098.5610999999999
 20
1059.1795999999999
 11
2102.4265999999998
 21
1058.7248
  0
LINE
  8
_0-0_LAYER001
  6
CONTINUOUS
 62
    4
 10
2092.1327000000001
 20
1060.1886999999999
 11
2098.5610999999999
 21
1059.1795999999999
  0
LINE
  8
_0-0_LAYER001
  6
CONTINUOUS
 62
    4
 10
2085.6792
 20
1061.5216
 11
2092.1327000000001
 21
1060.1886999999999
  0
LINE
  8
_0-0_LAYER001
  6
CONTINUOUS
 62
    4
 10
2079.3069999999998
 20
1063.1542999999999
 11
2085.6792
 21
1061.5216
  0
LINE
  8
_0-0_LAYER001
  6
CONTINUOUS
 62
    4
 10
2073.0297
 20
1065.0778
 11
2079.3069999999998
 21
1063.1542999999999
  0
LINE
  8
_0-0_LAYER001
  6
CONTINUOUS
 62
    4
 10
2066.9425999999999
 20
1067.2550000000001
 11
2073.0297
 21
1065.0778
  0
LINE
  8
_0-0_LAYER001
  6
CONTINUOUS
 62
    4
 10
2063.317
 20
1068.7023999999999
 11
2066.9425999999999
 21
1067.2550000000001
  0
LINE
  8
_0-0_LAYER001
  6
CONTINUOUS
 62
    4
 10
2059.0171
 20
1070.567
 11
2063.317
 21
1068.7023999999999
  0
LINE
  8
_0-0_LAYER001
  6
CONTINUOUS
 62
    4
 10
2052.0261999999998
 20
1073.9441999999999
 11
2059.0171
 21
1070.567
  0
LINE
  8
_0-0_LAYER001
  6
CONTINUOUS
 62
    4
 10
2045.2080999999998
 20
1077.6333999999999
 11
2052.0261999999998
 21
1073.9441999999999
  0
LINE
  8
_0-0_LAYER001
  6
CONTINUOUS
 62
    4
 10
2038.6323000000002
 20
1081.5307
 11
2045.2080999999998
 21
1077.6333999999999
  0
LINE
  8
_0-0_LAYER001
  6
CONTINUOUS
 62
    4
 10
2032.2714000000001
 20
1085.5824
 11
2038.6323000000002
 21
1081.5307
  0
LINE
  8
_0-0_LAYER001
  6
CONTINUOUS
 62
    4
 10
2026.1208000000001
 20
1089.7218
 11
2032.2714000000001
 21
1085.5824
  0
LINE
  8
_0-0_LAYER001
  6
CONTINUOUS
 62
    4
 10
2022.5963000000002
 20
1092.1732
 11
2026.1208000000001
 21
1089.7218
  0
LINE
  8
_0-0_LAYER001
  6
CONTINUOUS
 62
    4
 10
2020.3670999999999
 20
1093.7446
 11
2022.5963000000002
 21
1092.1732
  0
LINE
  8
_0-0_LAYER001
  6
CONTINUOUS
 62
    4
 10
2016.7253999999998
 20
1096.2964999999999
 11
2020.3670999999999
 21
1093.7446
  0
LINE
  8
_0-0_LAYER001
  6
CONTINUOUS
 62
    4
 10
2013.3083000000001
 20
1098.5939000000001
 11
2016.7253999999998
 21
1096.2964999999999
  0
LINE
  8
_0-0_LAYER001
  6
CONTINUOUS
 62
    4
 10
2010.1127000000001
 20
1100.5708999999999
 11
2013.3083000000001
 21
1098.5939000000001
  0
LINE
  8
_0-0_LAYER001
  6
CONTINUOUS
 62
    4
 10
2007.1287000000002
 20
1102.1900000000001
 11
2010.1127000000001
 21
1100.5708999999999
  0
LINE
  8
_0-0_LAYER001
  6
CONTINUOUS
 62
    4
 10
2004.1622000000002
 20
1103.5191
 11
2007.1287000000002
 21
1102.1900000000001
  0
LINE
  8
_0-0_LAYER001
  6
CONTINUOUS
 62
    4
 10
2003.4122000000002
 20
1103.7918999999999
 11
2004.1622000000002
 21
1103.5191
  0
LINE
  8
_0-0_LAYER001
  6
CONTINUOUS
 62
    4
 10
2003.7453
 20
1123.835
 11
2003.5693000000001
 21
1103.6614999999999
  0
LINE
  8
_0-0_LAYER001
  6
CONTINUOUS
 62
    4
 10
1956.6491000000001
 20
1133.2252000000001
 11
1957.4630000000002
 21
1133.5318
  0
LINE
  8
_0-0_LAYER001
  6
CONTINUOUS
 62
    4
 10
1957.4630000000002
 20
1133.5318
 11
1961.0122999999999
 21
1134.8714
  0
LINE
  8
_0-0_LAYER001
  6
CONTINUOUS
 62
    4
 10
1961.0122999999999
 20
1134.8714
 11
1964.5689000000002
 21
1136.2203
  0
LINE
  8
_0-0_LAYER001
  6
CONTINUOUS
 62
    4
 10
1964.5689000000002
 20
1136.2203
 11
1968.1376
 21
1137.5843
  0
LINE
  8
_0-0_LAYER001
  6
CONTINUOUS
 62
    4
 10
1968.1376
 20
1137.5843
 11
1971.7229000000002
 21
1138.9694
  0
LINE
  8
_0-0_LAYER001
  6
CONTINUOUS
 62
    4
 10
1971.7229000000002
 20
1138.9694
 11
1975.3296
 21
1140.3814
  0
LINE
  8
_0-0_LAYER001
  6
CONTINUOUS
 62
    4
 10
1975.3296
 20
1140.3814
 11
1977.4331999999999
 21
1141.2149999999999
  0
LINE
  8
_0-0_LAYER001
  6
CONTINUOUS
 62
    4
 10
1977.4331999999999
 20
1141.2149999999999
 11
1979.5124999999998
 21
1142.0438999999999
  0
LINE
  8
_0-0_LAYER001
  6
CONTINUOUS
 62
    4
 10
1979.5124999999998
 20
1142.0438999999999
 11
1983.1190999999999
 21
1143.4453000000001
  0
LINE
  8
_0-0_LAYER001
  6
CONTINUOUS
 62
    4
 10
1983.1190999999999
 20
1143.4453000000001
 11
1986.7518
 21
1144.7280000000001
  0
LINE
  8
_0-0_LAYER001
  6
CONTINUOUS
 62
    4
 10
1986.7518
 20
1144.7280000000001
 11
1990.4097000000002
 21
1145.7945999999999
  0
LINE
  8
_0-0_LAYER001
  6
CONTINUOUS
 62
    4
 10
1990.4097000000002
 20
1145.7945999999999
 11
1994.0918000000001
 21
1146.5479
  0
LINE
  8
_0-0_LAYER001
  6
CONTINUOUS
 62
    4
 10
1994.0918000000001
 20
1146.5479
 11
1997.7970999999998
 21
1146.8904
  0
LINE
  8
_0-0_LAYER001
  6
CONTINUOUS
 62
    4
 10
1997.7970999999998
 20
1146.8904
 11
1999.9564
 21
1146.8625
  0
LINE
  8
_0-0_LAYER001
  6
CONTINUOUS
 62
    4
 10
1999.9564
 20
1146.8625
 11
2000.8056000000001
 21
1146.8010999999999
  0
LINE
  8
_0-0_LAYER001
  6
CONTINUOUS
 62
    4
 10
2000.8056000000001
 20
1146.8010999999999
 11
2002.2698999999998
 21
1146.6305
  0
LINE
  8
_0-0_LAYER001
  6
CONTINUOUS
 62
    4
 10
2002.2698999999998
 20
1146.6305
 11
2003.7310000000002
 21
1146.3838000000001
  0
LINE
  8
_0-0_LAYER001
  6
CONTINUOUS
 62
    4
 10
2003.7310000000002
 20
1146.3838000000001
 11
2005.1846999999998
 21
1146.0678
  0
LINE
  8
_0-0_LAYER001
  6
CONTINUOUS
 62
    4
 10
2005.1846999999998
 20
1146.0678
 11
2006.6268
 21
1145.6893
  0
LINE
  8
_0-0_LAYER001
  6
CONTINUOUS
 62
    4
 10
2006.6268
 20
1145.6893
 11
2008.0531999999998
 21
1145.2552000000001
  0
LINE
  8
_0-0_LAYER001
  6
CONTINUOUS
 62
    4
 10
2008.0531999999998
 20
1145.2552000000001
 11
2008.8717000000001
 21
1144.9804999999999
  0
LINE
  8
_0-0_LAYER001
  6
CONTINUOUS
 62
    4
 10
2008.8717000000001
 20
1144.9804999999999
 11
2011.3699999999999
 21
1144.0323000000001
  0
LINE
  8
_0-0_LAYER001
  6
CONTINUOUS
 62
    4
 10
2011.3699999999999
 20
1144.0323000000001
 11
2015.5288999999998
 21
1142.0988
  0
LINE
  8
_0-0_LAYER001
  6
CONTINUOUS
 62
    4
 10
2015.5288999999998
 20
1142.0988
 11
2019.5327000000002
 21
1139.8534
  0
LINE
  8
_0-0_LAYER001
  6
CONTINUOUS
 62
    4
 10
2019.5327000000002
 20
1139.8534
 11
2023.4196000000002
 21
1137.3731
  0
LINE
  8
_0-0_LAYER001
  6
CONTINUOUS
 62
    4
 10
2023.4196000000002
 20
1137.3731
 11
2027.2276000000002
 21
1134.7349999999999
  0
LINE
  8
_0-0_LAYER001
  6
CONTINUOUS
 62
    4
 10
2027.2276000000002
 20
1134.7349999999999
 11
2030.9947999999999
 21
1132.0159000000001
  0
LINE
  8
_0-0_LAYER001
  6
CONTINUOUS
 62
    4
 10
2030.9947999999999
 20
1132.0159000000001
 11
2033.1761999999999
 21
1130.4321
  0
LINE
  8
_0-0_LAYER001
  6
CONTINUOUS
 62
    4
 10
2033.1761999999999
 20
1130.4321
 11
2036.5077000000001
 21
1128.0452
  0
LINE
  8
_0-0_LAYER001
  6
CONTINUOUS
 62
    4
 10
2036.5077000000001
 20
1128.0452
 11
2042.3000000000002
 21
1124.0282999999999
  0
LINE
  8
_0-0_LAYER001
  6
CONTINUOUS
 62
    4
 10
2042.3000000000002
 20
1124.0282999999999
 11
2048.1720999999998
 21
1120.1717000000001
  0
LINE
  8
_0-0_LAYER001
  6
CONTINUOUS
 62
    4
 10
2048.1720999999998
 20
1120.1717000000001
 11
2054.1462999999999
 21
1116.5172
  0
LINE
  8
_0-0_LAYER001
  6
CONTINUOUS
 62
    4
 10
2054.1462999999999
 20
1116.5172
 11
2060.2444999999998
 21
1113.1067
  0
LINE
  8
_0-0_LAYER001
  6
CONTINUOUS
 62
    4
 10
2060.2444999999998
 20
1113.1067
 11
2066.4888000000001
 21
1109.9819
  0
LINE
  8
_0-0_LAYER001
  6
CONTINUOUS
 62
    4
 10
2066.4888000000001
 20
1109.9819
 11
2070.1860999999999
 21
1108.3169
  0
LINE
  8
_0-0_LAYER001
  6
CONTINUOUS
 62
    4
 10
2070.1860999999999
 20
1108.3169
 11
2073.2453
 21
1107.0458000000001
  0
LINE
  8
_0-0_LAYER001
  6
CONTINUOUS
 62
    4
 10
2073.2453
 20
1107.0458000000001
 11
2078.6057999999998
 21
1105.0436
  0
LINE
  8
_0-0_LAYER001
  6
CONTINUOUS
 62
    4
 10
2078.6057999999998
 20
1105.0436
 11
2084.0614999999998
 21
1103.2881
  0
LINE
  8
_0-0_LAYER001
  6
CONTINUOUS
 62
    4
 10
2084.0614999999998
 20
1103.2881
 11
2089.5965000000001
 21
1101.7873999999999
  0
LINE
  8
_0-0_LAYER001
  6
CONTINUOUS
 62
    4
 10
2089.5965000000001
 20
1101.7873999999999
 11
2095.1948000000002
 21
1100.5494000000001
  0
LINE
  8
_0-0_LAYER001
  6
CONTINUOUS
 62
    4
 10
2095.1948000000002
 20
1100.5494000000001
 11
2100.8404999999998
 21
1099.5821000000001
  0
LINE
  8
_0-0_LAYER001
  6
CONTINUOUS
 62
    4
 10
2100.8404999999998
 20
1099.5821000000001
 11
2104.1305000000002
 21
1099.1484
  0
LINE
  8
_0-0_LAYER001
  6
CONTINUOUS
 62
    4
 10
2104.1305000000002
 20
1099.1484
 11
2106.6498000000001
 21
1098.8806
  0
LINE
  8
_0-0_LAYER001
  6
CONTINUOUS
 62
    4
 10
2106.6498000000001
 20
1098.8806
 11
2111.0019000000002
 21
1098.5405000000001
  0
LINE
  8
_0-0_LAYER001
  6
CONTINUOUS
 62
    4
 10
2111.0019000000002
 20
1098.5405000000001
 11
2115.3620999999998
 21
1098.3411000000001
  0
LINE
  8
_0-0_LAYER001
  6
CONTINUOUS
 62
    4
 10
2115.3620999999998
 20
1098.3411000000001
 11
2119.7273
 21
1098.2664
  0
LINE
  8
_0-0_LAYER001
  6
CONTINUOUS
 62
    4
 10
2119.7273
 20
1098.2664
 11
2124.0944
 21
1098.3008
  0
LINE
  8
_0-0_LAYER001
  6
CONTINUOUS
 62
    4
 10
2124.0944
 20
1098.3008
 11
2128.4603000000002
 21
1098.4284
  0
LINE
  8
_0-0_LAYER001
  6
CONTINUOUS
 62
    4
 10
2128.4603000000002
 20
1098.4284
 11
2130.9908
 21
1098.5389
  0
LINE
  8
_0-0_LAYER001
  6
CONTINUOUS
 62
    4
 10
2130.9908
 20
1098.5389
 11
2135.7197999999999
 21
1098.8071
  0
LINE
  8
_0-0_LAYER001
  6
CONTINUOUS
 62
    4
 10
2135.7197999999999
 20
1098.8071
 11
2142.7242999999999
 21
1099.3502000000001
  0
LINE
  8
_0-0_LAYER001
  6
CONTINUOUS
 62
    4
 10
1961.7523999999999
 20
1115.9127000000001
 11
1963.8143
 21
1116.6895999999999
  0
LINE
  8
_0-0_LAYER001
  6
CONTINUOUS
 62
    4
 10
1963.8143
 20
1116.6895999999999
 11
1967.3818000000001
 21
1118.0361
  0
LINE
  8
_0-0_LAYER001
  6
CONTINUOUS
 62
    4
 10
1967.3818000000001
 20
1118.0361
 11
1970.9737
 21
1119.3983000000001
  0
LINE
  8
_0-0_LAYER001
  6
CONTINUOUS
 62
    4
 10
1970.9737
 20
1119.3983000000001
 11
1974.5940999999998
 21
1120.7820999999999
  0
LINE
  8
_0-0_LAYER001
  6
CONTINUOUS
 62
    4
 10
1974.5940999999998
 20
1120.7820999999999
 11
1978.2471
 21
1122.1932999999999
  0
LINE
  8
_0-0_LAYER001
  6
CONTINUOUS
 62
    4
 10
1978.2471
 20
1122.1932999999999
 11
1981.9263000000001
 21
1123.6337000000001
  0
LINE
  8
_0-0_LAYER001
  6
CONTINUOUS
 62
    4
 10
1981.9263000000001
 20
1123.6337000000001
 11
1984.0814999999998
 21
1124.4876999999999
  0
LINE
  8
_0-0_LAYER001
  6
CONTINUOUS
 62
    4
 10
1984.0814999999998
 20
1124.4876999999999
 11
1986.1051000000002
 21
1125.2944
  0
LINE
  8
_0-0_LAYER001
  6
CONTINUOUS
 62
    4
 10
1986.1051000000002
 20
1125.2944
 11
1989.3769000000002
 21
1126.5658000000001
  0
LINE
  8
_0-0_LAYER001
  6
CONTINUOUS
 62
    4
 10
1989.3769000000002
 20
1126.5658000000001
 11
1992.2721000000001
 21
1127.5880999999999
  0
LINE
  8
_0-0_LAYER001
  6
CONTINUOUS
 62
    4
 10
1992.2721000000001
 20
1127.5880999999999
 11
1994.7402000000002
 21
1128.3077000000001
  0
LINE
  8
_0-0_LAYER001
  6
CONTINUOUS
 62
    4
 10
1994.7402000000002
 20
1128.3077000000001
 11
1996.7319000000002
 21
1128.7152000000001
  0
LINE
  8
_0-0_LAYER001
  6
CONTINUOUS
 62
    4
 10
1996.7319000000002
 20
1128.7152000000001
 11
1998.5111999999999
 21
1128.8797
  0
LINE
  8
_0-0_LAYER001
  6
CONTINUOUS
 62
    4
 10
1998.5111999999999
 20
1128.8797
 11
1999.1907999999999
 21
1128.8708999999999
  0
LINE
  8
_0-0_LAYER001
  6
CONTINUOUS
 62
    4
 10
1999.1907999999999
 20
1128.8708999999999
 11
1999.1147000000001
 21
1128.8764000000001
  0
LINE
  8
_0-0_LAYER001
  6
CONTINUOUS
 62
    4
 10
1999.1147000000001
 20
1128.8764000000001
 11
1999.7283000000002
 21
1128.8049000000001
  0
LINE
  8
_0-0_LAYER001
  6
CONTINUOUS
 62
    4
 10
1999.7283000000002
 20
1128.8049000000001
 11
2000.3186999999998
 21
1128.7052000000001
  0
LINE
  8
_0-0_LAYER001
  6
CONTINUOUS
 62
    4
 10
2000.3186999999998
 20
1128.7052000000001
 11
2000.9861000000001
 21
1128.5600999999999
  0
LINE
  8
_0-0_LAYER001
  6
CONTINUOUS
 62
    4
 10
2000.9861000000001
 20
1128.5600999999999
 11
2001.7197000000001
 21
1128.3676
  0
LINE
  8
_0-0_LAYER001
  6
CONTINUOUS
 62
    4
 10
2001.7197000000001
 20
1128.3676
 11
2002.5689000000002
 21
1128.1090999999999
  0
LINE
  8
_0-0_LAYER001
  6
CONTINUOUS
 62
    4
 10
2002.5689000000002
 20
1128.1090999999999
 11
2002.8130000000001
 21
1128.0272
  0
LINE
  8
_0-0_LAYER001
  6
CONTINUOUS
 62
    4
 10
2002.8130000000001
 20
1128.0272
 11
2004.3728999999998
 21
1127.4351999999999
  0
LINE
  8
_0-0_LAYER001
  6
CONTINUOUS
 62
    4
 10
2004.3728999999998
 20
1127.4351999999999
 11
2007.3206
 21
1126.0646999999999
  0
LINE
  8
_0-0_LAYER001
  6
CONTINUOUS
 62
    4
 10
2007.3206
 20
1126.0646999999999
 11
2010.2815999999998
 21
1124.4041
  0
LINE
  8
_0-0_LAYER001
  6
CONTINUOUS
 62
    4
 10
2010.2815999999998
 20
1124.4041
 11
2013.4493000000002
 21
1122.3828000000001
  0
LINE
  8
_0-0_LAYER001
  6
CONTINUOUS
 62
    4
 10
2013.4493000000002
 20
1122.3828000000001
 11
2016.8339999999998
 21
1120.0379
  0
LINE
  8
_0-0_LAYER001
  6
CONTINUOUS
 62
    4
 10
2016.8339999999998
 20
1120.0379
 11
2020.4398000000001
 21
1117.4354000000001
  0
LINE
  8
_0-0_LAYER001
  6
CONTINUOUS
 62
    4
 10
2020.4398000000001
 20
1117.4354000000001
 11
2022.6466999999998
 21
1115.8330000000001
  0
LINE
  8
_0-0_LAYER001
  6
CONTINUOUS
 62
    4
 10
2022.6466999999998
 20
1115.8330000000001
 11
2026.1367
 21
1113.3326
  0
LINE
  8
_0-0_LAYER001
  6
CONTINUOUS
 62
    4
 10
2026.1367
 20
1113.3326
 11
2032.2289000000001
 21
1109.1077
  0
LINE
  8
_0-0_LAYER001
  6
CONTINUOUS
 62
    4
 10
2032.2289000000001
 20
1109.1077
 11
2038.5326
 21
1104.9675999999999
  0
LINE
  8
_0-0_LAYER001
  6
CONTINUOUS
 62
    4
 10
2038.5326
 20
1104.9675999999999
 11
2045.0533
 21
1100.9788000000001
  0
LINE
  8
_0-0_LAYER001
  6
CONTINUOUS
 62
    4
 10
2045.0533
 20
1100.9788000000001
 11
2051.8193000000001
 21
1097.1948
  0
LINE
  8
_0-0_LAYER001
  6
CONTINUOUS
 62
    4
 10
2051.8193000000001
 20
1097.1948
 11
2058.7622999999999
 21
1093.7203
  0
LINE
  8
_0-0_LAYER001
  6
CONTINUOUS
 62
    4
 10
2058.7622999999999
 20
1093.7203
 11
2063.0356999999999
 21
1091.7959000000001
  0
LINE
  8
_0-0_LAYER001
  6
CONTINUOUS
 62
    4
 10
2063.0356999999999
 20
1091.7959000000001
 11
2066.6408000000001
 21
1090.298
  0
LINE
  8
_0-0_LAYER001
  6
CONTINUOUS
 62
    4
 10
2066.6408000000001
 20
1090.298
 11
2072.6968999999999
 21
1088.0360000000001
  0
LINE
  8
_0-0_LAYER001
  6
CONTINUOUS
 62
    4
 10
2072.6968999999999
 20
1088.0360000000001
 11
2078.9468000000002
 21
1086.0250000000001
  0
LINE
  8
_0-0_LAYER001
  6
CONTINUOUS
 62
    4
 10
2078.9468000000002
 20
1086.0250000000001
 11
2085.2955000000002
 21
1084.3036
  0
LINE
  8
_0-0_LAYER001
  6
CONTINUOUS
 62
    4
 10
2085.2955000000002
 20
1084.3036
 11
2091.7298000000001
 21
1082.8806999999999
  0
LINE
  8
_0-0_LAYER001
  6
CONTINUOUS
 62
    4
 10
2091.7298000000001
 20
1082.8806999999999
 11
2098.1435000000001
 21
1081.7819999999999
  0
LINE
  8
_0-0_LAYER001
  6
CONTINUOUS
 62
    4
 10
2098.1435000000001
 20
1081.7819999999999
 11
2102.0023000000001
 21
1081.2732000000001
  0
LINE
  8
_0-0_LAYER001
  6
CONTINUOUS
 62
    4
 10
2102.0023000000001
 20
1081.2732000000001
 11
2104.9969000000001
 21
1080.9548
  0
LINE
  8
_0-0_LAYER001
  6
CONTINUOUS
 62
    4
 10
2104.9969000000001
 20
1080.9548
 11
2109.8892999999998
 21
1080.5726
  0
LINE
  8
_0-0_LAYER001
  6
CONTINUOUS
 62
    4
 10
2109.8892999999998
 20
1080.5726
 11
2114.7968999999998
 21
1080.3480999999999
  0
LINE
  8
_0-0_LAYER001
  6
CONTINUOUS
 62
    4
 10
2114.7968999999998
 20
1080.3480999999999
 11
2119.6442000000002
 21
1080.2652
  0
LINE
  8
_0-0_LAYER001
  6
CONTINUOUS
 62
    4
 10
2119.6442000000002
 20
1080.2652
 11
2124.4281000000001
 21
1080.3028999999999
  0
LINE
  8
_0-0_LAYER001
  6
CONTINUOUS
 62
    4
 10
2124.4281000000001
 20
1080.3028999999999
 11
2129.1158
 21
1080.4399000000001
  0
LINE
  8
_0-0_LAYER001
  6
CONTINUOUS
 62
    4
 10
2129.1158
 20
1080.4399000000001
 11
2131.893
 21
1080.5610999999999
  0
LINE
  8
_0-0_LAYER001
  6
CONTINUOUS
 62
    4
 10
2131.893
 20
1080.5610999999999
 11
2136.9252999999999
 21
1080.8465000000001
  0
LINE
  8
_0-0_LAYER001
  6
CONTINUOUS
 62
    4
 10
2136.9252999999999
 20
1080.8465000000001
 11
2142.7242999999999
 21
1081.2961
  0
LINE
  8
_0-0_LAYER001
  6
CONTINUOUS
 62
    4
 10
1956.2235000000001
 20
1133.0627999999999
 11
1956.6495
 21
1133.2258999999999
  0
ARC
  8
_0-0_LAYER001
  6
CONTINUOUS
 62
    4
 10
1957.2961
 20
1130.2610999999999
 40
3
 50
110.94902000000002
 51
178.70000000000002
  0
LINE
  8
_0-0_LAYER001
  6
CONTINUOUS
 62
    4
 10
1954.1876000000002
 20
1114.4901
 11
1954.1876000000002
 21
1130.2126000000001
  0
LINE
  8
_0-0_LAYER001
  6
CONTINUOUS
 62
    4
 10
1955.5416
 20
1113.5547999999999
 11
1961.7163999999998
 21
1115.8920000000001
  0
ARC
  8
_0-0_LAYER001
  6
CONTINUOUS
 62
    4
 10
1955.1876000000002
 20
1114.4901
 40
1
 50
180
 51
290.73165999999998
  0
LINE
  8
_0-0_LAYER001
  6
CONTINUOUS
 62
    4
 10
1814.6378
 20
1049.5128999999999
 11
1806.1023
 21
1064.0462
  0
LINE
  8
_0-0_LAYER001
  6
CONTINUOUS
 62
    4
 10
1822.8056999999999
 20
1048.8625999999999
 11
1831.1118999999999
 21
1058.9280000000001
  0
ARC
  8
_0-0_LAYER001
  6
CONTINUOUS
 62
    4
 10
1818.9492
 20
1052.0450000000001
 40
5
 50
210.42578
 51
320.47001
  0
LINE
  8
_0-0_LAYER001
  6
CONTINUOUS
 62
    4
 10
1898.7512999999999
 20
1048.3927000000001
 11
1891.4259000000002
 21
1059.6986999999999
  0
LINE
  8
_0-0_LAYER001
  6
CONTINUOUS
 62
    4
 10
1907.2608
 20
1048.5826
 11
1916.1993000000002
 21
1063.8282999999999
  0
ARC
  8
_0-0_LAYER001
  6
CONTINUOUS
 62
    4
 10
1902.9475000000002
 20
1051.1115
 40
5
 50
212.93986000000001
 51
329.61716000000001
  0
LINE
  8
_0-0_LAYER001
  6
CONTINUOUS
 62
    4
 10
1946.5428999999999
 20
1088.1403
 11
1948.971
 21
1088.5441000000001
  0
LINE
  8
_0-0_LAYER001
  6
CONTINUOUS
 62
    4
 10
1942.3537999999999
 20
1087.444
 11
1946.5428999999999
 21
1088.1403
  0
LINE
  8
_0-0_LAYER001
  6
CONTINUOUS
 62
    4
 10
1938.1599999999999
 20
1086.7483999999999
 11
1942.3537999999999
 21
1087.444
  0
LINE
  8
_0-0_LAYER001
  6
CONTINUOUS
 62
    4
 10
1933.9612999999999
 20
1086.0545
 11
1938.1599999999999
 21
1086.7483999999999
  0
LINE
  8
_0-0_LAYER001
  6
CONTINUOUS
 62
    4
 10
1929.7572
 20
1085.3630000000001
 11
1933.9612999999999
 21
1086.0545
  0
LINE
  8
_0-0_LAYER001
  6
CONTINUOUS
 62
    4
 10
1925.5504000000001
 20
1084.6753000000001
 11
1929.7572
 21
1085.3630000000001
  0
LINE
  8
_0-0_LAYER001
  6
CONTINUOUS
 62
    4
 10
1923.0981000000002
 20
1084.2768000000001
 11
1925.5504000000001
 21
1084.6753000000001
  0
LINE
  8
_0-0_LAYER001
  6
CONTINUOUS
 62
    4
 10
1918.3652999999999
 20
1083.5144
 11
1923.0981000000002
 21
1084.2768000000001
  0
LINE
  8
_0-0_LAYER001
  6
CONTINUOUS
 62
    4
 10
1910.1608999999999
 20
1082.2304999999999
 11
1918.3652999999999
 21
1083.5144
  0
LINE
  8
_0-0_LAYER001
  6
CONTINUOUS
 62
    4
 10
1901.8534
 20
1081.0107
 11
1910.1608999999999
 21
1082.2304999999999
  0
LINE
  8
_0-0_LAYER001
  6
CONTINUOUS
 62
    4
 10
1893.4450999999999
 20
1079.8942999999999
 11
1901.8534
 21
1081.0107
  0
LINE
  8
_0-0_LAYER001
  6
CONTINUOUS
 62
    4
 10
1884.9326000000001
 20
1078.9209000000001
 11
1893.4450999999999
 21
1079.8942999999999
  0
LINE
  8
_0-0_LAYER001
  6
CONTINUOUS
 62
    4
 10
1876.3733999999999
 20
1078.1369
 11
1884.9326000000001
 21
1078.9209000000001
  0
LINE
  8
_0-0_LAYER001
  6
CONTINUOUS
 62
    4
 10
1871.3119000000002
 20
1077.7789
 11
1876.3733999999999
 21
1078.1369
  0
LINE
  8
_0-0_LAYER001
  6
CONTINUOUS
 62
    4
 10
1868.5093000000002
 20
1077.6172999999999
 11
1871.3119000000002
 21
1077.7789
  0
LINE
  8
_0-0_LAYER001
  6
CONTINUOUS
 62
    4
 10
1863.7883000000002
 20
1077.4133999999999
 11
1868.5093000000002
 21
1077.6172999999999
  0
LINE
  8
_0-0_LAYER001
  6
CONTINUOUS
 62
    4
 10
1858.9589999999998
 20
1077.3079
 11
1863.7883000000002
 21
1077.4133999999999
  0
LINE
  8
_0-0_LAYER001
  6
CONTINUOUS
 62
    4
 10
1854.0574000000001
 20
1077.3233
 11
1858.9589999999998
 21
1077.3079
  0
LINE
  8
_0-0_LAYER001
  6
CONTINUOUS
 62
    4
 10
1849.0864000000001
 20
1077.4811
 11
1854.0574000000001
 21
1077.3233
  0
LINE
  8
_0-0_LAYER001
  6
CONTINUOUS
 62
    4
 10
1844.1289999999999
 20
1077.7989
 11
1849.0864000000001
 21
1077.4811
  0
LINE
  8
_0-0_LAYER001
  6
CONTINUOUS
 62
    4
 10
1841.0774000000001
 20
1078.0803000000001
 11
1844.1289999999999
 21
1077.7989
  0
LINE
  8
_0-0_LAYER001
  6
CONTINUOUS
 62
    4
 10
1837.1484999999998
 20
1078.5426
 11
1841.0774000000001
 21
1078.0803000000001
  0
LINE
  8
_0-0_LAYER001
  6
CONTINUOUS
 62
    4
 10
1830.6345999999999
 20
1079.5651
 11
1837.1484999999998
 21
1078.5426
  0
LINE
  8
_0-0_LAYER001
  6
CONTINUOUS
 62
    4
 10
1824.0879
 20
1080.9173000000001
 11
1830.6345999999999
 21
1079.5651
  0
LINE
  8
_0-0_LAYER001
  6
CONTINUOUS
 62
    4
 10
1817.625
 20
1082.5731000000001
 11
1824.0879
 21
1080.9173000000001
  0
LINE
  8
_0-0_LAYER001
  6
CONTINUOUS
 62
    4
 10
1811.259
 20
1084.5237999999999
 11
1817.625
 21
1082.5731000000001
  0
LINE
  8
_0-0_LAYER001
  6
CONTINUOUS
 62
    4
 10
1805.0943000000002
 20
1086.7288000000001
 11
1811.259
 21
1084.5237999999999
  0
LINE
  8
_0-0_LAYER001
  6
CONTINUOUS
 62
    4
 10
1801.4076
 20
1088.2005999999999
 11
1805.0943000000002
 21
1086.7288000000001
  0
LINE
  8
_0-0_LAYER001
  6
CONTINUOUS
 62
    4
 10
1797.0434
 20
1090.0931
 11
1801.4076
 21
1088.2005999999999
  0
LINE
  8
_0-0_LAYER001
  6
CONTINUOUS
 62
    4
 10
1789.9742999999999
 20
1093.5081
 11
1797.0434
 21
1090.0931
  0
LINE
  8
_0-0_LAYER001
  6
CONTINUOUS
 62
    4
 10
1783.0814
 20
1097.2376999999999
 11
1789.9742999999999
 21
1093.5081
  0
LINE
  8
_0-0_LAYER001
  6
CONTINUOUS
 62
    4
 10
1776.4443999999999
 20
1101.1713
 11
1783.0814
 21
1097.2376999999999
  0
LINE
  8
_0-0_LAYER001
  6
CONTINUOUS
 62
    4
 10
1770.0351000000001
 20
1105.2538
 11
1776.4443999999999
 21
1101.1713
  0
LINE
  8
_0-0_LAYER001
  6
CONTINUOUS
 62
    4
 10
1763.8508999999999
 20
1109.4159
 11
1770.0351000000001
 21
1105.2538
  0
LINE
  8
_0-0_LAYER001
  6
CONTINUOUS
 62
    4
 10
1760.3085000000001
 20
1111.8796
 11
1763.8508999999999
 21
1109.4159
  0
LINE
  8
_0-0_LAYER001
  6
CONTINUOUS
 62
    4
 10
1758.0765000000001
 20
1113.4530999999999
 11
1760.3085000000001
 21
1111.8796
  0
LINE
  8
_0-0_LAYER001
  6
CONTINUOUS
 62
    4
 10
1754.453
 20
1115.9922999999999
 11
1758.0765000000001
 21
1113.4530999999999
  0
LINE
  8
_0-0_LAYER001
  6
CONTINUOUS
 62
    4
 10
1751.0832999999998
 20
1118.2578000000001
 11
1754.453
 21
1115.9922999999999
  0
LINE
  8
_0-0_LAYER001
  6
CONTINUOUS
 62
    4
 10
1747.9683
 20
1120.1849
 11
1751.0832999999998
 21
1118.2578000000001
  0
LINE
  8
_0-0_LAYER001
  6
CONTINUOUS
 62
    4
 10
1745.1010999999999
 20
1121.7406000000001
 11
1747.9683
 21
1120.1849
  0
LINE
  8
_0-0_LAYER001
  6
CONTINUOUS
 62
    4
 10
1742.27
 20
1123.0091
 11
1745.1010999999999
 21
1121.7406000000001
  0
LINE
  8
_0-0_LAYER001
  6
CONTINUOUS
 62
    4
 10
1740.8067999999998
 20
1123.5411999999999
 11
1742.27
 21
1123.0091
  0
LINE
  8
_0-0_LAYER001
  6
CONTINUOUS
 62
    4
 10
1740.6257000000001
 20
1123.5990999999999
 11
1740.8067999999998
 21
1123.5411999999999
  0
LINE
  8
_0-0_LAYER001
  6
CONTINUOUS
 62
    4
 10
1739.8373999999999
 20
1123.8271
 11
1740.6257000000001
 21
1123.5990999999999
  0
LINE
  8
_0-0_LAYER001
  6
CONTINUOUS
 62
    4
 10
1739.1803
 20
1123.9898000000001
 11
1739.8373999999999
 21
1123.8271
  0
LINE
  8
_0-0_LAYER001
  6
CONTINUOUS
 62
    4
 10
1738.5985000000001
 20
1124.1078
 11
1739.1803
 21
1123.9898000000001
  0
LINE
  8
_0-0_LAYER001
  6
CONTINUOUS
 62
    4
 10
1738.5583999999999
 20
1124.114
 11
1738.5985000000001
 21
1124.1078
  0
LINE
  8
_0-0_LAYER001
  6
CONTINUOUS
 62
    4
 10
1942.5322999999999
 20
1068.9528
 11
1944.1464000000001
 21
1069.2212999999999
  0
LINE
  8
_0-0_LAYER001
  6
CONTINUOUS
 62
    4
 10
1938.3436999999999
 20
1068.2565999999999
 11
1942.5322999999999
 21
1068.9528
  0
LINE
  8
_0-0_LAYER001
  6
CONTINUOUS
 62
    4
 10
1934.1507999999999
 20
1067.5612000000001
 11
1938.3436999999999
 21
1068.2565999999999
  0
LINE
  8
_0-0_LAYER001
  6
CONTINUOUS
 62
    4
 10
1929.9533000000001
 20
1066.8674000000001
 11
1934.1507999999999
 21
1067.5612000000001
  0
LINE
  8
_0-0_LAYER001
  6
CONTINUOUS
 62
    4
 10
1925.7510000000002
 20
1066.1762000000001
 11
1929.9533000000001
 21
1066.8674000000001
  0
LINE
  8
_0-0_LAYER001
  6
CONTINUOUS
 62
    4
 10
1921.5461
 20
1065.4889000000001
 11
1925.7510000000002
 21
1066.1762000000001
  0
LINE
  8
_0-0_LAYER001
  6
CONTINUOUS
 62
    4
 10
1919.0961000000002
 20
1065.0907999999999
 11
1921.5461
 21
1065.4889000000001
  0
LINE
  8
_0-0_LAYER001
  6
CONTINUOUS
 62
    4
 10
1914.3690999999999
 20
1064.3291999999999
 11
1919.0961000000002
 21
1065.0907999999999
  0
LINE
  8
_0-0_LAYER001
  6
CONTINUOUS
 62
    4
 10
1906.1783999999998
 20
1063.0474999999999
 11
1914.3690999999999
 21
1064.3291999999999
  0
LINE
  8
_0-0_LAYER001
  6
CONTINUOUS
 62
    4
 10
1897.8939
 20
1061.8311000000001
 11
1906.1783999999998
 21
1063.0474999999999
  0
LINE
  8
_0-0_LAYER001
  6
CONTINUOUS
 62
    4
 10
1889.5173
 20
1060.7189000000001
 11
1897.8939
 21
1061.8311000000001
  0
LINE
  8
_0-0_LAYER001
  6
CONTINUOUS
 62
    4
 10
1881.0450999999998
 20
1059.7501
 11
1889.5173
 21
1060.7189000000001
  0
LINE
  8
_0-0_LAYER001
  6
CONTINUOUS
 62
    4
 10
1872.529
 20
1058.9701
 11
1881.0450999999998
 21
1059.7501
  0
LINE
  8
_0-0_LAYER001
  6
CONTINUOUS
 62
    4
 10
1867.5012000000002
 20
1058.6143999999999
 11
1872.529
 21
1058.9701
  0
LINE
  8
_0-0_LAYER001
  6
CONTINUOUS
 62
    4
 10
1864.7260000000001
 20
1058.4544000000001
 11
1867.5012000000002
 21
1058.6143999999999
  0
LINE
  8
_0-0_LAYER001
  6
CONTINUOUS
 62
    4
 10
1860.0407
 20
1058.252
 11
1864.7260000000001
 21
1058.4544000000001
  0
LINE
  8
_0-0_LAYER001
  6
CONTINUOUS
 62
    4
 10
1855.2577999999999
 20
1058.1476
 11
1860.0407
 21
1058.252
  0
LINE
  8
_0-0_LAYER001
  6
CONTINUOUS
 62
    4
 10
1850.4097000000002
 20
1058.1628000000001
 11
1855.2577999999999
 21
1058.1476
  0
LINE
  8
_0-0_LAYER001
  6
CONTINUOUS
 62
    4
 10
1845.4994999999999
 20
1058.3187
 11
1850.4097000000002
 21
1058.1628000000001
  0
LINE
  8
_0-0_LAYER001
  6
CONTINUOUS
 62
    4
 10
1840.6021999999998
 20
1058.6325999999999
 11
1845.4994999999999
 21
1058.3187
  0
LINE
  8
_0-0_LAYER001
  6
CONTINUOUS
 62
    4
 10
1837.6035000000002
 20
1058.9092000000001
 11
1840.6021999999998
 21
1058.6325999999999
  0
LINE
  8
_0-0_LAYER001
  6
CONTINUOUS
 62
    4
 10
1833.7379000000001
 20
1059.364
 11
1837.6035000000002
 21
1058.9092000000001
  0
LINE
  8
_0-0_LAYER001
  6
CONTINUOUS
 62
    4
 10
1827.3094999999998
 20
1060.3731
 11
1833.7379000000001
 21
1059.364
  0
LINE
  8
_0-0_LAYER001
  6
CONTINUOUS
 62
    4
 10
1820.8561
 20
1061.7059999999999
 11
1827.3094999999998
 21
1060.3731
  0
LINE
  8
_0-0_LAYER001
  6
CONTINUOUS
 62
    4
 10
1814.4839000000002
 20
1063.3386
 11
1820.8561
 21
1061.7059999999999
  0
LINE
  8
_0-0_LAYER001
  6
CONTINUOUS
 62
    4
 10
1808.2066
 20
1065.2620999999999
 11
1814.4839000000002
 21
1063.3386
  0
LINE
  8
_0-0_LAYER001
  6
CONTINUOUS
 62
    4
 10
1802.1194999999998
 20
1067.4393
 11
1808.2066
 21
1065.2620999999999
  0
LINE
  8
_0-0_LAYER001
  6
CONTINUOUS
 62
    4
 10
1798.4938000000002
 20
1068.8867
 11
1802.1194999999998
 21
1067.4393
  0
LINE
  8
_0-0_LAYER001
  6
CONTINUOUS
 62
    4
 10
1794.194
 20
1070.7512999999999
 11
1798.4938000000002
 21
1068.8867
  0
LINE
  8
_0-0_LAYER001
  6
CONTINUOUS
 62
    4
 10
1787.2031000000002
 20
1074.1285
 11
1794.194
 21
1070.7512999999999
  0
LINE
  8
_0-0_LAYER001
  6
CONTINUOUS
 62
    4
 10
1780.3850000000002
 20
1077.8177000000001
 11
1787.2031000000002
 21
1074.1285
  0
LINE
  8
_0-0_LAYER001
  6
CONTINUOUS
 62
    4
 10
1773.8092000000001
 20
1081.7150999999999
 11
1780.3850000000002
 21
1077.8177000000001
  0
LINE
  8
_0-0_LAYER001
  6
CONTINUOUS
 62
    4
 10
1767.4483
 20
1085.7666999999999
 11
1773.8092000000001
 21
1081.7150999999999
  0
LINE
  8
_0-0_LAYER001
  6
CONTINUOUS
 62
    4
 10
1761.2977000000001
 20
1089.9061999999999
 11
1767.4483
 21
1085.7666999999999
  0
LINE
  8
_0-0_LAYER001
  6
CONTINUOUS
 62
    4
 10
1757.7730999999999
 20
1092.3575000000001
 11
1761.2977000000001
 21
1089.9061999999999
  0
LINE
  8
_0-0_LAYER001
  6
CONTINUOUS
 62
    4
 10
1755.5439999999999
 20
1093.9290000000001
 11
1757.7730999999999
 21
1092.3575000000001
  0
LINE
  8
_0-0_LAYER001
  6
CONTINUOUS
 62
    4
 10
1751.9023000000002
 20
1096.4809
 11
1755.5439999999999
 21
1093.9290000000001
  0
LINE
  8
_0-0_LAYER001
  6
CONTINUOUS
 62
    4
 10
1748.4852000000001
 20
1098.7782999999999
 11
1751.9023000000002
 21
1096.4809
  0
LINE
  8
_0-0_LAYER001
  6
CONTINUOUS
 62
    4
 10
1745.2896000000001
 20
1100.7552000000001
 11
1748.4852000000001
 21
1098.7782999999999
  0
LINE
  8
_0-0_LAYER001
  6
CONTINUOUS
 62
    4
 10
1742.3056000000001
 20
1102.3742999999999
 11
1745.2896000000001
 21
1100.7552000000001
  0
LINE
  8
_0-0_LAYER001
  6
CONTINUOUS
 62
    4
 10
1739.3389999999999
 20
1103.7035000000001
 11
1742.3056000000001
 21
1102.3742999999999
  0
LINE
  8
_0-0_LAYER001
  6
CONTINUOUS
 62
    4
 10
1738.5891000000001
 20
1103.9762000000001
 11
1739.3389999999999
 21
1103.7035000000001
  0
LINE
  8
_0-0_LAYER001
  6
CONTINUOUS
 62
    4
 10
1738.9222
 20
1124.0192999999999
 11
1738.7460999999998
 21
1103.8459
  0
LINE
  8
_0-0_LAYER001
  6
CONTINUOUS
 62
    4
 10
1939.2478000000001
 20
1058.5315000000001
 11
1937.0023999999999
 21
1067.105
  0
ARC
  8
_0-0_LAYER001
  6
CONTINUOUS
 62
    4
 10
1942.1498999999999
 20
1059.2916
 40
3
 50
194.67639000000003
 51
270.00000000000006
  0
LINE
  8
_0-0_LAYER001
  6
CONTINUOUS
 62
    4
 10
1945.5924
 20
1056.2873
 11
1942.1745999999998
 21
1056.2873
  0
LINE
  8
_0-0_LAYER001
  6
CONTINUOUS
 62
    4
 10
1948.5515999999998
 20
1058.7941000000001
 11
1950.4856
 21
1070.3983000000001
  0
ARC
  8
_0-0_LAYER001
  6
CONTINUOUS
 62
    4
 10
1945.5924
 20
1059.2873
 40
3
 50
270
 51
350.53766999999999
  0
LINE
  8
_0-0_LAYER001
  6
CONTINUOUS
 62
    4
 10
1691.826
 20
1133.4095
 11
1692.6399000000001
 21
1133.7162000000001
  0
LINE
  8
_0-0_LAYER001
  6
CONTINUOUS
 62
    4
 10
1692.6399000000001
 20
1133.7162000000001
 11
1696.1891999999998
 21
1135.0558000000001
  0
LINE
  8
_0-0_LAYER001
  6
CONTINUOUS
 62
    4
 10
1696.1891999999998
 20
1135.0558000000001
 11
1699.7458000000001
 21
1136.4046000000001
  0
LINE
  8
_0-0_LAYER001
  6
CONTINUOUS
 62
    4
 10
1699.7458000000001
 20
1136.4046000000001
 11
1703.3144000000002
 21
1137.7687000000001
  0
LINE
  8
_0-0_LAYER001
  6
CONTINUOUS
 62
    4
 10
1703.3144000000002
 20
1137.7687000000001
 11
1706.8998000000001
 21
1139.1537000000001
  0
LINE
  8
_0-0_LAYER001
  6
CONTINUOUS
 62
    4
 10
1706.8998000000001
 20
1139.1537000000001
 11
1710.5065
 21
1140.5657000000001
  0
LINE
  8
_0-0_LAYER001
  6
CONTINUOUS
 62
    4
 10
1710.5065
 20
1140.5657000000001
 11
1712.6100000000001
 21
1141.3993
  0
LINE
  8
_0-0_LAYER001
  6
CONTINUOUS
 62
    4
 10
1712.6100000000001
 20
1141.3993
 11
1714.6894000000002
 21
1142.2282
  0
LINE
  8
_0-0_LAYER001
  6
CONTINUOUS
 62
    4
 10
1714.6894000000002
 20
1142.2282
 11
1718.2959000000001
 21
1143.6296
  0
LINE
  8
_0-0_LAYER001
  6
CONTINUOUS
 62
    4
 10
1718.2959000000001
 20
1143.6296
 11
1721.9286000000002
 21
1144.9123
  0
LINE
  8
_0-0_LAYER001
  6
CONTINUOUS
 62
    4
 10
1721.9286000000002
 20
1144.9123
 11
1725.5866000000001
 21
1145.979
  0
LINE
  8
_0-0_LAYER001
  6
CONTINUOUS
 62
    4
 10
1725.5866000000001
 20
1145.979
 11
1729.2687000000001
 21
1146.7321999999999
  0
LINE
  8
_0-0_LAYER001
  6
CONTINUOUS
 62
    4
 10
1729.2687000000001
 20
1146.7321999999999
 11
1732.9740000000002
 21
1147.0746999999999
  0
LINE
  8
_0-0_LAYER001
  6
CONTINUOUS
 62
    4
 10
1732.9740000000002
 20
1147.0746999999999
 11
1735.1333
 21
1147.0468000000001
  0
LINE
  8
_0-0_LAYER001
  6
CONTINUOUS
 62
    4
 10
1735.1333
 20
1147.0468000000001
 11
1735.9823999999999
 21
1146.9855
  0
LINE
  8
_0-0_LAYER001
  6
CONTINUOUS
 62
    4
 10
1735.9823999999999
 20
1146.9855
 11
1737.4468000000002
 21
1146.8149000000001
  0
LINE
  8
_0-0_LAYER001
  6
CONTINUOUS
 62
    4
 10
1737.4468000000002
 20
1146.8149000000001
 11
1738.9079000000002
 21
1146.5681999999999
  0
LINE
  8
_0-0_LAYER001
  6
CONTINUOUS
 62
    4
 10
1738.9079000000002
 20
1146.5681999999999
 11
1740.3615
 21
1146.2520999999999
  0
LINE
  8
_0-0_LAYER001
  6
CONTINUOUS
 62
    4
 10
1740.3615
 20
1146.2520999999999
 11
1741.8036999999999
 21
1145.8735999999999
  0
LINE
  8
_0-0_LAYER001
  6
CONTINUOUS
 62
    4
 10
1741.8036999999999
 20
1145.8735999999999
 11
1743.2301000000002
 21
1145.4395
  0
LINE
  8
_0-0_LAYER001
  6
CONTINUOUS
 62
    4
 10
1743.2301000000002
 20
1145.4395
 11
1744.0486000000001
 21
1145.1649
  0
LINE
  8
_0-0_LAYER001
  6
CONTINUOUS
 62
    4
 10
1744.0486000000001
 20
1145.1649
 11
1746.5468000000001
 21
1144.2166999999999
  0
LINE
  8
_0-0_LAYER001
  6
CONTINUOUS
 62
    4
 10
1746.5468000000001
 20
1144.2166999999999
 11
1750.7057
 21
1142.2831000000001
  0
LINE
  8
_0-0_LAYER001
  6
CONTINUOUS
 62
    4
 10
1750.7057
 20
1142.2831000000001
 11
1754.7096000000001
 21
1140.0377000000001
  0
LINE
  8
_0-0_LAYER001
  6
CONTINUOUS
 62
    4
 10
1754.7096000000001
 20
1140.0377000000001
 11
1758.5963999999999
 21
1137.5574999999999
  0
LINE
  8
_0-0_LAYER001
  6
CONTINUOUS
 62
    4
 10
1758.5963999999999
 20
1137.5574999999999
 11
1762.4043999999999
 21
1134.9193
  0
LINE
  8
_0-0_LAYER001
  6
CONTINUOUS
 62
    4
 10
1762.4043999999999
 20
1134.9193
 11
1766.1716999999999
 21
1132.2002
  0
LINE
  8
_0-0_LAYER001
  6
CONTINUOUS
 62
    4
 10
1766.1716999999999
 20
1132.2002
 11
1768.3530000000001
 21
1130.6164000000001
  0
LINE
  8
_0-0_LAYER001
  6
CONTINUOUS
 62
    4
 10
1768.3530000000001
 20
1130.6164000000001
 11
1771.6846
 21
1128.2295999999999
  0
LINE
  8
_0-0_LAYER001
  6
CONTINUOUS
 62
    4
 10
1771.6846
 20
1128.2295999999999
 11
1777.4767999999999
 21
1124.2126000000001
  0
LINE
  8
_0-0_LAYER001
  6
CONTINUOUS
 62
    4
 10
1777.4767999999999
 20
1124.2126000000001
 11
1783.3490000000002
 21
1120.356
  0
LINE
  8
_0-0_LAYER001
  6
CONTINUOUS
 62
    4
 10
1783.3490000000002
 20
1120.356
 11
1789.3231000000001
 21
1116.7016000000001
  0
LINE
  8
_0-0_LAYER001
  6
CONTINUOUS
 62
    4
 10
1789.3231000000001
 20
1116.7016000000001
 11
1795.4213
 21
1113.2909999999999
  0
LINE
  8
_0-0_LAYER001
  6
CONTINUOUS
 62
    4
 10
1795.4213
 20
1113.2909999999999
 11
1801.6655999999998
 21
1110.1661999999999
  0
LINE
  8
_0-0_LAYER001
  6
CONTINUOUS
 62
    4
 10
1801.6655999999998
 20
1110.1661999999999
 11
1805.3629000000001
 21
1108.5011999999999
  0
LINE
  8
_0-0_LAYER001
  6
CONTINUOUS
 62
    4
 10
1805.3629000000001
 20
1108.5011999999999
 11
1808.4220999999998
 21
1107.2301
  0
LINE
  8
_0-0_LAYER001
  6
CONTINUOUS
 62
    4
 10
1808.4220999999998
 20
1107.2301
 11
1813.7827000000002
 21
1105.2280000000001
  0
LINE
  8
_0-0_LAYER001
  6
CONTINUOUS
 62
    4
 10
1813.7827000000002
 20
1105.2280000000001
 11
1819.2384000000002
 21
1103.4725000000001
  0
LINE
  8
_0-0_LAYER001
  6
CONTINUOUS
 62
    4
 10
1819.2384000000002
 20
1103.4725000000001
 11
1824.7732999999998
 21
1101.9717000000001
  0
LINE
  8
_0-0_LAYER001
  6
CONTINUOUS
 62
    4
 10
1824.7732999999998
 20
1101.9717000000001
 11
1830.3717000000001
 21
1100.7337
  0
LINE
  8
_0-0_LAYER001
  6
CONTINUOUS
 62
    4
 10
1830.3717000000001
 20
1100.7337
 11
1836.0174000000002
 21
1099.7665
  0
LINE
  8
_0-0_LAYER001
  6
CONTINUOUS
 62
    4
 10
1836.0174000000002
 20
1099.7665
 11
1839.3072999999999
 21
1099.3327999999999
  0
LINE
  8
_0-0_LAYER001
  6
CONTINUOUS
 62
    4
 10
1839.3072999999999
 20
1099.3327999999999
 11
1841.8265999999999
 21
1099.0649000000001
  0
LINE
  8
_0-0_LAYER001
  6
CONTINUOUS
 62
    4
 10
1841.8265999999999
 20
1099.0649000000001
 11
1846.1786999999999
 21
1098.7248999999999
  0
LINE
  8
_0-0_LAYER001
  6
CONTINUOUS
 62
    4
 10
1846.1786999999999
 20
1098.7248999999999
 11
1850.5389
 21
1098.5254
  0
LINE
  8
_0-0_LAYER001
  6
CONTINUOUS
 62
    4
 10
1850.5389
 20
1098.5254
 11
1854.9041000000002
 21
1098.4508000000001
  0
LINE
  8
_0-0_LAYER001
  6
CONTINUOUS
 62
    4
 10
1854.9041000000002
 20
1098.4508000000001
 11
1859.2712999999999
 21
1098.4852000000001
  0
LINE
  8
_0-0_LAYER001
  6
CONTINUOUS
 62
    4
 10
1859.2712999999999
 20
1098.4852000000001
 11
1863.6372000000001
 21
1098.6126999999999
  0
LINE
  8
_0-0_LAYER001
  6
CONTINUOUS
 62
    4
 10
1863.6372000000001
 20
1098.6126999999999
 11
1866.1676000000002
 21
1098.7231999999999
  0
LINE
  8
_0-0_LAYER001
  6
CONTINUOUS
 62
    4
 10
1866.1676000000002
 20
1098.7231999999999
 11
1870.8966999999998
 21
1098.9914000000001
  0
LINE
  8
_0-0_LAYER001
  6
CONTINUOUS
 62
    4
 10
1870.8966999999998
 20
1098.9914000000001
 11
1879.0349000000001
 21
1099.6224
  0
LINE
  8
_0-0_LAYER001
  6
CONTINUOUS
 62
    4
 10
1879.0349000000001
 20
1099.6224
 11
1887.1556
 21
1100.4363000000001
  0
LINE
  8
_0-0_LAYER001
  6
CONTINUOUS
 62
    4
 10
1887.1556
 20
1100.4363000000001
 11
1895.2615000000001
 21
1101.3975
  0
LINE
  8
_0-0_LAYER001
  6
CONTINUOUS
 62
    4
 10
1895.2615000000001
 20
1101.3975
 11
1903.3548999999998
 21
1102.4707000000001
  0
LINE
  8
_0-0_LAYER001
  6
CONTINUOUS
 62
    4
 10
1903.3548999999998
 20
1102.4707000000001
 11
1911.4385000000002
 21
1103.6203
  0
LINE
  8
_0-0_LAYER001
  6
CONTINUOUS
 62
    4
 10
1911.4385000000002
 20
1103.6203
 11
1916.1233999999999
 21
1104.3081
  0
LINE
  8
_0-0_LAYER001
  6
CONTINUOUS
 62
    4
 10
1916.1233999999999
 20
1104.3081
 11
1918.5583000000001
 21
1104.6688999999999
  0
LINE
  8
_0-0_LAYER001
  6
CONTINUOUS
 62
    4
 10
1918.5583000000001
 20
1104.6688999999999
 11
1922.7552999999998
 21
1105.2949000000001
  0
LINE
  8
_0-0_LAYER001
  6
CONTINUOUS
 62
    4
 10
1922.7552999999998
 20
1105.2949000000001
 11
1926.951
 21
1105.925
  0
LINE
  8
_0-0_LAYER001
  6
CONTINUOUS
 62
    4
 10
1926.951
 20
1105.925
 11
1931.1459
 21
1106.5582999999999
  0
LINE
  8
_0-0_LAYER001
  6
CONTINUOUS
 62
    4
 10
1931.1459
 20
1106.5582999999999
 11
1935.3400000000001
 21
1107.1939
  0
LINE
  8
_0-0_LAYER001
  6
CONTINUOUS
 62
    4
 10
1935.3400000000001
 20
1107.1939
 11
1939.5338000000002
 21
1107.8308999999999
  0
LINE
  8
_0-0_LAYER001
  6
CONTINUOUS
 62
    4
 10
1939.5338000000002
 20
1107.8308999999999
 11
1941.9661000000001
 21
1108.2005999999999
  0
LINE
  8
_0-0_LAYER001
  6
CONTINUOUS
 62
    4
 10
1696.9292
 20
1116.097
 11
1698.9911000000002
 21
1116.8739
  0
LINE
  8
_0-0_LAYER001
  6
CONTINUOUS
 62
    4
 10
1698.9911000000002
 20
1116.8739
 11
1702.5587
 21
1118.2203999999999
  0
LINE
  8
_0-0_LAYER001
  6
CONTINUOUS
 62
    4
 10
1702.5587
 20
1118.2203999999999
 11
1706.1505999999999
 21
1119.5826999999999
  0
LINE
  8
_0-0_LAYER001
  6
CONTINUOUS
 62
    4
 10
1706.1505999999999
 20
1119.5826999999999
 11
1709.7710000000002
 21
1120.9665
  0
LINE
  8
_0-0_LAYER001
  6
CONTINUOUS
 62
    4
 10
1709.7710000000002
 20
1120.9665
 11
1713.424
 21
1122.3777
  0
LINE
  8
_0-0_LAYER001
  6
CONTINUOUS
 62
    4
 10
1713.424
 20
1122.3777
 11
1717.1030999999998
 21
1123.818
  0
LINE
  8
_0-0_LAYER001
  6
CONTINUOUS
 62
    4
 10
1717.1030999999998
 20
1123.818
 11
1719.2583
 21
1124.6721
  0
LINE
  8
_0-0_LAYER001
  6
CONTINUOUS
 62
    4
 10
1719.2583
 20
1124.6721
 11
1721.2819
 21
1125.4786999999999
  0
LINE
  8
_0-0_LAYER001
  6
CONTINUOUS
 62
    4
 10
1721.2819
 20
1125.4786999999999
 11
1724.5538000000001
 21
1126.7501
  0
LINE
  8
_0-0_LAYER001
  6
CONTINUOUS
 62
    4
 10
1724.5538000000001
 20
1126.7501
 11
1727.4488999999999
 21
1127.7724000000001
  0
LINE
  8
_0-0_LAYER001
  6
CONTINUOUS
 62
    4
 10
1727.4488999999999
 20
1127.7724000000001
 11
1729.9169999999999
 21
1128.4920999999999
  0
LINE
  8
_0-0_LAYER001
  6
CONTINUOUS
 62
    4
 10
1729.9169999999999
 20
1128.4920999999999
 11
1731.9088000000002
 21
1128.8995
  0
LINE
  8
_0-0_LAYER001
  6
CONTINUOUS
 62
    4
 10
1731.9088000000002
 20
1128.8995
 11
1733.6880999999998
 21
1129.0640000000001
  0
LINE
  8
_0-0_LAYER001
  6
CONTINUOUS
 62
    4
 10
1733.6880999999998
 20
1129.0640000000001
 11
1734.3676
 21
1129.0552
  0
LINE
  8
_0-0_LAYER001
  6
CONTINUOUS
 62
    4
 10
1734.3676
 20
1129.0552
 11
1734.2914999999998
 21
1129.0607
  0
LINE
  8
_0-0_LAYER001
  6
CONTINUOUS
 62
    4
 10
1734.2914999999998
 20
1129.0607
 11
1734.9052000000001
 21
1128.9892
  0
LINE
  8
_0-0_LAYER001
  6
CONTINUOUS
 62
    4
 10
1734.9052000000001
 20
1128.9892
 11
1735.4956000000002
 21
1128.8895
  0
LINE
  8
_0-0_LAYER001
  6
CONTINUOUS
 62
    4
 10
1735.4956000000002
 20
1128.8895
 11
1736.163
 21
1128.7444
  0
LINE
  8
_0-0_LAYER001
  6
CONTINUOUS
 62
    4
 10
1736.163
 20
1128.7444
 11
1736.8966
 21
1128.5518999999999
  0
LINE
  8
_0-0_LAYER001
  6
CONTINUOUS
 62
    4
 10
1736.8966
 20
1128.5518999999999
 11
1737.7456999999999
 21
1128.2935
  0
LINE
  8
_0-0_LAYER001
  6
CONTINUOUS
 62
    4
 10
1737.7456999999999
 20
1128.2935
 11
1737.9897999999998
 21
1128.2116000000001
  0
LINE
  8
_0-0_LAYER001
  6
CONTINUOUS
 62
    4
 10
1737.9897999999998
 20
1128.2116000000001
 11
1739.5497
 21
1127.6195
  0
LINE
  8
_0-0_LAYER001
  6
CONTINUOUS
 62
    4
 10
1739.5497
 20
1127.6195
 11
1742.4974000000002
 21
1126.2491
  0
LINE
  8
_0-0_LAYER001
  6
CONTINUOUS
 62
    4
 10
1742.4974000000002
 20
1126.2491
 11
1745.4585000000002
 21
1124.5885000000001
  0
LINE
  8
_0-0_LAYER001
  6
CONTINUOUS
 62
    4
 10
1745.4585000000002
 20
1124.5885000000001
 11
1748.6262000000002
 21
1122.5671
  0
LINE
  8
_0-0_LAYER001
  6
CONTINUOUS
 62
    4
 10
1748.6262000000002
 20
1122.5671
 11
1752.0109000000002
 21
1120.2221999999999
  0
LINE
  8
_0-0_LAYER001
  6
CONTINUOUS
 62
    4
 10
1752.0109000000002
 20
1120.2221999999999
 11
1755.6165999999998
 21
1117.6197
  0
LINE
  8
_0-0_LAYER001
  6
CONTINUOUS
 62
    4
 10
1755.6165999999998
 20
1117.6197
 11
1757.8236000000002
 21
1116.0173
  0
LINE
  8
_0-0_LAYER001
  6
CONTINUOUS
 62
    4
 10
1757.8236000000002
 20
1116.0173
 11
1761.3136
 21
1113.5170000000001
  0
LINE
  8
_0-0_LAYER001
  6
CONTINUOUS
 62
    4
 10
1761.3136
 20
1113.5170000000001
 11
1767.4056999999998
 21
1109.2919999999999
  0
LINE
  8
_0-0_LAYER001
  6
CONTINUOUS
 62
    4
 10
1767.4056999999998
 20
1109.2919999999999
 11
1773.7094999999999
 21
1105.152
  0
LINE
  8
_0-0_LAYER001
  6
CONTINUOUS
 62
    4
 10
1773.7094999999999
 20
1105.152
 11
1780.2302
 21
1101.1632
  0
LINE
  8
_0-0_LAYER001
  6
CONTINUOUS
 62
    4
 10
1780.2302
 20
1101.1632
 11
1786.9960999999998
 21
1097.3792000000001
  0
LINE
  8
_0-0_LAYER001
  6
CONTINUOUS
 62
    4
 10
1786.9960999999998
 20
1097.3792000000001
 11
1793.9391999999998
 21
1093.9047
  0
LINE
  8
_0-0_LAYER001
  6
CONTINUOUS
 62
    4
 10
1793.9391999999998
 20
1093.9047
 11
1798.2125999999998
 21
1091.9802
  0
LINE
  8
_0-0_LAYER001
  6
CONTINUOUS
 62
    4
 10
1798.2125999999998
 20
1091.9802
 11
1801.8177000000001
 21
1090.4822999999999
  0
LINE
  8
_0-0_LAYER001
  6
CONTINUOUS
 62
    4
 10
1801.8177000000001
 20
1090.4822999999999
 11
1807.8737999999998
 21
1088.2203999999999
  0
LINE
  8
_0-0_LAYER001
  6
CONTINUOUS
 62
    4
 10
1807.8737999999998
 20
1088.2203999999999
 11
1814.1235999999999
 21
1086.2094
  0
LINE
  8
_0-0_LAYER001
  6
CONTINUOUS
 62
    4
 10
1814.1235999999999
 20
1086.2094
 11
1820.4724000000001
 21
1084.4880000000001
  0
LINE
  8
_0-0_LAYER001
  6
CONTINUOUS
 62
    4
 10
1820.4724000000001
 20
1084.4880000000001
 11
1826.9065999999998
 21
1083.0651
  0
LINE
  8
_0-0_LAYER001
  6
CONTINUOUS
 62
    4
 10
1826.9065999999998
 20
1083.0651
 11
1833.3202999999999
 21
1081.9663
  0
LINE
  8
_0-0_LAYER001
  6
CONTINUOUS
 62
    4
 10
1833.3202999999999
 20
1081.9663
 11
1837.1790999999998
 21
1081.4576
  0
LINE
  8
_0-0_LAYER001
  6
CONTINUOUS
 62
    4
 10
1837.1790999999998
 20
1081.4576
 11
1840.1736999999998
 21
1081.1392000000001
  0
LINE
  8
_0-0_LAYER001
  6
CONTINUOUS
 62
    4
 10
1840.1736999999998
 20
1081.1392000000001
 11
1845.0662000000002
 21
1080.7569000000001
  0
LINE
  8
_0-0_LAYER001
  6
CONTINUOUS
 62
    4
 10
1845.0662000000002
 20
1080.7569000000001
 11
1849.9737
 21
1080.5325
  0
LINE
  8
_0-0_LAYER001
  6
CONTINUOUS
 62
    4
 10
1849.9737
 20
1080.5325
 11
1854.8211000000001
 21
1080.4495999999999
  0
LINE
  8
_0-0_LAYER001
  6
CONTINUOUS
 62
    4
 10
1854.8211000000001
 20
1080.4495999999999
 11
1859.605
 21
1080.4872
  0
LINE
  8
_0-0_LAYER001
  6
CONTINUOUS
 62
    4
 10
1859.605
 20
1080.4872
 11
1864.2927
 21
1080.6242
  0
LINE
  8
_0-0_LAYER001
  6
CONTINUOUS
 62
    4
 10
1864.2927
 20
1080.6242
 11
1867.0698000000002
 21
1080.7455
  0
LINE
  8
_0-0_LAYER001
  6
CONTINUOUS
 62
    4
 10
1867.0698000000002
 20
1080.7455
 11
1872.1021000000001
 21
1081.0308
  0
LINE
  8
_0-0_LAYER001
  6
CONTINUOUS
 62
    4
 10
1872.1021000000001
 20
1081.0308
 11
1880.6282999999999
 21
1081.6919
  0
LINE
  8
_0-0_LAYER001
  6
CONTINUOUS
 62
    4
 10
1880.6282999999999
 20
1081.6919
 11
1889.1131999999998
 21
1082.5423000000001
  0
LINE
  8
_0-0_LAYER001
  6
CONTINUOUS
 62
    4
 10
1889.1131999999998
 20
1082.5423000000001
 11
1897.5045
 21
1083.5373999999999
  0
LINE
  8
_0-0_LAYER001
  6
CONTINUOUS
 62
    4
 10
1897.5045
 20
1083.5373999999999
 11
1905.8051999999998
 21
1084.6380999999999
  0
LINE
  8
_0-0_LAYER001
  6
CONTINUOUS
 62
    4
 10
1905.8051999999998
 20
1084.6380999999999
 11
1914.0129000000002
 21
1085.8053
  0
LINE
  8
_0-0_LAYER001
  6
CONTINUOUS
 62
    4
 10
1914.0129000000002
 20
1085.8053
 11
1918.7501000000002
 21
1086.5008
  0
LINE
  8
_0-0_LAYER001
  6
CONTINUOUS
 62
    4
 10
1918.7501000000002
 20
1086.5008
 11
1921.2053999999998
 21
1086.8646000000001
  0
LINE
  8
_0-0_LAYER001
  6
CONTINUOUS
 62
    4
 10
1921.2053999999998
 20
1086.8646000000001
 11
1925.4195
 21
1087.4931999999999
  0
LINE
  8
_0-0_LAYER001
  6
CONTINUOUS
 62
    4
 10
1925.4195
 20
1087.4931999999999
 11
1929.6311000000001
 21
1088.1257000000001
  0
LINE
  8
_0-0_LAYER001
  6
CONTINUOUS
 62
    4
 10
1929.6311000000001
 20
1088.1257000000001
 11
1933.8377999999998
 21
1088.7607
  0
LINE
  8
_0-0_LAYER001
  6
CONTINUOUS
 62
    4
 10
1933.8377999999998
 20
1088.7607
 11
1938.04
 21
1089.3976
  0
LINE
  8
_0-0_LAYER001
  6
CONTINUOUS
 62
    4
 10
1938.04
 20
1089.3976
 11
1942.2379000000001
 21
1090.0352
  0
LINE
  8
_0-0_LAYER001
  6
CONTINUOUS
 62
    4
 10
1942.2379000000001
 20
1090.0352
 11
1943.8555999999999
 21
1090.2810999999999
  0
LINE
  8
_0-0_LAYER001
  6
CONTINUOUS
 62
    4
 10
1691.4004
 20
1133.2472
 11
1691.8263999999999
 21
1133.4103
  0
ARC
  8
_0-0_LAYER001
  6
CONTINUOUS
 62
    4
 10
1692.473
 20
1130.4455
 40
3
 50
110.94902000000002
 51
178.70000000000002
  0
LINE
  8
_0-0_LAYER001
  6
CONTINUOUS
 62
    4
 10
1689.3643999999999
 20
1114.6744000000001
 11
1689.3643999999999
 21
1130.3969
  0
LINE
  8
_0-0_LAYER001
  6
CONTINUOUS
 62
    4
 10
1690.7184000000002
 20
1113.7392
 11
1696.8932
 21
1116.0763999999999
  0
ARC
  8
_0-0_LAYER001
  6
CONTINUOUS
 62
    4
 10
1690.3643999999999
 20
1114.6744000000001
 40
1
 50
180
 51
290.73165999999998
  0
LINE
  8
_0-0_LAYER001
  6
CONTINUOUS
 62
    4
 10
1954.3643999999999
 20
1093.3522
 11
1954.3643999999999
 21
1110.5496000000001
  0
LINE
  8
_0-0_LAYER001
  6
CONTINUOUS
 62
    4
 10
1942.0909999999999
 20
1108.2360000000001
 11
1986.5453000000002
 21
1117.8839
  0
LINE
  8
_0-0_LAYER001
  6
CONTINUOUS
 62
    4
 10
1948.8362000000002
 20
1088.4023
 11
1987.5079999999998
 21
1097.4522999999999
  0
LINE
  8
_0-0_LAYER001
  6
CONTINUOUS
 62
    4
 10
1987.5079999999998
 20
1098.4087999999999
 11
1987.5079999999998
 21
1097.4522999999999
  0
ARC
  8
_0-0_LAYER001
  6
CONTINUOUS
 62
    4
 10
1988.5079999999998
 20
1098.4087999999999
 40
1
 50
102.72435
 51
180
  0
LINE
  8
_0-0_LAYER001
  6
CONTINUOUS
 62
    4
 10
1993.3249999999998
 20
1100.5217
 11
1988.2876999999999
 21
1099.3842
  0
ARC
  8
_0-0_LAYER001
  6
CONTINUOUS
 62
    4
 10
1993.5453000000002
 20
1099.5462
 40
1
 50
0
 51
102.72435
  0
LINE
  8
_0-0_LAYER001
  6
CONTINUOUS
 62
    4
 10
1993.7574
 20
1101.0300999999999
 11
1943.6233999999999
 21
1090.1496
  0
ARC
  8
_0-0_LAYER001
  6
CONTINUOUS
 62
    4
 10
1993.5453000000002
 20
1102.0074
 40
1
 50
282.24497000000002
 51
0
  0
LINE
  8
_0-0_LAYER001
  6
CONTINUOUS
 62
    4
 10
1993.7631000000001
 20
1080.2893999999999
 11
1944.1792
 21
1069.2215000000001
  0
LINE
  8
_0-0_LAYER001
  6
CONTINUOUS
 62
    4
 10
1994.5453000000002
 20
1081.2654
 11
1994.5453000000002
 21
1099.5462
  0
ARC
  8
_0-0_LAYER001
  6
CONTINUOUS
 62
    4
 10
1993.5453000000002
 20
1081.2654
 40
1
 50
282.58296000000001
 51
0.0000000000000254
  0
LINE
  8
_0-0_LAYER001
  6
CONTINUOUS
 62
    4
 10
1986.5453000000002
 20
1119.3408999999999
 11
1986.5453000000002
 21
1117.8839
  0
ARC
  8
_0-0_LAYER001
  6
CONTINUOUS
 62
    4
 10
1987.5453000000002
 20
1119.3408999999999
 40
1
 50
101.73308
 51
180
  0
LINE
  8
_0-0_LAYER001
  6
CONTINUOUS
 62
    4
 10
1993.3418999999999
 20
1121.5662
 11
1987.3418999999999
 21
1120.3200999999999
  0
LINE
  8
_0-0_LAYER001
  6
CONTINUOUS
 62
    4
 10
1994.5453000000002
 20
1120.5871
 11
1994.5453000000002
 21
1102.0074
  0
ARC
  8
_0-0_LAYER001
  6
CONTINUOUS
 62
    4
 10
1993.5453000000002
 20
1120.5871
 40
1
 50
0
 51
101.73308
  0
LINE
  8
_0-0_LAYER001
  6
DASHED1
 62
    2
 10
1793.7561999999998
 20
1093.1052999999999
 11
1809.7561999999998
 21
1093.1052999999999
  0
LINE
  8
_0-0_LAYER001
  6
DASHED1
 62
    2
 10
1809.7561999999998
 20
1093.1052999999999
 11
1809.7561999999998
 21
1090.1052999999999
  0
LINE
  8
_0-0_LAYER001
  6
DASHED1
 62
    2
 10
1793.7561999999998
 20
1093.1052999999999
 11
1793.7561999999998
 21
1090.1052999999999
  0
LINE
  8
_0-0_LAYER001
  6
DASHED1
 62
    2
 10
1793.7561999999998
 20
1090.1052999999999
 11
1809.7561999999998
 21
1090.1052999999999
  0
LINE
  8
_0-0_LAYER001
  6
DASHED1
 62
    2
 10
1804.7561999999998
 20
1035.2092
 11
1801.7060000000001
 21
1020.7003
  0
LINE
  8
_0-0_LAYER001
  6
DASHED1
 62
    2
 10
1804.7561999999998
 20
1090.1052999999999
 11
1804.7561999999998
 21
1035.2092
  0
LINE
  8
_0-0_LAYER001
  6
DASHED1
 62
    2
 10
1801.7060000000001
 20
1020.7003
 11
1798.7561999999998
 21
1034.9577999999999
  0
LINE
  8
_0-0_LAYER001
  6
DASHED1
 62
    2
 10
1798.7561999999998
 20
1090.1052999999999
 11
1798.7561999999998
 21
1034.9577999999999
  0
LINE
  8
_0-0_LAYER001
  6
DASHED1
 62
    2
 10
2058.7624000000001
 20
1090.3741
 11
2074.7624000000001
 21
1090.3741
  0
LINE
  8
_0-0_LAYER001
  6
DASHED1
 62
    2
 10
2074.7624000000001
 20
1090.3741
 11
2074.7624000000001
 21
1087.3741
  0
LINE
  8
_0-0_LAYER001
  6
DASHED1
 62
    2
 10
2058.7624000000001
 20
1090.3741
 11
2058.7624000000001
 21
1087.3741
  0
LINE
  8
_0-0_LAYER001
  6
DASHED1
 62
    2
 10
2058.7624000000001
 20
1087.3741
 11
2074.7624000000001
 21
1087.3741
  0
LINE
  8
_0-0_LAYER001
  6
DASHED1
 62
    2
 10
2069.7624000000001
 20
1032.4780000000001
 11
2066.7121999999999
 21
1017.9691
  0
LINE
  8
_0-0_LAYER001
  6
DASHED1
 62
    2
 10
2069.7624000000001
 20
1087.3741
 11
2069.7624000000001
 21
1032.4780000000001
  0
LINE
  8
_0-0_LAYER001
  6
DASHED1
 62
    2
 10
2066.7121999999999
 20
1017.9691
 11
2063.7624000000001
 21
1032.2266
  0
LINE
  8
_0-0_LAYER001
  6
DASHED1
 62
    2
 10
2063.7624000000001
 20
1087.3741
 11
2063.7624000000001
 21
1032.2266
  0
LINE
  8
_0-0_LAYER001
  6
CONTINUOUS
 62
    4
 10
1206.0138999999999
 20
1144.2991
 11
1206.0138999999999
 21
1126.0941
  0
LINE
  8
_0-0_LAYER001
  6
CONTINUOUS
 62
    4
 10
1206.0138999999999
 20
1121.9492
 11
1206.0138999999999
 21
1102.5105000000001
  0
LINE
  8
_0-0_LAYER001
  6
CONTINUOUS
 62
    4
 10
1689.1876000000002
 20
1090.4851000000001
 11
1689.1876000000002
 21
1107.6824999999999
  0
LINE
  8
_0-0_LAYER001
  6
CONTINUOUS
 62
    4
 10
1549.4609
 20
1046.6458
 11
1540.9254999999998
 21
1061.1791000000001
  0
LINE
  8
_0-0_LAYER001
  6
CONTINUOUS
 62
    4
 10
1557.6288
 20
1045.9955
 11
1565.9349999999999
 21
1056.0609999999999
  0
ARC
  8
_0-0_LAYER001
  6
CONTINUOUS
 62
    4
 10
1553.7723999999998
 20
1049.1778999999999
 40
5
 50
210.42578
 51
320.47001
  0
LINE
  8
_0-0_LAYER001
  6
CONTINUOUS
 62
    4
 10
1633.5744
 20
1045.5255999999999
 11
1626.2491
 21
1056.8317
  0
LINE
  8
_0-0_LAYER001
  6
CONTINUOUS
 62
    4
 10
1642.0839999999998
 20
1045.7155
 11
1651.0223999999998
 21
1060.9612
  0
ARC
  8
_0-0_LAYER001
  6
CONTINUOUS
 62
    4
 10
1637.7705999999998
 20
1048.2444
 40
5
 50
212.93986000000001
 51
329.61716000000001
  0
LINE
  8
_0-0_LAYER001
  6
CONTINUOUS
 62
    4
 10
1681.366
 20
1085.2732000000001
 11
1683.7941000000001
 21
1085.6769999999999
  0
LINE
  8
_0-0_LAYER001
  6
CONTINUOUS
 62
    4
 10
1677.1770000000001
 20
1084.5769
 11
1681.366
 21
1085.2732000000001
  0
LINE
  8
_0-0_LAYER001
  6
CONTINUOUS
 62
    4
 10
1672.9832000000001
 20
1083.8813
 11
1677.1770000000001
 21
1084.5769
  0
LINE
  8
_0-0_LAYER001
  6
CONTINUOUS
 62
    4
 10
1668.7844
 20
1083.1874
 11
1672.9832000000001
 21
1083.8813
  0
LINE
  8
_0-0_LAYER001
  6
CONTINUOUS
 62
    4
 10
1664.5803999999998
 20
1082.4958999999999
 11
1668.7844
 21
1083.1874
  0
LINE
  8
_0-0_LAYER001
  6
CONTINUOUS
 62
    4
 10
1660.3735000000001
 20
1081.8081999999999
 11
1664.5803999999998
 21
1082.4958999999999
  0
LINE
  8
_0-0_LAYER001
  6
CONTINUOUS
 62
    4
 10
1657.9212000000002
 20
1081.4096999999999
 11
1660.3735000000001
 21
1081.8081999999999
  0
LINE
  8
_0-0_LAYER001
  6
CONTINUOUS
 62
    4
 10
1653.1885000000002
 20
1080.6473000000001
 11
1657.9212000000002
 21
1081.4096999999999
  0
LINE
  8
_0-0_LAYER001
  6
CONTINUOUS
 62
    4
 10
1644.9839999999999
 20
1079.3634
 11
1653.1885000000002
 21
1080.6473000000001
  0
LINE
  8
_0-0_LAYER001
  6
CONTINUOUS
 62
    4
 10
1636.6765
 20
1078.1436000000001
 11
1644.9839999999999
 21
1079.3634
  0
LINE
  8
_0-0_LAYER001
  6
CONTINUOUS
 62
    4
 10
1628.2683000000002
 20
1077.0272
 11
1636.6765
 21
1078.1436000000001
  0
LINE
  8
_0-0_LAYER001
  6
CONTINUOUS
 62
    4
 10
1619.7557000000002
 20
1076.0537999999999
 11
1628.2683000000002
 21
1077.0272
  0
LINE
  8
_0-0_LAYER001
  6
CONTINUOUS
 62
    4
 10
1611.1965
 20
1075.2698
 11
1619.7557000000002
 21
1076.0537999999999
  0
LINE
  8
_0-0_LAYER001
  6
CONTINUOUS
 62
    4
 10
1606.1350000000002
 20
1074.9118000000001
 11
1611.1965
 21
1075.2698
  0
LINE
  8
_0-0_LAYER001
  6
CONTINUOUS
 62
    4
 10
1603.3323999999998
 20
1074.7501999999999
 11
1606.1350000000002
 21
1074.9118000000001
  0
LINE
  8
_0-0_LAYER001
  6
CONTINUOUS
 62
    4
 10
1598.6113999999998
 20
1074.5463
 11
1603.3323999999998
 21
1074.7501999999999
  0
LINE
  8
_0-0_LAYER001
  6
CONTINUOUS
 62
    4
 10
1593.7822000000001
 20
1074.4408000000001
 11
1598.6113999999998
 21
1074.5463
  0
LINE
  8
_0-0_LAYER001
  6
CONTINUOUS
 62
    4
 10
1588.8806
 20
1074.4562000000001
 11
1593.7822000000001
 21
1074.4408000000001
  0
LINE
  8
_0-0_LAYER001
  6
CONTINUOUS
 62
    4
 10
1583.9095000000002
 20
1074.6141
 11
1588.8806
 21
1074.4562000000001
  0
LINE
  8
_0-0_LAYER001
  6
CONTINUOUS
 62
    4
 10
1578.9521
 20
1074.9318000000001
 11
1583.9095000000002
 21
1074.6141
  0
LINE
  8
_0-0_LAYER001
  6
CONTINUOUS
 62
    4
 10
1575.9005000000002
 20
1075.2131999999999
 11
1578.9521
 21
1074.9318000000001
  0
LINE
  8
_0-0_LAYER001
  6
CONTINUOUS
 62
    4
 10
1571.9715999999999
 20
1075.6755000000001
 11
1575.9005000000002
 21
1075.2131999999999
  0
LINE
  8
_0-0_LAYER001
  6
CONTINUOUS
 62
    4
 10
1565.4576999999999
 20
1076.6980000000001
 11
1571.9715999999999
 21
1075.6755000000001
  0
LINE
  8
_0-0_LAYER001
  6
CONTINUOUS
 62
    4
 10
1558.9110999999998
 20
1078.0501999999999
 11
1565.4576999999999
 21
1076.6980000000001
  0
LINE
  8
_0-0_LAYER001
  6
CONTINUOUS
 62
    4
 10
1552.4481000000001
 20
1079.7059999999999
 11
1558.9110999999998
 21
1078.0501999999999
  0
LINE
  8
_0-0_LAYER001
  6
CONTINUOUS
 62
    4
 10
1546.0821999999998
 20
1081.6567
 11
1552.4481000000001
 21
1079.7059999999999
  0
LINE
  8
_0-0_LAYER001
  6
CONTINUOUS
 62
    4
 10
1539.9173999999998
 20
1083.8616999999999
 11
1546.0821999999998
 21
1081.6567
  0
LINE
  8
_0-0_LAYER001
  6
CONTINUOUS
 62
    4
 10
1536.2307999999998
 20
1085.3335
 11
1539.9173999999998
 21
1083.8616999999999
  0
LINE
  8
_0-0_LAYER001
  6
CONTINUOUS
 62
    4
 10
1531.8665000000001
 20
1087.2260000000001
 11
1536.2307999999998
 21
1085.3335
  0
LINE
  8
_0-0_LAYER001
  6
CONTINUOUS
 62
    4
 10
1524.7973999999999
 20
1090.6410000000001
 11
1531.8665000000001
 21
1087.2260000000001
  0
LINE
  8
_0-0_LAYER001
  6
CONTINUOUS
 62
    4
 10
1517.9045999999998
 20
1094.3706
 11
1524.7973999999999
 21
1090.6410000000001
  0
LINE
  8
_0-0_LAYER001
  6
CONTINUOUS
 62
    4
 10
1511.2676000000001
 20
1098.3042
 11
1517.9045999999998
 21
1094.3706
  0
LINE
  8
_0-0_LAYER001
  6
CONTINUOUS
 62
    4
 10
1504.8582000000001
 20
1102.3867
 11
1511.2676000000001
 21
1098.3042
  0
LINE
  8
_0-0_LAYER001
  6
CONTINUOUS
 62
    4
 10
1498.674
 20
1106.5488
 11
1504.8582000000001
 21
1102.3867
  0
LINE
  8
_0-0_LAYER001
  6
CONTINUOUS
 62
    4
 10
1495.1316999999999
 20
1109.0125
 11
1498.674
 21
1106.5488
  0
LINE
  8
_0-0_LAYER001
  6
CONTINUOUS
 62
    4
 10
1492.8996999999999
 20
1110.586
 11
1495.1316999999999
 21
1109.0125
  0
LINE
  8
_0-0_LAYER001
  6
CONTINUOUS
 62
    4
 10
1489.2761
 20
1113.1251999999999
 11
1492.8996999999999
 21
1110.586
  0
LINE
  8
_0-0_LAYER001
  6
CONTINUOUS
 62
    4
 10
1485.9065000000001
 20
1115.3906999999999
 11
1489.2761
 21
1113.1251999999999
  0
LINE
  8
_0-0_LAYER001
  6
CONTINUOUS
 62
    4
 10
1482.7914999999998
 20
1117.3178
 11
1485.9065000000001
 21
1115.3906999999999
  0
LINE
  8
_0-0_LAYER001
  6
CONTINUOUS
 62
    4
 10
1479.9243000000001
 20
1118.8734999999999
 11
1482.7914999999998
 21
1117.3178
  0
LINE
  8
_0-0_LAYER001
  6
CONTINUOUS
 62
    4
 10
1477.0931
 20
1120.1420000000001
 11
1479.9243000000001
 21
1118.8734999999999
  0
LINE
  8
_0-0_LAYER001
  6
CONTINUOUS
 62
    4
 10
1475.6298999999999
 20
1120.6741
 11
1477.0931
 21
1120.1420000000001
  0
LINE
  8
_0-0_LAYER001
  6
CONTINUOUS
 62
    4
 10
1475.4488000000001
 20
1120.732
 11
1475.6298999999999
 21
1120.6741
  0
LINE
  8
_0-0_LAYER001
  6
CONTINUOUS
 62
    4
 10
1474.6605
 20
1120.96
 11
1475.4488000000001
 21
1120.732
  0
LINE
  8
_0-0_LAYER001
  6
CONTINUOUS
 62
    4
 10
1474.0034000000001
 20
1121.1226999999999
 11
1474.6605
 21
1120.96
  0
LINE
  8
_0-0_LAYER001
  6
CONTINUOUS
 62
    4
 10
1473.4216000000001
 20
1121.2407000000001
 11
1474.0034000000001
 21
1121.1226999999999
  0
LINE
  8
_0-0_LAYER001
  6
CONTINUOUS
 62
    4
 10
1473.3815
 20
1121.2469000000001
 11
1473.4216000000001
 21
1121.2407000000001
  0
LINE
  8
_0-0_LAYER001
  6
CONTINUOUS
 62
    4
 10
1677.3553999999999
 20
1066.0857000000001
 11
1678.9695000000002
 21
1066.3542
  0
LINE
  8
_0-0_LAYER001
  6
CONTINUOUS
 62
    4
 10
1673.1668
 20
1065.3895
 11
1677.3553999999999
 21
1066.0857000000001
  0
LINE
  8
_0-0_LAYER001
  6
CONTINUOUS
 62
    4
 10
1668.9739
 20
1064.6940999999999
 11
1673.1668
 21
1065.3895
  0
LINE
  8
_0-0_LAYER001
  6
CONTINUOUS
 62
    4
 10
1664.7764000000002
 20
1064.0002999999999
 11
1668.9739
 21
1064.6940999999999
  0
LINE
  8
_0-0_LAYER001
  6
CONTINUOUS
 62
    4
 10
1660.5742
 20
1063.3090999999999
 11
1664.7764000000002
 21
1064.0002999999999
  0
LINE
  8
_0-0_LAYER001
  6
CONTINUOUS
 62
    4
 10
1656.3692000000001
 20
1062.6217999999999
 11
1660.5742
 21
1063.3090999999999
  0
LINE
  8
_0-0_LAYER001
  6
CONTINUOUS
 62
    4
 10
1653.9191999999998
 20
1062.2237
 11
1656.3692000000001
 21
1062.6217999999999
  0
LINE
  8
_0-0_LAYER001
  6
CONTINUOUS
 62
    4
 10
1649.1922
 20
1061.4621
 11
1653.9191999999998
 21
1062.2237
  0
LINE
  8
_0-0_LAYER001
  6
CONTINUOUS
 62
    4
 10
1641.0016000000001
 20
1060.1804
 11
1649.1922
 21
1061.4621
  0
LINE
  8
_0-0_LAYER001
  6
CONTINUOUS
 62
    4
 10
1632.7170999999998
 20
1058.9639999999999
 11
1641.0016000000001
 21
1060.1804
  0
LINE
  8
_0-0_LAYER001
  6
CONTINUOUS
 62
    4
 10
1624.3404
 20
1057.8517999999999
 11
1632.7170999999998
 21
1058.9639999999999
  0
LINE
  8
_0-0_LAYER001
  6
CONTINUOUS
 62
    4
 10
1615.8683000000001
 20
1056.883
 11
1624.3404
 21
1057.8517999999999
  0
LINE
  8
_0-0_LAYER001
  6
CONTINUOUS
 62
    4
 10
1607.3521999999998
 20
1056.1030000000001
 11
1615.8683000000001
 21
1056.883
  0
LINE
  8
_0-0_LAYER001
  6
CONTINUOUS
 62
    4
 10
1602.3243000000002
 20
1055.7474
 11
1607.3521999999998
 21
1056.1030000000001
  0
LINE
  8
_0-0_LAYER001
  6
CONTINUOUS
 62
    4
 10
1599.5491000000002
 20
1055.5872999999999
 11
1602.3243000000002
 21
1055.7474
  0
LINE
  8
_0-0_LAYER001
  6
CONTINUOUS
 62
    4
 10
1594.8638000000001
 20
1055.3849
 11
1599.5491000000002
 21
1055.5872999999999
  0
LINE
  8
_0-0_LAYER001
  6
CONTINUOUS
 62
    4
 10
1590.0808999999999
 20
1055.2805000000001
 11
1594.8638000000001
 21
1055.3849
  0
LINE
  8
_0-0_LAYER001
  6
CONTINUOUS
 62
    4
 10
1585.2329
 20
1055.2956999999999
 11
1590.0808999999999
 21
1055.2805000000001
  0
LINE
  8
_0-0_LAYER001
  6
CONTINUOUS
 62
    4
 10
1580.3227000000002
 20
1055.4516000000001
 11
1585.2329
 21
1055.2956999999999
  0
LINE
  8
_0-0_LAYER001
  6
CONTINUOUS
 62
    4
 10
1575.4254000000001
 20
1055.7655
 11
1580.3227000000002
 21
1055.4516000000001
  0
LINE
  8
_0-0_LAYER001
  6
CONTINUOUS
 62
    4
 10
1572.4265999999998
 20
1056.0420999999999
 11
1575.4254000000001
 21
1055.7655
  0
LINE
  8
_0-0_LAYER001
  6
CONTINUOUS
 62
    4
 10
1568.5610999999999
 20
1056.4969000000001
 11
1572.4265999999998
 21
1056.0420999999999
  0
LINE
  8
_0-0_LAYER001
  6
CONTINUOUS
 62
    4
 10
1562.1327000000001
 20
1057.5060000000001
 11
1568.5610999999999
 21
1056.4969000000001
  0
LINE
  8
_0-0_LAYER001
  6
CONTINUOUS
 62
    4
 10
1555.6792
 20
1058.8389
 11
1562.1327000000001
 21
1057.5060000000001
  0
LINE
  8
_0-0_LAYER001
  6
CONTINUOUS
 62
    4
 10
1549.3069999999998
 20
1060.4715000000001
 11
1555.6792
 21
1058.8389
  0
LINE
  8
_0-0_LAYER001
  6
CONTINUOUS
 62
    4
 10
1543.0297
 20
1062.3951
 11
1549.3069999999998
 21
1060.4715000000001
  0
LINE
  8
_0-0_LAYER001
  6
CONTINUOUS
 62
    4
 10
1536.9425999999999
 20
1064.5722000000001
 11
1543.0297
 21
1062.3951
  0
LINE
  8
_0-0_LAYER001
  6
CONTINUOUS
 62
    4
 10
1533.317
 20
1066.0196000000001
 11
1536.9425999999999
 21
1064.5722000000001
  0
LINE
  8
_0-0_LAYER001
  6
CONTINUOUS
 62
    4
 10
1529.0171
 20
1067.8842
 11
1533.317
 21
1066.0196000000001
  0
LINE
  8
_0-0_LAYER001
  6
CONTINUOUS
 62
    4
 10
1522.0261999999998
 20
1071.2614000000001
 11
1529.0171
 21
1067.8842
  0
LINE
  8
_0-0_LAYER001
  6
CONTINUOUS
 62
    4
 10
1515.2080999999998
 20
1074.9505999999999
 11
1522.0261999999998
 21
1071.2614000000001
  0
LINE
  8
_0-0_LAYER001
  6
CONTINUOUS
 62
    4
 10
1508.6323000000002
 20
1078.848
 11
1515.2080999999998
 21
1074.9505999999999
  0
LINE
  8
_0-0_LAYER001
  6
CONTINUOUS
 62
    4
 10
1502.2714000000001
 20
1082.8996
 11
1508.6323000000002
 21
1078.848
  0
LINE
  8
_0-0_LAYER001
  6
CONTINUOUS
 62
    4
 10
1496.1208000000001
 20
1087.0391
 11
1502.2714000000001
 21
1082.8996
  0
LINE
  8
_0-0_LAYER001
  6
CONTINUOUS
 62
    4
 10
1492.5963000000002
 20
1089.4903999999999
 11
1496.1208000000001
 21
1087.0391
  0
LINE
  8
_0-0_LAYER001
  6
CONTINUOUS
 62
    4
 10
1490.3670999999999
 20
1091.0618999999999
 11
1492.5963000000002
 21
1089.4903999999999
  0
LINE
  8
_0-0_LAYER001
  6
CONTINUOUS
 62
    4
 10
1486.7253999999998
 20
1093.6138000000001
 11
1490.3670999999999
 21
1091.0618999999999
  0
LINE
  8
_0-0_LAYER001
  6
CONTINUOUS
 62
    4
 10
1483.3083000000001
 20
1095.9112
 11
1486.7253999999998
 21
1093.6138000000001
  0
LINE
  8
_0-0_LAYER001
  6
CONTINUOUS
 62
    4
 10
1480.1127000000001
 20
1097.8880999999999
 11
1483.3083000000001
 21
1095.9112
  0
LINE
  8
_0-0_LAYER001
  6
CONTINUOUS
 62
    4
 10
1477.1287000000002
 20
1099.5072
 11
1480.1127000000001
 21
1097.8880999999999
  0
LINE
  8
_0-0_LAYER001
  6
CONTINUOUS
 62
    4
 10
1474.1622000000002
 20
1100.8363999999999
 11
1477.1287000000002
 21
1099.5072
  0
LINE
  8
_0-0_LAYER001
  6
CONTINUOUS
 62
    4
 10
1473.4122000000002
 20
1101.1090999999999
 11
1474.1622000000002
 21
1100.8363999999999
  0
LINE
  8
_0-0_LAYER001
  6
CONTINUOUS
 62
    4
 10
1473.7453
 20
1121.1522
 11
1473.5693000000001
 21
1100.9788000000001
  0
LINE
  8
_0-0_LAYER001
  6
CONTINUOUS
 62
    4
 10
1674.0709000000002
 20
1055.6643999999999
 11
1671.8254999999999
 21
1064.2379000000001
  0
ARC
  8
_0-0_LAYER001
  6
CONTINUOUS
 62
    4
 10
1676.973
 20
1056.4245000000001
 40
3
 50
194.67639000000003
 51
270.00000000000006
  0
LINE
  8
_0-0_LAYER001
  6
CONTINUOUS
 62
    4
 10
1680.4155000000001
 20
1053.4202
 11
1676.9976999999999
 21
1053.4202
  0
LINE
  8
_0-0_LAYER001
  6
CONTINUOUS
 62
    4
 10
1683.3746999999998
 20
1055.9269999999999
 11
1685.3087
 21
1067.5311999999999
  0
ARC
  8
_0-0_LAYER001
  6
CONTINUOUS
 62
    4
 10
1680.4155000000001
 20
1056.4202
 40
3
 50
270
 51
350.53766999999999
  0
LINE
  8
_0-0_LAYER001
  6
CONTINUOUS
 62
    4
 10
1426.6491000000001
 20
1130.5424
 11
1427.463
 21
1130.8490999999999
  0
LINE
  8
_0-0_LAYER001
  6
CONTINUOUS
 62
    4
 10
1427.463
 20
1130.8490999999999
 11
1431.0122999999999
 21
1132.1886999999999
  0
LINE
  8
_0-0_LAYER001
  6
CONTINUOUS
 62
    4
 10
1431.0122999999999
 20
1132.1886999999999
 11
1434.5689000000002
 21
1133.5374999999999
  0
LINE
  8
_0-0_LAYER001
  6
CONTINUOUS
 62
    4
 10
1434.5689000000002
 20
1133.5374999999999
 11
1438.1376
 21
1134.9015999999999
  0
LINE
  8
_0-0_LAYER001
  6
CONTINUOUS
 62
    4
 10
1438.1376
 20
1134.9015999999999
 11
1441.7229000000002
 21
1136.2865999999999
  0
LINE
  8
_0-0_LAYER001
  6
CONTINUOUS
 62
    4
 10
1441.7229000000002
 20
1136.2865999999999
 11
1445.3296
 21
1137.6985999999999
  0
LINE
  8
_0-0_LAYER001
  6
CONTINUOUS
 62
    4
 10
1445.3296
 20
1137.6985999999999
 11
1447.4331999999999
 21
1138.5322000000001
  0
LINE
  8
_0-0_LAYER001
  6
CONTINUOUS
 62
    4
 10
1447.4331999999999
 20
1138.5322000000001
 11
1449.5124999999998
 21
1139.3611000000001
  0
LINE
  8
_0-0_LAYER001
  6
CONTINUOUS
 62
    4
 10
1449.5124999999998
 20
1139.3611000000001
 11
1453.1190999999999
 21
1140.7625
  0
LINE
  8
_0-0_LAYER001
  6
CONTINUOUS
 62
    4
 10
1453.1190999999999
 20
1140.7625
 11
1456.7518
 21
1142.0453
  0
LINE
  8
_0-0_LAYER001
  6
CONTINUOUS
 62
    4
 10
1456.7518
 20
1142.0453
 11
1460.4097000000002
 21
1143.1119000000001
  0
LINE
  8
_0-0_LAYER001
  6
CONTINUOUS
 62
    4
 10
1460.4097000000002
 20
1143.1119000000001
 11
1464.0918000000001
 21
1143.8651
  0
LINE
  8
_0-0_LAYER001
  6
CONTINUOUS
 62
    4
 10
1464.0918000000001
 20
1143.8651
 11
1467.7970999999998
 21
1144.2076
  0
LINE
  8
_0-0_LAYER001
  6
CONTINUOUS
 62
    4
 10
1467.7970999999998
 20
1144.2076
 11
1469.9564
 21
1144.1796999999999
  0
LINE
  8
_0-0_LAYER001
  6
CONTINUOUS
 62
    4
 10
1469.9564
 20
1144.1796999999999
 11
1470.8056000000001
 21
1144.1184000000001
  0
LINE
  8
_0-0_LAYER001
  6
CONTINUOUS
 62
    4
 10
1470.8056000000001
 20
1144.1184000000001
 11
1472.2698999999998
 21
1143.9477999999999
  0
LINE
  8
_0-0_LAYER001
  6
CONTINUOUS
 62
    4
 10
1472.2698999999998
 20
1143.9477999999999
 11
1473.7310000000002
 21
1143.7011
  0
LINE
  8
_0-0_LAYER001
  6
CONTINUOUS
 62
    4
 10
1473.7310000000002
 20
1143.7011
 11
1475.1846999999998
 21
1143.385
  0
LINE
  8
_0-0_LAYER001
  6
CONTINUOUS
 62
    4
 10
1475.1846999999998
 20
1143.385
 11
1476.6268
 21
1143.0065
  0
LINE
  8
_0-0_LAYER001
  6
CONTINUOUS
 62
    4
 10
1476.6268
 20
1143.0065
 11
1478.0531999999998
 21
1142.5724
  0
LINE
  8
_0-0_LAYER001
  6
CONTINUOUS
 62
    4
 10
1478.0531999999998
 20
1142.5724
 11
1478.8717000000001
 21
1142.2978000000001
  0
LINE
  8
_0-0_LAYER001
  6
CONTINUOUS
 62
    4
 10
1478.8717000000001
 20
1142.2978000000001
 11
1481.3699999999999
 21
1141.3496
  0
LINE
  8
_0-0_LAYER001
  6
CONTINUOUS
 62
    4
 10
1481.3699999999999
 20
1141.3496
 11
1485.5288999999998
 21
1139.4159999999999
  0
LINE
  8
_0-0_LAYER001
  6
CONTINUOUS
 62
    4
 10
1485.5288999999998
 20
1139.4159999999999
 11
1489.5327000000002
 21
1137.1705999999999
  0
LINE
  8
_0-0_LAYER001
  6
CONTINUOUS
 62
    4
 10
1489.5327000000002
 20
1137.1705999999999
 11
1493.4196000000002
 21
1134.6904
  0
LINE
  8
_0-0_LAYER001
  6
CONTINUOUS
 62
    4
 10
1493.4196000000002
 20
1134.6904
 11
1497.2276000000002
 21
1132.0522000000001
  0
LINE
  8
_0-0_LAYER001
  6
CONTINUOUS
 62
    4
 10
1497.2276000000002
 20
1132.0522000000001
 11
1500.9947999999999
 21
1129.3331000000001
  0
LINE
  8
_0-0_LAYER001
  6
CONTINUOUS
 62
    4
 10
1500.9947999999999
 20
1129.3331000000001
 11
1503.1761999999999
 21
1127.7492999999999
  0
LINE
  8
_0-0_LAYER001
  6
CONTINUOUS
 62
    4
 10
1503.1761999999999
 20
1127.7492999999999
 11
1506.5077000000001
 21
1125.3625
  0
LINE
  8
_0-0_LAYER001
  6
CONTINUOUS
 62
    4
 10
1506.5077000000001
 20
1125.3625
 11
1512.3000000000002
 21
1121.3456000000001
  0
LINE
  8
_0-0_LAYER001
  6
CONTINUOUS
 62
    4
 10
1512.3000000000002
 20
1121.3456000000001
 11
1518.1720999999998
 21
1117.4889000000001
  0
LINE
  8
_0-0_LAYER001
  6
CONTINUOUS
 62
    4
 10
1518.1720999999998
 20
1117.4889000000001
 11
1524.1462999999999
 21
1113.8344999999999
  0
LINE
  8
_0-0_LAYER001
  6
CONTINUOUS
 62
    4
 10
1524.1462999999999
 20
1113.8344999999999
 11
1530.2444999999998
 21
1110.4239
  0
LINE
  8
_0-0_LAYER001
  6
CONTINUOUS
 62
    4
 10
1530.2444999999998
 20
1110.4239
 11
1536.4888000000001
 21
1107.2991
  0
LINE
  8
_0-0_LAYER001
  6
CONTINUOUS
 62
    4
 10
1536.4888000000001
 20
1107.2991
 11
1540.1860999999999
 21
1105.6341
  0
LINE
  8
_0-0_LAYER001
  6
CONTINUOUS
 62
    4
 10
1540.1860999999999
 20
1105.6341
 11
1543.2453
 21
1104.3630000000001
  0
LINE
  8
_0-0_LAYER001
  6
CONTINUOUS
 62
    4
 10
1543.2453
 20
1104.3630000000001
 11
1548.6057999999998
 21
1102.3608999999999
  0
LINE
  8
_0-0_LAYER001
  6
CONTINUOUS
 62
    4
 10
1548.6057999999998
 20
1102.3608999999999
 11
1554.0614999999998
 21
1100.6053999999999
  0
LINE
  8
_0-0_LAYER001
  6
CONTINUOUS
 62
    4
 10
1554.0614999999998
 20
1100.6053999999999
 11
1559.5965000000001
 21
1099.1045999999999
  0
LINE
  8
_0-0_LAYER001
  6
CONTINUOUS
 62
    4
 10
1559.5965000000001
 20
1099.1045999999999
 11
1565.1948000000002
 21
1097.8666000000001
  0
LINE
  8
_0-0_LAYER001
  6
CONTINUOUS
 62
    4
 10
1565.1948000000002
 20
1097.8666000000001
 11
1570.8404999999998
 21
1096.8994
  0
LINE
  8
_0-0_LAYER001
  6
CONTINUOUS
 62
    4
 10
1570.8404999999998
 20
1096.8994
 11
1574.1305000000002
 21
1096.4657
  0
LINE
  8
_0-0_LAYER001
  6
CONTINUOUS
 62
    4
 10
1574.1305000000002
 20
1096.4657
 11
1576.6498000000001
 21
1096.1977999999999
  0
LINE
  8
_0-0_LAYER001
  6
CONTINUOUS
 62
    4
 10
1576.6498000000001
 20
1096.1977999999999
 11
1581.0019000000002
 21
1095.8578
  0
LINE
  8
_0-0_LAYER001
  6
CONTINUOUS
 62
    4
 10
1581.0019000000002
 20
1095.8578
 11
1585.3620999999998
 21
1095.6583000000001
  0
LINE
  8
_0-0_LAYER001
  6
CONTINUOUS
 62
    4
 10
1585.3620999999998
 20
1095.6583000000001
 11
1589.7273
 21
1095.5836999999999
  0
LINE
  8
_0-0_LAYER001
  6
CONTINUOUS
 62
    4
 10
1589.7273
 20
1095.5836999999999
 11
1594.0944
 21
1095.6180999999999
  0
LINE
  8
_0-0_LAYER001
  6
CONTINUOUS
 62
    4
 10
1594.0944
 20
1095.6180999999999
 11
1598.4603000000002
 21
1095.7456
  0
LINE
  8
_0-0_LAYER001
  6
CONTINUOUS
 62
    4
 10
1598.4603000000002
 20
1095.7456
 11
1600.9908
 21
1095.8561
  0
LINE
  8
_0-0_LAYER001
  6
CONTINUOUS
 62
    4
 10
1600.9908
 20
1095.8561
 11
1605.7197999999999
 21
1096.1242999999999
  0
LINE
  8
_0-0_LAYER001
  6
CONTINUOUS
 62
    4
 10
1605.7197999999999
 20
1096.1242999999999
 11
1613.8580000000002
 21
1096.7553
  0
LINE
  8
_0-0_LAYER001
  6
CONTINUOUS
 62
    4
 10
1613.8580000000002
 20
1096.7553
 11
1621.9787999999999
 21
1097.5691999999999
  0
LINE
  8
_0-0_LAYER001
  6
CONTINUOUS
 62
    4
 10
1621.9787999999999
 20
1097.5691999999999
 11
1630.0846000000001
 21
1098.5305000000001
  0
LINE
  8
_0-0_LAYER001
  6
CONTINUOUS
 62
    4
 10
1630.0846000000001
 20
1098.5305000000001
 11
1638.1781000000001
 21
1099.6035999999999
  0
LINE
  8
_0-0_LAYER001
  6
CONTINUOUS
 62
    4
 10
1638.1781000000001
 20
1099.6035999999999
 11
1646.2615999999998
 21
1100.7532000000001
  0
LINE
  8
_0-0_LAYER001
  6
CONTINUOUS
 62
    4
 10
1646.2615999999998
 20
1100.7532000000001
 11
1650.9465
 21
1101.441
  0
LINE
  8
_0-0_LAYER001
  6
CONTINUOUS
 62
    4
 10
1650.9465
 20
1101.441
 11
1653.3814000000002
 21
1101.8018
  0
LINE
  8
_0-0_LAYER001
  6
CONTINUOUS
 62
    4
 10
1653.3814000000002
 20
1101.8018
 11
1657.5783999999999
 21
1102.4277999999999
  0
LINE
  8
_0-0_LAYER001
  6
CONTINUOUS
 62
    4
 10
1657.5783999999999
 20
1102.4277999999999
 11
1661.7741999999998
 21
1103.0579
  0
LINE
  8
_0-0_LAYER001
  6
CONTINUOUS
 62
    4
 10
1661.7741999999998
 20
1103.0579
 11
1665.9690000000001
 21
1103.6912
  0
LINE
  8
_0-0_LAYER001
  6
CONTINUOUS
 62
    4
 10
1665.9690000000001
 20
1103.6912
 11
1670.1632
 21
1104.3268
  0
LINE
  8
_0-0_LAYER001
  6
CONTINUOUS
 62
    4
 10
1670.1632
 20
1104.3268
 11
1674.3569000000002
 21
1104.9638
  0
LINE
  8
_0-0_LAYER001
  6
CONTINUOUS
 62
    4
 10
1674.3569000000002
 20
1104.9638
 11
1676.7892000000002
 21
1105.3335999999999
  0
LINE
  8
_0-0_LAYER001
  6
CONTINUOUS
 62
    4
 10
1431.7523999999999
 20
1113.2299
 11
1433.8143
 21
1114.0068000000001
  0
LINE
  8
_0-0_LAYER001
  6
CONTINUOUS
 62
    4
 10
1433.8143
 20
1114.0068000000001
 11
1437.3818000000001
 21
1115.3533
  0
LINE
  8
_0-0_LAYER001
  6
CONTINUOUS
 62
    4
 10
1437.3818000000001
 20
1115.3533
 11
1440.9737
 21
1116.7156
  0
LINE
  8
_0-0_LAYER001
  6
CONTINUOUS
 62
    4
 10
1440.9737
 20
1116.7156
 11
1444.5940999999998
 21
1118.0994000000001
  0
LINE
  8
_0-0_LAYER001
  6
CONTINUOUS
 62
    4
 10
1444.5940999999998
 20
1118.0994000000001
 11
1448.2471
 21
1119.5106000000001
  0
LINE
  8
_0-0_LAYER001
  6
CONTINUOUS
 62
    4
 10
1448.2471
 20
1119.5106000000001
 11
1451.9263000000001
 21
1120.9509
  0
LINE
  8
_0-0_LAYER001
  6
CONTINUOUS
 62
    4
 10
1451.9263000000001
 20
1120.9509
 11
1454.0814999999998
 21
1121.8050000000001
  0
LINE
  8
_0-0_LAYER001
  6
CONTINUOUS
 62
    4
 10
1454.0814999999998
 20
1121.8050000000001
 11
1456.1051000000002
 21
1122.6116
  0
LINE
  8
_0-0_LAYER001
  6
CONTINUOUS
 62
    4
 10
1456.1051000000002
 20
1122.6116
 11
1459.3769000000002
 21
1123.883
  0
LINE
  8
_0-0_LAYER001
  6
CONTINUOUS
 62
    4
 10
1459.3769000000002
 20
1123.883
 11
1462.2721000000001
 21
1124.9052999999999
  0
LINE
  8
_0-0_LAYER001
  6
CONTINUOUS
 62
    4
 10
1462.2721000000001
 20
1124.9052999999999
 11
1464.7402000000002
 21
1125.625
  0
LINE
  8
_0-0_LAYER001
  6
CONTINUOUS
 62
    4
 10
1464.7402000000002
 20
1125.625
 11
1466.7319000000002
 21
1126.0324000000001
  0
LINE
  8
_0-0_LAYER001
  6
CONTINUOUS
 62
    4
 10
1466.7319000000002
 20
1126.0324000000001
 11
1468.5111999999999
 21
1126.1968999999999
  0
LINE
  8
_0-0_LAYER001
  6
CONTINUOUS
 62
    4
 10
1468.5111999999999
 20
1126.1968999999999
 11
1469.1907999999999
 21
1126.1881000000001
  0
LINE
  8
_0-0_LAYER001
  6
CONTINUOUS
 62
    4
 10
1469.1907999999999
 20
1126.1881000000001
 11
1469.1147000000001
 21
1126.1936000000001
  0
LINE
  8
_0-0_LAYER001
  6
CONTINUOUS
 62
    4
 10
1469.1147000000001
 20
1126.1936000000001
 11
1469.7283000000002
 21
1126.1221
  0
LINE
  8
_0-0_LAYER001
  6
CONTINUOUS
 62
    4
 10
1469.7283000000002
 20
1126.1221
 11
1470.3186999999998
 21
1126.0225
  0
LINE
  8
_0-0_LAYER001
  6
CONTINUOUS
 62
    4
 10
1470.3186999999998
 20
1126.0225
 11
1470.9861000000001
 21
1125.8774000000001
  0
LINE
  8
_0-0_LAYER001
  6
CONTINUOUS
 62
    4
 10
1470.9861000000001
 20
1125.8774000000001
 11
1471.7197000000001
 21
1125.6848
  0
LINE
  8
_0-0_LAYER001
  6
CONTINUOUS
 62
    4
 10
1471.7197000000001
 20
1125.6848
 11
1472.5689000000002
 21
1125.4264000000001
  0
LINE
  8
_0-0_LAYER001
  6
CONTINUOUS
 62
    4
 10
1472.5689000000002
 20
1125.4264000000001
 11
1472.8130000000001
 21
1125.3444999999999
  0
LINE
  8
_0-0_LAYER001
  6
CONTINUOUS
 62
    4
 10
1472.8130000000001
 20
1125.3444999999999
 11
1474.3728999999998
 21
1124.7524000000001
  0
LINE
  8
_0-0_LAYER001
  6
CONTINUOUS
 62
    4
 10
1474.3728999999998
 20
1124.7524000000001
 11
1477.3206
 21
1123.3820000000001
  0
LINE
  8
_0-0_LAYER001
  6
CONTINUOUS
 62
    4
 10
1477.3206
 20
1123.3820000000001
 11
1480.2815999999998
 21
1121.7213999999999
  0
LINE
  8
_0-0_LAYER001
  6
CONTINUOUS
 62
    4
 10
1480.2815999999998
 20
1121.7213999999999
 11
1483.4493000000002
 21
1119.7
  0
LINE
  8
_0-0_LAYER001
  6
CONTINUOUS
 62
    4
 10
1483.4493000000002
 20
1119.7
 11
1486.8339999999998
 21
1117.3551
  0
LINE
  8
_0-0_LAYER001
  6
CONTINUOUS
 62
    4
 10
1486.8339999999998
 20
1117.3551
 11
1490.4398000000001
 21
1114.7526
  0
LINE
  8
_0-0_LAYER001
  6
CONTINUOUS
 62
    4
 10
1490.4398000000001
 20
1114.7526
 11
1492.6466999999998
 21
1113.1502
  0
LINE
  8
_0-0_LAYER001
  6
CONTINUOUS
 62
    4
 10
1492.6466999999998
 20
1113.1502
 11
1496.1367
 21
1110.6498999999999
  0
LINE
  8
_0-0_LAYER001
  6
CONTINUOUS
 62
    4
 10
1496.1367
 20
1110.6498999999999
 11
1502.2289000000001
 21
1106.4249
  0
LINE
  8
_0-0_LAYER001
  6
CONTINUOUS
 62
    4
 10
1502.2289000000001
 20
1106.4249
 11
1508.5326
 21
1102.2849000000001
  0
LINE
  8
_0-0_LAYER001
  6
CONTINUOUS
 62
    4
 10
1508.5326
 20
1102.2849000000001
 11
1515.0533
 21
1098.2961
  0
LINE
  8
_0-0_LAYER001
  6
CONTINUOUS
 62
    4
 10
1515.0533
 20
1098.2961
 11
1521.8193000000001
 21
1094.5120999999999
  0
LINE
  8
_0-0_LAYER001
  6
CONTINUOUS
 62
    4
 10
1521.8193000000001
 20
1094.5120999999999
 11
1528.7622999999999
 21
1091.0376000000001
  0
LINE
  8
_0-0_LAYER001
  6
CONTINUOUS
 62
    4
 10
1528.7622999999999
 20
1091.0376000000001
 11
1533.0356999999999
 21
1089.1132
  0
LINE
  8
_0-0_LAYER001
  6
CONTINUOUS
 62
    4
 10
1533.0356999999999
 20
1089.1132
 11
1536.6408000000001
 21
1087.6152
  0
LINE
  8
_0-0_LAYER001
  6
CONTINUOUS
 62
    4
 10
1536.6408000000001
 20
1087.6152
 11
1542.6968999999999
 21
1085.3533
  0
LINE
  8
_0-0_LAYER001
  6
CONTINUOUS
 62
    4
 10
1542.6968999999999
 20
1085.3533
 11
1548.9468000000002
 21
1083.3423
  0
LINE
  8
_0-0_LAYER001
  6
CONTINUOUS
 62
    4
 10
1548.9468000000002
 20
1083.3423
 11
1555.2955000000002
 21
1081.6208999999999
  0
LINE
  8
_0-0_LAYER001
  6
CONTINUOUS
 62
    4
 10
1555.2955000000002
 20
1081.6208999999999
 11
1561.7298000000001
 21
1080.1980000000001
  0
LINE
  8
_0-0_LAYER001
  6
CONTINUOUS
 62
    4
 10
1561.7298000000001
 20
1080.1980000000001
 11
1568.1435000000001
 21
1079.0992000000001
  0
LINE
  8
_0-0_LAYER001
  6
CONTINUOUS
 62
    4
 10
1568.1435000000001
 20
1079.0992000000001
 11
1572.0023000000001
 21
1078.5905
  0
LINE
  8
_0-0_LAYER001
  6
CONTINUOUS
 62
    4
 10
1572.0023000000001
 20
1078.5905
 11
1574.9969000000001
 21
1078.2720999999999
  0
LINE
  8
_0-0_LAYER001
  6
CONTINUOUS
 62
    4
 10
1574.9969000000001
 20
1078.2720999999999
 11
1579.8892999999998
 21
1077.8898999999999
  0
LINE
  8
_0-0_LAYER001
  6
CONTINUOUS
 62
    4
 10
1579.8892999999998
 20
1077.8898999999999
 11
1584.7968999999998
 21
1077.6654000000001
  0
LINE
  8
_0-0_LAYER001
  6
CONTINUOUS
 62
    4
 10
1584.7968999999998
 20
1077.6654000000001
 11
1589.6442000000002
 21
1077.5825
  0
LINE
  8
_0-0_LAYER001
  6
CONTINUOUS
 62
    4
 10
1589.6442000000002
 20
1077.5825
 11
1594.4281000000001
 21
1077.6201000000001
  0
LINE
  8
_0-0_LAYER001
  6
CONTINUOUS
 62
    4
 10
1594.4281000000001
 20
1077.6201000000001
 11
1599.1158
 21
1077.7571
  0
LINE
  8
_0-0_LAYER001
  6
CONTINUOUS
 62
    4
 10
1599.1158
 20
1077.7571
 11
1601.893
 21
1077.8784000000001
  0
LINE
  8
_0-0_LAYER001
  6
CONTINUOUS
 62
    4
 10
1601.893
 20
1077.8784000000001
 11
1606.9252999999999
 21
1078.1638
  0
LINE
  8
_0-0_LAYER001
  6
CONTINUOUS
 62
    4
 10
1606.9252999999999
 20
1078.1638
 11
1615.4513999999999
 21
1078.8248000000001
  0
LINE
  8
_0-0_LAYER001
  6
CONTINUOUS
 62
    4
 10
1615.4513999999999
 20
1078.8248000000001
 11
1623.9362999999998
 21
1079.6751999999999
  0
LINE
  8
_0-0_LAYER001
  6
CONTINUOUS
 62
    4
 10
1623.9362999999998
 20
1079.6751999999999
 11
1632.3276000000001
 21
1080.6703
  0
LINE
  8
_0-0_LAYER001
  6
CONTINUOUS
 62
    4
 10
1632.3276000000001
 20
1080.6703
 11
1640.6282999999999
 21
1081.771
  0
LINE
  8
_0-0_LAYER001
  6
CONTINUOUS
 62
    4
 10
1640.6282999999999
 20
1081.771
 11
1648.8361
 21
1082.9382000000001
  0
LINE
  8
_0-0_LAYER001
  6
CONTINUOUS
 62
    4
 10
1648.8361
 20
1082.9382000000001
 11
1653.5731999999998
 21
1083.6337000000001
  0
LINE
  8
_0-0_LAYER001
  6
CONTINUOUS
 62
    4
 10
1653.5731999999998
 20
1083.6337000000001
 11
1656.0286000000001
 21
1083.9975999999999
  0
LINE
  8
_0-0_LAYER001
  6
CONTINUOUS
 62
    4
 10
1656.0286000000001
 20
1083.9975999999999
 11
1660.2426999999998
 21
1084.6261
  0
LINE
  8
_0-0_LAYER001
  6
CONTINUOUS
 62
    4
 10
1660.2426999999998
 20
1084.6261
 11
1664.4542000000001
 21
1085.2585999999999
  0
LINE
  8
_0-0_LAYER001
  6
CONTINUOUS
 62
    4
 10
1664.4542000000001
 20
1085.2585999999999
 11
1668.6610000000001
 21
1085.8937000000001
  0
LINE
  8
_0-0_LAYER001
  6
CONTINUOUS
 62
    4
 10
1668.6610000000001
 20
1085.8937000000001
 11
1672.8631999999998
 21
1086.5305000000001
  0
LINE
  8
_0-0_LAYER001
  6
CONTINUOUS
 62
    4
 10
1672.8631999999998
 20
1086.5305000000001
 11
1677.0610999999999
 21
1087.1681000000001
  0
LINE
  8
_0-0_LAYER001
  6
CONTINUOUS
 62
    4
 10
1677.0610999999999
 20
1087.1681000000001
 11
1678.6788000000001
 21
1087.414
  0
LINE
  8
_0-0_LAYER001
  6
CONTINUOUS
 62
    4
 10
1426.2235000000001
 20
1130.3801000000001
 11
1426.6495
 21
1130.5432000000001
  0
ARC
  8
_0-0_LAYER001
  6
CONTINUOUS
 62
    4
 10
1427.2961
 20
1127.5784000000001
 40
3
 50
110.94902000000002
 51
178.70000000000002
  0
LINE
  8
_0-0_LAYER001
  6
CONTINUOUS
 62
    4
 10
1424.1876
 20
1111.8072999999999
 11
1424.1876
 21
1127.5298
  0
LINE
  8
_0-0_LAYER001
  6
CONTINUOUS
 62
    4
 10
1425.5416
 20
1110.8721
 11
1431.7163999999998
 21
1113.2093
  0
ARC
  8
_0-0_LAYER001
  6
CONTINUOUS
 62
    4
 10
1425.1875999999997
 20
1111.8072999999999
 40
1
 50
180
 51
290.73165999999998
  0
LINE
  8
_0-0_LAYER001
  6
CONTINUOUS
 62
    4
 10
1676.9141
 20
1105.3688999999999
 11
1721.3683999999998
 21
1115.0168000000001
  0
LINE
  8
_0-0_LAYER001
  6
CONTINUOUS
 62
    4
 10
1683.6592999999998
 20
1085.5352
 11
1722.3310999999999
 21
1094.5852
  0
LINE
  8
_0-0_LAYER001
  6
CONTINUOUS
 62
    4
 10
1722.3310999999999
 20
1095.5417
 11
1722.3310999999999
 21
1094.5852
  0
ARC
  8
_0-0_LAYER001
  6
CONTINUOUS
 62
    4
 10
1723.3310999999999
 20
1095.5417
 40
1
 50
102.72435
 51
180
  0
LINE
  8
_0-0_LAYER001
  6
CONTINUOUS
 62
    4
 10
1728.1482000000001
 20
1097.6546000000001
 11
1723.1109000000001
 21
1096.5171
  0
ARC
  8
_0-0_LAYER001
  6
CONTINUOUS
 62
    4
 10
1728.3683999999998
 20
1096.6791000000001
 40
1
 50
0
 51
102.72435
  0
LINE
  8
_0-0_LAYER001
  6
CONTINUOUS
 62
    4
 10
1728.5805
 20
1098.163
 11
1678.4465
 21
1087.2825
  0
ARC
  8
_0-0_LAYER001
  6
CONTINUOUS
 62
    4
 10
1728.3683999999998
 20
1099.1403
 40
1
 50
282.24497000000002
 51
0
  0
LINE
  8
_0-0_LAYER001
  6
CONTINUOUS
 62
    4
 10
1728.5862999999999
 20
1077.4223
 11
1679.0023000000001
 21
1066.3543999999999
  0
LINE
  8
_0-0_LAYER001
  6
CONTINUOUS
 62
    4
 10
1729.3683999999998
 20
1078.3983000000001
 11
1729.3683999999998
 21
1096.6791000000001
  0
ARC
  8
_0-0_LAYER001
  6
CONTINUOUS
 62
    4
 10
1728.3683999999998
 20
1078.3983000000001
 40
1
 50
282.58296000000001
 51
0.0000000000000254
  0
LINE
  8
_0-0_LAYER001
  6
CONTINUOUS
 62
    4
 10
1721.3683999999998
 20
1116.4739
 11
1721.3683999999998
 21
1115.0168000000001
  0
ARC
  8
_0-0_LAYER001
  6
CONTINUOUS
 62
    4
 10
1722.3683999999998
 20
1116.4739
 40
1
 50
101.73308
 51
180
  0
LINE
  8
_0-0_LAYER001
  6
CONTINUOUS
 62
    4
 10
1728.1651000000002
 20
1118.6991
 11
1722.1651000000002
 21
1117.453
  0
LINE
  8
_0-0_LAYER001
  6
CONTINUOUS
 62
    4
 10
1729.3683999999998
 20
1117.72
 11
1729.3683999999998
 21
1099.1403
  0
ARC
  8
_0-0_LAYER001
  6
CONTINUOUS
 62
    4
 10
1728.3683999999998
 20
1117.72
 40
1
 50
0
 51
101.73308
  0
LINE
  8
_0-0_LAYER001
  6
CONTINUOUS
 62
    4
 10
1284.6378
 20
1046.8300999999999
 11
1276.1023
 21
1061.3634999999999
  0
LINE
  8
_0-0_LAYER001
  6
CONTINUOUS
 62
    4
 10
1292.8056999999999
 20
1046.1797999999999
 11
1301.1119000000003
 21
1056.2453
  0
ARC
  8
_0-0_LAYER001
  6
CONTINUOUS
 62
    4
 10
1288.9492
 20
1049.3622
 40
5
 50
210.42578
 51
320.47001
  0
LINE
  8
_0-0_LAYER001
  6
CONTINUOUS
 62
    4
 10
1368.7512999999999
 20
1045.71
 11
1361.4258999999997
 21
1057.0160000000001
  0
LINE
  8
_0-0_LAYER001
  6
CONTINUOUS
 62
    4
 10
1377.2608
 20
1045.8998999999999
 11
1386.1993000000002
 21
1061.1455000000001
  0
ARC
  8
_0-0_LAYER001
  6
CONTINUOUS
 62
    4
 10
1372.9475
 20
1048.4286999999999
 40
5
 50
212.93986000000001
 51
329.61716000000001
  0
LINE
  8
_0-0_LAYER001
  6
CONTINUOUS
 62
    4
 10
1416.5428999999999
 20
1085.4575
 11
1418.971
 21
1085.8614
  0
LINE
  8
_0-0_LAYER001
  6
CONTINUOUS
 62
    4
 10
1412.3538000000003
 20
1084.7612999999999
 11
1416.5428999999999
 21
1085.4575
  0
LINE
  8
_0-0_LAYER001
  6
CONTINUOUS
 62
    4
 10
1408.1600000000001
 20
1084.0657000000001
 11
1412.3538000000003
 21
1084.7612999999999
  0
LINE
  8
_0-0_LAYER001
  6
CONTINUOUS
 62
    4
 10
1403.9612999999999
 20
1083.3716999999999
 11
1408.1600000000001
 21
1084.0657000000001
  0
LINE
  8
_0-0_LAYER001
  6
CONTINUOUS
 62
    4
 10
1399.7572
 20
1082.6802
 11
1403.9612999999999
 21
1083.3716999999999
  0
LINE
  8
_0-0_LAYER001
  6
CONTINUOUS
 62
    4
 10
1395.5504000000001
 20
1081.9926
 11
1399.7572
 21
1082.6802
  0
LINE
  8
_0-0_LAYER001
  6
CONTINUOUS
 62
    4
 10
1393.0980999999999
 20
1081.5941
 11
1395.5504000000001
 21
1081.9926
  0
LINE
  8
_0-0_LAYER001
  6
CONTINUOUS
 62
    4
 10
1388.3652999999999
 20
1080.8316
 11
1393.0980999999999
 21
1081.5941
  0
LINE
  8
_0-0_LAYER001
  6
CONTINUOUS
 62
    4
 10
1380.1609000000003
 20
1079.5477000000001
 11
1388.3652999999999
 21
1080.8316
  0
LINE
  8
_0-0_LAYER001
  6
CONTINUOUS
 62
    4
 10
1371.8534
 20
1078.3279
 11
1380.1609000000003
 21
1079.5477000000001
  0
LINE
  8
_0-0_LAYER001
  6
CONTINUOUS
 62
    4
 10
1363.4450999999999
 20
1077.2114999999999
 11
1371.8534
 21
1078.3279
  0
LINE
  8
_0-0_LAYER001
  6
CONTINUOUS
 62
    4
 10
1354.9326000000001
 20
1076.2382
 11
1363.4450999999999
 21
1077.2114999999999
  0
LINE
  8
_0-0_LAYER001
  6
CONTINUOUS
 62
    4
 10
1346.3733999999999
 20
1075.4541999999999
 11
1354.9326000000001
 21
1076.2382
  0
LINE
  8
_0-0_LAYER001
  6
CONTINUOUS
 62
    4
 10
1341.3119000000002
 20
1075.0962
 11
1346.3733999999999
 21
1075.4541999999999
  0
LINE
  8
_0-0_LAYER001
  6
CONTINUOUS
 62
    4
 10
1338.5093000000002
 20
1074.9346
 11
1341.3119000000002
 21
1075.0962
  0
LINE
  8
_0-0_LAYER001
  6
CONTINUOUS
 62
    4
 10
1333.7882999999999
 20
1074.7306000000001
 11
1338.5093000000002
 21
1074.9346
  0
LINE
  8
_0-0_LAYER001
  6
CONTINUOUS
 62
    4
 10
1328.9590000000001
 20
1074.6251999999999
 11
1333.7882999999999
 21
1074.7306000000001
  0
LINE
  8
_0-0_LAYER001
  6
CONTINUOUS
 62
    4
 10
1324.0573999999997
 20
1074.6405
 11
1328.9590000000001
 21
1074.6251999999999
  0
LINE
  8
_0-0_LAYER001
  6
CONTINUOUS
 62
    4
 10
1319.0863999999999
 20
1074.7983999999999
 11
1324.0573999999997
 21
1074.6405
  0
LINE
  8
_0-0_LAYER001
  6
CONTINUOUS
 62
    4
 10
1314.1289999999999
 20
1075.1161
 11
1319.0863999999999
 21
1074.7983999999999
  0
LINE
  8
_0-0_LAYER001
  6
CONTINUOUS
 62
    4
 10
1311.0773999999997
 20
1075.3976
 11
1314.1289999999999
 21
1075.1161
  0
LINE
  8
_0-0_LAYER001
  6
CONTINUOUS
 62
    4
 10
1307.1485000000002
 20
1075.8598
 11
1311.0773999999997
 21
1075.3976
  0
LINE
  8
_0-0_LAYER001
  6
CONTINUOUS
 62
    4
 10
1300.6346000000003
 20
1076.8824
 11
1307.1485000000002
 21
1075.8598
  0
LINE
  8
_0-0_LAYER001
  6
CONTINUOUS
 62
    4
 10
1294.0879
 20
1078.2345
 11
1300.6346000000003
 21
1076.8824
  0
LINE
  8
_0-0_LAYER001
  6
CONTINUOUS
 62
    4
 10
1287.625
 20
1079.8904
 11
1294.0879
 21
1078.2345
  0
LINE
  8
_0-0_LAYER001
  6
CONTINUOUS
 62
    4
 10
1281.259
 20
1081.8411000000001
 11
1287.625
 21
1079.8904
  0
LINE
  8
_0-0_LAYER001
  6
CONTINUOUS
 62
    4
 10
1275.0943
 20
1084.046
 11
1281.259
 21
1081.8411000000001
  0
LINE
  8
_0-0_LAYER001
  6
CONTINUOUS
 62
    4
 10
1271.4076
 20
1085.5178000000001
 11
1275.0943
 21
1084.046
  0
LINE
  8
_0-0_LAYER001
  6
CONTINUOUS
 62
    4
 10
1267.0434
 20
1087.4103
 11
1271.4076
 21
1085.5178000000001
  0
LINE
  8
_0-0_LAYER001
  6
CONTINUOUS
 62
    4
 10
1259.9743000000001
 20
1090.8253
 11
1267.0434
 21
1087.4103
  0
LINE
  8
_0-0_LAYER001
  6
CONTINUOUS
 62
    4
 10
1253.0814
 20
1094.5549000000001
 11
1259.9743000000001
 21
1090.8253
  0
LINE
  8
_0-0_LAYER001
  6
CONTINUOUS
 62
    4
 10
1246.4444000000001
 20
1098.4885999999999
 11
1253.0814
 21
1094.5549000000001
  0
LINE
  8
_0-0_LAYER001
  6
CONTINUOUS
 62
    4
 10
1240.0351000000001
 20
1102.5709999999999
 11
1246.4444000000001
 21
1098.4885999999999
  0
LINE
  8
_0-0_LAYER001
  6
CONTINUOUS
 62
    4
 10
1233.8508999999999
 20
1106.7331999999999
 11
1240.0351000000001
 21
1102.5709999999999
  0
LINE
  8
_0-0_LAYER001
  6
CONTINUOUS
 62
    4
 10
1230.3085000000001
 20
1109.1968999999999
 11
1233.8508999999999
 21
1106.7331999999999
  0
LINE
  8
_0-0_LAYER001
  6
CONTINUOUS
 62
    4
 10
1228.0764999999999
 20
1110.7702999999999
 11
1230.3085000000001
 21
1109.1968999999999
  0
LINE
  8
_0-0_LAYER001
  6
CONTINUOUS
 62
    4
 10
1224.453
 20
1113.3095000000001
 11
1228.0764999999999
 21
1110.7702999999999
  0
LINE
  8
_0-0_LAYER001
  6
CONTINUOUS
 62
    4
 10
1221.0833
 20
1115.575
 11
1224.453
 21
1113.3095000000001
  0
LINE
  8
_0-0_LAYER001
  6
CONTINUOUS
 62
    4
 10
1217.9683
 20
1117.5020999999999
 11
1221.0833
 21
1115.575
  0
LINE
  8
_0-0_LAYER001
  6
CONTINUOUS
 62
    4
 10
1215.1011000000001
 20
1119.0578
 11
1217.9683
 21
1117.5020999999999
  0
LINE
  8
_0-0_LAYER001
  6
CONTINUOUS
 62
    4
 10
1212.27
 20
1120.3262999999999
 11
1215.1011000000001
 21
1119.0578
  0
LINE
  8
_0-0_LAYER001
  6
CONTINUOUS
 62
    4
 10
1210.8068000000001
 20
1120.8584000000001
 11
1212.27
 21
1120.3262999999999
  0
LINE
  8
_0-0_LAYER001
  6
CONTINUOUS
 62
    4
 10
1210.6257000000001
 20
1120.9164000000001
 11
1210.8068000000001
 21
1120.8584000000001
  0
LINE
  8
_0-0_LAYER001
  6
CONTINUOUS
 62
    4
 10
1209.8373999999999
 20
1121.1442999999999
 11
1210.6257000000001
 21
1120.9164000000001
  0
LINE
  8
_0-0_LAYER001
  6
CONTINUOUS
 62
    4
 10
1209.1803
 20
1121.307
 11
1209.8373999999999
 21
1121.1442999999999
  0
LINE
  8
_0-0_LAYER001
  6
CONTINUOUS
 62
    4
 10
1206.0138999999999
 20
1121.9492
 11
1209.1803
 21
1121.307
  0
LINE
  8
_0-0_LAYER001
  6
CONTINUOUS
 62
    4
 10
1412.5323000000001
 20
1066.27
 11
1414.1464000000001
 21
1066.5385000000001
  0
LINE
  8
_0-0_LAYER001
  6
CONTINUOUS
 62
    4
 10
1408.3436999999999
 20
1065.5737999999999
 11
1412.5323000000001
 21
1066.27
  0
LINE
  8
_0-0_LAYER001
  6
CONTINUOUS
 62
    4
 10
1404.1507999999999
 20
1064.8784000000001
 11
1408.3436999999999
 21
1065.5737999999999
  0
LINE
  8
_0-0_LAYER001
  6
CONTINUOUS
 62
    4
 10
1399.9532999999999
 20
1064.1847
 11
1404.1507999999999
 21
1064.8784000000001
  0
LINE
  8
_0-0_LAYER001
  6
CONTINUOUS
 62
    4
 10
1395.751
 20
1063.4935
 11
1399.9532999999999
 21
1064.1847
  0
LINE
  8
_0-0_LAYER001
  6
CONTINUOUS
 62
    4
 10
1391.5461
 20
1062.8061
 11
1395.751
 21
1063.4935
  0
LINE
  8
_0-0_LAYER001
  6
CONTINUOUS
 62
    4
 10
1389.0960999999998
 20
1062.4079999999999
 11
1391.5461
 21
1062.8061
  0
LINE
  8
_0-0_LAYER001
  6
CONTINUOUS
 62
    4
 10
1384.3690999999999
 20
1061.6465000000001
 11
1389.0960999999998
 21
1062.4079999999999
  0
LINE
  8
_0-0_LAYER001
  6
CONTINUOUS
 62
    4
 10
1376.1784
 20
1060.3648000000001
 11
1384.3690999999999
 21
1061.6465000000001
  0
LINE
  8
_0-0_LAYER001
  6
CONTINUOUS
 62
    4
 10
1367.8939
 20
1059.1483000000001
 11
1376.1784
 21
1060.3648000000001
  0
LINE
  8
_0-0_LAYER001
  6
CONTINUOUS
 62
    4
 10
1359.5173
 20
1058.0361
 11
1367.8939
 21
1059.1483000000001
  0
LINE
  8
_0-0_LAYER001
  6
CONTINUOUS
 62
    4
 10
1351.0451
 20
1057.0673999999999
 11
1359.5173
 21
1058.0361
  0
LINE
  8
_0-0_LAYER001
  6
CONTINUOUS
 62
    4
 10
1342.529
 20
1056.2873
 11
1351.0451
 21
1057.0673999999999
  0
LINE
  8
_0-0_LAYER001
  6
CONTINUOUS
 62
    4
 10
1337.5011999999997
 20
1055.9317000000001
 11
1342.529
 21
1056.2873
  0
LINE
  8
_0-0_LAYER001
  6
CONTINUOUS
 62
    4
 10
1334.7260000000001
 20
1055.7717
 11
1337.5011999999997
 21
1055.9317000000001
  0
LINE
  8
_0-0_LAYER001
  6
CONTINUOUS
 62
    4
 10
1330.0407
 20
1055.5693000000001
 11
1334.7260000000001
 21
1055.7717
  0
LINE
  8
_0-0_LAYER001
  6
CONTINUOUS
 62
    4
 10
1325.2577999999999
 20
1055.4648
 11
1330.0407
 21
1055.5693000000001
  0
LINE
  8
_0-0_LAYER001
  6
CONTINUOUS
 62
    4
 10
1320.4096999999999
 20
1055.48
 11
1325.2577999999999
 21
1055.4648
  0
LINE
  8
_0-0_LAYER001
  6
CONTINUOUS
 62
    4
 10
1315.4994999999999
 20
1055.636
 11
1320.4096999999999
 21
1055.48
  0
LINE
  8
_0-0_LAYER001
  6
CONTINUOUS
 62
    4
 10
1310.6022000000003
 20
1055.9499000000001
 11
1315.4994999999999
 21
1055.636
  0
LINE
  8
_0-0_LAYER001
  6
CONTINUOUS
 62
    4
 10
1307.6034999999999
 20
1056.2264
 11
1310.6022000000003
 21
1055.9499000000001
  0
LINE
  8
_0-0_LAYER001
  6
CONTINUOUS
 62
    4
 10
1303.7379000000001
 20
1056.6812
 11
1307.6034999999999
 21
1056.2264
  0
LINE
  8
_0-0_LAYER001
  6
CONTINUOUS
 62
    4
 10
1297.3095000000001
 20
1057.6903
 11
1303.7379000000001
 21
1056.6812
  0
LINE
  8
_0-0_LAYER001
  6
CONTINUOUS
 62
    4
 10
1290.8561
 20
1059.0232000000001
 11
1297.3095000000001
 21
1057.6903
  0
LINE
  8
_0-0_LAYER001
  6
CONTINUOUS
 62
    4
 10
1284.4838999999999
 20
1060.6558
 11
1290.8561
 21
1059.0232000000001
  0
LINE
  8
_0-0_LAYER001
  6
CONTINUOUS
 62
    4
 10
1278.2066
 20
1062.5794000000001
 11
1284.4838999999999
 21
1060.6558
  0
LINE
  8
_0-0_LAYER001
  6
CONTINUOUS
 62
    4
 10
1272.1195
 20
1064.7565999999999
 11
1278.2066
 21
1062.5794000000001
  0
LINE
  8
_0-0_LAYER001
  6
CONTINUOUS
 62
    4
 10
1268.4938
 20
1066.204
 11
1272.1195
 21
1064.7565999999999
  0
LINE
  8
_0-0_LAYER001
  6
CONTINUOUS
 62
    4
 10
1264.194
 20
1068.0686000000001
 11
1268.4938
 21
1066.204
  0
LINE
  8
_0-0_LAYER001
  6
CONTINUOUS
 62
    4
 10
1257.2030999999999
 20
1071.4458
 11
1264.194
 21
1068.0686000000001
  0
LINE
  8
_0-0_LAYER001
  6
CONTINUOUS
 62
    4
 10
1250.385
 20
1075.1349
 11
1257.2030999999999
 21
1071.4458
  0
LINE
  8
_0-0_LAYER001
  6
CONTINUOUS
 62
    4
 10
1243.8091999999999
 20
1079.0323000000001
 11
1250.385
 21
1075.1349
  0
LINE
  8
_0-0_LAYER001
  6
CONTINUOUS
 62
    4
 10
1237.4483
 20
1083.0839000000001
 11
1243.8091999999999
 21
1079.0323000000001
  0
LINE
  8
_0-0_LAYER001
  6
CONTINUOUS
 62
    4
 10
1231.2977000000001
 20
1087.2234000000001
 11
1237.4483
 21
1083.0839000000001
  0
LINE
  8
_0-0_LAYER001
  6
CONTINUOUS
 62
    4
 10
1227.7731000000001
 20
1089.6748
 11
1231.2977000000001
 21
1087.2234000000001
  0
LINE
  8
_0-0_LAYER001
  6
CONTINUOUS
 62
    4
 10
1225.5440000000001
 20
1091.2462
 11
1227.7731000000001
 21
1089.6748
  0
LINE
  8
_0-0_LAYER001
  6
CONTINUOUS
 62
    4
 10
1221.9023
 20
1093.7981
 11
1225.5440000000001
 21
1091.2462
  0
LINE
  8
_0-0_LAYER001
  6
CONTINUOUS
 62
    4
 10
1218.4852000000001
 20
1096.0954999999999
 11
1221.9023
 21
1093.7981
  0
LINE
  8
_0-0_LAYER001
  6
CONTINUOUS
 62
    4
 10
1215.2896000000001
 20
1098.0725
 11
1218.4852000000001
 21
1096.0954999999999
  0
LINE
  8
_0-0_LAYER001
  6
CONTINUOUS
 62
    4
 10
1212.3055999999999
 20
1099.6916000000001
 11
1215.2896000000001
 21
1098.0725
  0
LINE
  8
_0-0_LAYER001
  6
CONTINUOUS
 62
    4
 10
1206.0138999999999
 20
1102.5105000000001
 11
1212.3055999999999
 21
1099.6916000000001
  0
LINE
  8
_0-0_LAYER001
  6
CONTINUOUS
 62
    4
 10
1409.2478000000001
 20
1055.8488
 11
1407.0024000000001
 21
1064.4222
  0
ARC
  8
_0-0_LAYER001
  6
CONTINUOUS
 62
    4
 10
1412.1498999999999
 20
1056.6088999999999
 40
3
 50
194.67639000000003
 51
270.00000000000006
  0
LINE
  8
_0-0_LAYER001
  6
CONTINUOUS
 62
    4
 10
1415.5924
 20
1053.6045999999999
 11
1412.1746000000003
 21
1053.6045999999999
  0
LINE
  8
_0-0_LAYER001
  6
CONTINUOUS
 62
    4
 10
1418.5516000000002
 20
1056.1114
 11
1420.4856
 21
1067.7155
  0
ARC
  8
_0-0_LAYER001
  6
CONTINUOUS
 62
    4
 10
1415.5924
 20
1056.6045999999999
 40
3
 50
270
 51
350.53766999999999
  0
LINE
  8
_0-0_LAYER001
  6
CONTINUOUS
 62
    4
 10
1205.9824000000001
 20
1144.3027
 11
1207.4467999999999
 21
1144.1321
  0
LINE
  8
_0-0_LAYER001
  6
CONTINUOUS
 62
    4
 10
1207.4467999999999
 20
1144.1321
 11
1208.9078999999999
 21
1143.8853999999999
  0
LINE
  8
_0-0_LAYER001
  6
CONTINUOUS
 62
    4
 10
1208.9078999999999
 20
1143.8853999999999
 11
1210.3615
 21
1143.5694000000001
  0
LINE
  8
_0-0_LAYER001
  6
CONTINUOUS
 62
    4
 10
1210.3615
 20
1143.5694000000001
 11
1211.8036999999999
 21
1143.1909000000001
  0
LINE
  8
_0-0_LAYER001
  6
CONTINUOUS
 62
    4
 10
1211.8036999999999
 20
1143.1909000000001
 11
1213.2301
 21
1142.7566999999999
  0
LINE
  8
_0-0_LAYER001
  6
CONTINUOUS
 62
    4
 10
1213.2301
 20
1142.7566999999999
 11
1214.0486000000001
 21
1142.4820999999999
  0
LINE
  8
_0-0_LAYER001
  6
CONTINUOUS
 62
    4
 10
1214.0486000000001
 20
1142.4820999999999
 11
1216.5468000000001
 21
1141.5338999999999
  0
LINE
  8
_0-0_LAYER001
  6
CONTINUOUS
 62
    4
 10
1216.5468000000001
 20
1141.5338999999999
 11
1220.7057
 21
1139.6004
  0
LINE
  8
_0-0_LAYER001
  6
CONTINUOUS
 62
    4
 10
1220.7057
 20
1139.6004
 11
1224.7095999999999
 21
1137.355
  0
LINE
  8
_0-0_LAYER001
  6
CONTINUOUS
 62
    4
 10
1224.7095999999999
 20
1137.355
 11
1228.5963999999999
 21
1134.8747000000001
  0
LINE
  8
_0-0_LAYER001
  6
CONTINUOUS
 62
    4
 10
1228.5963999999999
 20
1134.8747000000001
 11
1232.4043999999999
 21
1132.2366
  0
LINE
  8
_0-0_LAYER001
  6
CONTINUOUS
 62
    4
 10
1232.4043999999999
 20
1132.2366
 11
1236.1717000000001
 21
1129.5174999999999
  0
LINE
  8
_0-0_LAYER001
  6
CONTINUOUS
 62
    4
 10
1236.1717000000001
 20
1129.5174999999999
 11
1238.3530000000001
 21
1127.9337
  0
LINE
  8
_0-0_LAYER001
  6
CONTINUOUS
 62
    4
 10
1238.3530000000001
 20
1127.9337
 11
1241.6846
 21
1125.5468000000001
  0
LINE
  8
_0-0_LAYER001
  6
CONTINUOUS
 62
    4
 10
1241.6846
 20
1125.5468000000001
 11
1247.4767999999999
 21
1121.5299
  0
LINE
  8
_0-0_LAYER001
  6
CONTINUOUS
 62
    4
 10
1247.4767999999999
 20
1121.5299
 11
1253.3489999999999
 21
1117.6732999999999
  0
LINE
  8
_0-0_LAYER001
  6
CONTINUOUS
 62
    4
 10
1253.3489999999999
 20
1117.6732999999999
 11
1259.3231000000001
 21
1114.0188000000001
  0
LINE
  8
_0-0_LAYER001
  6
CONTINUOUS
 62
    4
 10
1259.3231000000001
 20
1114.0188000000001
 11
1265.4213
 21
1110.6083000000001
  0
LINE
  8
_0-0_LAYER001
  6
CONTINUOUS
 62
    4
 10
1265.4213
 20
1110.6083000000001
 11
1271.6656
 21
1107.4835
  0
LINE
  8
_0-0_LAYER001
  6
CONTINUOUS
 62
    4
 10
1271.6656
 20
1107.4835
 11
1275.3629000000001
 21
1105.8185000000001
  0
LINE
  8
_0-0_LAYER001
  6
CONTINUOUS
 62
    4
 10
1275.3629000000001
 20
1105.8185000000001
 11
1278.4221
 21
1104.5473999999999
  0
LINE
  8
_0-0_LAYER001
  6
CONTINUOUS
 62
    4
 10
1278.4221
 20
1104.5473999999999
 11
1283.7826999999997
 21
1102.5452
  0
LINE
  8
_0-0_LAYER001
  6
CONTINUOUS
 62
    4
 10
1283.7826999999997
 20
1102.5452
 11
1289.2383999999997
 21
1100.7897
  0
LINE
  8
_0-0_LAYER001
  6
CONTINUOUS
 62
    4
 10
1289.2383999999997
 20
1100.7897
 11
1294.7732999999998
 21
1099.289
  0
LINE
  8
_0-0_LAYER001
  6
CONTINUOUS
 62
    4
 10
1294.7732999999998
 20
1099.289
 11
1300.3717000000001
 21
1098.0509999999999
  0
LINE
  8
_0-0_LAYER001
  6
CONTINUOUS
 62
    4
 10
1300.3717000000001
 20
1098.0509999999999
 11
1306.0174000000002
 21
1097.0836999999999
  0
LINE
  8
_0-0_LAYER001
  6
CONTINUOUS
 62
    4
 10
1306.0174000000002
 20
1097.0836999999999
 11
1309.3072999999999
 21
1096.6500000000001
  0
LINE
  8
_0-0_LAYER001
  6
CONTINUOUS
 62
    4
 10
1309.3072999999999
 20
1096.6500000000001
 11
1311.8265999999999
 21
1096.3822
  0
LINE
  8
_0-0_LAYER001
  6
CONTINUOUS
 62
    4
 10
1311.8265999999999
 20
1096.3822
 11
1316.1786999999999
 21
1096.0420999999999
  0
LINE
  8
_0-0_LAYER001
  6
CONTINUOUS
 62
    4
 10
1316.1786999999999
 20
1096.0420999999999
 11
1320.5389
 21
1095.8426999999999
  0
LINE
  8
_0-0_LAYER001
  6
CONTINUOUS
 62
    4
 10
1320.5389
 20
1095.8426999999999
 11
1324.9041
 21
1095.768
  0
LINE
  8
_0-0_LAYER001
  6
CONTINUOUS
 62
    4
 10
1324.9041
 20
1095.768
 11
1329.2713000000001
 21
1095.8024
  0
LINE
  8
_0-0_LAYER001
  6
CONTINUOUS
 62
    4
 10
1329.2713000000001
 20
1095.8024
 11
1333.6372000000001
 21
1095.9300000000001
  0
LINE
  8
_0-0_LAYER001
  6
CONTINUOUS
 62
    4
 10
1333.6372000000001
 20
1095.9300000000001
 11
1336.1676
 21
1096.0405000000001
  0
LINE
  8
_0-0_LAYER001
  6
CONTINUOUS
 62
    4
 10
1336.1676
 20
1096.0405000000001
 11
1340.8967000000002
 21
1096.3087
  0
LINE
  8
_0-0_LAYER001
  6
CONTINUOUS
 62
    4
 10
1340.8967000000002
 20
1096.3087
 11
1349.0349000000001
 21
1096.9395999999999
  0
LINE
  8
_0-0_LAYER001
  6
CONTINUOUS
 62
    4
 10
1349.0349000000001
 20
1096.9395999999999
 11
1357.1556
 21
1097.7535
  0
LINE
  8
_0-0_LAYER001
  6
CONTINUOUS
 62
    4
 10
1357.1556
 20
1097.7535
 11
1365.2615000000001
 21
1098.7148
  0
LINE
  8
_0-0_LAYER001
  6
CONTINUOUS
 62
    4
 10
1365.2615000000001
 20
1098.7148
 11
1373.3548999999998
 21
1099.788
  0
LINE
  8
_0-0_LAYER001
  6
CONTINUOUS
 62
    4
 10
1373.3548999999998
 20
1099.788
 11
1381.4384999999997
 21
1100.9376
  0
LINE
  8
_0-0_LAYER001
  6
CONTINUOUS
 62
    4
 10
1381.4384999999997
 20
1100.9376
 11
1386.1233999999999
 21
1101.6252999999999
  0
LINE
  8
_0-0_LAYER001
  6
CONTINUOUS
 62
    4
 10
1386.1233999999999
 20
1101.6252999999999
 11
1388.5582999999999
 21
1101.9862000000001
  0
LINE
  8
_0-0_LAYER001
  6
CONTINUOUS
 62
    4
 10
1388.5582999999999
 20
1101.9862000000001
 11
1392.7553
 21
1102.6122
  0
LINE
  8
_0-0_LAYER001
  6
CONTINUOUS
 62
    4
 10
1392.7553
 20
1102.6122
 11
1396.951
 21
1103.2422999999999
  0
LINE
  8
_0-0_LAYER001
  6
CONTINUOUS
 62
    4
 10
1396.951
 20
1103.2422999999999
 11
1401.1459
 21
1103.8756000000001
  0
LINE
  8
_0-0_LAYER001
  6
CONTINUOUS
 62
    4
 10
1401.1459
 20
1103.8756000000001
 11
1405.3399999999999
 21
1104.5111999999999
  0
LINE
  8
_0-0_LAYER001
  6
CONTINUOUS
 62
    4
 10
1405.3399999999999
 20
1104.5111999999999
 11
1409.5337999999997
 21
1105.1481000000001
  0
LINE
  8
_0-0_LAYER001
  6
CONTINUOUS
 62
    4
 10
1409.5337999999997
 20
1105.1481000000001
 11
1411.9661000000001
 21
1105.5179000000001
  0
LINE
  8
_0-0_LAYER001
  6
CONTINUOUS
 62
    4
 10
1206.0138999999999
 20
1126.0941
 11
1206.163
 21
1126.0617
  0
LINE
  8
_0-0_LAYER001
  6
CONTINUOUS
 62
    4
 10
1206.163
 20
1126.0617
 11
1206.8966
 21
1125.8692000000001
  0
LINE
  8
_0-0_LAYER001
  6
CONTINUOUS
 62
    4
 10
1206.8966
 20
1125.8692000000001
 11
1207.7456999999999
 21
1125.6107
  0
LINE
  8
_0-0_LAYER001
  6
CONTINUOUS
 62
    4
 10
1207.7456999999999
 20
1125.6107
 11
1207.9898000000001
 21
1125.5288
  0
LINE
  8
_0-0_LAYER001
  6
CONTINUOUS
 62
    4
 10
1207.9898000000001
 20
1125.5288
 11
1209.5497
 21
1124.9367
  0
LINE
  8
_0-0_LAYER001
  6
CONTINUOUS
 62
    4
 10
1209.5497
 20
1124.9367
 11
1212.4974
 21
1123.5663
  0
LINE
  8
_0-0_LAYER001
  6
CONTINUOUS
 62
    4
 10
1212.4974
 20
1123.5663
 11
1215.4585
 21
1121.9057
  0
LINE
  8
_0-0_LAYER001
  6
CONTINUOUS
 62
    4
 10
1215.4585
 20
1121.9057
 11
1218.6261999999999
 21
1119.8843999999999
  0
LINE
  8
_0-0_LAYER001
  6
CONTINUOUS
 62
    4
 10
1218.6261999999999
 20
1119.8843999999999
 11
1222.0109
 21
1117.5393999999999
  0
LINE
  8
_0-0_LAYER001
  6
CONTINUOUS
 62
    4
 10
1222.0109
 20
1117.5393999999999
 11
1225.6166000000001
 21
1114.9369999999999
  0
LINE
  8
_0-0_LAYER001
  6
CONTINUOUS
 62
    4
 10
1225.6166000000001
 20
1114.9369999999999
 11
1227.8235999999999
 21
1113.3344999999999
  0
LINE
  8
_0-0_LAYER001
  6
CONTINUOUS
 62
    4
 10
1227.8235999999999
 20
1113.3344999999999
 11
1231.3136
 21
1110.8342
  0
LINE
  8
_0-0_LAYER001
  6
CONTINUOUS
 62
    4
 10
1231.3136
 20
1110.8342
 11
1237.4057
 21
1106.6093000000001
  0
LINE
  8
_0-0_LAYER001
  6
CONTINUOUS
 62
    4
 10
1237.4057
 20
1106.6093000000001
 11
1243.7094999999999
 21
1102.4692
  0
LINE
  8
_0-0_LAYER001
  6
CONTINUOUS
 62
    4
 10
1243.7094999999999
 20
1102.4692
 11
1250.2302
 21
1098.4803999999999
  0
LINE
  8
_0-0_LAYER001
  6
CONTINUOUS
 62
    4
 10
1250.2302
 20
1098.4803999999999
 11
1256.9961000000001
 21
1094.6964
  0
LINE
  8
_0-0_LAYER001
  6
CONTINUOUS
 62
    4
 10
1256.9961000000001
 20
1094.6964
 11
1263.9392
 21
1091.2219
  0
LINE
  8
_0-0_LAYER001
  6
CONTINUOUS
 62
    4
 10
1263.9392
 20
1091.2219
 11
1268.2126000000001
 21
1089.2974999999999
  0
LINE
  8
_0-0_LAYER001
  6
CONTINUOUS
 62
    4
 10
1268.2126000000001
 20
1089.2974999999999
 11
1271.8177000000001
 21
1087.7996000000001
  0
LINE
  8
_0-0_LAYER001
  6
CONTINUOUS
 62
    4
 10
1271.8177000000001
 20
1087.7996000000001
 11
1277.8738000000001
 21
1085.5376000000001
  0
LINE
  8
_0-0_LAYER001
  6
CONTINUOUS
 62
    4
 10
1277.8738000000001
 20
1085.5376000000001
 11
1284.1235999999999
 21
1083.5265999999999
  0
LINE
  8
_0-0_LAYER001
  6
CONTINUOUS
 62
    4
 10
1284.1235999999999
 20
1083.5265999999999
 11
1290.4724000000001
 21
1081.8052
  0
LINE
  8
_0-0_LAYER001
  6
CONTINUOUS
 62
    4
 10
1290.4724000000001
 20
1081.8052
 11
1296.9066
 21
1080.3823
  0
LINE
  8
_0-0_LAYER001
  6
CONTINUOUS
 62
    4
 10
1296.9066
 20
1080.3823
 11
1303.3203000000001
 21
1079.2836
  0
LINE
  8
_0-0_LAYER001
  6
CONTINUOUS
 62
    4
 10
1303.3203000000001
 20
1079.2836
 11
1307.1791000000003
 21
1078.7747999999999
  0
LINE
  8
_0-0_LAYER001
  6
CONTINUOUS
 62
    4
 10
1307.1791000000003
 20
1078.7747999999999
 11
1310.1737000000001
 21
1078.4564
  0
LINE
  8
_0-0_LAYER001
  6
CONTINUOUS
 62
    4
 10
1310.1737000000001
 20
1078.4564
 11
1315.0662
 21
1078.0742
  0
LINE
  8
_0-0_LAYER001
  6
CONTINUOUS
 62
    4
 10
1315.0662
 20
1078.0742
 11
1319.9737
 21
1077.8497
  0
LINE
  8
_0-0_LAYER001
  6
CONTINUOUS
 62
    4
 10
1319.9737
 20
1077.8497
 11
1324.8210999999997
 21
1077.7668000000001
  0
LINE
  8
_0-0_LAYER001
  6
CONTINUOUS
 62
    4
 10
1324.8210999999997
 20
1077.7668000000001
 11
1329.605
 21
1077.8045
  0
LINE
  8
_0-0_LAYER001
  6
CONTINUOUS
 62
    4
 10
1329.605
 20
1077.8045
 11
1334.2927
 21
1077.9414999999999
  0
LINE
  8
_0-0_LAYER001
  6
CONTINUOUS
 62
    4
 10
1334.2927
 20
1077.9414999999999
 11
1337.0697999999998
 21
1078.0626999999999
  0
LINE
  8
_0-0_LAYER001
  6
CONTINUOUS
 62
    4
 10
1337.0697999999998
 20
1078.0626999999999
 11
1342.1021000000001
 21
1078.3480999999999
  0
LINE
  8
_0-0_LAYER001
  6
CONTINUOUS
 62
    4
 10
1342.1021000000001
 20
1078.3480999999999
 11
1350.6283000000003
 21
1079.0092
  0
LINE
  8
_0-0_LAYER001
  6
CONTINUOUS
 62
    4
 10
1350.6283000000003
 20
1079.0092
 11
1359.1131999999998
 21
1079.8595
  0
LINE
  8
_0-0_LAYER001
  6
CONTINUOUS
 62
    4
 10
1359.1131999999998
 20
1079.8595
 11
1367.5045
 21
1080.8547000000001
  0
LINE
  8
_0-0_LAYER001
  6
CONTINUOUS
 62
    4
 10
1367.5045
 20
1080.8547000000001
 11
1375.8052
 21
1081.9553000000001
  0
LINE
  8
_0-0_LAYER001
  6
CONTINUOUS
 62
    4
 10
1375.8052
 20
1081.9553000000001
 11
1384.0128999999999
 21
1083.1225999999999
  0
LINE
  8
_0-0_LAYER001
  6
CONTINUOUS
 62
    4
 10
1384.0128999999999
 20
1083.1225999999999
 11
1388.7501
 21
1083.818
  0
LINE
  8
_0-0_LAYER001
  6
CONTINUOUS
 62
    4
 10
1388.7501
 20
1083.818
 11
1391.2054000000001
 21
1084.1819
  0
LINE
  8
_0-0_LAYER001
  6
CONTINUOUS
 62
    4
 10
1391.2054000000001
 20
1084.1819
 11
1395.4195
 21
1084.8105
  0
LINE
  8
_0-0_LAYER001
  6
CONTINUOUS
 62
    4
 10
1395.4195
 20
1084.8105
 11
1399.6311000000001
 21
1085.4429
  0
LINE
  8
_0-0_LAYER001
  6
CONTINUOUS
 62
    4
 10
1399.6311000000001
 20
1085.4429
 11
1403.8378
 21
1086.078
  0
LINE
  8
_0-0_LAYER001
  6
CONTINUOUS
 62
    4
 10
1403.8378
 20
1086.078
 11
1408.04
 21
1086.7148
  0
LINE
  8
_0-0_LAYER001
  6
CONTINUOUS
 62
    4
 10
1408.04
 20
1086.7148
 11
1412.2379000000001
 21
1087.3524
  0
LINE
  8
_0-0_LAYER001
  6
CONTINUOUS
 62
    4
 10
1412.2379000000001
 20
1087.3524
 11
1413.8555999999999
 21
1087.5983000000001
  0
LINE
  8
_0-0_LAYER001
  6
CONTINUOUS
 62
    4
 10
1424.3643999999999
 20
1090.6695
 11
1424.3643999999999
 21
1107.8668
  0
LINE
  8
_0-0_LAYER001
  6
CONTINUOUS
 62
    4
 10
1412.0909999999999
 20
1105.5533
 11
1456.5453000000002
 21
1115.2012
  0
LINE
  8
_0-0_LAYER001
  6
CONTINUOUS
 62
    4
 10
1418.8362000000002
 20
1085.7195999999999
 11
1457.5079999999998
 21
1094.7695000000001
  0
LINE
  8
_0-0_LAYER001
  6
CONTINUOUS
 62
    4
 10
1457.5079999999998
 20
1095.7260000000001
 11
1457.5079999999998
 21
1094.7695000000001
  0
ARC
  8
_0-0_LAYER001
  6
CONTINUOUS
 62
    4
 10
1458.5079999999998
 20
1095.7260000000001
 40
1
 50
102.72435
 51
180
  0
LINE
  8
_0-0_LAYER001
  6
CONTINUOUS
 62
    4
 10
1463.3249999999998
 20
1097.8389
 11
1458.2876999999999
 21
1096.7014999999999
  0
ARC
  8
_0-0_LAYER001
  6
CONTINUOUS
 62
    4
 10
1463.5453000000002
 20
1096.8634999999999
 40
1
 50
0
 51
102.72435
  0
LINE
  8
_0-0_LAYER001
  6
CONTINUOUS
 62
    4
 10
1463.7574
 20
1098.3474000000001
 11
1413.6233999999999
 21
1087.4667999999999
  0
ARC
  8
_0-0_LAYER001
  6
CONTINUOUS
 62
    4
 10
1463.5453000000002
 20
1099.3245999999999
 40
1
 50
282.24497000000002
 51
0
  0
LINE
  8
_0-0_LAYER001
  6
CONTINUOUS
 62
    4
 10
1463.7631000000001
 20
1077.6066000000001
 11
1414.1792
 21
1066.5388
  0
LINE
  8
_0-0_LAYER001
  6
CONTINUOUS
 62
    4
 10
1464.5453000000002
 20
1078.5826
 11
1464.5453000000002
 21
1096.8634999999999
  0
ARC
  8
_0-0_LAYER001
  6
CONTINUOUS
 62
    4
 10
1463.5453000000002
 20
1078.5826
 40
1
 50
282.58296000000001
 51
0.0000000000000254
  0
LINE
  8
_0-0_LAYER001
  6
CONTINUOUS
 62
    4
 10
1456.5453000000002
 20
1116.6582000000001
 11
1456.5453000000002
 21
1115.2012
  0
ARC
  8
_0-0_LAYER001
  6
CONTINUOUS
 62
    4
 10
1457.5453000000002
 20
1116.6582000000001
 40
1
 50
101.73308
 51
180
  0
LINE
  8
_0-0_LAYER001
  6
CONTINUOUS
 62
    4
 10
1463.3418999999999
 20
1118.8834999999999
 11
1457.3418999999999
 21
1117.6373000000001
  0
LINE
  8
_0-0_LAYER001
  6
CONTINUOUS
 62
    4
 10
1464.5453000000002
 20
1117.9043999999999
 11
1464.5453000000002
 21
1099.3245999999999
  0
ARC
  8
_0-0_LAYER001
  6
CONTINUOUS
 62
    4
 10
1463.5453000000002
 20
1117.9043999999999
 40
1
 50
0
 51
101.73308
  0
LINE
  8
_0-0_LAYER001
  6
DASHED1
 62
    2
 10
1528.7624000000001
 20
1087.6913
 11
1544.7624000000001
 21
1087.6913
  0
LINE
  8
_0-0_LAYER001
  6
DASHED1
 62
    2
 10
1544.7624000000001
 20
1087.6913
 11
1544.7624000000001
 21
1084.6913
  0
LINE
  8
_0-0_LAYER001
  6
DASHED1
 62
    2
 10
1528.7624000000001
 20
1087.6913
 11
1528.7624000000001
 21
1084.6913
  0
LINE
  8
_0-0_LAYER001
  6
DASHED1
 62
    2
 10
1528.7624000000001
 20
1084.6913
 11
1544.7624000000001
 21
1084.6913
  0
LINE
  8
_0-0_LAYER001
  6
DASHED1
 62
    2
 10
1539.7624000000001
 20
1029.7952
 11
1536.7121999999999
 21
1015.2863
  0
LINE
  8
_0-0_LAYER001
  6
DASHED1
 62
    2
 10
1539.7624000000001
 20
1084.6913
 11
1539.7624000000001
 21
1029.7952
  0
LINE
  8
_0-0_LAYER001
  6
DASHED1
 62
    2
 10
1536.7121999999999
 20
1015.2863
 11
1533.7624000000001
 21
1029.5437999999999
  0
LINE
  8
_0-0_LAYER001
  6
DASHED1
 62
    2
 10
1533.7624000000001
 20
1084.6913
 11
1533.7624000000001
 21
1029.5437999999999
  0
LINE
  8
_0-0_LAYER001
  6
CONTINUOUS
 62
    7
 10
946.10169999999994
 20
1365.2458999999999
 11
1093.7635
 21
1365.2458999999999
  0
LINE
  8
_0-0_LAYER001
  6
CONTINUOUS
 62
    7
 10
1195.7635
 20
1460.9323999999997
 11
1287.7635
 21
1460.9323999999997
  0
LINE
  8
_0-0_LAYER001
  6
CONTINUOUS
 62
    7
 10
1193.7635
 20
1478.0540999999998
 11
1193.7635
 21
1323.1047970345935
  0
LINE
  8
_0-0_LAYER001
  6
CONTINUOUS
 62
    7
 10
1193.7635310185394
 20
1323.1047970345935
 11
1178.1635000000001
 21
1323.1047970345935
  0
LINE
  8
_0-0_LAYER001
  6
CONTINUOUS
 62
    7
 10
1178.1635000000001
 20
1323.1048000000001
 11
1178.1635000000001
 21
1304.3848
  0
LINE
  8
_0-0_LAYER001
  6
CONTINUOUS
 62
    7
 10
1180.2435
 20
1304.3848
 11
1198.1635000000001
 21
1304.3848
  0
LINE
  8
_0-0_LAYER001
  6
CONTINUOUS
 62
    7
 10
1178.1635000000001
 20
1302.3047999999999
 11
1193.7635
 21
1302.3047999999999
  0
LINE
  8
_0-0_LAYER001
  6
CONTINUOUS
 62
    7
 10
1193.7635
 20
1302.3047999999999
 11
1193.7635
 21
981.84059999999999
  0
LINE
  8
_0-0_LAYER001
  6
CONTINUOUS
 62
    7
 10
1193.7635
 20
981.84059999999999
 11
1094.8952900667621
 21
981.84059999999999
  0
LINE
  8
_0-0_LAYER001
  6
CONTINUOUS
 62
    7
 10
948.62619999999993
 20
1031.8406
 11
896.12619999999993
 21
1031.8406
  0
LINE
  8
_0-0_LAYER001
  6
CONTINUOUS
 62
    7
 10
898.62619999999993
 20
1031.8406
 11
898.62619999999993
 21
1231.8406
  0
LINE
  8
_0-0_LAYER001
  6
CONTINUOUS
 62
    7
 10
896.92619999999988
 20
1231.8406
 11
948.62619999999993
 21
1231.8406
  0
LINE
  8
_0-0_LAYER001
  6
CONTINUOUS
 62
    7
 10
1049.6465000000001
 20
1031.8406
 11
997.94650000000001
 21
1031.8406
  0
LINE
  8
_0-0_LAYER001
  6
CONTINUOUS
 62
    7
 10
999.64650000000006
 20
1031.8406
 11
999.64650000000006
 21
1323.7501
  0
LINE
  8
_0-0_LAYER001
  6
CONTINUOUS
 62
    7
 10
997.94650000000001
 20
1323.7501
 11
1049.6465000000001
 21
1323.7501
  0
LINE
  8
_0-0_LAYER001
  6
CONTINUOUS
 62
    7
 10
997.94650000000001
 20
1303.7501
 11
1049.6465000000001
 21
1303.7501
  0
LINE
  8
_0-0_LAYER001
  6
CONTINUOUS
 62
    7
 10
997.94650000000001
 20
1213.7501
 11
1049.6465000000001
 21
1213.7501
  0
LINE
  8
_0-0_LAYER001
  6
CONTINUOUS
 62
    7
 10
997.94650000000001
 20
1151.8406
 11
1049.6465000000001
 21
1151.8406
  0
LINE
  8
_0-1_LAYER004
  6
CONTINUOUS
 62
    7
 10
1093.7635
 20
1365.2458999999999
 11
1093.7635
 21
981.84059999999999
  0
LINE
  8
_0-1_LAYER004
  6
CONTINUOUS
 62
    7
 10
827.27559999999994
 20
922.13650000000007
 11
1060.4250999999999
 21
922.13650000000007
  0
LINE
  8
_0-1_LAYER004
  6
CONTINUOUS
 62
    7
 10
990.8728000000001
 20
862.65229999999997
 11
1069.7352000000001
 21
862.65229999999997
  0
LINE
  8
_0-1_LAYER004
  6
CONTINUOUS
 62
    7
 10
1203.7635
 20
978.64059999999995
 11
1203.7635
 21
881.84059999999999
  0
LINE
  8
_0-1_LAYER004
  6
CONTINUOUS
 62
    7
 10
1203.7635
 20
881.84059999999999
 11
2142.7242999999999
 21
881.84059999999999
  0
LINE
  8
_0-1_LAYER004
  6
CONTINUOUS
 62
    7
 10
2142.7242999999999
 20
981.84059999999999
 11
1193.7635
 21
981.84059999999999
  0
LINE
  8
_0-1_LAYER004
  6
CONTINUOUS
 62
    7
 10
1193.7635
 20
1031.8406
 11
2142.7242999999999
 21
1031.8406
  0
LINE
  8
_0-1_LAYER004
  6
CONTINUOUS
 62
    7
 10
2142.7242999999999
 20
1033.8406
 11
1195.7635
 21
1033.8406
  0
LINE
  8
_0-1_LAYER004
  6
CONTINUOUS
 62
    7
 10
1195.7635
 20
1033.8406
 11
1195.7635
 21
1302.3047999999999
  0
LINE
  8
_0-1_LAYER004
  6
CONTINUOUS
 62
    7
 10
1198.1635000000001
 20
1304.3848
 11
1198.1635000000001
 21
1271.9048
  0
LINE
  8
_0-1_LAYER004
  6
CONTINUOUS
 62
    7
 10
1180.2435
 20
1304.3848
 11
1180.2435
 21
1323.1047970345935
  0
LINE
  8
_0-1_LAYER004
  6
CONTINUOUS
 62
    7
 10
1178.1635000000001
 20
1304.3848
 11
1178.1635000000001
 21
1302.3047999999999
  0
LINE
  8
_0-1_LAYER004
  6
CONTINUOUS
 62
    7
 10
1195.7635
 20
1463.4323999999997
 11
1195.7635
 21
1445.9323999999997
  0
LINE
  8
_0-1_LAYER004
  6
CONTINUOUS
 62
    7
 10
1287.7635
 20
1462.6324
 11
1287.7635
 21
1445.9323999999997
  0
LINE
  8
_0-1_LAYER004
  6
CONTINUOUS
 62
    7
 10
1279.8171
 20
1400.1577
 11
1426.8171000000002
 21
1400.1577
  0
LINE
  8
_0-1_LAYER004
  6
CONTINUOUS
 62
    7
 10
1193.7635
 20
1156.8406
 11
1223.7635
 21
1156.8406
  0
LINE
  8
_0-1_LAYER004
  6
CONTINUOUS
 62
    7
 10
1223.7635
 20
1156.8406
 11
1223.7635
 21
1191.5507
  0
LINE
  8
_0-1_LAYER004
  6
CONTINUOUS
 62
    7
 10
1217.7636
 20
1179.8405
 11
1217.7636
 21
1173.8406
  0
LINE
  8
_0-1_LAYER004
  6
CONTINUOUS
 62
    7
 10
1217.7636
 20
1173.8406
 11
1193.7635
 21
1173.8406
  0
LINE
  8
_0-1_LAYER004
  6
CONTINUOUS
 62
    7
 10
1217.7636
 20
1179.8405
 11
1194.2440999999999
 21
1179.8405
  0
LINE
  8
_0-1_LAYER004
  6
CONTINUOUS
 62
    7
 10
1175.5636
 20
1181.0916999999999
 11
1193.7635
 21
1181.0916999999999
  0
LINE
  8
_0-1_LAYER004
  6
CONTINUOUS
 62
    7
 10
1175.5636
 20
1172.5906
 11
1193.7635
 21
1172.5906
  0
LINE
  8
_0-1_LAYER004
  6
CONTINUOUS
 62
    7
 10
1216.4735000000001
 20
1188.5945999999999
 11
1216.4735000000001
 21
1170.3117999999999
  0
LINE
  8
_0-1_LAYER004
  6
CONTINUOUS
 62
    7
 10
1216.4735000000001
 20
1170.3117999999999
 11
1233.7855999999999
 21
1170.3117999999999
  0
LINE
  8
_0-1_LAYER004
  6
CONTINUOUS
 62
    7
 10
1233.7855999999999
 20
1170.3117999999999
 11
1233.7855999999999
 21
1188.5945999999999
  0
LINE
  8
_0-1_LAYER004
  6
CONTINUOUS
 62
    7
 10
1233.7855999999999
 20
1188.5945999999999
 11
1216.4735000000001
 21
1188.5945999999999
  0
LINE
  8
_0-1_LAYER004
  6
CONTINUOUS
 62
    7
 10
1249.0037
 20
1153.4824000000001
 11
1249.0037
 21
1136.1946
  0
LINE
  8
_0-1_LAYER004
  6
CONTINUOUS
 62
    7
 10
1197.7635
 20
1146.8406
 11
1197.7635
 21
1035.8406
  0
LINE
  8
_0-1_LAYER004
  6
CONTINUOUS
 62
    7
 10
1197.7635
 20
1035.8406
 11
1313.7635
 21
1035.8406
  0
LINE
  8
_0-1_LAYER004
  6
CONTINUOUS
 62
    7
 10
1313.7635
 20
1035.8406
 11
1313.7635
 21
1053.5834
  0
LINE
  8
_0-1_LAYER004
  6
CONTINUOUS
 62
    7
 10
1315.7636
 20
1052.8406
 11
1315.7636
 21
1037.8406
  0
LINE
  8
_0-1_LAYER004
  6
CONTINUOUS
 62
    7
 10
1315.7636
 20
1037.8406
 11
2142.7242999999999
 21
1037.8406
  0
LINE
  8
_0-1_LAYER004
  6
CONTINUOUS
 62
    7
 10
2142.7242999999999
 20
1052.8406
 11
1315.7636
 21
1052.8406
  0
LINE
  8
_0-1_LAYER004
  6
CONTINUOUS
 62
    7
 10
1193.7635
 20
882.33600000000001
 11
1193.7635
 21
832.33600000000001
  0
LINE
  8
_0-1_LAYER004
  6
CONTINUOUS
 62
    7
 10
1193.7635
 20
830.63600000000008
 11
1193.7635
 21
832.33600000000001
  0
LINE
  8
_0-1_LAYER004
  6
CONTINUOUS
 62
    7
 10
1193.7635
 20
832.33600000000001
 11
1313.7635
 21
832.33600000000001
  0
LINE
  8
_0-1_LAYER004
  6
CONTINUOUS
 62
    7
 10
1313.7635
 20
830.63600000000008
 11
1313.7635
 21
882.33600000000001
  0
LINE
  8
_0-1_LAYER004
  6
CONTINUOUS
 62
    7
 10
1203.9032999999999
 20
827.21440000000007
 11
1203.9032999999999
 21
775.51440000000014
  0
LINE
  8
_0-1_LAYER004
  6
CONTINUOUS
 62
    7
 10
1203.9032999999999
 20
777.21440000000007
 11
1953.9032999999999
 21
777.21440000000007
  0
LINE
  8
_0-1_LAYER004
  6
CONTINUOUS
 62
    7
 10
1953.9032999999999
 20
775.51440000000014
 11
1953.9032999999999
 21
827.21440000000007
  0
LINE
  8
_0-1_LAYER004
  6
CONTINUOUS
 62
    7
 10
1688.9032999999999
 20
775.51440000000014
 11
1688.9032999999999
 21
827.21440000000007
  0
LINE
  8
_0-1_LAYER004
  6
CONTINUOUS
 62
    7
 10
1423.9032999999999
 20
775.51440000000014
 11
1423.9032999999999
 21
827.21440000000007
  0
LINE
  8
_0-1_LAYER004
  6
CONTINUOUS
 62
    7
 10
1649.2604999999999
 20
711.77420000000006
 11
1854.0832
 21
711.77420000000006
  0
LINE
  8
_0-1_LAYER004
  6
CONTINUOUS
 62
    7
 10
1656.8190640396822
 20
681.90769999999998
 11
1998.9342999999999
 21
681.90769999999998
  0
LINE
  8
_0-1_LAYER004
  6
CONTINUOUS
 62
    7
 10
1665.7127
 20
651.81230000000005
 11
1877.3629999999998
 21
651.81230000000005
  0
LINE
  8
_0-1_LAYER004
  6
CONTINUOUS
 62
    7
 10
1672.8858
 20
621.94579999999996
 11
1993.8858
 21
621.94579999999996
  0
LINE
  8
_0-1_LAYER004
  6
CONTINUOUS
 62
    7
 10
1188.7463
 20
1315.6195
 11
1186.8052
 21
1322.8639000000001
  0
LINE
  8
_0-1_LAYER004
  6
CONTINUOUS
 62
    7
 10
1188.7463
 20
1315.6195
 11
1183.443
 21
1320.9228000000003
  0
LINE
  8
_0-1_LAYER004
  6
CONTINUOUS
 62
    7
 10
1188.7463
 20
1315.6195
 11
1128.0328999999999
 21
1410.7781
  0
LINE
  8
_0-1_LAYER004
  6
CONTINUOUS
 62
    7
 10
1093.7635
 20
1365.2458999999999
 11
1202.3163999999999
 21
1176.0806
  0
LINE
  8
_0-1_LAYER004
  6
CONTINUOUS
 62
    7
 10
1202.3163999999999
 20
1176.0806
 11
1200.3751999999999
 21
1183.3251
  0
LINE
  8
_0-1_LAYER004
  6
CONTINUOUS
 62
    7
 10
1202.3163999999999
 20
1176.0806
 11
1197.0130999999999
 21
1181.3839
  0
LINE
  8
_0-1_LAYER004
  6
CONTINUOUS
 62
    7
 10
1193.7635
 20
1179.8405
 11
1194.2440999999999
 21
1179.8405
  0
LINE
  8
_0-1_LAYER004
  6
CONTINUOUS
 62
    7
 10
1203.4096
 20
1181.3323
 11
1203.6179999999999
 21
1172.4495999999999
  0
LINE
  8
_0-1_LAYER004
  6
CONTINUOUS
 62
    7
 10
1203.6179999999999
 20
1172.4495999999999
 11
1207.0597
 21
1180.6885
  0
LINE
  8
_0-1_LAYER004
  6
CONTINUOUS
 62
    7
 10
1207.0597
 20
1180.6885
 11
1211.7493999999999
 21
1207.2819
  0
LINE
  8
_0-1_LAYER004
  6
CONTINUOUS
 62
    7
 10
1211.7493999999999
 20
1207.2819
 11
1214.5853989965929
 21
1208.4004996042272
  0
LINE
  8
_0-1_LAYER004
  6
CONTINUOUS
 62
    7
 10
1208.0995
 20
1207.9241999999999
 11
1205.8159000000001
 21
1209.9467999999999
  0
LINE
  8
_0-1_LAYER004
  6
CONTINUOUS
 62
    7
 10
1208.0995
 20
1207.9241999999999
 11
1203.4096
 21
1181.3323
  0
LINE
  8
_0-1_LAYER004
  6
CONTINUOUS
 62
    7
 10
1193.7635
 20
1196.8406
 11
1196.3681999999999
 21
1211.6126999999999
  0
LINE
  8
_0-1_LAYER004
  6
CONTINUOUS
 62
    7
 10
1196.3681999999999
 20
1211.6126999999999
 11
1285.0008
 21
1195.9843000000001
  0
LINE
  8
_0-1_LAYER004
  6
CONTINUOUS
 62
    7
 10
1285.0008
 20
1195.9843000000001
 11
1282.3962000000001
 21
1181.2121999999999
  0
LINE
  8
_0-1_LAYER004
  6
CONTINUOUS
 62
    7
 10
1282.3962000000001
 20
1181.2121999999999
 11
1193.7635
 21
1196.8406
  0
LINE
  8
_0-1_LAYER004
  6
CONTINUOUS
 62
    7
 10
1193.7635
 20
1196.8406
 11
1285.0008
 21
1195.9843000000001
  0
LINE
  8
_0-1_LAYER004
  6
CONTINUOUS
 62
    7
 10
1302.3824999999999
 20
1175.2716
 11
1308.2951
 21
1174.2512999999999
  0
LINE
  8
_0-1_LAYER004
  6
CONTINUOUS
 62
    7
 10
1308.2951
 20
1174.2512999999999
 11
1284.7130999999999
 21
1182.8344999999999
  0
LINE
  8
_0-1_LAYER004
  6
CONTINUOUS
 62
    7
 10
1284.7130999999999
 20
1182.8344999999999
 11
1287.3177000000001
 21
1197.6066000000001
  0
LINE
  8
_0-1_LAYER004
  6
CONTINUOUS
 62
    7
 10
1287.3177000000001
 20
1197.6066000000001
 11
1195.7635
 21
1213.7501
  0
LINE
  8
_0-1_LAYER004
  6
CONTINUOUS
 62
    7
 10
1223.4767999999999
 20
1206.8326975602656
 11
1223.4767999999999
 21
1199.8927000000001
  0
LINE
  8
_0-1_LAYER004
  6
CONTINUOUS
 62
    7
 10
1223.4767999999999
 20
1199.8927000000001
 11
1227.1133886692155
 21
1206.191465526477
  0
LINE
  8
_0-1_LAYER004
  6
CONTINUOUS
 62
    7
 10
1306.6999000000001
 20
1363.8725999999999
 11
1260.8665238001479
 21
1202.270663068459
  0
LINE
  8
_0-1_LAYER004
  6
CONTINUOUS
 62
    7
 10
1260.8665238001479
 20
1202.270663068459
 11
1264.3418999999999
 21
1208.2901999999999
  0
LINE
  8
_0-1_LAYER004
  6
CONTINUOUS
 62
    7
 10
1260.8665238001479
 20
1202.270663068459
 11
1260.5918999999999
 21
1209.2950000000001
  0
LINE
  8
_0-1_LAYER004
  6
CONTINUOUS
 62
    7
 10
1312.9264000000001
 20
1163.6437000000001
 11
1312.9264000000001
 21
1156.1437000000001
  0
LINE
  8
_0-1_LAYER004
  6
CONTINUOUS
 62
    7
 10
1312.9264000000001
 20
1156.1437000000001
 11
1316.6764000000001
 21
1162.6388999999999
  0
LINE
  8
_0-1_LAYER004
  6
CONTINUOUS
 62
    7
 10
1312.9264000000001
 20
1156.1437000000001
 11
1357.0456999999999
 21
1310.7989
  0
LINE
  8
_0-1_LAYER004
  6
CONTINUOUS
 62
    7
 10
1193.7635
 20
1348.2038
 11
1093.7635
 21
1248.204
  0
LINE
  8
_0-1_LAYER004
  6
CONTINUOUS
 62
    7
 10
1093.7635
 20
1243.9613999999999
 11
1193.7635
 21
1343.9612999999999
  0
LINE
  8
_0-1_LAYER004
  6
CONTINUOUS
 62
    7
 10
1223.7635
 20
1182.8406
 11
1217.7636
 21
1179.8405
  0
LINE
  8
_0-1_LAYER004
  6
CONTINUOUS
 62
    7
 10
1223.7635
 20
1170.8405
 11
1217.7636
 21
1173.8406
  0
LINE
  8
_0-1_LAYER004
  6
CONTINUOUS
 62
    7
 10
1220.2594999999999
 20
1192.1686
 11
1193.7635
 21
1156.8406
  0
LINE
  8
_0-1_LAYER004
  6
CONTINUOUS
 62
    7
 10
1175.5636
 20
1181.0916999999999
 11
1166.4697000000001
 21
1182.6956
  0
LINE
  8
_0-1_LAYER004
  6
CONTINUOUS
 62
    7
 10
1166.4697000000001
 20
1182.6956
 11
1166.1736000000001
 21
1181.0216
  0
LINE
  8
_0-1_LAYER004
  6
CONTINUOUS
 62
    7
 10
1166.1736000000001
 20
1181.0216
 11
1164.4994999999999
 21
1181.3166000000001
  0
LINE
  8
_0-1_LAYER004
  6
CONTINUOUS
 62
    7
 10
1164.4994999999999
 20
1181.3166000000001
 11
1164.7955999999999
 21
1182.9896000000001
  0
LINE
  8
_0-1_LAYER004
  6
CONTINUOUS
 62
    7
 10
1164.7955999999999
 20
1182.9896000000001
 11
1162.1366
 21
1183.4595999999999
  0
LINE
  8
_0-1_LAYER004
  6
CONTINUOUS
 62
    7
 10
1162.1366
 20
1183.4595999999999
 11
1161.8406
 21
1181.7855999999999
  0
LINE
  8
_0-1_LAYER004
  6
CONTINUOUS
 62
    7
 10
1161.8406
 20
1181.7855999999999
 11
1160.1665
 21
1182.0806
  0
LINE
  8
_0-1_LAYER004
  6
CONTINUOUS
 62
    7
 10
1160.1665
 20
1182.0806
 11
1160.4625000000001
 21
1183.7537
  0
LINE
  8
_0-1_LAYER004
  6
CONTINUOUS
 62
    7
 10
1160.4625000000001
 20
1183.7537
 11
1157.8036
 21
1184.2237
  0
LINE
  8
_0-1_LAYER004
  6
CONTINUOUS
 62
    7
 10
1157.8036
 20
1184.2227
 11
1157.5077000000001
 21
1182.5496000000001
  0
LINE
  8
_0-1_LAYER004
  6
CONTINUOUS
 62
    7
 10
1157.5077000000001
 20
1182.5496000000001
 11
1155.8335
 21
1182.8445999999999
  0
LINE
  8
_0-1_LAYER004
  6
CONTINUOUS
 62
    7
 10
1155.8335
 20
1182.8445999999999
 11
1156.1295
 21
1184.5174999999999
  0
LINE
  8
_0-1_LAYER004
  6
CONTINUOUS
 62
    7
 10
1156.1295
 20
1184.5174999999999
 11
1154.6514588610928
 21
1184.7803593242561
  0
LINE
  8
_0-1_LAYER004
  6
CONTINUOUS
 62
    7
 10
1154.6514588610928
 20
1184.7803593242561
 11
1152.9194686377107
 21
1183.5696057996452
  0
LINE
  8
_0-1_LAYER004
  6
CONTINUOUS
 62
    7
 10
1152.9194686377107
 20
1183.5696057996452
 11
1152.5145
 21
1181.2976000000001
  0
LINE
  8
_0-1_LAYER004
  6
CONTINUOUS
 62
    7
 10
1152.5145
 20
1181.2976000000001
 11
1177.7874999999999
 21
1176.8416999999999
  0
LINE
  8
_0-1_LAYER004
  6
CONTINUOUS
 62
    7
 10
1177.7874999999999
 20
1176.8416999999999
 11
1152.6895999999999
 21
1172.4156
  0
LINE
  8
_0-1_LAYER004
  6
CONTINUOUS
 62
    7
 10
1152.6895999999999
 20
1172.4156
 11
1153.0925792312546
 21
1170.1574404287878
  0
LINE
  8
_0-1_LAYER004
  6
CONTINUOUS
 62
    7
 10
1153.0925792312546
 20
1170.1574404287878
 11
1154.8264999999999
 21
1168.9346
  0
LINE
  8
_0-1_LAYER004
  6
CONTINUOUS
 62
    7
 10
1154.8264999999999
 20
1168.9346
 11
1156.3036
 21
1169.1946
  0
LINE
  8
_0-1_LAYER004
  6
CONTINUOUS
 62
    7
 10
1156.3036
 20
1169.1946
 11
1156.0084999999999
 21
1170.8686
  0
LINE
  8
_0-1_LAYER004
  6
CONTINUOUS
 62
    7
 10
1156.0084999999999
 20
1170.8686
 11
1157.6815999999999
 21
1171.1635000000001
  0
LINE
  8
_0-1_LAYER004
  6
CONTINUOUS
 62
    7
 10
1157.6815999999999
 20
1171.1635000000001
 11
1157.9775
 21
1169.4906000000001
  0
LINE
  8
_0-1_LAYER004
  6
CONTINUOUS
 62
    7
 10
1157.9775
 20
1169.4906000000001
 11
1160.6366
 21
1169.9595999999999
  0
LINE
  8
_0-1_LAYER004
  6
CONTINUOUS
 62
    7
 10
1160.6366
 20
1169.9595999999999
 11
1160.3415
 21
1171.6325999999999
  0
LINE
  8
_0-1_LAYER004
  6
CONTINUOUS
 62
    7
 10
1160.3415
 20
1171.6325999999999
 11
1162.0155
 21
1171.9276
  0
LINE
  8
_0-1_LAYER004
  6
CONTINUOUS
 62
    7
 10
1162.0155
 20
1171.9276
 11
1162.3105
 21
1170.2546
  0
LINE
  8
_0-1_LAYER004
  6
CONTINUOUS
 62
    7
 10
1162.3105
 20
1170.2546
 11
1164.9697000000001
 21
1170.7236
  0
LINE
  8
_0-1_LAYER004
  6
CONTINUOUS
 62
    7
 10
1164.9697000000001
 20
1170.7236
 11
1164.6746000000001
 21
1172.3965000000001
  0
LINE
  8
_0-1_LAYER004
  6
CONTINUOUS
 62
    7
 10
1164.6746000000001
 20
1172.3965000000001
 11
1166.3475000000001
 21
1172.6916000000001
  0
LINE
  8
_0-1_LAYER004
  6
CONTINUOUS
 62
    7
 10
1166.3475000000001
 20
1172.6916000000001
 11
1166.6436000000001
 21
1171.0187000000001
  0
LINE
  8
_0-1_LAYER004
  6
CONTINUOUS
 62
    7
 10
1166.6436000000001
 20
1171.0187000000001
 11
1175.5636
 21
1172.5906
  0
LINE
  8
_0-1_LAYER004
  6
CONTINUOUS
 62
    7
 10
1220.5889
 20
1165.9465
 11
1216.5773999999999
 21
1160.9321
  0
LINE
  8
_0-1_LAYER004
  6
CONTINUOUS
 62
    7
 10
1216.5773999999999
 20
1160.9321
 11
1242.4218000000001
 21
1137.6094000000001
  0
LINE
  8
_0-1_LAYER004
  6
CONTINUOUS
 62
    7
 10
1242.4218000000001
 20
1137.6094000000001
 11
1249.0037
 21
1136.1946
  0
LINE
  8
_0-1_LAYER004
  6
CONTINUOUS
 62
    7
 10
1249.0037
 20
1153.4824000000001
 11
1220.5889
 21
1165.9465
  0
LINE
  8
_0-1_LAYER004
  6
CONTINUOUS
 62
    7
 10
1197.7635
 20
1146.8406
 11
1205.2635
 21
1133.8502000000001
  0
LINE
  8
_0-1_LAYER004
  6
CONTINUOUS
 62
    7
 10
1218.0600999999999
 20
1123.4408000000001
 11
1223.3634
 21
1128.7440999999999
  0
LINE
  8
_0-1_LAYER004
  6
CONTINUOUS
 62
    7
 10
1223.3634
 20
1128.7440999999999
 11
1221.4222
 21
1121.4997000000001
  0
LINE
  8
_0-1_LAYER004
  6
CONTINUOUS
 62
    7
 10
1223.3634
 20
1128.7440999999999
 11
1069.7352000000001
 21
862.65229999999997
  0
LINE
  8
_0-1_LAYER004
  6
CONTINUOUS
 62
    7
 10
1103.2201
 20
812.9036000000001
 11
1231.9328
 21
1035.8406
  0
LINE
  8
_0-1_LAYER004
  6
CONTINUOUS
 62
    7
 10
1231.9328
 20
1035.8406
 11
1226.6295
 21
1030.5373
  0
LINE
  8
_0-1_LAYER004
  6
CONTINUOUS
 62
    7
 10
1231.9328
 20
1035.8406
 11
1229.9917
 21
1028.5961
  0
LINE
  8
_0-1_LAYER004
  6
CONTINUOUS
 62
    7
 10
1193.7635
 20
1136.2038
 11
1093.7635
 21
1036.204
  0
LINE
  8
_0-1_LAYER004
  6
CONTINUOUS
 62
    7
 10
1093.7635
 20
1031.9612999999999
 11
1193.7635
 21
1131.9612999999999
  0
LINE
  8
_0-1_LAYER004
  6
CONTINUOUS
 62
    7
 10
1117.2827
 20
1024.499
 11
1122.586
 21
1029.8023000000001
  0
LINE
  8
_0-1_LAYER004
  6
CONTINUOUS
 62
    7
 10
1120.6449
 20
1022.5578
 11
1122.586
 21
1029.8023000000001
  0
LINE
  8
_0-1_LAYER004
  6
CONTINUOUS
 62
    7
 10
1122.586
 20
1029.8023000000001
 11
1060.4250999999999
 21
922.13650000000007
  0
LINE
  8
_0-1_LAYER004
  6
CONTINUOUS
 62
    7
 10
1403.4575999999997
 20
1031.8406
 11
1353.4575
 21
981.84059999999999
  0
LINE
  8
_0-1_LAYER004
  6
CONTINUOUS
 62
    7
 10
1357.7001999999998
 20
981.84059999999999
 11
1407.7001999999998
 21
1031.8406
  0
LINE
  8
_0-1_LAYER004
  6
CONTINUOUS
 62
    7
 10
1313.7635
 20
1053.5834
 11
1300.3192574178856
 21
1053.5834
  0
LINE
  8
_0-1_LAYER004
  6
CONTINUOUS
 62
    7
 10
1560.9337
 20
1039.7569000000001
 11
1560.9337
 21
1032.2569000000001
  0
LINE
  8
_0-1_LAYER004
  6
CONTINUOUS
 62
    7
 10
1560.9337
 20
1039.7569000000001
 11
1564.6837
 21
1033.2617
  0
LINE
  8
_0-1_LAYER004
  6
CONTINUOUS
 62
    7
 10
1560.9337
 20
1039.7569000000001
 11
1672.8858
 21
621.94579999999996
  0
LINE
  8
_0-1_LAYER004
  6
CONTINUOUS
 62
    7
 10
1615.5893999999998
 20
1031.8406
 11
1565.5895999999998
 21
981.84059999999999
  0
LINE
  8
_0-1_LAYER004
  6
CONTINUOUS
 62
    7
 10
1619.8321000000001
 20
1031.8406
 11
1569.8323
 21
981.84059999999999
  0
LINE
  8
_0-1_LAYER004
  6
CONTINUOUS
 62
    7
 10
1781.9643999999998
 20
981.84059999999999
 11
1831.9641999999999
 21
1031.8406
  0
LINE
  8
_0-1_LAYER004
  6
CONTINUOUS
 62
    7
 10
1827.7215999999999
 20
1031.8406
 11
1777.7217000000001
 21
981.84059999999999
  0
LINE
  8
_0-1_LAYER004
  6
CONTINUOUS
 62
    7
 10
2039.8537000000001
 20
1031.8406
 11
1989.8539000000001
 21
981.84059999999999
  0
LINE
  8
_0-1_LAYER004
  6
CONTINUOUS
 62
    7
 10
1994.0965000000001
 20
981.84059999999999
 11
2044.0963000000002
 21
1031.8406
  0
ARC
  8
_0-1_LAYER004
  6
CONTINUOUS
 62
    7
 10
1215.2556888926092
 20
1312.6011331445025
 40
23.921534340421196
 50
153.95427966339327
 51
200.08843033660682
  0
LINE
  8
_0-1_LAYER004
  6
CONTINUOUS
 62
    7
 10
1195.7635
 20
1302.3047999999999
 11
1199.143
 21
1286.9544999999998
  0
ARC
  8
_0-1_LAYER004
  6
CONTINUOUS
 62
    7
 10
1287.6680212369945
 20
1158.3926613314352
 40
13.42588900194022
 50
170.15180467024305
 51
226.2505470288464
  0
ARC
  8
_0-1_LAYER004
  6
CONTINUOUS
 62
    7
 10
1407.8722151164413
 20
1140.030126148911
 40
134.97704059664483
 50
183.32316387181817
 51
204.53679087484855
  0
TEXT
  8
_0-2_ADD_LINE
 62
    7
 10
1287.3740079098818
 20
718.15044874172418
 40
20
 41
1
 50
0
  1
：
  0
TEXT
  8
_0-2_ADD_LINE
 62
    7
 10
787.07185780332918
 20
816.98384400150314
 40
20
 41
1
 50
0
  1
捨谷　カラー鋼板0.35ｍｍ以上
  0
TEXT
  8
_0-2_ADD_LINE
 62
    7
 10
1313.466004634608
 20
1370.9303015484688
 40
20
 41
1
 50
0
  1
雨押水切カラー鋼板0.35ｍｍ以上
  0
TEXT
  8
_0-2_ADD_LINE
 62
    7
 10
1226.4587076377024
 20
1470.9886930949099
 40
20
 41
1
 50
0
  1
100
  0
TEXT
  8
_0-2_ADD_LINE
 62
    7
 10
948.03535724760445
 20
1370.9303015484688
 40
20
 41
1
 50
0
  1
下地材：40x30
  0
TEXT
  8
_0-2_ADD_LINE
 62
    7
 10
884.23000611654038
 20
1027.2514784106916
 40
20
 41
1
 50
90
  1
下葺き材立上がり寸法
  0
TEXT
  8
_0-2_ADD_LINE
 62
    7
 10
923.38328976514788
 20
1115.7088970242123
 40
20
 41
1
 50
90
  1
200
  0
TEXT
  8
_0-2_ADD_LINE
 62
    7
 10
988.3918185187531
 20
1075.2299201049075
 40
20
 41
1
 50
90
  1
水切り立上がり寸法
  0
TEXT
  8
_0-2_ADD_LINE
 62
    7
 10
1045.6173814543615
 20
1303.3373723621251
 40
20
 41
1
 50
90
  1
20
  0
TEXT
  8
_0-2_ADD_LINE
 62
    7
 10
1040.0537850578442
 20
1245.3170099412996
 40
20
 41
1
 50
90
  1
90
  0
TEXT
  8
_0-2_ADD_LINE
 62
    7
 10
1041.6433840282778
 20
1174.5798557570056
 40
20
 41
1
 50
90
  1
62
  0
TEXT
  8
_0-2_ADD_LINE
 62
    7
 10
1037.6693866021938
 20
1074.4351206196907
 40
20
 41
1
 50
90
  1
120
  0
TEXT
  8
_0-0_LAYER001
 62
    7
 10
1019.3889984422077
 20
1416.9936987481253
 40
20
 41
1
 50
0
  1
シーリング
  0
TEXT
  8
_0-2_ADD_LINE
 62
    7
 10
1241.7859142224506
 20
837.71276265862411
 40
20
 41
1
 50
0
  1
120
  0
TEXT
  8
_0-2_ADD_LINE
 62
    7
 10
1293.4456967332349
 20
782.07915072393325
 40
20
 41
1
 50
0
  1
220
  0
TEXT
  8
_0-2_ADD_LINE
 62
    7
 10
1542.0308040287186
 20
785.61144354518342
 40
20
 41
1
 50
0
  1
265
  0
TEXT
  8
_0-2_ADD_LINE
 62
    7
 10
1836.9772546031118
 20
789.14373636643359
 40
20
 41
1
 50
0
  1
265
  0
TEXT
  8
_0-2_ADD_LINE
 62
    7
 10
1652.6108557133991
 20
716.82436889713949
 40
20
 41
1
 50
0
  1
瓦桟：15x30以上
  0
TEXT
  8
_0-2_ADD_LINE
 62
    7
 10
1661.9488043625256
 20
684.50070049631813
 40
20
 41
1
 50
0
  1
下葺材：ルーフィング
  0
TEXT
  8
_0-2_ADD_LINE
 62
    7
 10
1669.8501455271708
 20
656.4868545489395
 40
20
 41
1
 50
0
  1
野地板：ALCパネル　t＝50
  0
TEXT
  8
_0-2_ADD_LINE
 62
    7
 10
1674.8782717228539
 20
625.5997936325989
 40
20
 41
1
 50
0
  1
　鋼製：C100x50x20x2.3
  0
TEXT
  8
_0-0_LAYER001
 62
    7
 10
1001.8276652435261
 20
866.2315472831591
 40
20
 41
1
 50
0
  1
葺　土　
  0
LINE
  8
_0-0_LAYER001
  6
CONTINUOUS
 62
    2
 10
1306.6999000000001
 20
1363.8725999999999
 11
1534.4111259987119
 21
1363.8725999999999
  0
LINE
  8
_0-0_LAYER001
  6
CONTINUOUS
 62
    2
 10
1534.4111259987119
 20
1363.8725999999999
 11
1540.6999000000001
 21
1363.8725999999999
  0
LINE
  8
_0-1_LAYER004
  6
CONTINUOUS
 62
    7
 10
1306.6999000000001
 20
1363.8725999999999
 11
1638.7547858663313
 21
1363.8725999999999
  0
LINE
  8
_0-0_LAYER001
  6
CONTINUOUS
 62
    2
 10
1357.0456999999999
 20
1310.7989
 11
1503.2279632796531
 21
1310.7989
  0
LINE
  8
_0-1_LAYER004
  6
CONTINUOUS
 62
    7
 10
1357.0456999999999
 20
1310.7989
 11
1510.4240777532821
 21
1310.7989
  0
TEXT
  8
_0-0_LAYER001
 62
    7
 10
1360.5050262193461
 20
1319.0095007177442
 40
20
 41
1
 50
0
  1
熨斗瓦２段積み
  0
TEXT
  8
_0-2_ADD_LINE
 62
    7
 10
1282.5471194216996
 20
1410.160284050377
 40
20
 41
1
 50
0
  1
笠木：15x90
  0
LINE
  8
_0-0_LAYER001
  6
CONTINUOUS
 62
    2
 10
1128.0328999999999
 20
1410.7781
 11
1012.6928266606149
 21
1410.7781
  0
LINE
  8
_0-0_LAYER001
  6
CONTINUOUS
 62
    7
 10
1017.4902363097009
 20
1410.7781
 11
1128.0328999999999
 21
1410.7781
  0
LINE
  8
_0-0_LAYER001
  6
CONTINUOUS
 62
    2
 10
1103.2201
 20
812.9036000000001
 11
790.8126303903897
 21
812.9036000000001
  0
LINE
  8
_0-1_LAYER004
  6
CONTINUOUS
 62
    7
 10
793.21133521493266
 20
812.9036000000001
 11
1103.2201
 21
812.9036000000001
  0
TEXT
  8
_0-0_LAYER001
 62
    7
 10
813.60032622354811
 20
934.01737637859674
 40
20
 41
1
 50
0
  1
外壁：ALCパネルt＝100
  0
ENDSEC
  0
EOF
