  0
SECTION
  2
HEADER
  9
$ACADVER
  1
AC1009
  9
$INSBASE
 10
0
 20
0
 30
0
  9
$EXTMIN
 10
0
 20
0
  9
$EXTMAX
 10
2970
 20
2100
  9
$LIMMIN
 10
0
 20
0
  9
$LIMMAX
 10
2970
 20
2100
  9
$LTSCALE
 40
10
  0
ENDSEC
  0
SECTION
  2
TABLES
  0
TABLE
  2
LTYPE
 70
     9
  0
LTYPE
  2
CONTINUOUS
 70
    64
  3
実線
 72
    65
 73
     0
 40
0.0
  0
LTYPE
  2
DASHED1
 70
    64
  3
--  --  --  --  --  --  --  --  
 72
    65
 73
     2
 40
2.5
 49
1.25
 49
-1.25
  0
LTYPE
  2
DASHED2
 70
    64
  3
----    ----    ----    ----    
 72
    65
 73
     2
 40
5.0
 49
2.5
 49
-2.5
  0
LTYPE
  2
DASHED3
 70
    64
  3
------  ------  ------  ------  
 72
    65
 73
     2
 40
5.0
 49
3.75
 49
-1.25
  0
LTYPE
  2
CENTER1
 70
    64
  3
----- - ----- - ----- - ----- - 
 72
    65
 73
     4
 40
10.0
 49
6.25
 49
-1.25
 49
1.25
 49
-1.25
  0
LTYPE
  2
CENTER2
 70
    64
  3
----------  --  ----------  --  
 72
    65
 73
     4
 40
20.0
 49
12.5
 49
-2.5
 49
2.5
 49
-2.5
  0
LTYPE
  2
PHANTOM1
 70
    64
  3
--- - - --- - - --- - - --- - - 
 72
    65
 73
     6
 40
10.0
 49
3.25
 49
-1.25
 49
1.25
 49
-1.25
 49
1.25
 49
-1.25
  0
LTYPE
  2
PHANTOM2
 70
    64
  3
--------  -  -  --------  -  -  
 72
    65
 73
     6
 40
20.0
 49
10.0
 49
-2.5
 49
1.25
 49
-2.5
 49
1.25
 49
-2.5
  0
LTYPE
  2
DOT
 70
    64
  3
-   -   -   -   -   -   -   -   
 72
    65
 73
     2
 40
2.5
 49
0.625
 49
-1.875
  0
LTYPE
  2
DUMMY
 70
    64
  3
ダミー
 72
    65
 73
     0
 40
0.0
  0
LTYPE
  2
RAND1
 70
    64
  3
ランダム線1
 72
    65
 73
     4
 40
10.0
 49
1.0
 49
-2.0
 49
3.0
 49
-4.0
  0
LTYPE
  2
RAND2
 70
    64
  3
ランダム線2
 72
    65
 73
     4
 40
14.0
 49
2.0
 49
-3.0
 49
4.0
 49
-5.0
  0
LTYPE
  2
RAND3
 70
    64
  3
ランダム線3
 72
    65
 73
     4
 40
18.0
 49
3.0
 49
-4.0
 49
5.0
 49
-6.0
  0
LTYPE
  2
RAND4
 70
    64
  3
ランダム線4
 72
    65
 73
     4
 40
22.0
 49
4.0
 49
-5.0
 49
6.0
 49
-7.0
  0
LTYPE
  2
RAND5
 70
    64
  3
ランダム線5
 72
    65
 73
     4
 40
26.0
 49
5.0
 49
-6.0
 49
7.0
 49
-8.0
  0
LTYPE
  2
LONG1
 70
    64
  3
----------  --  ----------  --  
 72
    65
 73
     4
 40
40.0
 49
32.5
 49
-2.5
 49
2.5
 49
-2.5
  0
LTYPE
  2
LONG2
 70
    64
  3
--------  -  -  --------  -  -  
 72
    65
 73
     6
 40
40.0
 49
30.0
 49
-2.5
 49
1.25
 49
-2.5
 49
1.25
 49
-2.5
  0
LTYPE
  2
LONG3
 70
    64
  3
+++++++++++++++..+++++++++++++++
 72
    65
 73
     2
 40
40.0
 49
37.5
 49
-2.5
  0
LTYPE
  2
LONG4
 70
    64
  3
+++++++++++++++..+++++++++++++++
 72
    65
 73
     2
 40
80.0
 49
75.0
 49
-5.0
  0
LTYPE
  2
LONG5
 70
    64
  3
----------  --  ----------  --  
 72
    65
 73
     4
 40
60.0
 49
37.5
 49
-7.5
 49
7.5
 49
-7.5
  0
LTYPE
  2
dashed
 70
   64
  3
-------   -------------   ------
 72
   65
 73
    2
 40
7.5
 49
6
 49
-1.5
  0
LTYPE
  2
dashed_spaced
 70
   64
  3
----        --------        ----
 72
   65
 73
    2
 40
12
 49
6
 49
-6
  0
LTYPE
  2
long_dashed_dotted
 70
   64
  3
------------- --- --------------
 72
   65
 73
    4
 40
15.25
 49
12
 49
-1.5
 49
0.25
 49
-1.5
  0
LTYPE
  2
long_dashed_double-dotted
 70
   64
  3
----------- --- --- ------------
 72
   65
 73
    6
 40
17
 49
12
 49
-1.5
 49
0.25
 49
-1.5
 49
0.25
 49
-1.5
  0
LTYPE
  2
long_dashed_triplicate-dotted
 70
   64
  3
--------- --- --- --- ----------
 72
   65
 73
    8
 40
18.75
 49
12
 49
-1.5
 49
0.25
 49
-1.5
 49
0.25
 49
-1.5
 49
0.25
 49
-1.5
  0
LTYPE
  2
dotted
 70
   64
  3
   -       -       -       -    
 72
   65
 73
    2
 40
1.75
 49
0.25
 49
-1.5
  0
LTYPE
  2
chain
 70
   64
  3
-------------- -- --------------
 72
   65
 73
    4
 40
18.5
 49
12
 49
-1.5
 49
3.5
 49
-1.5
  0
LTYPE
  2
chain_double_dash
 70
   64
  3
------------ -- -- -------------
 72
   65
 73
    6
 40
23.5
 49
12
 49
-1.5
 49
3.5
 49
-1.5
 49
3.5
 49
-1.5
  0
LTYPE
  2
dashed_dotted
 70
   64
  3
-----------     -     ----------
 72
   65
 73
    4
 40
9.25
 49
6
 49
-1.5
 49
0.25
 49
-1.5
  0
LTYPE
  2
double-dashed_dotted
 70
   64
  3
------   -----------   -   -----
 72
   65
 73
    6
 40
16.75
 49
6
 49
-1.5
 49
6
 49
-1.5
 49
0.25
 49
-1.5
  0
LTYPE
  2
dashed_double-dotted
 70
   64
  3
---------    -    -    ---------
 72
   65
 73
    6
 40
11
 49
6
 49
-1.5
 49
0.25
 49
-1.5
 49
0.25
 49
-1.5
  0
LTYPE
  2
double-dashed_double-dotted
 70
   64
  3
-----   ---------   -   -   ----
 72
   65
 73
    8
 40
18.5
 49
6
 49
-1.5
 49
6
 49
-1.5
 49
0.25
 49
-1.5
 49
0.25
 49
-1.5
  0
LTYPE
  2
dashed_triplicate-dotted
 70
   64
  3
-------    -    -    -    ------
 72
   65
 73
    8
 40
12.75
 49
6
 49
-1.5
 49
0.25
 49
-1.5
 49
0.25
 49
-1.5
 49
0.25
 49
-1.5
  0
LTYPE
  2
double-dashed_triplicate-dotted
 70
   64
  3
-----  ---------  -  -  -  -----
 72
   65
 73
   10
 40
20.25
 49
6
 49
-1.5
 49
6
 49
-1.5
 49
0.25
 49
-1.5
 49
0.25
 49
-1.5
 49
0.25
 49
-1.5
  0
LTYPE
  2
undefined
 70
   64
  3
--------------------------------
 72
   65
 73
    0
 40
0
  0
LTYPE
  2
HIDDEN
 70
   64
  3
----        --------        ----
 72
   65
 73
    0
 40
0
  0
LTYPE
  2
DASHED
 70
   64
  3
-------   -------------   ------
 72
   65
 73
    0
 40
0
  0
LTYPE
  2
CENTER
 70
   64
  3
------------   ---   -----------
 72
   65
 73
    0
 40
0
  0
LTYPE
  2
PHANTOM
 70
   64
  3
---------   ---   ---   --------
 72
   65
 73
    0
 40
0
  0
ENDTAB
  0
TABLE
  2
STYLE
  5
3
100
AcDbSymbolTable
 70
     1
  0
STYLE
  5
10
100
AcDbSymbolTableRecord
100
AcDbTextStyleTableRecord
  2
STANDARD
 70
     0
 40
0.0
 41
1.0
 50
0.0
 71
     0
 42
0.2
  3
txt
  4
bigfont.shx
  0
STYLE
  5
26
100
AcDbSymbolTableRecord
100
AcDbTextStyleTableRecord
  2
TATEGAKI
 70
    68
 40
0.0
 41
1.0
 50
0.0
 71
     0
 42
1.0
  3
txt
  4
bigfont.shx
  0
ENDTAB
  0
TABLE
  2
LAYER
 70
    4
  0
LAYER
  2
_0-0_LAYER001
 70
   64
 62
    7
  6
CONTINUOUS
  0
LAYER
  2
_0-1_LAYER004
 70
   64
 62
    7
  6
CONTINUOUS
  0
LAYER
  2
_0-2_LAYER006
 70
   64
 62
    7
  6
CONTINUOUS
  0
LAYER
  2
ADD_LINE
 70
   64
 62
    7
  6
CONTINUOUS
  0
ENDTAB
  0
ENDSEC
  0
SECTION
  2
BLOCKS
  0
ENDSEC
  0
SECTION
  2
ENTITIES
  0
LINE
  8
_0-0_LAYER001
  6
DASHED3
 62
    2
 10
891.67129999999997
 20
939.44280000000003
 11
1839.8941
 21
939.44280000000003
  0
CIRCLE
  8
_0-0_LAYER001
  6
CONTINUOUS
 62
    2
 10
1793.5435000000002
 20
1023.9404999999999
 40
0.8999999999999999
  0
CIRCLE
  8
_0-0_LAYER001
  6
CONTINUOUS
 62
    2
 10
1802.0592000000001
 20
1020.7864999999999
 40
0.8999999999999999
  0
CIRCLE
  8
_0-0_LAYER001
  6
CONTINUOUS
 62
    2
 10
1783.7662999999998
 20
1016.0555999999999
 40
0.8999999999999999
  0
CIRCLE
  8
_0-0_LAYER001
  6
CONTINUOUS
 62
    2
 10
1767.6812
 20
1021.1020000000001
 40
0.8999999999999999
  0
CIRCLE
  8
_0-0_LAYER001
  6
CONTINUOUS
 62
    2
 10
1796.5821000000001
 20
1008.0098
 40
0.8999999999999999
  0
CIRCLE
  8
_0-0_LAYER001
  6
CONTINUOUS
 62
    2
 10
1780.5160000000001
 20
1028.4575
 40
0.8999999999999999
  0
CIRCLE
  8
_0-0_LAYER001
  6
CONTINUOUS
 62
    2
 10
1767.0057999999999
 20
1029.1877999999999
 40
0.8999999999999999
  0
CIRCLE
  8
_0-0_LAYER001
  6
CONTINUOUS
 62
    2
 10
1773.9434999999999
 20
1010.2005999999999
 40
0.8999999999999999
  0
LINE
  8
_0-0_LAYER001
  6
CONTINUOUS
 62
    2
 10
1451.7574
 20
981.24579999999992
 11
1451.7574
 21
973.74579999999992
  0
LINE
  8
_0-0_LAYER001
  6
CONTINUOUS
 62
    2
 10
1451.7574
 20
973.74579999999992
 11
1448.0074
 21
980.24099999999999
  0
LINE
  8
_0-0_LAYER001
  6
CONTINUOUS
 62
    2
 10
1451.7574
 20
973.74579999999992
 11
1424.6609000000001
 21
1074.8712
  0
LINE
  8
_0-0_LAYER001
  6
CONTINUOUS
 62
    2
 10
1842.2170999999998
 20
937.44280000000003
 11
891.67129999999997
 21
937.44280000000003
  0
LINE
  8
_0-0_LAYER001
  6
CONTINUOUS
 62
    2
 10
891.67129999999997
 20
958.44280000000003
 11
1703.6320000000001
 21
958.44280000000003
  0
LINE
  8
_0-0_LAYER001
  6
CONTINUOUS
 62
    2
 10
1813.6977000000002
 20
1322.0046
 11
1813.6977000000002
 21
1314.5046
  0
LINE
  8
_0-0_LAYER001
  6
CONTINUOUS
 62
    2
 10
1813.6977000000002
 20
1314.5046
 11
1809.9477000000002
 21
1320.9997000000001
  0
LINE
  8
_0-0_LAYER001
  6
CONTINUOUS
 62
    2
 10
1813.6977000000002
 20
1314.5046
 11
1790.2793999999999
 21
1401.903
  0
LINE
  8
_0-0_LAYER001
  6
CONTINUOUS
 62
    2
 10
1836.7856000000002
 20
964.91579999999999
 11
1834.8445000000002
 21
972.16030000000001
  0
LINE
  8
_0-0_LAYER001
  6
CONTINUOUS
 62
    2
 10
1834.8445000000002
 20
972.16030000000001
 11
1840.1478000000002
 21
966.85699999999997
  0
LINE
  8
_0-0_LAYER001
  6
CONTINUOUS
 62
    2
 10
1834.8445000000002
 20
972.16030000000001
 11
1902.7986999999998
 21
854.46000000000004
  0
LINE
  8
_0-0_LAYER001
  6
CONTINUOUS
 62
    2
 10
1902.7986999999998
 20
854.46000000000004
 11
2049.7986999999998
 21
854.46000000000004
  0
LINE
  8
_0-0_LAYER001
  6
CONTINUOUS
 62
    2
 10
2036.5906
 20
937.44280000000003
 11
1984.0906
 21
937.44280000000003
  0
CIRCLE
  8
_0-0_LAYER001
  6
CONTINUOUS
 62
    2
 10
2034.0906
 20
937.44280000000003
 40
1.6999999999999997
  0
LINE
  8
_0-0_LAYER001
  6
CONTINUOUS
 62
    2
 10
2034.0906
 20
937.44280000000003
 11
2034.0906
 21
1237.4428
  0
CIRCLE
  8
_0-0_LAYER001
  6
CONTINUOUS
 62
    2
 10
2034.0906
 20
1237.4428
 40
1.6999999999999997
  0
LINE
  8
_0-0_LAYER001
  6
CONTINUOUS
 62
    2
 10
2036.5906
 20
1237.4428
 11
1984.0906
 21
1237.4428
  0
LINE
  8
_0-0_LAYER001
  6
CONTINUOUS
 62
    1
 10
1840.6320999999998
 20
917.44280000000003
 11
891.67129999999997
 21
917.44280000000003
  0
LINE
  8
_0-0_LAYER001
  6
CONTINUOUS
 62
    1
 10
1840.6320999999998
 20
922.44280000000003
 11
891.67129999999997
 21
922.44280000000003
  0
LINE
  8
_0-0_LAYER001
  6
CONTINUOUS
 62
    1
 10
1840.6320999999998
 20
927.44280000000003
 11
891.67129999999997
 21
927.44280000000003
  0
LINE
  8
_0-0_LAYER001
  6
CONTINUOUS
 62
    1
 10
1840.6320999999998
 20
932.44280000000003
 11
891.67129999999997
 21
932.44280000000003
  0
LINE
  8
_0-0_LAYER001
  6
DASHED1
 62
    2
 10
1888.6320999999998
 20
1087.4428
 11
1883.6320000000001
 21
1090.4428
  0
LINE
  8
_0-0_LAYER001
  6
DASHED1
 62
    2
 10
1883.6320000000001
 20
1084.4429
 11
1888.6320999999998
 21
1087.4428
  0
LINE
  8
_0-0_LAYER001
  6
CONTINUOUS
 62
    2
 10
1816.6320000000001
 20
1084.4429
 11
1816.6320000000001
 21
1090.4428
  0
LINE
  8
_0-0_LAYER001
  6
CONTINUOUS
 62
    2
 10
1810.6320999999998
 20
1081.4428
 11
1810.6320999999998
 21
1093.4429
  0
LINE
  8
_0-0_LAYER001
  6
CONTINUOUS
 62
    2
 10
1819.5189999999998
 20
1084.4429
 11
1822.9821000000002
 21
1090.4428
  0
LINE
  8
_0-0_LAYER001
  6
CONTINUOUS
 62
    2
 10
1810.6320999999998
 20
1081.4428
 11
1816.6320000000001
 21
1084.4429
  0
LINE
  8
_0-0_LAYER001
  6
CONTINUOUS
 62
    2
 10
1816.6320000000001
 20
1090.4428
 11
1810.6320999999998
 21
1093.4429
  0
LINE
  8
_0-0_LAYER001
  6
DASHED1
 62
    2
 10
1883.6320000000001
 20
1090.4428
 11
1842.2170999999998
 21
1090.4428
  0
LINE
  8
_0-0_LAYER001
  6
DASHED1
 62
    2
 10
1883.6320000000001
 20
1084.4429
 11
1842.2170999999998
 21
1084.4429
  0
LINE
  8
_0-0_LAYER001
  6
CONTINUOUS
 62
    2
 10
1810.6320999999998
 20
1067.4428
 11
1840.6320999999998
 21
1067.4428
  0
LINE
  8
_0-0_LAYER001
  6
CONTINUOUS
 62
    2
 10
1840.6320999999998
 20
1090.4428
 11
1816.6320000000001
 21
1090.4428
  0
LINE
  8
_0-0_LAYER001
  6
CONTINUOUS
 62
    2
 10
1840.6320999999998
 20
1084.4429
 11
1816.6320000000001
 21
1084.4429
  0
LINE
  8
_0-0_LAYER001
  6
CONTINUOUS
 62
    2
 10
1825.2422000000001
 20
1084.4429
 11
1828.7051999999999
 21
1090.4428
  0
LINE
  8
_0-0_LAYER001
  6
CONTINUOUS
 62
    2
 10
1830.9652999999998
 20
1084.4429
 11
1834.4283999999998
 21
1090.4428
  0
LINE
  8
_0-0_LAYER001
  6
CONTINUOUS
 62
    2
 10
1836.6884
 20
1084.4429
 11
1840.1514999999999
 21
1090.4428
  0
LINE
  8
_0-0_LAYER001
  6
CONTINUOUS
 62
    2
 10
1810.6320999999998
 20
1067.4428
 11
1810.6320999999998
 21
1102.153
  0
LINE
  8
_0-0_LAYER001
  6
CONTINUOUS
 62
    2
 10
1840.6320999999998
 20
1067.4428
 11
1814.1361000000002
 21
1102.7709
  0
LINE
  8
_0-0_LAYER001
  6
CONTINUOUS
 62
    2
 10
1819.8101999999999
 20
1119.0027
 11
1828.5796999999998
 21
1120.549
  0
LINE
  8
_0-0_LAYER001
  6
CONTINUOUS
 62
    2
 10
1827.3359
 20
1091.2908
 11
1830.7775999999999
 21
1083.0518
  0
LINE
  8
_0-0_LAYER001
  6
CONTINUOUS
 62
    2
 10
1826.2961
 20
1118.5264
 11
1830.9859999999999
 21
1091.9346
  0
LINE
  8
_0-0_LAYER001
  6
CONTINUOUS
 62
    2
 10
1830.7775999999999
 20
1083.0518
 11
1830.9859999999999
 21
1091.9346
  0
LINE
  8
_0-0_LAYER001
  6
CONTINUOUS
 62
    2
 10
1822.6462000000001
 20
1117.8841
 11
1819.8101999999999
 21
1119.0027
  0
LINE
  8
_0-0_LAYER001
  6
CONTINUOUS
 62
    2
 10
1826.2961
 20
1118.5264
 11
1828.5796999999998
 21
1120.549
  0
LINE
  8
_0-0_LAYER001
  6
CONTINUOUS
 62
    2
 10
1822.6462000000001
 20
1117.8841
 11
1827.3359
 21
1091.2908
  0
LINE
  8
_0-0_LAYER001
  6
CONTINUOUS
 62
    3
 10
1805.6212
 20
1096.0641000000001
 11
1805.6322
 21
1095.5984000000001
  0
LINE
  8
_0-0_LAYER001
  6
CONTINUOUS
 62
    3
 10
1805.6322
 20
1095.5984000000001
 11
1805.6619999999998
 21
1094.3344999999999
  0
LINE
  8
_0-0_LAYER001
  6
CONTINUOUS
 62
    3
 10
1805.6619999999998
 20
1094.3344999999999
 11
1805.7058999999999
 21
1092.4719
  0
LINE
  8
_0-0_LAYER001
  6
CONTINUOUS
 62
    3
 10
1805.7058999999999
 20
1092.4719
 11
1805.7592
 21
1090.2102
  0
LINE
  8
_0-0_LAYER001
  6
CONTINUOUS
 62
    3
 10
1805.7592
 20
1090.2102
 11
1805.8172
 21
1087.7489
  0
LINE
  8
_0-0_LAYER001
  6
CONTINUOUS
 62
    3
 10
1805.8172
 20
1087.7489
 11
1805.8751999999999
 21
1085.2876000000001
  0
LINE
  8
_0-0_LAYER001
  6
CONTINUOUS
 62
    3
 10
1805.8751999999999
 20
1085.2876000000001
 11
1805.9285
 21
1083.0259000000001
  0
LINE
  8
_0-0_LAYER001
  6
CONTINUOUS
 62
    3
 10
1805.9285
 20
1083.0259000000001
 11
1805.9724000000001
 21
1081.1632999999999
  0
LINE
  8
_0-0_LAYER001
  6
CONTINUOUS
 62
    3
 10
1805.9724000000001
 20
1081.1632999999999
 11
1806.0021999999999
 21
1079.8994
  0
LINE
  8
_0-0_LAYER001
  6
CONTINUOUS
 62
    3
 10
1806.0021999999999
 20
1079.8994
 11
1806.0131000000001
 21
1079.4337
  0
LINE
  8
_0-0_LAYER001
  6
CONTINUOUS
 62
    3
 10
1806.0131000000001
 20
1079.4337
 11
1804.8654999999999
 21
1079.4266
  0
LINE
  8
_0-0_LAYER001
  6
CONTINUOUS
 62
    3
 10
1804.8654999999999
 20
1079.4266
 11
1801.4940999999999
 21
1079.2515000000001
  0
LINE
  8
_0-0_LAYER001
  6
CONTINUOUS
 62
    3
 10
1801.4940999999999
 20
1079.2515000000001
 11
1796.0061000000001
 21
1078.6782000000001
  0
LINE
  8
_0-0_LAYER001
  6
CONTINUOUS
 62
    3
 10
1796.0061000000001
 20
1078.6782000000001
 11
1788.5088000000001
 21
1077.4760000000001
  0
LINE
  8
_0-0_LAYER001
  6
CONTINUOUS
 62
    3
 10
1788.5088000000001
 20
1077.4760000000001
 11
1779.1093999999998
 21
1075.4147
  0
LINE
  8
_0-0_LAYER001
  6
CONTINUOUS
 62
    3
 10
1779.1093999999998
 20
1075.4147
 11
1767.9151000000002
 21
1072.2637999999999
  0
LINE
  8
_0-0_LAYER001
  6
CONTINUOUS
 62
    3
 10
1767.9151000000002
 20
1072.2637999999999
 11
1755.0331999999999
 21
1067.7927999999999
  0
LINE
  8
_0-0_LAYER001
  6
CONTINUOUS
 62
    3
 10
1755.0331999999999
 20
1067.7927999999999
 11
1740.5708
 21
1061.7714000000001
  0
LINE
  8
_0-0_LAYER001
  6
CONTINUOUS
 62
    3
 10
1740.5708
 20
1061.7714000000001
 11
1724.6352000000002
 21
1053.9690000000001
  0
LINE
  8
_0-0_LAYER001
  6
CONTINUOUS
 62
    3
 10
1724.6352000000002
 20
1053.9690000000001
 11
1707.3335999999999
 21
1044.1552999999999
  0
LINE
  8
_0-0_LAYER001
  6
CONTINUOUS
 62
    3
 10
1707.3335999999999
 20
1044.1552999999999
 11
1707.3157000000001
 21
1044.9132
  0
LINE
  8
_0-0_LAYER001
  6
CONTINUOUS
 62
    3
 10
1707.3157000000001
 20
1044.9132
 11
1707.2671999999998
 21
1046.9701
  0
LINE
  8
_0-0_LAYER001
  6
CONTINUOUS
 62
    3
 10
1707.2671999999998
 20
1046.9701
 11
1707.1958
 21
1050.0015000000001
  0
LINE
  8
_0-0_LAYER001
  6
CONTINUOUS
 62
    3
 10
1707.1958
 20
1050.0015000000001
 11
1707.1091000000001
 21
1053.6823999999999
  0
LINE
  8
_0-0_LAYER001
  6
CONTINUOUS
 62
    3
 10
1707.1091000000001
 20
1053.6823999999999
 11
1707.0147000000002
 21
1057.6880000000001
  0
LINE
  8
_0-0_LAYER001
  6
CONTINUOUS
 62
    3
 10
1707.0147000000002
 20
1057.6880000000001
 11
1706.9203000000002
 21
1061.6937
  0
LINE
  8
_0-0_LAYER001
  6
CONTINUOUS
 62
    3
 10
1706.9203000000002
 20
1061.6937
 11
1706.8335000000002
 21
1065.3746000000001
  0
LINE
  8
_0-0_LAYER001
  6
CONTINUOUS
 62
    3
 10
1706.8335000000002
 20
1065.3746000000001
 11
1706.7620999999999
 21
1068.4059
  0
LINE
  8
_0-0_LAYER001
  6
CONTINUOUS
 62
    3
 10
1706.7620999999999
 20
1068.4059
 11
1706.7136
 21
1070.4629
  0
LINE
  8
_0-0_LAYER001
  6
CONTINUOUS
 62
    3
 10
1706.7136
 20
1070.4629
 11
1706.6957000000002
 21
1071.2208000000001
  0
LINE
  8
_0-0_LAYER001
  6
CONTINUOUS
 62
    3
 10
1706.6957000000002
 20
1071.2208000000001
 11
1708.3485999999998
 21
1071.846
  0
LINE
  8
_0-0_LAYER001
  6
CONTINUOUS
 62
    3
 10
1708.3485999999998
 20
1071.846
 11
1713.0120999999999
 21
1073.5543
  0
LINE
  8
_0-0_LAYER001
  6
CONTINUOUS
 62
    3
 10
1713.0120999999999
 20
1073.5543
 11
1720.2438999999999
 21
1076.0944
  0
LINE
  8
_0-0_LAYER001
  6
CONTINUOUS
 62
    3
 10
1720.2438999999999
 20
1076.0944
 11
1729.6017000000002
 21
1079.2149999999999
  0
LINE
  8
_0-0_LAYER001
  6
CONTINUOUS
 62
    3
 10
1729.6017000000002
 20
1079.2149999999999
 11
1740.6430999999998
 21
1082.6650999999999
  0
LINE
  8
_0-0_LAYER001
  6
CONTINUOUS
 62
    3
 10
1740.6430999999998
 20
1082.6650999999999
 11
1752.9258
 21
1086.1934000000001
  0
LINE
  8
_0-0_LAYER001
  6
CONTINUOUS
 62
    3
 10
1752.9258
 20
1086.1934000000001
 11
1766.0073000000002
 21
1089.5486000000001
  0
LINE
  8
_0-0_LAYER001
  6
CONTINUOUS
 62
    3
 10
1766.0073000000002
 20
1089.5486000000001
 11
1779.4452999999999
 21
1092.4795999999999
  0
LINE
  8
_0-0_LAYER001
  6
CONTINUOUS
 62
    3
 10
1779.4452999999999
 20
1092.4795999999999
 11
1792.7973999999999
 21
1094.7352000000001
  0
LINE
  8
_0-0_LAYER001
  6
CONTINUOUS
 62
    3
 10
1805.6212
 20
1096.0641000000001
 11
1792.6853999999998
 21
1094.7163
  0
LINE
  8
_0-0_LAYER001
  6
CONTINUOUS
 62
    3
 10
1790.3886000000002
 20
1061.7945999999999
 11
1790.3996000000002
 21
1061.329
  0
LINE
  8
_0-0_LAYER001
  6
CONTINUOUS
 62
    3
 10
1790.3996000000002
 20
1061.329
 11
1790.4294
 21
1060.0651
  0
LINE
  8
_0-0_LAYER001
  6
CONTINUOUS
 62
    3
 10
1790.4294
 20
1060.0651
 11
1790.4733000000001
 21
1058.2025000000001
  0
LINE
  8
_0-0_LAYER001
  6
CONTINUOUS
 62
    3
 10
1790.4733000000001
 20
1058.2025000000001
 11
1790.5266000000001
 21
1055.9407000000001
  0
LINE
  8
_0-0_LAYER001
  6
CONTINUOUS
 62
    3
 10
1790.5266000000001
 20
1055.9407000000001
 11
1790.5846000000001
 21
1053.4793999999999
  0
LINE
  8
_0-0_LAYER001
  6
CONTINUOUS
 62
    3
 10
1790.5846000000001
 20
1053.4793999999999
 11
1790.6426000000001
 21
1051.0181
  0
LINE
  8
_0-0_LAYER001
  6
CONTINUOUS
 62
    3
 10
1790.6426000000001
 20
1051.0181
 11
1790.6959000000002
 21
1048.7564
  0
LINE
  8
_0-0_LAYER001
  6
CONTINUOUS
 62
    3
 10
1790.6959000000002
 20
1048.7564
 11
1790.7397999999998
 21
1046.8938000000001
  0
LINE
  8
_0-0_LAYER001
  6
CONTINUOUS
 62
    3
 10
1790.7397999999998
 20
1046.8938000000001
 11
1790.7696000000001
 21
1045.6298999999999
  0
LINE
  8
_0-0_LAYER001
  6
CONTINUOUS
 62
    3
 10
1790.7696000000001
 20
1045.6298999999999
 11
1790.7806
 21
1045.1641999999999
  0
LINE
  8
_0-0_LAYER001
  6
CONTINUOUS
 62
    3
 10
1790.7806
 20
1045.1641999999999
 11
1789.6329000000001
 21
1045.1570999999999
  0
LINE
  8
_0-0_LAYER001
  6
CONTINUOUS
 62
    3
 10
1789.6329000000001
 20
1045.1570999999999
 11
1786.2615000000001
 21
1044.9820999999999
  0
LINE
  8
_0-0_LAYER001
  6
CONTINUOUS
 62
    3
 10
1786.2615000000001
 20
1044.9820999999999
 11
1780.7734999999998
 21
1044.4087
  0
LINE
  8
_0-0_LAYER001
  6
CONTINUOUS
 62
    3
 10
1780.7734999999998
 20
1044.4087
 11
1773.2761999999998
 21
1043.2066
  0
LINE
  8
_0-0_LAYER001
  6
CONTINUOUS
 62
    3
 10
1773.2761999999998
 20
1043.2066
 11
1763.8768
 21
1041.1451999999999
  0
LINE
  8
_0-0_LAYER001
  6
CONTINUOUS
 62
    3
 10
1763.8768
 20
1041.1451999999999
 11
1752.6824999999999
 21
1037.9943000000001
  0
LINE
  8
_0-0_LAYER001
  6
CONTINUOUS
 62
    3
 10
1752.6824999999999
 20
1037.9943000000001
 11
1739.8006
 21
1033.5233000000001
  0
LINE
  8
_0-0_LAYER001
  6
CONTINUOUS
 62
    3
 10
1739.8006
 20
1033.5233000000001
 11
1725.3382000000001
 21
1027.5019
  0
LINE
  8
_0-0_LAYER001
  6
CONTINUOUS
 62
    3
 10
1725.3382000000001
 20
1027.5019
 11
1709.4025999999999
 21
1019.6994999999999
  0
LINE
  8
_0-0_LAYER001
  6
CONTINUOUS
 62
    3
 10
1709.4025999999999
 20
1019.6994999999999
 11
1692.1010000000001
 21
1009.8858
  0
LINE
  8
_0-0_LAYER001
  6
CONTINUOUS
 62
    3
 10
1692.1010000000001
 20
1009.8858
 11
1692.0830999999998
 21
1010.6437000000001
  0
LINE
  8
_0-0_LAYER001
  6
CONTINUOUS
 62
    3
 10
1692.0830999999998
 20
1010.6437000000001
 11
1692.0347000000002
 21
1012.7005999999999
  0
LINE
  8
_0-0_LAYER001
  6
CONTINUOUS
 62
    3
 10
1692.0347000000002
 20
1012.7005999999999
 11
1691.9632000000001
 21
1015.732
  0
LINE
  8
_0-0_LAYER001
  6
CONTINUOUS
 62
    3
 10
1691.9632000000001
 20
1015.732
 11
1691.8764999999999
 21
1019.4129
  0
LINE
  8
_0-0_LAYER001
  6
CONTINUOUS
 62
    3
 10
1691.8764999999999
 20
1019.4129
 11
1691.7820999999999
 21
1023.4186
  0
LINE
  8
_0-0_LAYER001
  6
CONTINUOUS
 62
    3
 10
1691.7820999999999
 20
1023.4186
 11
1691.6876999999999
 21
1027.4241999999999
  0
LINE
  8
_0-0_LAYER001
  6
CONTINUOUS
 62
    3
 10
1691.6876999999999
 20
1027.4241999999999
 11
1691.6008999999999
 21
1031.1051
  0
LINE
  8
_0-0_LAYER001
  6
CONTINUOUS
 62
    3
 10
1691.6008999999999
 20
1031.1051
 11
1691.5295000000001
 21
1034.1365000000001
  0
LINE
  8
_0-0_LAYER001
  6
CONTINUOUS
 62
    3
 10
1691.5295000000001
 20
1034.1365000000001
 11
1691.4810000000002
 21
1036.1934000000001
  0
LINE
  8
_0-0_LAYER001
  6
CONTINUOUS
 62
    3
 10
1691.4810000000002
 20
1036.1934000000001
 11
1691.4632000000001
 21
1036.9512999999999
  0
LINE
  8
_0-0_LAYER001
  6
CONTINUOUS
 62
    3
 10
1691.4632000000001
 20
1036.9512999999999
 11
1693.116
 21
1037.5764999999999
  0
LINE
  8
_0-0_LAYER001
  6
CONTINUOUS
 62
    3
 10
1693.116
 20
1037.5764999999999
 11
1697.7795000000001
 21
1039.2847999999999
  0
LINE
  8
_0-0_LAYER001
  6
CONTINUOUS
 62
    3
 10
1697.7795000000001
 20
1039.2847999999999
 11
1705.0113000000001
 21
1041.8249000000001
  0
LINE
  8
_0-0_LAYER001
  6
CONTINUOUS
 62
    3
 10
1705.0113000000001
 20
1041.8249000000001
 11
1714.3690999999999
 21
1044.9456
  0
LINE
  8
_0-0_LAYER001
  6
CONTINUOUS
 62
    3
 10
1714.3690999999999
 20
1044.9456
 11
1725.4106000000002
 21
1048.3956000000001
  0
LINE
  8
_0-0_LAYER001
  6
CONTINUOUS
 62
    3
 10
1725.4106000000002
 20
1048.3956000000001
 11
1737.6932000000002
 21
1051.9239
  0
LINE
  8
_0-0_LAYER001
  6
CONTINUOUS
 62
    3
 10
1737.6932000000002
 20
1051.9239
 11
1750.7746999999999
 21
1055.2791
  0
LINE
  8
_0-0_LAYER001
  6
CONTINUOUS
 62
    3
 10
1750.7746999999999
 20
1055.2791
 11
1764.2127
 21
1058.2101
  0
LINE
  8
_0-0_LAYER001
  6
CONTINUOUS
 62
    3
 10
1764.2127
 20
1058.2101
 11
1777.5648000000001
 21
1060.4657
  0
LINE
  8
_0-0_LAYER001
  6
CONTINUOUS
 62
    3
 10
1790.3886000000002
 20
1061.7945999999999
 11
1777.4529000000002
 21
1060.4467999999999
  0
LINE
  8
_0-0_LAYER001
  6
CONTINUOUS
 62
    2
 10
1740.5708
 20
1061.7714000000001
 11
1739.1459
 21
1052.1967
  0
LINE
  8
_0-0_LAYER001
  6
CONTINUOUS
 62
    2
 10
1838.5646999999999
 20
941.56459999999993
 11
1823.5646999999999
 21
941.56459999999993
  0
LINE
  8
_0-0_LAYER001
  6
CONTINUOUS
 62
    2
 10
1823.5646999999999
 20
941.56459999999993
 11
1823.5646999999999
 21
1067.4428
  0
LINE
  8
_0-0_LAYER001
  6
CONTINUOUS
 62
    2
 10
1838.5646999999999
 20
1067.4428
 11
1838.5646999999999
 21
941.56459999999993
  0
LINE
  8
_0-0_LAYER001
  6
CONTINUOUS
 62
    2
 10
1823.5646999999999
 20
1067.4428
 11
1838.5646999999999
 21
941.56459999999993
  0
LINE
  8
_0-0_LAYER001
  6
CONTINUOUS
 62
    2
 10
1955.7316999999998
 20
937.44280000000003
 11
1903.2316999999998
 21
937.44280000000003
  0
CIRCLE
  8
_0-0_LAYER001
  6
CONTINUOUS
 62
    2
 10
1953.2316999999998
 20
937.44280000000003
 40
1.6999999999999997
  0
LINE
  8
_0-0_LAYER001
  6
CONTINUOUS
 62
    2
 10
1953.2316999999998
 20
937.44280000000003
 11
1953.2316999999998
 21
1067.4428
  0
CIRCLE
  8
_0-0_LAYER001
  6
CONTINUOUS
 62
    2
 10
1953.2316999999998
 20
1067.4428
 40
1.6999999999999997
  0
LINE
  8
_0-0_LAYER001
  6
CONTINUOUS
 62
    2
 10
1955.7316999999998
 20
1067.4428
 11
1903.2316999999998
 21
1067.4428
  0
CIRCLE
  8
_0-0_LAYER001
  6
CONTINUOUS
 62
    2
 10
1953.2316999999998
 20
1067.4428
 40
1.6999999999999997
  0
LINE
  8
_0-0_LAYER001
  6
CONTINUOUS
 62
    2
 10
1953.2316999999998
 20
1067.4428
 11
1953.2316999999998
 21
1124.4428
  0
CIRCLE
  8
_0-0_LAYER001
  6
CONTINUOUS
 62
    2
 10
1953.2316999999998
 20
1124.4428
 40
1.6999999999999997
  0
LINE
  8
_0-0_LAYER001
  6
CONTINUOUS
 62
    2
 10
1955.7316999999998
 20
1124.4428
 11
1903.2316999999998
 21
1124.4428
  0
CIRCLE
  8
_0-0_LAYER001
  6
CONTINUOUS
 62
    2
 10
1953.2316999999998
 20
1124.4428
 40
1.6999999999999997
  0
LINE
  8
_0-0_LAYER001
  6
CONTINUOUS
 62
    2
 10
1953.2316999999998
 20
1124.4428
 11
1953.2316999999998
 21
1274.4428
  0
CIRCLE
  8
_0-0_LAYER001
  6
CONTINUOUS
 62
    2
 10
1953.2316999999998
 20
1274.4428
 40
1.6999999999999997
  0
LINE
  8
_0-0_LAYER001
  6
CONTINUOUS
 62
    2
 10
1955.7316999999998
 20
1274.4428
 11
1903.2316999999998
 21
1274.4428
  0
LINE
  8
_0-0_LAYER001
  6
CONTINUOUS
 62
    2
 10
1753.4038999999998
 20
1116.9598000000001
 11
1753.4038999999998
 21
1109.4598000000001
  0
LINE
  8
_0-0_LAYER001
  6
CONTINUOUS
 62
    2
 10
1753.4038999999998
 20
1109.4598000000001
 11
1749.6538999999998
 21
1115.9549999999999
  0
LINE
  8
_0-0_LAYER001
  6
CONTINUOUS
 62
    2
 10
1753.4038999999998
 20
1109.4598000000001
 11
1711.8842
 21
1264.4132999999999
  0
LINE
  8
_0-0_LAYER001
  6
CONTINUOUS
 62
    2
 10
1823.2435999999998
 20
1178.0465999999999
 11
1823.2435999999998
 21
1170.5465999999999
  0
LINE
  8
_0-0_LAYER001
  6
CONTINUOUS
 62
    2
 10
1823.2435999999998
 20
1170.5465999999999
 11
1819.4935999999998
 21
1177.0418
  0
LINE
  8
_0-0_LAYER001
  6
CONTINUOUS
 62
    2
 10
1823.2435999999998
 20
1170.5465999999999
 11
1779.7532999999999
 21
1332.8543999999999
  0
LINE
  8
_0-0_LAYER001
  6
CONTINUOUS
 62
    2
 10
1734.0616
 20
1103.8829000000001
 11
1736.6662000000001
 21
1089.1107999999999
  0
LINE
  8
_0-0_LAYER001
  6
CONTINUOUS
 62
    2
 10
1837.4663999999998
 20
1122.116
 11
1840.0709999999999
 21
1107.3439000000001
  0
LINE
  8
_0-0_LAYER001
  6
CONTINUOUS
 62
    2
 10
1736.6662000000001
 20
1089.1107999999999
 11
1837.4663999999998
 21
1122.116
  0
LINE
  8
_0-0_LAYER001
  6
CONTINUOUS
 62
    2
 10
1713.7217999999998
 20
1082.6708000000001
 11
1734.3321000000001
 21
1090.1723999999999
  0
LINE
  8
_0-0_LAYER001
  6
CONTINUOUS
 62
    2
 10
1713.7217999999998
 20
1082.6708000000001
 11
1719.6343999999999
 21
1083.6911
  0
LINE
  8
_0-0_LAYER001
  6
CONTINUOUS
 62
    2
 10
1734.0616
 20
1103.8829000000001
 11
1837.4663999999998
 21
1122.116
  0
LINE
  8
_0-0_LAYER001
  6
CONTINUOUS
 62
    2
 10
1731.6320999999998
 20
1105.4853000000001
 11
1734.3321000000001
 21
1090.1723999999999
  0
LINE
  8
_0-0_LAYER001
  6
CONTINUOUS
 62
    2
 10
1731.6320999999998
 20
1105.4853000000001
 11
1838.6320999999998
 21
1124.3523
  0
LINE
  8
_0-0_LAYER001
  6
CONTINUOUS
 62
    2
 10
1807.4315000000001
 20
1116.8199999999999
 11
1816.2008999999998
 21
1118.3662999999999
  0
LINE
  8
_0-0_LAYER001
  6
CONTINUOUS
 62
    2
 10
891.67129999999997
 20
943.44280000000003
 11
1703.6320000000001
 21
943.44280000000003
  0
LINE
  8
_0-1_LAYER004
  6
DASHED3
 62
    2
 10
1839.8941
 20
939.44280000000003
 11
1839.8941
 21
1237.4428
  0
LINE
  8
_0-1_LAYER004
  6
CONTINUOUS
 62
    2
 10
1819.2170999999998
 20
1147.7985000000001
 11
1819.2170999999998
 21
1187.7985000000001
  0
LINE
  8
_0-1_LAYER004
  6
CONTINUOUS
 62
    2
 10
1819.2170999999998
 20
1187.7985000000001
 11
1837.2170999999998
 21
1187.7985000000001
  0
LINE
  8
_0-1_LAYER004
  6
CONTINUOUS
 62
    2
 10
1837.2170999999998
 20
1187.7985000000001
 11
1837.2170999999998
 21
1147.7985000000001
  0
LINE
  8
_0-1_LAYER004
  6
CONTINUOUS
 62
    2
 10
1837.2170999999998
 20
1147.7985000000001
 11
1819.2170999999998
 21
1147.7985000000001
  0
LINE
  8
_0-1_LAYER004
  6
CONTINUOUS
 62
    2
 10
1837.2170999999998
 20
1187.7985000000001
 11
1819.2170999999998
 21
1147.7985000000001
  0
LINE
  8
_0-1_LAYER004
  6
CONTINUOUS
 62
    2
 10
1819.2170999999998
 20
1171.3362999999999
 11
1819.2170999999998
 21
1381.7633000000001
  0
LINE
  8
_0-1_LAYER004
  6
CONTINUOUS
 62
    2
 10
1807.2170999999998
 20
1171.3362999999999
 11
1807.2170999999998
 21
1381.7633000000001
  0
LINE
  8
_0-1_LAYER004
  6
CONTINUOUS
 62
    2
 10
1838.6320999999998
 20
1144.3523
 11
1838.6320999999998
 21
1274.4428
  0
LINE
  8
_0-1_LAYER004
  6
CONTINUOUS
 62
    2
 10
1807.2170999999998
 20
1171.3362999999999
 11
1807.2170999999998
 21
1129.5208
  0
LINE
  8
_0-1_LAYER004
  6
CONTINUOUS
 62
    2
 10
1807.2170999999998
 20
1129.5208
 11
1819.2170999999998
 21
1129.5208
  0
LINE
  8
_0-1_LAYER004
  6
CONTINUOUS
 62
    2
 10
1819.2170999999998
 20
1171.3362999999999
 11
1819.2170999999998
 21
1129.5208
  0
LINE
  8
_0-2_LAYER006
  6
CONTINUOUS
 62
    2
 10
1838.6320999999998
 20
1231.8842999999999
 11
1838.6320999999998
 21
1232.7523000000001
  0
LINE
  8
_0-1_LAYER004
  6
CONTINUOUS
 62
    2
 10
1846.8697999999999
 20
1381.7633000000001
 11
1846.8697999999999
 21
680.59690000000001
  0
LINE
  8
_0-1_LAYER004
  6
CONTINUOUS
 62
    2
 10
1842.2170999999998
 20
1381.7633000000001
 11
1842.2170999999998
 21
937.44280000000003
  0
LINE
  8
_0-0_LAYER001
  6
CONTINUOUS
 62
    2
 10
1714.4841999999999
 20
1064.4593
 11
1714.4841999999999
 21
1056.9593
  0
LINE
  8
_0-0_LAYER001
  6
CONTINUOUS
 62
    2
 10
1714.4841999999999
 20
1056.9593
 11
1710.7341999999999
 21
1063.4545000000001
  0
LINE
  8
_0-0_LAYER001
  6
CONTINUOUS
 62
    2
 10
1714.4841999999999
 20
1056.9593
 11
1689.6563999999998
 21
1149.6180999999999
  0
LINE
  8
_0-0_LAYER001
  6
CONTINUOUS
 62
    2
 10
1731.6320999999998
 20
1223.7673
 11
1731.6320999999998
 21
1156.4817
  0
CIRCLE
  8
_0-0_LAYER001
  6
CONTINUOUS
 62
    2
 10
1731.6320999999998
 20
1221.2673
 40
1.6999999999999997
  0
LINE
  8
_0-0_LAYER001
  6
CONTINUOUS
 62
    2
 10
1731.6320999999998
 20
1221.2673
 11
1807.2170999999998
 21
1221.2673
  0
CIRCLE
  8
_0-0_LAYER001
  6
CONTINUOUS
 62
    2
 10
1807.2170999999998
 20
1221.2673
 40
1.6999999999999997
  0
LINE
  8
_0-0_LAYER001
  6
CONTINUOUS
 62
    2
 10
1807.2170999999998
 20
1223.7673
 11
1807.2170999999998
 21
1206.2673
  0
CIRCLE
  8
_0-0_LAYER001
  6
CONTINUOUS
 62
    2
 10
1752.703
 20
1011.2659000000001
 40
0.8999999999999999
  0
CIRCLE
  8
_0-0_LAYER001
  6
CONTINUOUS
 62
    2
 10
1742.9258
 20
1003.3810000000001
 40
0.8999999999999999
  0
CIRCLE
  8
_0-0_LAYER001
  6
CONTINUOUS
 62
    2
 10
1804.3496
 20
1006.5128999999999
 40
0.8999999999999999
  0
CIRCLE
  8
_0-0_LAYER001
  6
CONTINUOUS
 62
    2
 10
1813.7730999999999
 20
1017.6659999999999
 40
0.8999999999999999
  0
LINE
  8
_0-0_LAYER001
  6
CONTINUOUS
 62
    2
 10
1789.8193999999999
 20
934.19839999999999
 11
1787.8782999999999
 21
941.44280000000003
  0
LINE
  8
_0-0_LAYER001
  6
CONTINUOUS
 62
    2
 10
1787.8782999999999
 20
941.44280000000003
 11
1793.1815999999999
 21
936.1395
  0
LINE
  8
_0-0_LAYER001
  6
CONTINUOUS
 62
    2
 10
1787.8782999999999
 20
941.44280000000003
 11
1895.9917
 21
754.18499999999995
  0
LINE
  8
_0-0_LAYER001
  6
CONTINUOUS
 62
    2
 10
1705.6320999999998
 20
758.2041999999999
 11
1705.6320999999998
 21
810.7041999999999
  0
CIRCLE
  8
_0-0_LAYER001
  6
CONTINUOUS
 62
    2
 10
1705.6320999999998
 20
760.7041999999999
 40
1.6999999999999997
  0
LINE
  8
_0-0_LAYER001
  6
CONTINUOUS
 62
    2
 10
1705.6320999999998
 20
760.7041999999999
 11
1825.6320999999998
 21
760.7041999999999
  0
CIRCLE
  8
_0-0_LAYER001
  6
CONTINUOUS
 62
    2
 10
1825.6320999999998
 20
760.7041999999999
 40
1.6999999999999997
  0
LINE
  8
_0-0_LAYER001
  6
CONTINUOUS
 62
    2
 10
1825.6320999999998
 20
758.2041999999999
 11
1825.6320999999998
 21
810.7041999999999
  0
LINE
  8
_0-0_LAYER001
  6
CONTINUOUS
 62
    2
 10
1703.6320000000001
 20
958.44280000000003
 11
1703.6320000000001
 21
943.44280000000003
  0
LINE
  8
_0-0_LAYER001
  6
CONTINUOUS
 62
    2
 10
1705.6320999999998
 20
941.44280000000003
 11
1821.6320999999998
 21
941.44280000000003
  0
LINE
  8
_0-0_LAYER001
  6
CONTINUOUS
 62
    2
 10
1840.6320999999998
 20
912.44280000000003
 11
891.67129999999997
 21
912.44280000000003
  0
LINE
  8
_0-0_LAYER001
  6
CONTINUOUS
 62
    2
 10
1840.6320999999998
 20
937.44280000000003
 11
1840.6320999999998
 21
912.44280000000003
  0
LINE
  8
_0-0_LAYER001
  6
CONTINUOUS
 62
    2
 10
1830.6320999999998
 20
812.44280000000003
 11
891.67129999999997
 21
812.44280000000003
  0
LINE
  8
_0-0_LAYER001
  6
CONTINUOUS
 62
    2
 10
1830.6320999999998
 20
912.44280000000003
 11
1830.6320999999998
 21
812.44280000000003
  0
LINE
  8
_0-0_LAYER001
  6
DASHED1
 62
    1
 10
1830.6320999999998
 20
815.64280000000008
 11
891.67129999999997
 21
815.64280000000008
  0
LINE
  8
_0-0_LAYER001
  6
DASHED1
 62
    1
 10
1830.6320999999998
 20
909.24279999999999
 11
891.67129999999997
 21
909.24279999999999
  0
LINE
  8
_0-0_LAYER001
  6
DASHED1
 62
    1
 10
1830.6320999999998
 20
892.44280000000003
 11
891.67129999999997
 21
892.44280000000003
  0
LINE
  8
_0-0_LAYER001
  6
DASHED1
 62
    1
 10
1830.6320999999998
 20
832.44280000000003
 11
891.67129999999997
 21
832.44280000000003
  0
LINE
  8
_0-0_LAYER001
  6
CONTINUOUS
 62
    2
 10
1705.6320999999998
 20
959.1857
 11
1705.6320999999998
 21
941.44280000000003
  0
LINE
  8
_0-0_LAYER001
  6
CONTINUOUS
 62
    2
 10
1699.6324
 20
958.1857
 11
1701.2620999999999
 21
959.1857
  0
LINE
  8
_0-0_LAYER001
  6
CONTINUOUS
 62
    2
 10
1695.0021000000002
 20
959.18579999999997
 11
1701.2620999999999
 21
959.1857
  0
LINE
  8
_0-0_LAYER001
  6
CONTINUOUS
 62
    2
 10
1696.6323000000002
 20
958.18579999999997
 11
1695.0021000000002
 21
959.18579999999997
  0
LINE
  8
_0-0_LAYER001
  6
CONTINUOUS
 62
    2
 10
1838.6320999999998
 20
1124.3523
 11
1838.6320999999998
 21
1234.3523
  0
LINE
  8
_0-0_LAYER001
  6
CONTINUOUS
 62
    2
 10
1821.6320999999998
 20
1067.4428
 11
1821.6320999999998
 21
941.44280000000003
  0
LINE
  8
_0-0_LAYER001
  6
CONTINUOUS
 62
    2
 10
1821.6320999999998
 20
1067.4428
 11
1814.1320999999998
 21
1054.4525000000001
  0
CIRCLE
  8
_0-0_LAYER001
  6
CONTINUOUS
 62
    2
 10
1808.8222000000001
 20
1065.2795000000001
 40
0.8999999999999999
  0
CIRCLE
  8
_0-0_LAYER001
  6
CONTINUOUS
 62
    2
 10
1806.299
 20
1043.5174
 40
0.8999999999999999
  0
CIRCLE
  8
_0-0_LAYER001
  6
CONTINUOUS
 62
    2
 10
1792.1062999999999
 20
1067.8027
 40
0.8999999999999999
  0
CIRCLE
  8
_0-0_LAYER001
  6
CONTINUOUS
 62
    2
 10
1772.8672000000001
 20
1063.7026000000001
 40
0.8999999999999999
  0
CIRCLE
  8
_0-0_LAYER001
  6
CONTINUOUS
 62
    2
 10
1753.4807000000001
 20
1028.7782999999999
 40
0.8999999999999999
  0
CIRCLE
  8
_0-0_LAYER001
  6
CONTINUOUS
 62
    2
 10
1813.2145999999998
 20
1046.8462999999999
 40
0.8999999999999999
  0
CIRCLE
  8
_0-0_LAYER001
  6
CONTINUOUS
 62
    2
 10
1803.0486999999998
 20
1055.9193
 40
0.8999999999999999
  0
CIRCLE
  8
_0-0_LAYER001
  6
CONTINUOUS
 62
    2
 10
1796.4762000000001
 20
1037.6623
 40
0.8999999999999999
  0
CIRCLE
  8
_0-0_LAYER001
  6
CONTINUOUS
 62
    2
 10
1765.0742
 20
1059.9358
 40
0.8999999999999999
  0
CIRCLE
  8
_0-0_LAYER001
  6
CONTINUOUS
 62
    2
 10
1741.7053000000001
 20
1053.7284
 40
0.8999999999999999
  0
CIRCLE
  8
_0-0_LAYER001
  6
CONTINUOUS
 62
    2
 10
1817.9430000000002
 20
1053.5563
 40
0.8999999999999999
  0
CIRCLE
  8
_0-0_LAYER001
  6
CONTINUOUS
 62
    2
 10
1755.2908000000002
 20
1060.1865
 40
0.8999999999999999
  0
CIRCLE
  8
_0-0_LAYER001
  6
CONTINUOUS
 62
    2
 10
1811.0052999999998
 20
1053.9213999999999
 40
0.8999999999999999
  0
CIRCLE
  8
_0-0_LAYER001
  6
CONTINUOUS
 62
    2
 10
1750.1073000000001
 20
1021.1802
 40
0.8999999999999999
  0
LINE
  8
_0-0_LAYER001
  6
CONTINUOUS
 62
    2
 10
1771.7231000000002
 20
1105.7273
 11
1771.7231000000002
 21
1098.2273
  0
LINE
  8
_0-0_LAYER001
  6
CONTINUOUS
 62
    2
 10
1771.7231000000002
 20
1098.2273
 11
1767.9731000000002
 21
1104.7225000000001
  0
LINE
  8
_0-0_LAYER001
  6
CONTINUOUS
 62
    2
 10
1771.7231000000002
 20
1098.2273
 11
1715.7053999999998
 21
1307.2882999999999
  0
LINE
  8
_0-0_LAYER001
  6
CONTINUOUS
 62
    2
 10
1715.7053999999998
 20
1307.2882999999999
 11
1546.5113000000001
 21
1307.2882999999999
  0
LINE
  8
_0-0_LAYER001
  6
CONTINUOUS
 62
    2
 10
1780.0414000000001
 20
1019.1505
 11
1778.1003000000001
 21
1026.3949
  0
LINE
  8
_0-0_LAYER001
  6
CONTINUOUS
 62
    2
 10
1778.1003000000001
 20
1026.3949
 11
1783.4036000000001
 21
1021.0916
  0
LINE
  8
_0-0_LAYER001
  6
CONTINUOUS
 62
    2
 10
1778.1003000000001
 20
1026.3949
 11
1906.0689000000002
 21
804.74669999999992
  0
LINE
  8
_0-0_LAYER001
  6
CONTINUOUS
 62
    2
 10
1906.0689000000002
 20
804.74669999999992
 11
1988.5868999999998
 21
804.74669999999992
  0
LINE
  8
_0-0_LAYER001
  6
CONTINUOUS
 62
    2
 10
1796.4259000000002
 20
1096.5342000000001
 11
1818.6039000000001
 21
1096.5342000000001
  0
LINE
  8
_0-0_LAYER001
  6
CONTINUOUS
 62
    2
 10
1818.6039000000001
 20
1096.5342000000001
 11
1818.6039000000001
 21
1078.7726
  0
LINE
  8
_0-0_LAYER001
  6
CONTINUOUS
 62
    2
 10
1818.6039000000001
 20
1078.7726
 11
1796.4259000000002
 21
1078.7726
  0
LINE
  8
_0-0_LAYER001
  6
CONTINUOUS
 62
    2
 10
1796.4259000000002
 20
1078.7726
 11
1796.4259000000002
 21
1096.5342000000001
  0
LINE
  8
_0-0_LAYER001
  6
CONTINUOUS
 62
    2
 10
1783.8489
 20
1062.7228
 11
1783.8489
 21
1043.3616999999999
  0
LINE
  8
_0-0_LAYER001
  6
CONTINUOUS
 62
    2
 10
1783.8489
 20
1043.3616999999999
 11
1790.7806
 21
1045.1641999999999
  0
LINE
  8
_0-0_LAYER001
  6
CONTINUOUS
 62
    2
 10
1790.7806
 20
1045.1641999999999
 11
1817.5925999999999
 21
1070.9096999999999
  0
LINE
  8
_0-0_LAYER001
  6
CONTINUOUS
 62
    2
 10
1783.8489
 20
1062.7228
 11
1814.3842
 21
1074.8925999999999
  0
LINE
  8
_0-0_LAYER001
  6
CONTINUOUS
 62
    2
 10
1814.3842
 20
1074.8925999999999
 11
1817.5925999999999
 21
1070.9096999999999
  0
LINE
  8
_0-0_LAYER001
  6
CONTINUOUS
 62
    2
 10
1832.9252999999999
 20
1099.2646999999999
 11
1829.1752999999999
 21
1092.7696000000001
  0
LINE
  8
_0-0_LAYER001
  6
CONTINUOUS
 62
    2
 10
1829.1752999999999
 20
1092.7696000000001
 11
1829.1752999999999
 21
1100.2696000000001
  0
LINE
  8
_0-0_LAYER001
  6
CONTINUOUS
 62
    2
 10
1829.1752999999999
 20
1092.7696000000001
 11
1881.114
 21
1286.6075000000001
  0
LINE
  8
_0-0_LAYER001
  6
CONTINUOUS
 62
    2
 10
1881.114
 20
1286.6075000000001
 11
2028.114
 21
1286.6075000000001
  0
LINE
  8
_0-0_LAYER001
  6
CONTINUOUS
 62
    2
 10
1238.3105
 20
1278.9453000000001
 11
1033.4876999999999
 21
1278.9453000000001
  0
LINE
  8
_0-0_LAYER001
  6
CONTINUOUS
 62
    2
 10
1328.1840999999999
 20
951.0322000000001
 11
1328.1840999999999
 21
943.5322000000001
  0
LINE
  8
_0-0_LAYER001
  6
CONTINUOUS
 62
    2
 10
1328.1840999999999
 20
943.5322000000001
 11
1324.4340999999999
 21
950.02729999999997
  0
LINE
  8
_0-0_LAYER001
  6
CONTINUOUS
 62
    2
 10
1328.1840999999999
 20
943.5322000000001
 11
1238.3105
 21
1278.9453000000001
  0
LINE
  8
_0-0_LAYER001
  6
CONTINUOUS
 62
    2
 10
1254.1972000000001
 20
1218.9834000000001
 11
921.87120000000004
 21
1218.9834000000001
  0
LINE
  8
_0-0_LAYER001
  6
CONTINUOUS
 62
    2
 10
1244.366
 20
1249.0787
 11
901.60130000000004
 21
1249.0787
  0
ARC
  8
_0-0_LAYER001
  6
CONTINUOUS
 62
    2
 10
1646.5673999999999
 20
1020.4885999999999
 40
94.13988599999999
 50
339.38188000000002
 51
7.9587950000000012
  0
LINE
  8
_0-0_LAYER001
  6
CONTINUOUS
 62
    2
 10
982.39589999999998
 20
697.66210000000001
 11
982.39589999999998
 21
750.16210000000001
  0
CIRCLE
  8
_0-0_LAYER001
  6
CONTINUOUS
 62
    2
 10
982.39589999999998
 20
700.16210000000001
 40
1.6999999999999997
  0
LINE
  8
_0-0_LAYER001
  6
CONTINUOUS
 62
    2
 10
982.39589999999998
 20
700.16210000000001
 11
1247.3959
 21
700.16210000000001
  0
CIRCLE
  8
_0-0_LAYER001
  6
CONTINUOUS
 62
    2
 10
1247.3959
 20
700.16210000000001
 40
1.6999999999999997
  0
LINE
  8
_0-0_LAYER001
  6
CONTINUOUS
 62
    2
 10
1247.3959
 20
697.66210000000001
 11
1247.3959
 21
750.16210000000001
  0
CIRCLE
  8
_0-0_LAYER001
  6
CONTINUOUS
 62
    2
 10
1247.3959
 20
700.16210000000001
 40
1.6999999999999997
  0
LINE
  8
_0-0_LAYER001
  6
CONTINUOUS
 62
    2
 10
1247.3959
 20
700.16210000000001
 11
1512.3959
 21
700.16210000000001
  0
CIRCLE
  8
_0-0_LAYER001
  6
CONTINUOUS
 62
    2
 10
1512.3959
 20
700.16210000000001
 40
1.6999999999999997
  0
LINE
  8
_0-0_LAYER001
  6
CONTINUOUS
 62
    2
 10
1512.3959
 20
697.66210000000001
 11
1512.3959
 21
750.16210000000001
  0
CIRCLE
  8
_0-0_LAYER001
  6
CONTINUOUS
 62
    2
 10
1512.3959
 20
700.16210000000001
 40
1.6999999999999997
  0
LINE
  8
_0-0_LAYER001
  6
CONTINUOUS
 62
    2
 10
1512.3959
 20
700.16210000000001
 11
1817.3959
 21
700.16210000000001
  0
CIRCLE
  8
_0-0_LAYER001
  6
CONTINUOUS
 62
    2
 10
1817.3959
 20
700.16210000000001
 40
1.6999999999999997
  0
LINE
  8
_0-0_LAYER001
  6
CONTINUOUS
 62
    2
 10
1817.3959
 20
697.66210000000001
 11
1817.3959
 21
750.16210000000001
  0
LINE
  8
_0-0_LAYER001
  6
CONTINUOUS
 62
    4
 10
1777.6801
 20
998.77009999999996
 11
1777.6801
 21
1015.9675
  0
LINE
  8
_0-0_LAYER001
  6
CONTINUOUS
 62
    4
 10
1637.9535000000001
 20
954.93080000000009
 11
1629.4180999999999
 21
969.46409999999992
  0
LINE
  8
_0-0_LAYER001
  6
CONTINUOUS
 62
    4
 10
1646.1214
 20
954.28050000000007
 11
1654.4276
 21
964.346
  0
ARC
  8
_0-0_LAYER001
  6
CONTINUOUS
 62
    4
 10
1642.2649999999999
 20
957.46289999999999
 40
5
 50
210.42578
 51
320.47001
  0
LINE
  8
_0-0_LAYER001
  6
CONTINUOUS
 62
    4
 10
1722.067
 20
953.81060000000002
 11
1714.7415999999998
 21
965.11670000000004
  0
LINE
  8
_0-0_LAYER001
  6
CONTINUOUS
 62
    4
 10
1730.5765999999999
 20
954.0005000000001
 11
1739.5149999999999
 21
969.24620000000004
  0
ARC
  8
_0-0_LAYER001
  6
CONTINUOUS
 62
    4
 10
1726.2631999999999
 20
956.5293999999999
 40
5
 50
212.93986000000001
 51
329.61716000000001
  0
LINE
  8
_0-0_LAYER001
  6
CONTINUOUS
 62
    4
 10
1769.8586
 20
993.55819999999994
 11
1772.2867000000001
 21
993.96199999999999
  0
LINE
  8
_0-0_LAYER001
  6
CONTINUOUS
 62
    4
 10
1765.6696000000002
 20
992.86190000000011
 11
1769.8586
 21
993.55819999999994
  0
LINE
  8
_0-0_LAYER001
  6
CONTINUOUS
 62
    4
 10
1761.4758000000002
 20
992.16640000000007
 11
1765.6696000000002
 21
992.86190000000011
  0
LINE
  8
_0-0_LAYER001
  6
CONTINUOUS
 62
    4
 10
1757.277
 20
991.47240000000011
 11
1761.4758000000002
 21
992.16640000000007
  0
LINE
  8
_0-0_LAYER001
  6
CONTINUOUS
 62
    4
 10
1753.0729000000001
 20
990.78089999999997
 11
1757.277
 21
991.47240000000011
  0
LINE
  8
_0-0_LAYER001
  6
CONTINUOUS
 62
    4
 10
1748.8661000000002
 20
990.0933
 11
1753.0729000000001
 21
990.78089999999997
  0
LINE
  8
_0-0_LAYER001
  6
CONTINUOUS
 62
    4
 10
1746.4137999999998
 20
989.69470000000001
 11
1748.8661000000002
 21
990.0933
  0
LINE
  8
_0-0_LAYER001
  6
CONTINUOUS
 62
    4
 10
1741.681
 20
988.93229999999994
 11
1746.4137999999998
 21
989.69470000000001
  0
LINE
  8
_0-0_LAYER001
  6
CONTINUOUS
 62
    4
 10
1733.4766
 20
987.64840000000004
 11
1741.681
 21
988.93229999999994
  0
LINE
  8
_0-0_LAYER001
  6
CONTINUOUS
 62
    4
 10
1725.1691000000001
 20
986.42859999999996
 11
1733.4766
 21
987.64840000000004
  0
LINE
  8
_0-0_LAYER001
  6
CONTINUOUS
 62
    4
 10
1716.7609000000002
 20
985.31220000000008
 11
1725.1691000000001
 21
986.42859999999996
  0
LINE
  8
_0-0_LAYER001
  6
CONTINUOUS
 62
    4
 10
1708.2483000000002
 20
984.33879999999999
 11
1716.7609000000002
 21
985.31220000000008
  0
LINE
  8
_0-0_LAYER001
  6
CONTINUOUS
 62
    4
 10
1699.6891000000001
 20
983.55479999999989
 11
1708.2483000000002
 21
984.33879999999999
  0
LINE
  8
_0-0_LAYER001
  6
CONTINUOUS
 62
    4
 10
1694.6275999999998
 20
983.19679999999994
 11
1699.6891000000001
 21
983.55479999999989
  0
LINE
  8
_0-0_LAYER001
  6
CONTINUOUS
 62
    4
 10
1691.8249999999998
 20
983.03520000000003
 11
1694.6275999999998
 21
983.19679999999994
  0
LINE
  8
_0-0_LAYER001
  6
CONTINUOUS
 62
    4
 10
1687.1039999999998
 20
982.83130000000006
 11
1691.8249999999998
 21
983.03520000000003
  0
LINE
  8
_0-0_LAYER001
  6
CONTINUOUS
 62
    4
 10
1682.2748000000001
 20
982.72579999999994
 11
1687.1039999999998
 21
982.83130000000006
  0
LINE
  8
_0-0_LAYER001
  6
CONTINUOUS
 62
    4
 10
1677.3730999999998
 20
982.74119999999994
 11
1682.2748000000001
 21
982.72579999999994
  0
LINE
  8
_0-0_LAYER001
  6
CONTINUOUS
 62
    4
 10
1672.4020999999998
 20
982.89910000000009
 11
1677.3730999999998
 21
982.74119999999994
  0
LINE
  8
_0-0_LAYER001
  6
CONTINUOUS
 62
    4
 10
1667.4447
 20
983.21679999999992
 11
1672.4020999999998
 21
982.89910000000009
  0
LINE
  8
_0-0_LAYER001
  6
CONTINUOUS
 62
    4
 10
1664.3930999999998
 20
983.4982
 11
1667.4447
 21
983.21679999999992
  0
LINE
  8
_0-0_LAYER001
  6
CONTINUOUS
 62
    4
 10
1660.4641999999999
 20
983.96049999999991
 11
1664.3930999999998
 21
983.4982
  0
LINE
  8
_0-0_LAYER001
  6
CONTINUOUS
 62
    4
 10
1653.9503
 20
984.98299999999995
 11
1660.4641999999999
 21
983.96049999999991
  0
LINE
  8
_0-0_LAYER001
  6
CONTINUOUS
 62
    4
 10
1647.4036000000001
 20
986.33519999999999
 11
1653.9503
 21
984.98299999999995
  0
LINE
  8
_0-0_LAYER001
  6
CONTINUOUS
 62
    4
 10
1640.9407000000001
 20
987.99099999999999
 11
1647.4036000000001
 21
986.33519999999999
  0
LINE
  8
_0-0_LAYER001
  6
CONTINUOUS
 62
    4
 10
1634.5747999999999
 20
989.94170000000008
 11
1640.9407000000001
 21
987.99099999999999
  0
LINE
  8
_0-0_LAYER001
  6
CONTINUOUS
 62
    4
 10
1628.4099999999999
 20
992.14670000000001
 11
1634.5747999999999
 21
989.94170000000008
  0
LINE
  8
_0-0_LAYER001
  6
CONTINUOUS
 62
    4
 10
1624.7233999999999
 20
993.61850000000004
 11
1628.4099999999999
 21
992.14670000000001
  0
LINE
  8
_0-0_LAYER001
  6
CONTINUOUS
 62
    4
 10
1620.3591000000001
 20
995.51099999999997
 11
1624.7233999999999
 21
993.61850000000004
  0
LINE
  8
_0-0_LAYER001
  6
CONTINUOUS
 62
    4
 10
1613.29
 20
998.92599999999993
 11
1620.3591000000001
 21
995.51099999999997
  0
LINE
  8
_0-0_LAYER001
  6
CONTINUOUS
 62
    4
 10
1606.3971000000001
 20
1002.6556
 11
1613.29
 21
998.92599999999993
  0
LINE
  8
_0-0_LAYER001
  6
CONTINUOUS
 62
    4
 10
1599.7601
 20
1006.5891999999999
 11
1606.3971000000001
 21
1002.6556
  0
LINE
  8
_0-0_LAYER001
  6
CONTINUOUS
 62
    4
 10
1593.3508000000002
 20
1010.6717000000001
 11
1599.7601
 21
1006.5891999999999
  0
LINE
  8
_0-0_LAYER001
  6
CONTINUOUS
 62
    4
 10
1587.1666
 20
1014.8338000000001
 11
1593.3508000000002
 21
1010.6717000000001
  0
LINE
  8
_0-0_LAYER001
  6
CONTINUOUS
 62
    4
 10
1583.6242999999999
 20
1017.2974999999999
 11
1587.1666
 21
1014.8338000000001
  0
LINE
  8
_0-0_LAYER001
  6
CONTINUOUS
 62
    4
 10
1581.3923
 20
1018.8710000000001
 11
1583.6242999999999
 21
1017.2974999999999
  0
LINE
  8
_0-0_LAYER001
  6
CONTINUOUS
 62
    4
 10
1577.7687000000001
 20
1021.4102
 11
1581.3923
 21
1018.8710000000001
  0
LINE
  8
_0-0_LAYER001
  6
CONTINUOUS
 62
    4
 10
1574.3989999999999
 20
1023.6757
 11
1577.7687000000001
 21
1021.4102
  0
LINE
  8
_0-0_LAYER001
  6
CONTINUOUS
 62
    4
 10
1571.2840000000001
 20
1025.6027999999999
 11
1574.3989999999999
 21
1023.6757
  0
LINE
  8
_0-0_LAYER001
  6
CONTINUOUS
 62
    4
 10
1568.4168
 20
1027.1585
 11
1571.2840000000001
 21
1025.6027999999999
  0
LINE
  8
_0-0_LAYER001
  6
CONTINUOUS
 62
    4
 10
1565.5857000000001
 20
1028.4269999999999
 11
1568.4168
 21
1027.1585
  0
LINE
  8
_0-0_LAYER001
  6
CONTINUOUS
 62
    4
 10
1564.1224999999999
 20
1028.9591
 11
1565.5857000000001
 21
1028.4269999999999
  0
LINE
  8
_0-0_LAYER001
  6
CONTINUOUS
 62
    4
 10
1563.9414000000002
 20
1029.0171
 11
1564.1224999999999
 21
1028.9591
  0
LINE
  8
_0-0_LAYER001
  6
CONTINUOUS
 62
    4
 10
1563.1531
 20
1029.2449999999999
 11
1563.9414000000002
 21
1029.0171
  0
LINE
  8
_0-0_LAYER001
  6
CONTINUOUS
 62
    4
 10
1562.4960000000001
 20
1029.4077
 11
1563.1531
 21
1029.2449999999999
  0
LINE
  8
_0-0_LAYER001
  6
CONTINUOUS
 62
    4
 10
1561.9142000000002
 20
1029.5256999999999
 11
1562.4960000000001
 21
1029.4077
  0
LINE
  8
_0-0_LAYER001
  6
CONTINUOUS
 62
    4
 10
1561.8741
 20
1029.5319
 11
1561.9142000000002
 21
1029.5256999999999
  0
LINE
  8
_0-0_LAYER001
  6
CONTINUOUS
 62
    4
 10
1765.848
 20
974.37069999999994
 11
1767.4621000000002
 21
974.63920000000007
  0
LINE
  8
_0-0_LAYER001
  6
CONTINUOUS
 62
    4
 10
1761.6594
 20
973.67450000000008
 11
1765.848
 21
974.37069999999994
  0
LINE
  8
_0-0_LAYER001
  6
CONTINUOUS
 62
    4
 10
1757.4665
 20
972.97910000000002
 11
1761.6594
 21
973.67450000000008
  0
LINE
  8
_0-0_LAYER001
  6
CONTINUOUS
 62
    4
 10
1753.2689999999998
 20
972.28530000000001
 11
1757.4665
 21
972.97910000000002
  0
LINE
  8
_0-0_LAYER001
  6
CONTINUOUS
 62
    4
 10
1749.0666999999999
 20
971.59410000000003
 11
1753.2689999999998
 21
972.28530000000001
  0
LINE
  8
_0-0_LAYER001
  6
CONTINUOUS
 62
    4
 10
1744.8618000000001
 20
970.90679999999998
 11
1749.0666999999999
 21
971.59410000000003
  0
LINE
  8
_0-0_LAYER001
  6
CONTINUOUS
 62
    4
 10
1742.4117999999999
 20
970.50870000000009
 11
1744.8618000000001
 21
970.90679999999998
  0
LINE
  8
_0-0_LAYER001
  6
CONTINUOUS
 62
    4
 10
1737.6848
 20
969.74720000000002
 11
1742.4117999999999
 21
970.50870000000009
  0
LINE
  8
_0-0_LAYER001
  6
CONTINUOUS
 62
    4
 10
1729.4940999999999
 20
968.46540000000005
 11
1737.6848
 21
969.74720000000002
  0
LINE
  8
_0-0_LAYER001
  6
CONTINUOUS
 62
    4
 10
1721.2096000000001
 20
967.24900000000002
 11
1729.4940999999999
 21
968.46540000000005
  0
LINE
  8
_0-0_LAYER001
  6
CONTINUOUS
 62
    4
 10
1712.8330000000001
 20
966.13679999999999
 11
1721.2096000000001
 21
967.24900000000002
  0
LINE
  8
_0-0_LAYER001
  6
CONTINUOUS
 62
    4
 10
1704.3609000000001
 20
965.16799999999989
 11
1712.8330000000001
 21
966.13679999999999
  0
LINE
  8
_0-0_LAYER001
  6
CONTINUOUS
 62
    4
 10
1695.8447999999999
 20
964.38799999999992
 11
1704.3609000000001
 21
965.16799999999989
  0
LINE
  8
_0-0_LAYER001
  6
CONTINUOUS
 62
    4
 10
1690.8168999999998
 20
964.03240000000005
 11
1695.8447999999999
 21
964.38799999999992
  0
LINE
  8
_0-0_LAYER001
  6
CONTINUOUS
 62
    4
 10
1688.0417000000002
 20
963.8723
 11
1690.8168999999998
 21
964.03240000000005
  0
LINE
  8
_0-0_LAYER001
  6
CONTINUOUS
 62
    4
 10
1683.3564000000001
 20
963.6699000000001
 11
1688.0417000000002
 21
963.8723
  0
LINE
  8
_0-0_LAYER001
  6
CONTINUOUS
 62
    4
 10
1678.5735
 20
963.56549999999993
 11
1683.3564000000001
 21
963.6699000000001
  0
LINE
  8
_0-0_LAYER001
  6
CONTINUOUS
 62
    4
 10
1673.7253999999998
 20
963.58069999999998
 11
1678.5735
 21
963.56549999999993
  0
LINE
  8
_0-0_LAYER001
  6
CONTINUOUS
 62
    4
 10
1668.8153000000002
 20
963.73659999999995
 11
1673.7253999999998
 21
963.58069999999998
  0
LINE
  8
_0-0_LAYER001
  6
CONTINUOUS
 62
    4
 10
1663.9180000000001
 20
964.05050000000006
 11
1668.8153000000002
 21
963.73659999999995
  0
LINE
  8
_0-0_LAYER001
  6
CONTINUOUS
 62
    4
 10
1660.9191999999998
 20
964.32709999999997
 11
1663.9180000000001
 21
964.05050000000006
  0
LINE
  8
_0-0_LAYER001
  6
CONTINUOUS
 62
    4
 10
1657.0536999999999
 20
964.78189999999995
 11
1660.9191999999998
 21
964.32709999999997
  0
LINE
  8
_0-0_LAYER001
  6
CONTINUOUS
 62
    4
 10
1650.6251999999999
 20
965.79099999999994
 11
1657.0536999999999
 21
964.78189999999995
  0
LINE
  8
_0-0_LAYER001
  6
CONTINUOUS
 62
    4
 10
1644.1718000000001
 20
967.12390000000005
 11
1650.6251999999999
 21
965.79099999999994
  0
LINE
  8
_0-0_LAYER001
  6
CONTINUOUS
 62
    4
 10
1637.7995999999998
 20
968.75649999999996
 11
1644.1718000000001
 21
967.12390000000005
  0
LINE
  8
_0-0_LAYER001
  6
CONTINUOUS
 62
    4
 10
1631.5223000000001
 20
970.68010000000004
 11
1637.7995999999998
 21
968.75649999999996
  0
LINE
  8
_0-0_LAYER001
  6
CONTINUOUS
 62
    4
 10
1625.4351999999999
 20
972.85719999999992
 11
1631.5223000000001
 21
970.68010000000004
  0
LINE
  8
_0-0_LAYER001
  6
CONTINUOUS
 62
    4
 10
1621.8094999999998
 20
974.30469999999991
 11
1625.4351999999999
 21
972.85719999999992
  0
LINE
  8
_0-0_LAYER001
  6
CONTINUOUS
 62
    4
 10
1617.5097000000001
 20
976.16920000000005
 11
1621.8094999999998
 21
974.30469999999991
  0
LINE
  8
_0-0_LAYER001
  6
CONTINUOUS
 62
    4
 10
1610.5187999999998
 20
979.54649999999992
 11
1617.5097000000001
 21
976.16920000000005
  0
LINE
  8
_0-0_LAYER001
  6
CONTINUOUS
 62
    4
 10
1603.7006999999999
 20
983.23559999999998
 11
1610.5187999999998
 21
979.54649999999992
  0
LINE
  8
_0-0_LAYER001
  6
CONTINUOUS
 62
    4
 10
1597.1248999999998
 20
987.13300000000004
 11
1603.7006999999999
 21
983.23559999999998
  0
LINE
  8
_0-0_LAYER001
  6
CONTINUOUS
 62
    4
 10
1590.7640000000001
 20
991.18460000000005
 11
1597.1248999999998
 21
987.13300000000004
  0
LINE
  8
_0-0_LAYER001
  6
CONTINUOUS
 62
    4
 10
1584.6134000000002
 20
995.32410000000004
 11
1590.7640000000001
 21
991.18460000000005
  0
LINE
  8
_0-0_LAYER001
  6
CONTINUOUS
 62
    4
 10
1581.0889000000002
 20
997.77549999999997
 11
1584.6134000000002
 21
995.32410000000004
  0
LINE
  8
_0-0_LAYER001
  6
CONTINUOUS
 62
    4
 10
1578.8597
 20
999.34690000000001
 11
1581.0889000000002
 21
997.77549999999997
  0
LINE
  8
_0-0_LAYER001
  6
CONTINUOUS
 62
    4
 10
1575.2179999999998
 20
1001.8987999999999
 11
1578.8597
 21
999.34690000000001
  0
LINE
  8
_0-0_LAYER001
  6
CONTINUOUS
 62
    4
 10
1571.8009000000002
 20
1004.1962000000001
 11
1575.2179999999998
 21
1001.8987999999999
  0
LINE
  8
_0-0_LAYER001
  6
CONTINUOUS
 62
    4
 10
1568.6053000000002
 20
1006.1731
 11
1571.8009000000002
 21
1004.1962000000001
  0
LINE
  8
_0-0_LAYER001
  6
CONTINUOUS
 62
    4
 10
1565.6212999999998
 20
1007.7922000000001
 11
1568.6053000000002
 21
1006.1731
  0
LINE
  8
_0-0_LAYER001
  6
CONTINUOUS
 62
    4
 10
1562.6547999999998
 20
1009.1214
 11
1565.6212999999998
 21
1007.7922000000001
  0
LINE
  8
_0-0_LAYER001
  6
CONTINUOUS
 62
    4
 10
1561.9047999999998
 20
1009.3941
 11
1562.6547999999998
 21
1009.1214
  0
LINE
  8
_0-0_LAYER001
  6
CONTINUOUS
 62
    4
 10
1562.2379000000001
 20
1029.4373000000001
 11
1562.0617999999999
 21
1009.2637999999999
  0
LINE
  8
_0-0_LAYER001
  6
CONTINUOUS
 62
    4
 10
1762.5635000000002
 20
963.94949999999994
 11
1760.3181
 21
972.52289999999994
  0
ARC
  8
_0-0_LAYER001
  6
CONTINUOUS
 62
    4
 10
1765.4656
 20
964.70949999999993
 40
3
 50
194.67639000000003
 51
270.00000000000006
  0
LINE
  8
_0-0_LAYER001
  6
CONTINUOUS
 62
    4
 10
1768.9081000000001
 20
961.7052000000001
 11
1765.4902999999999
 21
961.7052000000001
  0
LINE
  8
_0-0_LAYER001
  6
CONTINUOUS
 62
    4
 10
1771.8672999999999
 20
964.21199999999999
 11
1773.8013000000001
 21
975.81619999999998
  0
ARC
  8
_0-0_LAYER001
  6
CONTINUOUS
 62
    4
 10
1768.9081000000001
 20
964.7052000000001
 40
3
 50
270
 51
350.53766999999999
  0
LINE
  8
_0-0_LAYER001
  6
CONTINUOUS
 62
    4
 10
1515.1417000000001
 20
1038.8273999999999
 11
1515.9555999999998
 21
1039.1341
  0
LINE
  8
_0-0_LAYER001
  6
CONTINUOUS
 62
    4
 10
1515.9555999999998
 20
1039.1341
 11
1519.5048999999999
 21
1040.4737
  0
LINE
  8
_0-0_LAYER001
  6
CONTINUOUS
 62
    4
 10
1519.5048999999999
 20
1040.4737
 11
1523.0614999999998
 21
1041.8226
  0
LINE
  8
_0-0_LAYER001
  6
CONTINUOUS
 62
    4
 10
1523.0614999999998
 20
1041.8226
 11
1526.6302000000001
 21
1043.1866
  0
LINE
  8
_0-0_LAYER001
  6
CONTINUOUS
 62
    4
 10
1526.6302000000001
 20
1043.1866
 11
1530.2154999999998
 21
1044.5717
  0
LINE
  8
_0-0_LAYER001
  6
CONTINUOUS
 62
    4
 10
1530.2154999999998
 20
1044.5717
 11
1533.8222000000001
 21
1045.9836
  0
LINE
  8
_0-0_LAYER001
  6
CONTINUOUS
 62
    4
 10
1533.8222000000001
 20
1045.9836
 11
1535.9256999999998
 21
1046.8172
  0
LINE
  8
_0-0_LAYER001
  6
CONTINUOUS
 62
    4
 10
1535.9256999999998
 20
1046.8172
 11
1538.0050999999999
 21
1047.6460999999999
  0
LINE
  8
_0-0_LAYER001
  6
CONTINUOUS
 62
    4
 10
1538.0050999999999
 20
1047.6460999999999
 11
1541.6116000000002
 21
1049.0476000000001
  0
LINE
  8
_0-0_LAYER001
  6
CONTINUOUS
 62
    4
 10
1541.6116000000002
 20
1049.0476000000001
 11
1545.2444
 21
1050.3303000000001
  0
LINE
  8
_0-0_LAYER001
  6
CONTINUOUS
 62
    4
 10
1545.2444
 20
1050.3303000000001
 11
1548.9023000000002
 21
1051.3969
  0
LINE
  8
_0-0_LAYER001
  6
CONTINUOUS
 62
    4
 10
1548.9023000000002
 20
1051.3969
 11
1552.5844000000002
 21
1052.1501000000001
  0
LINE
  8
_0-0_LAYER001
  6
CONTINUOUS
 62
    4
 10
1552.5844000000002
 20
1052.1501000000001
 11
1556.2896999999998
 21
1052.4927
  0
LINE
  8
_0-0_LAYER001
  6
CONTINUOUS
 62
    4
 10
1556.2896999999998
 20
1052.4927
 11
1558.4490000000001
 21
1052.4648
  0
LINE
  8
_0-0_LAYER001
  6
CONTINUOUS
 62
    4
 10
1558.4490000000001
 20
1052.4648
 11
1559.2982000000002
 21
1052.4033999999999
  0
LINE
  8
_0-0_LAYER001
  6
CONTINUOUS
 62
    4
 10
1559.2982000000002
 20
1052.4033999999999
 11
1560.7624999999998
 21
1052.2328
  0
LINE
  8
_0-0_LAYER001
  6
CONTINUOUS
 62
    4
 10
1560.7624999999998
 20
1052.2328
 11
1562.2235999999998
 21
1051.9861000000001
  0
LINE
  8
_0-0_LAYER001
  6
CONTINUOUS
 62
    4
 10
1562.2235999999998
 20
1051.9861000000001
 11
1563.6772999999998
 21
1051.6701
  0
LINE
  8
_0-0_LAYER001
  6
CONTINUOUS
 62
    4
 10
1563.6772999999998
 20
1051.6701
 11
1565.1194
 21
1051.2916
  0
LINE
  8
_0-0_LAYER001
  6
CONTINUOUS
 62
    4
 10
1565.1194
 20
1051.2916
 11
1566.5457999999999
 21
1050.8574000000001
  0
LINE
  8
_0-0_LAYER001
  6
CONTINUOUS
 62
    4
 10
1566.5457999999999
 20
1050.8574000000001
 11
1567.3643000000002
 21
1050.5827999999999
  0
LINE
  8
_0-0_LAYER001
  6
CONTINUOUS
 62
    4
 10
1567.3643000000002
 20
1050.5827999999999
 11
1569.8625999999999
 21
1049.6346000000001
  0
LINE
  8
_0-0_LAYER001
  6
CONTINUOUS
 62
    4
 10
1569.8625999999999
 20
1049.6346000000001
 11
1574.0214999999998
 21
1047.701
  0
LINE
  8
_0-0_LAYER001
  6
CONTINUOUS
 62
    4
 10
1574.0214999999998
 20
1047.701
 11
1578.0252999999998
 21
1045.4556
  0
LINE
  8
_0-0_LAYER001
  6
CONTINUOUS
 62
    4
 10
1578.0252999999998
 20
1045.4556
 11
1581.9121
 21
1042.9754
  0
LINE
  8
_0-0_LAYER001
  6
CONTINUOUS
 62
    4
 10
1581.9121
 20
1042.9754
 11
1585.7201
 21
1040.3371999999999
  0
LINE
  8
_0-0_LAYER001
  6
CONTINUOUS
 62
    4
 10
1585.7201
 20
1040.3371999999999
 11
1589.4874
 21
1037.6180999999999
  0
LINE
  8
_0-0_LAYER001
  6
CONTINUOUS
 62
    4
 10
1589.4874
 20
1037.6180999999999
 11
1591.6687000000002
 21
1036.0343
  0
LINE
  8
_0-0_LAYER001
  6
CONTINUOUS
 62
    4
 10
1591.6687000000002
 20
1036.0343
 11
1595.0003000000002
 21
1033.6475
  0
LINE
  8
_0-0_LAYER001
  6
CONTINUOUS
 62
    4
 10
1595.0003000000002
 20
1033.6475
 11
1600.7925
 21
1029.6306
  0
LINE
  8
_0-0_LAYER001
  6
CONTINUOUS
 62
    4
 10
1600.7925
 20
1029.6306
 11
1606.6646999999998
 21
1025.7739999999999
  0
LINE
  8
_0-0_LAYER001
  6
CONTINUOUS
 62
    4
 10
1606.6646999999998
 20
1025.7739999999999
 11
1612.6388999999999
 21
1022.1195
  0
LINE
  8
_0-0_LAYER001
  6
CONTINUOUS
 62
    4
 10
1612.6388999999999
 20
1022.1195
 11
1618.7370999999998
 21
1018.7089000000001
  0
LINE
  8
_0-0_LAYER001
  6
CONTINUOUS
 62
    4
 10
1618.7370999999998
 20
1018.7089000000001
 11
1624.9812999999999
 21
1015.5841
  0
LINE
  8
_0-0_LAYER001
  6
CONTINUOUS
 62
    4
 10
1624.9812999999999
 20
1015.5841
 11
1628.6786000000002
 21
1013.9191000000001
  0
LINE
  8
_0-0_LAYER001
  6
CONTINUOUS
 62
    4
 10
1628.6786000000002
 20
1013.9191000000001
 11
1631.7379000000001
 21
1012.6479999999999
  0
LINE
  8
_0-0_LAYER001
  6
CONTINUOUS
 62
    4
 10
1631.7379000000001
 20
1012.6479999999999
 11
1637.0983999999999
 21
1010.6459
  0
LINE
  8
_0-0_LAYER001
  6
CONTINUOUS
 62
    4
 10
1637.0983999999999
 20
1010.6459
 11
1642.5540999999998
 21
1008.8904
  0
LINE
  8
_0-0_LAYER001
  6
CONTINUOUS
 62
    4
 10
1642.5540999999998
 20
1008.8904
 11
1648.0891000000001
 21
1007.3896
  0
LINE
  8
_0-0_LAYER001
  6
CONTINUOUS
 62
    4
 10
1648.0891000000001
 20
1007.3896
 11
1653.6873999999998
 21
1006.1515999999999
  0
LINE
  8
_0-0_LAYER001
  6
CONTINUOUS
 62
    4
 10
1653.6873999999998
 20
1006.1515999999999
 11
1659.3330999999998
 21
1005.1844000000001
  0
LINE
  8
_0-0_LAYER001
  6
CONTINUOUS
 62
    4
 10
1659.3330999999998
 20
1005.1844000000001
 11
1662.6230999999998
 21
1004.7507000000001
  0
LINE
  8
_0-0_LAYER001
  6
CONTINUOUS
 62
    4
 10
1662.6230999999998
 20
1004.7507000000001
 11
1665.1424000000002
 21
1004.4828
  0
LINE
  8
_0-0_LAYER001
  6
CONTINUOUS
 62
    4
 10
1665.1424000000002
 20
1004.4828
 11
1669.4944999999998
 21
1004.1428000000001
  0
LINE
  8
_0-0_LAYER001
  6
CONTINUOUS
 62
    4
 10
1669.4944999999998
 20
1004.1428000000001
 11
1673.8546999999999
 21
1003.9434000000001
  0
LINE
  8
_0-0_LAYER001
  6
CONTINUOUS
 62
    4
 10
1673.8546999999999
 20
1003.9434000000001
 11
1678.2199000000001
 21
1003.8687
  0
LINE
  8
_0-0_LAYER001
  6
CONTINUOUS
 62
    4
 10
1678.2199000000001
 20
1003.8687
 11
1682.587
 21
1003.9031
  0
LINE
  8
_0-0_LAYER001
  6
CONTINUOUS
 62
    4
 10
1682.587
 20
1003.9031
 11
1686.9529000000002
 21
1004.0306
  0
LINE
  8
_0-0_LAYER001
  6
CONTINUOUS
 62
    4
 10
1686.9529000000002
 20
1004.0306
 11
1689.4832999999999
 21
1004.1411000000001
  0
LINE
  8
_0-0_LAYER001
  6
CONTINUOUS
 62
    4
 10
1689.4832999999999
 20
1004.1411000000001
 11
1694.2123999999999
 21
1004.4093
  0
LINE
  8
_0-0_LAYER001
  6
CONTINUOUS
 62
    4
 10
1694.2123999999999
 20
1004.4093
 11
1702.3506000000002
 21
1005.0402999999999
  0
LINE
  8
_0-0_LAYER001
  6
CONTINUOUS
 62
    4
 10
1702.3506000000002
 20
1005.0402999999999
 11
1710.4713999999999
 21
1005.8542
  0
LINE
  8
_0-0_LAYER001
  6
CONTINUOUS
 62
    4
 10
1710.4713999999999
 20
1005.8542
 11
1718.5772000000002
 21
1006.8154999999999
  0
LINE
  8
_0-0_LAYER001
  6
CONTINUOUS
 62
    4
 10
1718.5772000000002
 20
1006.8154999999999
 11
1726.6707000000001
 21
1007.8886
  0
LINE
  8
_0-0_LAYER001
  6
CONTINUOUS
 62
    4
 10
1726.6707000000001
 20
1007.8886
 11
1734.7541999999999
 21
1009.0382
  0
LINE
  8
_0-0_LAYER001
  6
CONTINUOUS
 62
    4
 10
1734.7541999999999
 20
1009.0382
 11
1739.4391000000001
 21
1009.7260000000001
  0
LINE
  8
_0-0_LAYER001
  6
CONTINUOUS
 62
    4
 10
1739.4391000000001
 20
1009.7260000000001
 11
1741.8739999999998
 21
1010.0869
  0
LINE
  8
_0-0_LAYER001
  6
CONTINUOUS
 62
    4
 10
1741.8739999999998
 20
1010.0869
 11
1746.0709999999999
 21
1010.7129
  0
LINE
  8
_0-0_LAYER001
  6
CONTINUOUS
 62
    4
 10
1746.0709999999999
 20
1010.7129
 11
1750.2667999999999
 21
1011.3429000000001
  0
LINE
  8
_0-0_LAYER001
  6
CONTINUOUS
 62
    4
 10
1750.2667999999999
 20
1011.3429000000001
 11
1754.4616000000001
 21
1011.9762000000001
  0
LINE
  8
_0-0_LAYER001
  6
CONTINUOUS
 62
    4
 10
1754.4616000000001
 20
1011.9762000000001
 11
1758.6558
 21
1012.6117999999999
  0
LINE
  8
_0-0_LAYER001
  6
CONTINUOUS
 62
    4
 10
1758.6558
 20
1012.6117999999999
 11
1762.8494999999998
 21
1013.2488000000001
  0
LINE
  8
_0-0_LAYER001
  6
CONTINUOUS
 62
    4
 10
1762.8494999999998
 20
1013.2488000000001
 11
1765.2818000000002
 21
1013.6186
  0
LINE
  8
_0-0_LAYER001
  6
CONTINUOUS
 62
    4
 10
1520.2449000000001
 20
1021.5150000000001
 11
1522.3067999999998
 21
1022.2918
  0
LINE
  8
_0-0_LAYER001
  6
CONTINUOUS
 62
    4
 10
1522.3067999999998
 20
1022.2918
 11
1525.8744000000002
 21
1023.6383000000001
  0
LINE
  8
_0-0_LAYER001
  6
CONTINUOUS
 62
    4
 10
1525.8744000000002
 20
1023.6383000000001
 11
1529.4663
 21
1025.0006000000001
  0
LINE
  8
_0-0_LAYER001
  6
CONTINUOUS
 62
    4
 10
1529.4663
 20
1025.0006000000001
 11
1533.0866999999998
 21
1026.3843999999999
  0
LINE
  8
_0-0_LAYER001
  6
CONTINUOUS
 62
    4
 10
1533.0866999999998
 20
1026.3843999999999
 11
1536.7397000000001
 21
1027.7955999999999
  0
LINE
  8
_0-0_LAYER001
  6
CONTINUOUS
 62
    4
 10
1536.7397000000001
 20
1027.7955999999999
 11
1540.4189000000001
 21
1029.2358999999999
  0
LINE
  8
_0-0_LAYER001
  6
CONTINUOUS
 62
    4
 10
1540.4189000000001
 20
1029.2358999999999
 11
1542.5740999999998
 21
1030.0899999999999
  0
LINE
  8
_0-0_LAYER001
  6
CONTINUOUS
 62
    4
 10
1542.5740999999998
 20
1030.0899999999999
 11
1544.5976000000001
 21
1030.8966
  0
LINE
  8
_0-0_LAYER001
  6
CONTINUOUS
 62
    4
 10
1544.5976000000001
 20
1030.8966
 11
1547.8694999999998
 21
1032.1681000000001
  0
LINE
  8
_0-0_LAYER001
  6
CONTINUOUS
 62
    4
 10
1547.8694999999998
 20
1032.1681000000001
 11
1550.7646
 21
1033.1903
  0
LINE
  8
_0-0_LAYER001
  6
CONTINUOUS
 62
    4
 10
1550.7646
 20
1033.1903
 11
1553.2328000000002
 21
1033.9100000000001
  0
LINE
  8
_0-0_LAYER001
  6
CONTINUOUS
 62
    4
 10
1553.2328000000002
 20
1033.9100000000001
 11
1555.2244999999998
 21
1034.3173999999999
  0
LINE
  8
_0-0_LAYER001
  6
CONTINUOUS
 62
    4
 10
1555.2244999999998
 20
1034.3173999999999
 11
1557.0038
 21
1034.4819
  0
LINE
  8
_0-0_LAYER001
  6
CONTINUOUS
 62
    4
 10
1557.0038
 20
1034.4819
 11
1557.6833000000001
 21
1034.4730999999999
  0
LINE
  8
_0-0_LAYER001
  6
CONTINUOUS
 62
    4
 10
1557.6833000000001
 20
1034.4730999999999
 11
1557.6071999999999
 21
1034.4785999999999
  0
LINE
  8
_0-0_LAYER001
  6
CONTINUOUS
 62
    4
 10
1557.6071999999999
 20
1034.4785999999999
 11
1558.2208999999998
 21
1034.4072000000001
  0
LINE
  8
_0-0_LAYER001
  6
CONTINUOUS
 62
    4
 10
1558.2208999999998
 20
1034.4072000000001
 11
1558.8112999999998
 21
1034.3074999999999
  0
LINE
  8
_0-0_LAYER001
  6
CONTINUOUS
 62
    4
 10
1558.8112999999998
 20
1034.3074999999999
 11
1559.4787000000001
 21
1034.1623999999999
  0
LINE
  8
_0-0_LAYER001
  6
CONTINUOUS
 62
    4
 10
1559.4787000000001
 20
1034.1623999999999
 11
1560.2123000000001
 21
1033.9698000000001
  0
LINE
  8
_0-0_LAYER001
  6
CONTINUOUS
 62
    4
 10
1560.2123000000001
 20
1033.9698000000001
 11
1561.0614
 21
1033.7113999999999
  0
LINE
  8
_0-0_LAYER001
  6
CONTINUOUS
 62
    4
 10
1561.0614
 20
1033.7113999999999
 11
1561.3054999999999
 21
1033.6295
  0
LINE
  8
_0-0_LAYER001
  6
CONTINUOUS
 62
    4
 10
1561.3054999999999
 20
1033.6295
 11
1562.8654000000001
 21
1033.0373999999999
  0
LINE
  8
_0-0_LAYER001
  6
CONTINUOUS
 62
    4
 10
1562.8654000000001
 20
1033.0373999999999
 11
1565.8130999999998
 21
1031.6669999999999
  0
LINE
  8
_0-0_LAYER001
  6
CONTINUOUS
 62
    4
 10
1565.8130999999998
 20
1031.6669999999999
 11
1568.7741999999998
 21
1030.0064
  0
LINE
  8
_0-0_LAYER001
  6
CONTINUOUS
 62
    4
 10
1568.7741999999998
 20
1030.0064
 11
1571.9418999999998
 21
1027.9849999999999
  0
LINE
  8
_0-0_LAYER001
  6
CONTINUOUS
 62
    4
 10
1571.9418999999998
 20
1027.9849999999999
 11
1575.3265999999999
 21
1025.6401000000001
  0
LINE
  8
_0-0_LAYER001
  6
CONTINUOUS
 62
    4
 10
1575.3265999999999
 20
1025.6401000000001
 11
1578.9322999999999
 21
1023.0376000000001
  0
LINE
  8
_0-0_LAYER001
  6
CONTINUOUS
 62
    4
 10
1578.9322999999999
 20
1023.0376000000001
 11
1581.1392999999998
 21
1021.4351999999999
  0
LINE
  8
_0-0_LAYER001
  6
CONTINUOUS
 62
    4
 10
1581.1392999999998
 20
1021.4351999999999
 11
1584.6293000000001
 21
1018.9349
  0
LINE
  8
_0-0_LAYER001
  6
CONTINUOUS
 62
    4
 10
1584.6293000000001
 20
1018.9349
 11
1590.7215000000001
 21
1014.7099000000001
  0
LINE
  8
_0-0_LAYER001
  6
CONTINUOUS
 62
    4
 10
1590.7215000000001
 20
1014.7099000000001
 11
1597.0252
 21
1010.5699
  0
LINE
  8
_0-0_LAYER001
  6
CONTINUOUS
 62
    4
 10
1597.0252
 20
1010.5699
 11
1603.5459000000001
 21
1006.5811000000001
  0
LINE
  8
_0-0_LAYER001
  6
CONTINUOUS
 62
    4
 10
1603.5459000000001
 20
1006.5811000000001
 11
1610.3119000000002
 21
1002.7971
  0
LINE
  8
_0-0_LAYER001
  6
CONTINUOUS
 62
    4
 10
1610.3119000000002
 20
1002.7971
 11
1617.2548999999999
 21
999.32259999999997
  0
LINE
  8
_0-0_LAYER001
  6
CONTINUOUS
 62
    4
 10
1617.2548999999999
 20
999.32259999999997
 11
1621.5282999999999
 21
997.39820000000009
  0
LINE
  8
_0-0_LAYER001
  6
CONTINUOUS
 62
    4
 10
1621.5282999999999
 20
997.39820000000009
 11
1625.1334000000002
 21
995.90030000000002
  0
LINE
  8
_0-0_LAYER001
  6
CONTINUOUS
 62
    4
 10
1625.1334000000002
 20
995.90030000000002
 11
1631.1895
 21
993.63830000000007
  0
LINE
  8
_0-0_LAYER001
  6
CONTINUOUS
 62
    4
 10
1631.1895
 20
993.63830000000007
 11
1637.4394000000002
 21
991.6273000000001
  0
LINE
  8
_0-0_LAYER001
  6
CONTINUOUS
 62
    4
 10
1637.4394000000002
 20
991.6273000000001
 11
1643.7881000000002
 21
989.90589999999997
  0
LINE
  8
_0-0_LAYER001
  6
CONTINUOUS
 62
    4
 10
1643.7881000000002
 20
989.90589999999997
 11
1650.2222999999999
 21
988.48299999999995
  0
LINE
  8
_0-0_LAYER001
  6
CONTINUOUS
 62
    4
 10
1650.2222999999999
 20
988.48299999999995
 11
1656.636
 21
987.38419999999996
  0
LINE
  8
_0-0_LAYER001
  6
CONTINUOUS
 62
    4
 10
1656.636
 20
987.38419999999996
 11
1660.4949000000001
 21
986.8755000000001
  0
LINE
  8
_0-0_LAYER001
  6
CONTINUOUS
 62
    4
 10
1660.4949000000001
 20
986.8755000000001
 11
1663.4895000000001
 21
986.55709999999999
  0
LINE
  8
_0-0_LAYER001
  6
CONTINUOUS
 62
    4
 10
1663.4895000000001
 20
986.55709999999999
 11
1668.3818999999999
 21
986.17489999999998
  0
LINE
  8
_0-0_LAYER001
  6
CONTINUOUS
 62
    4
 10
1668.3818999999999
 20
986.17489999999998
 11
1673.2894000000001
 21
985.95039999999995
  0
LINE
  8
_0-0_LAYER001
  6
CONTINUOUS
 62
    4
 10
1673.2894000000001
 20
985.95039999999995
 11
1678.1368000000002
 21
985.86750000000006
  0
LINE
  8
_0-0_LAYER001
  6
CONTINUOUS
 62
    4
 10
1678.1368000000002
 20
985.86750000000006
 11
1682.9207000000001
 21
985.90509999999995
  0
LINE
  8
_0-0_LAYER001
  6
CONTINUOUS
 62
    4
 10
1682.9207000000001
 20
985.90509999999995
 11
1687.6084000000001
 21
986.04209999999989
  0
LINE
  8
_0-0_LAYER001
  6
CONTINUOUS
 62
    4
 10
1687.6084000000001
 20
986.04209999999989
 11
1690.3854999999999
 21
986.16339999999991
  0
LINE
  8
_0-0_LAYER001
  6
CONTINUOUS
 62
    4
 10
1690.3854999999999
 20
986.16339999999991
 11
1695.4178999999999
 21
986.44879999999989
  0
LINE
  8
_0-0_LAYER001
  6
CONTINUOUS
 62
    4
 10
1695.4178999999999
 20
986.44879999999989
 11
1703.944
 21
987.10979999999995
  0
LINE
  8
_0-0_LAYER001
  6
CONTINUOUS
 62
    4
 10
1703.944
 20
987.10979999999995
 11
1712.4288999999999
 21
987.96019999999999
  0
LINE
  8
_0-0_LAYER001
  6
CONTINUOUS
 62
    4
 10
1712.4288999999999
 20
987.96019999999999
 11
1720.8202000000001
 21
988.95530000000008
  0
LINE
  8
_0-0_LAYER001
  6
CONTINUOUS
 62
    4
 10
1720.8202000000001
 20
988.95530000000008
 11
1729.1208999999999
 21
990.05600000000004
  0
LINE
  8
_0-0_LAYER001
  6
CONTINUOUS
 62
    4
 10
1729.1208999999999
 20
990.05600000000004
 11
1737.3287
 21
991.22319999999991
  0
LINE
  8
_0-0_LAYER001
  6
CONTINUOUS
 62
    4
 10
1737.3287
 20
991.22319999999991
 11
1742.0657999999999
 21
991.91869999999994
  0
LINE
  8
_0-0_LAYER001
  6
CONTINUOUS
 62
    4
 10
1742.0657999999999
 20
991.91869999999994
 11
1744.5210999999999
 21
992.2826
  0
LINE
  8
_0-0_LAYER001
  6
CONTINUOUS
 62
    4
 10
1744.5210999999999
 20
992.2826
 11
1748.7352999999998
 21
992.91110000000003
  0
LINE
  8
_0-0_LAYER001
  6
CONTINUOUS
 62
    4
 10
1748.7352999999998
 20
992.91110000000003
 11
1752.9468000000002
 21
993.54359999999997
  0
LINE
  8
_0-0_LAYER001
  6
CONTINUOUS
 62
    4
 10
1752.9468000000002
 20
993.54359999999997
 11
1757.1534999999999
 21
994.17869999999994
  0
LINE
  8
_0-0_LAYER001
  6
CONTINUOUS
 62
    4
 10
1757.1534999999999
 20
994.17869999999994
 11
1761.3557000000001
 21
994.81549999999993
  0
LINE
  8
_0-0_LAYER001
  6
CONTINUOUS
 62
    4
 10
1761.3557000000001
 20
994.81549999999993
 11
1765.5536000000002
 21
995.45309999999995
  0
LINE
  8
_0-0_LAYER001
  6
CONTINUOUS
 62
    4
 10
1765.5536000000002
 20
995.45309999999995
 11
1767.1713
 21
995.69900000000007
  0
LINE
  8
_0-0_LAYER001
  6
CONTINUOUS
 62
    4
 10
1514.7161000000001
 20
1038.6650999999999
 11
1515.1421
 21
1038.8281999999999
  0
ARC
  8
_0-0_LAYER001
  6
CONTINUOUS
 62
    4
 10
1515.7887000000001
 20
1035.8634
 40
3
 50
110.94902000000002
 51
178.70000000000002
  0
LINE
  8
_0-0_LAYER001
  6
CONTINUOUS
 62
    4
 10
1512.6801
 20
1020.0923
 11
1512.6801
 21
1035.8148000000001
  0
LINE
  8
_0-0_LAYER001
  6
CONTINUOUS
 62
    4
 10
1514.0340999999999
 20
1019.1570999999999
 11
1520.2089999999998
 21
1021.4943000000001
  0
ARC
  8
_0-0_LAYER001
  6
CONTINUOUS
 62
    4
 10
1513.6801
 20
1020.0923
 40
1
 50
180
 51
290.73165999999998
  0
LINE
  8
_0-0_LAYER001
  6
CONTINUOUS
 62
    4
 10
1765.4067
 20
1013.6539
 11
1809.8609999999999
 21
1023.3018
  0
LINE
  8
_0-0_LAYER001
  6
CONTINUOUS
 62
    4
 10
1772.1518999999998
 20
993.82020000000011
 11
1810.8236999999999
 21
1002.8702000000001
  0
LINE
  8
_0-0_LAYER001
  6
CONTINUOUS
 62
    4
 10
1810.8236999999999
 20
1003.8267000000001
 11
1810.8236999999999
 21
1002.8702000000001
  0
ARC
  8
_0-0_LAYER001
  6
CONTINUOUS
 62
    4
 10
1811.8236999999999
 20
1003.8267000000001
 40
1
 50
102.72435
 51
180
  0
LINE
  8
_0-0_LAYER001
  6
CONTINUOUS
 62
    4
 10
1816.6406999999999
 20
1005.9395999999999
 11
1811.6035000000002
 21
1004.8021000000001
  0
ARC
  8
_0-0_LAYER001
  6
CONTINUOUS
 62
    4
 10
1816.8609999999999
 20
1004.9640999999999
 40
1
 50
0
 51
102.72435
  0
LINE
  8
_0-0_LAYER001
  6
CONTINUOUS
 62
    4
 10
1817.0731000000001
 20
1006.4480000000001
 11
1766.9391000000001
 21
995.56750000000011
  0
ARC
  8
_0-0_LAYER001
  6
CONTINUOUS
 62
    4
 10
1816.8609999999999
 20
1007.4253000000001
 40
1
 50
282.24497000000002
 51
0
  0
LINE
  8
_0-0_LAYER001
  6
CONTINUOUS
 62
    4
 10
1817.0787999999998
 20
985.70730000000003
 11
1767.4949000000001
 21
974.6395
  0
LINE
  8
_0-0_LAYER001
  6
CONTINUOUS
 62
    4
 10
1817.8609999999999
 20
986.68329999999992
 11
1817.8609999999999
 21
1004.9640999999999
  0
ARC
  8
_0-0_LAYER001
  6
CONTINUOUS
 62
    4
 10
1816.8609999999999
 20
986.68329999999992
 40
1
 50
282.58296000000001
 51
0.0000000000000254
  0
LINE
  8
_0-0_LAYER001
  6
CONTINUOUS
 62
    4
 10
1809.8609999999999
 20
1024.7589
 11
1809.8609999999999
 21
1023.3018
  0
ARC
  8
_0-0_LAYER001
  6
CONTINUOUS
 62
    4
 10
1810.8609999999999
 20
1024.7589
 40
1
 50
101.73308
 51
180
  0
LINE
  8
_0-0_LAYER001
  6
CONTINUOUS
 62
    4
 10
1816.6576
 20
1026.9840999999999
 11
1810.6576
 21
1025.7380000000001
  0
LINE
  8
_0-0_LAYER001
  6
CONTINUOUS
 62
    4
 10
1817.8609999999999
 20
1026.0050000000001
 11
1817.8609999999999
 21
1007.4253000000001
  0
ARC
  8
_0-0_LAYER001
  6
CONTINUOUS
 62
    4
 10
1816.8609999999999
 20
1026.0050000000001
 40
1
 50
0
 51
101.73308
  0
LINE
  8
_0-0_LAYER001
  6
CONTINUOUS
 62
    4
 10
1373.1304
 20
955.11509999999998
 11
1364.5949000000001
 21
969.64850000000001
  0
LINE
  8
_0-0_LAYER001
  6
CONTINUOUS
 62
    4
 10
1381.2982999999999
 20
954.46479999999997
 11
1389.6044999999999
 21
964.5302999999999
  0
ARC
  8
_0-0_LAYER001
  6
CONTINUOUS
 62
    4
 10
1377.4418000000001
 20
957.64720000000011
 40
5
 50
210.42578
 51
320.47001
  0
LINE
  8
_0-0_LAYER001
  6
CONTINUOUS
 62
    4
 10
1457.2438999999999
 20
953.99499999999989
 11
1449.9185000000002
 21
965.30099999999993
  0
LINE
  8
_0-0_LAYER001
  6
CONTINUOUS
 62
    4
 10
1465.7534000000001
 20
954.18489999999997
 11
1474.6918999999998
 21
969.43059999999991
  0
ARC
  8
_0-0_LAYER001
  6
CONTINUOUS
 62
    4
 10
1461.4400999999998
 20
956.71379999999999
 40
5
 50
212.93986000000001
 51
329.61716000000001
  0
LINE
  8
_0-0_LAYER001
  6
CONTINUOUS
 62
    4
 10
1505.0355
 20
993.74250000000006
 11
1507.4636
 21
994.14640000000009
  0
LINE
  8
_0-0_LAYER001
  6
CONTINUOUS
 62
    4
 10
1500.8463999999999
 20
993.04629999999997
 11
1505.0355
 21
993.74250000000006
  0
LINE
  8
_0-0_LAYER001
  6
CONTINUOUS
 62
    4
 10
1496.6525999999999
 20
992.35069999999996
 11
1500.8463999999999
 21
993.04629999999997
  0
LINE
  8
_0-0_LAYER001
  6
CONTINUOUS
 62
    4
 10
1492.4537999999998
 20
991.6567
 11
1496.6525999999999
 21
992.35069999999996
  0
LINE
  8
_0-0_LAYER001
  6
CONTINUOUS
 62
    4
 10
1488.2498000000001
 20
990.9652000000001
 11
1492.4537999999998
 21
991.6567
  0
LINE
  8
_0-0_LAYER001
  6
CONTINUOUS
 62
    4
 10
1484.0430000000001
 20
990.27759999999989
 11
1488.2498000000001
 21
990.9652000000001
  0
LINE
  8
_0-0_LAYER001
  6
CONTINUOUS
 62
    4
 10
1481.5907000000002
 20
989.87910000000011
 11
1484.0430000000001
 21
990.27759999999989
  0
LINE
  8
_0-0_LAYER001
  6
CONTINUOUS
 62
    4
 10
1476.8579
 20
989.11660000000006
 11
1481.5907000000002
 21
989.87910000000011
  0
LINE
  8
_0-0_LAYER001
  6
CONTINUOUS
 62
    4
 10
1468.6534999999999
 20
987.83279999999991
 11
1476.8579
 21
989.11660000000006
  0
LINE
  8
_0-0_LAYER001
  6
CONTINUOUS
 62
    4
 10
1460.346
 20
986.61290000000008
 11
1468.6534999999999
 21
987.83279999999991
  0
LINE
  8
_0-0_LAYER001
  6
CONTINUOUS
 62
    4
 10
1451.9376999999999
 20
985.49649999999997
 11
1460.346
 21
986.61290000000008
  0
LINE
  8
_0-0_LAYER001
  6
CONTINUOUS
 62
    4
 10
1443.4250999999999
 20
984.52320000000009
 11
1451.9376999999999
 21
985.49649999999997
  0
LINE
  8
_0-0_LAYER001
  6
CONTINUOUS
 62
    4
 10
1434.866
 20
983.73919999999998
 11
1443.4250999999999
 21
984.52320000000009
  0
LINE
  8
_0-0_LAYER001
  6
CONTINUOUS
 62
    4
 10
1429.8045
 20
983.38120000000004
 11
1434.866
 21
983.73919999999998
  0
LINE
  8
_0-0_LAYER001
  6
CONTINUOUS
 62
    4
 10
1427.0019
 20
983.2195999999999
 11
1429.8045
 21
983.38120000000004
  0
LINE
  8
_0-0_LAYER001
  6
CONTINUOUS
 62
    4
 10
1422.2809000000002
 20
983.01559999999995
 11
1427.0019
 21
983.2195999999999
  0
LINE
  8
_0-0_LAYER001
  6
CONTINUOUS
 62
    4
 10
1417.4515999999999
 20
982.91020000000003
 11
1422.2809000000002
 21
983.01559999999995
  0
LINE
  8
_0-0_LAYER001
  6
CONTINUOUS
 62
    4
 10
1412.55
 20
982.92550000000006
 11
1417.4515999999999
 21
982.91020000000003
  0
LINE
  8
_0-0_LAYER001
  6
CONTINUOUS
 62
    4
 10
1407.5790000000002
 20
983.08339999999998
 11
1412.55
 21
982.92550000000006
  0
LINE
  8
_0-0_LAYER001
  6
CONTINUOUS
 62
    4
 10
1402.6215999999999
 20
983.40120000000002
 11
1407.5790000000002
 21
983.08339999999998
  0
LINE
  8
_0-0_LAYER001
  6
CONTINUOUS
 62
    4
 10
1399.5699
 20
983.68260000000009
 11
1402.6215999999999
 21
983.40120000000002
  0
LINE
  8
_0-0_LAYER001
  6
CONTINUOUS
 62
    4
 10
1395.6411000000001
 20
984.14480000000003
 11
1399.5699
 21
983.68260000000009
  0
LINE
  8
_0-0_LAYER001
  6
CONTINUOUS
 62
    4
 10
1389.1271000000002
 20
985.16740000000004
 11
1395.6411000000001
 21
984.14480000000003
  0
LINE
  8
_0-0_LAYER001
  6
CONTINUOUS
 62
    4
 10
1382.5805
 20
986.51950000000011
 11
1389.1271000000002
 21
985.16740000000004
  0
LINE
  8
_0-0_LAYER001
  6
CONTINUOUS
 62
    4
 10
1376.1176
 20
988.17540000000008
 11
1382.5805
 21
986.51950000000011
  0
LINE
  8
_0-0_LAYER001
  6
CONTINUOUS
 62
    4
 10
1369.7516000000001
 20
990.12609999999995
 11
1376.1176
 21
988.17540000000008
  0
LINE
  8
_0-0_LAYER001
  6
CONTINUOUS
 62
    4
 10
1363.5869
 20
992.3309999999999
 11
1369.7516000000001
 21
990.12609999999995
  0
LINE
  8
_0-0_LAYER001
  6
CONTINUOUS
 62
    4
 10
1359.9002
 20
993.80279999999993
 11
1363.5869
 21
992.3309999999999
  0
LINE
  8
_0-0_LAYER001
  6
CONTINUOUS
 62
    4
 10
1355.5359000000001
 20
995.69530000000009
 11
1359.9002
 21
993.80279999999993
  0
LINE
  8
_0-0_LAYER001
  6
CONTINUOUS
 62
    4
 10
1348.4668999999999
 20
999.11030000000005
 11
1355.5359000000001
 21
995.69530000000009
  0
LINE
  8
_0-0_LAYER001
  6
CONTINUOUS
 62
    4
 10
1341.5740000000001
 20
1002.8398999999999
 11
1348.4668999999999
 21
999.11030000000005
  0
LINE
  8
_0-0_LAYER001
  6
CONTINUOUS
 62
    4
 10
1334.9369999999999
 20
1006.7736
 11
1341.5740000000001
 21
1002.8398999999999
  0
LINE
  8
_0-0_LAYER001
  6
CONTINUOUS
 62
    4
 10
1328.5277000000001
 20
1010.856
 11
1334.9369999999999
 21
1006.7736
  0
LINE
  8
_0-0_LAYER001
  6
CONTINUOUS
 62
    4
 10
1322.3434999999999
 20
1015.0182
 11
1328.5277000000001
 21
1010.856
  0
LINE
  8
_0-0_LAYER001
  6
CONTINUOUS
 62
    4
 10
1318.8011000000001
 20
1017.4819
 11
1322.3434999999999
 21
1015.0182
  0
LINE
  8
_0-0_LAYER001
  6
CONTINUOUS
 62
    4
 10
1316.5690999999997
 20
1019.0554
 11
1318.8011000000001
 21
1017.4819
  0
LINE
  8
_0-0_LAYER001
  6
CONTINUOUS
 62
    4
 10
1312.9455000000003
 20
1021.5944999999999
 11
1316.5690999999997
 21
1019.0554
  0
LINE
  8
_0-0_LAYER001
  6
CONTINUOUS
 62
    4
 10
1309.5759
 20
1023.8599999999999
 11
1312.9455000000003
 21
1021.5944999999999
  0
LINE
  8
_0-0_LAYER001
  6
CONTINUOUS
 62
    4
 10
1306.4609
 20
1025.7871
 11
1309.5759
 21
1023.8599999999999
  0
LINE
  8
_0-0_LAYER001
  6
CONTINUOUS
 62
    4
 10
1303.5936999999999
 20
1027.3429000000001
 11
1306.4609
 21
1025.7871
  0
LINE
  8
_0-0_LAYER001
  6
CONTINUOUS
 62
    4
 10
1300.7626
 20
1028.6113
 11
1303.5936999999999
 21
1027.3429000000001
  0
LINE
  8
_0-0_LAYER001
  6
CONTINUOUS
 62
    4
 10
1299.2994000000001
 20
1029.1433999999999
 11
1300.7626
 21
1028.6113
  0
LINE
  8
_0-0_LAYER001
  6
CONTINUOUS
 62
    4
 10
1299.1183000000001
 20
1029.2013999999999
 11
1299.2994000000001
 21
1029.1433999999999
  0
LINE
  8
_0-0_LAYER001
  6
CONTINUOUS
 62
    4
 10
1298.3299999999999
 20
1029.4293
 11
1299.1183000000001
 21
1029.2013999999999
  0
LINE
  8
_0-0_LAYER001
  6
CONTINUOUS
 62
    4
 10
1297.6728000000001
 20
1029.5920000000001
 11
1298.3299999999999
 21
1029.4293
  0
LINE
  8
_0-0_LAYER001
  6
CONTINUOUS
 62
    4
 10
1297.0909999999999
 20
1029.71
 11
1297.6728000000001
 21
1029.5920000000001
  0
LINE
  8
_0-0_LAYER001
  6
CONTINUOUS
 62
    4
 10
1297.0509999999999
 20
1029.7162000000001
 11
1297.0909999999999
 21
1029.71
  0
LINE
  8
_0-0_LAYER001
  6
CONTINUOUS
 62
    4
 10
1501.0248000000001
 20
974.55500000000006
 11
1502.6388999999999
 21
974.82349999999997
  0
LINE
  8
_0-0_LAYER001
  6
CONTINUOUS
 62
    4
 10
1496.8362999999999
 20
973.85889999999995
 11
1501.0248000000001
 21
974.55500000000006
  0
LINE
  8
_0-0_LAYER001
  6
CONTINUOUS
 62
    4
 10
1492.6433999999999
 20
973.16339999999991
 11
1496.8362999999999
 21
973.85889999999995
  0
LINE
  8
_0-0_LAYER001
  6
CONTINUOUS
 62
    4
 10
1488.4459000000002
 20
972.4697000000001
 11
1492.6433999999999
 21
973.16339999999991
  0
LINE
  8
_0-0_LAYER001
  6
CONTINUOUS
 62
    4
 10
1484.2435999999998
 20
971.77849999999989
 11
1488.4459000000002
 21
972.4697000000001
  0
LINE
  8
_0-0_LAYER001
  6
CONTINUOUS
 62
    4
 10
1480.0387000000001
 20
971.09120000000007
 11
1484.2435999999998
 21
971.77849999999989
  0
LINE
  8
_0-0_LAYER001
  6
CONTINUOUS
 62
    4
 10
1477.5886
 20
970.69299999999998
 11
1480.0387000000001
 21
971.09120000000007
  0
LINE
  8
_0-0_LAYER001
  6
CONTINUOUS
 62
    4
 10
1472.8616999999999
 20
969.93149999999991
 11
1477.5886
 21
970.69299999999998
  0
LINE
  8
_0-0_LAYER001
  6
CONTINUOUS
 62
    4
 10
1464.6709999999998
 20
968.64979999999991
 11
1472.8616999999999
 21
969.93149999999991
  0
LINE
  8
_0-0_LAYER001
  6
CONTINUOUS
 62
    4
 10
1456.3865000000001
 20
967.43329999999992
 11
1464.6709999999998
 21
968.64979999999991
  0
LINE
  8
_0-0_LAYER001
  6
CONTINUOUS
 62
    4
 10
1448.0099
 20
966.32109999999989
 11
1456.3865000000001
 21
967.43329999999992
  0
LINE
  8
_0-0_LAYER001
  6
CONTINUOUS
 62
    4
 10
1439.5376999999999
 20
965.35239999999999
 11
1448.0099
 21
966.32109999999989
  0
LINE
  8
_0-0_LAYER001
  6
CONTINUOUS
 62
    4
 10
1431.0216
 20
964.57230000000004
 11
1439.5376999999999
 21
965.35239999999999
  0
LINE
  8
_0-0_LAYER001
  6
CONTINUOUS
 62
    4
 10
1425.9938
 20
964.21669999999995
 11
1431.0216
 21
964.57230000000004
  0
LINE
  8
_0-0_LAYER001
  6
CONTINUOUS
 62
    4
 10
1423.2185999999999
 20
964.05670000000009
 11
1425.9938
 21
964.21669999999995
  0
LINE
  8
_0-0_LAYER001
  6
CONTINUOUS
 62
    4
 10
1418.5333000000001
 20
963.85429999999997
 11
1423.2185999999999
 21
964.05670000000009
  0
LINE
  8
_0-0_LAYER001
  6
CONTINUOUS
 62
    4
 10
1413.7502999999997
 20
963.74980000000005
 11
1418.5333000000001
 21
963.85429999999997
  0
LINE
  8
_0-0_LAYER001
  6
CONTINUOUS
 62
    4
 10
1408.9023
 20
963.7650000000001
 11
1413.7502999999997
 21
963.74980000000005
  0
LINE
  8
_0-0_LAYER001
  6
CONTINUOUS
 62
    4
 10
1403.9920999999999
 20
963.92100000000005
 11
1408.9023
 21
963.7650000000001
  0
LINE
  8
_0-0_LAYER001
  6
CONTINUOUS
 62
    4
 10
1399.0948000000001
 20
964.23489999999993
 11
1403.9920999999999
 21
963.92100000000005
  0
LINE
  8
_0-0_LAYER001
  6
CONTINUOUS
 62
    4
 10
1396.0961
 20
964.51140000000009
 11
1399.0948000000001
 21
964.23489999999993
  0
LINE
  8
_0-0_LAYER001
  6
CONTINUOUS
 62
    4
 10
1392.2305000000001
 20
964.96620000000007
 11
1396.0961
 21
964.51140000000009
  0
LINE
  8
_0-0_LAYER001
  6
CONTINUOUS
 62
    4
 10
1385.8021000000003
 20
965.97530000000006
 11
1392.2305000000001
 21
964.96620000000007
  0
LINE
  8
_0-0_LAYER001
  6
CONTINUOUS
 62
    4
 10
1379.3486000000003
 20
967.30819999999994
 11
1385.8021000000003
 21
965.97530000000006
  0
LINE
  8
_0-0_LAYER001
  6
CONTINUOUS
 62
    4
 10
1372.9765
 20
968.94090000000006
 11
1379.3486000000003
 21
967.30819999999994
  0
LINE
  8
_0-0_LAYER001
  6
CONTINUOUS
 62
    4
 10
1366.6991000000003
 20
970.86439999999993
 11
1372.9765
 21
968.94090000000006
  0
LINE
  8
_0-0_LAYER001
  6
CONTINUOUS
 62
    4
 10
1360.6121000000003
 20
973.04160000000002
 11
1366.6991000000003
 21
970.86439999999993
  0
LINE
  8
_0-0_LAYER001
  6
CONTINUOUS
 62
    4
 10
1356.9864000000002
 20
974.48900000000003
 11
1360.6121000000003
 21
973.04160000000002
  0
LINE
  8
_0-0_LAYER001
  6
CONTINUOUS
 62
    4
 10
1352.6865
 20
976.35359999999991
 11
1356.9864000000002
 21
974.48900000000003
  0
LINE
  8
_0-0_LAYER001
  6
CONTINUOUS
 62
    4
 10
1345.6957
 20
979.73080000000004
 11
1352.6865
 21
976.35359999999991
  0
LINE
  8
_0-0_LAYER001
  6
CONTINUOUS
 62
    4
 10
1338.8775000000001
 20
983.42000000000007
 11
1345.6957
 21
979.73080000000004
  0
LINE
  8
_0-0_LAYER001
  6
CONTINUOUS
 62
    4
 10
1332.3018
 20
987.31729999999993
 11
1338.8775000000001
 21
983.42000000000007
  0
LINE
  8
_0-0_LAYER001
  6
CONTINUOUS
 62
    4
 10
1325.9408000000003
 20
991.36899999999991
 11
1332.3018
 21
987.31729999999993
  0
LINE
  8
_0-0_LAYER001
  6
CONTINUOUS
 62
    4
 10
1319.7902999999999
 20
995.50839999999994
 11
1325.9408000000003
 21
991.36899999999991
  0
LINE
  8
_0-0_LAYER001
  6
CONTINUOUS
 62
    4
 10
1316.2656999999999
 20
997.95980000000009
 11
1319.7902999999999
 21
995.50839999999994
  0
LINE
  8
_0-0_LAYER001
  6
CONTINUOUS
 62
    4
 10
1314.0365999999999
 20
999.5311999999999
 11
1316.2656999999999
 21
997.95980000000009
  0
LINE
  8
_0-0_LAYER001
  6
CONTINUOUS
 62
    4
 10
1310.3949
 20
1002.0831000000001
 11
1314.0365999999999
 21
999.5311999999999
  0
LINE
  8
_0-0_LAYER001
  6
CONTINUOUS
 62
    4
 10
1306.9777999999999
 20
1004.3805
 11
1310.3949
 21
1002.0831000000001
  0
LINE
  8
_0-0_LAYER001
  6
CONTINUOUS
 62
    4
 10
1303.7820999999999
 20
1006.3575000000001
 11
1306.9777999999999
 21
1004.3805
  0
LINE
  8
_0-0_LAYER001
  6
CONTINUOUS
 62
    4
 10
1300.7981999999997
 20
1007.9766
 11
1303.7820999999999
 21
1006.3575000000001
  0
LINE
  8
_0-0_LAYER001
  6
CONTINUOUS
 62
    4
 10
1297.8316
 20
1009.3056999999999
 11
1300.7981999999997
 21
1007.9766
  0
LINE
  8
_0-0_LAYER001
  6
CONTINUOUS
 62
    4
 10
1297.0817
 20
1009.5785000000001
 11
1297.8316
 21
1009.3056999999999
  0
LINE
  8
_0-0_LAYER001
  6
CONTINUOUS
 62
    4
 10
1297.4146999999998
 20
1029.6215999999999
 11
1297.2387000000001
 21
1009.4481000000001
  0
LINE
  8
_0-0_LAYER001
  6
CONTINUOUS
 62
    4
 10
1497.7404000000001
 20
964.13380000000006
 11
1495.4949000000001
 21
972.70720000000006
  0
ARC
  8
_0-0_LAYER001
  6
CONTINUOUS
 62
    4
 10
1500.6424999999999
 20
964.89390000000003
 40
3
 50
194.67639000000003
 51
270.00000000000006
  0
LINE
  8
_0-0_LAYER001
  6
CONTINUOUS
 62
    4
 10
1504.085
 20
961.88959999999997
 11
1500.6671000000001
 21
961.88959999999997
  0
LINE
  8
_0-0_LAYER001
  6
CONTINUOUS
 62
    4
 10
1507.0441000000001
 20
964.39640000000009
 11
1508.9782
 21
976.0005000000001
  0
ARC
  8
_0-0_LAYER001
  6
CONTINUOUS
 62
    4
 10
1504.085
 20
964.88959999999997
 40
3
 50
270
 51
350.53766999999999
  0
LINE
  8
_0-0_LAYER001
  6
CONTINUOUS
 62
    4
 10
1250.3186000000001
 20
1039.0118
 11
1251.1324999999999
 21
1039.3184000000001
  0
LINE
  8
_0-0_LAYER001
  6
CONTINUOUS
 62
    4
 10
1251.1324999999999
 20
1039.3184000000001
 11
1254.6817000000001
 21
1040.6579999999999
  0
LINE
  8
_0-0_LAYER001
  6
CONTINUOUS
 62
    4
 10
1254.6817000000001
 20
1040.6579999999999
 11
1258.2384
 21
1042.0069000000001
  0
LINE
  8
_0-0_LAYER001
  6
CONTINUOUS
 62
    4
 10
1258.2384
 20
1042.0069000000001
 11
1261.807
 21
1043.3708999999999
  0
LINE
  8
_0-0_LAYER001
  6
CONTINUOUS
 62
    4
 10
1261.807
 20
1043.3708999999999
 11
1265.3924
 21
1044.7560000000001
  0
LINE
  8
_0-0_LAYER001
  6
CONTINUOUS
 62
    4
 10
1265.3924
 20
1044.7560000000001
 11
1268.9991
 21
1046.1679999999999
  0
LINE
  8
_0-0_LAYER001
  6
CONTINUOUS
 62
    4
 10
1268.9991
 20
1046.1679999999999
 11
1271.1025999999999
 21
1047.0016000000001
  0
LINE
  8
_0-0_LAYER001
  6
CONTINUOUS
 62
    4
 10
1271.1025999999999
 20
1047.0016000000001
 11
1273.182
 21
1047.8305
  0
LINE
  8
_0-0_LAYER001
  6
CONTINUOUS
 62
    4
 10
1273.182
 20
1047.8305
 11
1276.7885000000001
 21
1049.2319
  0
LINE
  8
_0-0_LAYER001
  6
CONTINUOUS
 62
    4
 10
1276.7885000000001
 20
1049.2319
 11
1280.4212000000002
 21
1050.5146
  0
LINE
  8
_0-0_LAYER001
  6
CONTINUOUS
 62
    4
 10
1280.4212000000002
 20
1050.5146
 11
1284.0791999999999
 21
1051.5812000000001
  0
LINE
  8
_0-0_LAYER001
  6
CONTINUOUS
 62
    4
 10
1284.0791999999999
 20
1051.5812000000001
 11
1287.7612999999999
 21
1052.3344999999999
  0
LINE
  8
_0-0_LAYER001
  6
CONTINUOUS
 62
    4
 10
1287.7612999999999
 20
1052.3344999999999
 11
1291.4666
 21
1052.6769999999999
  0
LINE
  8
_0-0_LAYER001
  6
CONTINUOUS
 62
    4
 10
1291.4666
 20
1052.6769999999999
 11
1293.6258
 21
1052.6491000000001
  0
LINE
  8
_0-0_LAYER001
  6
CONTINUOUS
 62
    4
 10
1293.6258
 20
1052.6491000000001
 11
1294.4749999999999
 21
1052.5877
  0
LINE
  8
_0-0_LAYER001
  6
CONTINUOUS
 62
    4
 10
1294.4749999999999
 20
1052.5877
 11
1295.9393
 21
1052.4170999999999
  0
LINE
  8
_0-0_LAYER001
  6
CONTINUOUS
 62
    4
 10
1295.9393
 20
1052.4170999999999
 11
1297.4004
 21
1052.1704
  0
LINE
  8
_0-0_LAYER001
  6
CONTINUOUS
 62
    4
 10
1297.4004
 20
1052.1704
 11
1298.8541
 21
1051.8543999999999
  0
LINE
  8
_0-0_LAYER001
  6
CONTINUOUS
 62
    4
 10
1298.8541
 20
1051.8543999999999
 11
1300.2963
 21
1051.4758999999999
  0
LINE
  8
_0-0_LAYER001
  6
CONTINUOUS
 62
    4
 10
1300.2963
 20
1051.4758999999999
 11
1301.7227
 21
1051.0418
  0
LINE
  8
_0-0_LAYER001
  6
CONTINUOUS
 62
    4
 10
1301.7227
 20
1051.0418
 11
1302.5412000000001
 21
1050.7671
  0
LINE
  8
_0-0_LAYER001
  6
CONTINUOUS
 62
    4
 10
1302.5412000000001
 20
1050.7671
 11
1305.0394000000001
 21
1049.8189
  0
LINE
  8
_0-0_LAYER001
  6
CONTINUOUS
 62
    4
 10
1305.0394000000001
 20
1049.8189
 11
1309.1983
 21
1047.8853999999999
  0
LINE
  8
_0-0_LAYER001
  6
CONTINUOUS
 62
    4
 10
1309.1983
 20
1047.8853999999999
 11
1313.2021
 21
1045.6400000000001
  0
LINE
  8
_0-0_LAYER001
  6
CONTINUOUS
 62
    4
 10
1313.2021
 20
1045.6400000000001
 11
1317.0889999999999
 21
1043.1596999999999
  0
LINE
  8
_0-0_LAYER001
  6
CONTINUOUS
 62
    4
 10
1317.0889999999999
 20
1043.1596999999999
 11
1320.8969999999999
 21
1040.5216
  0
LINE
  8
_0-0_LAYER001
  6
CONTINUOUS
 62
    4
 10
1320.8969999999999
 20
1040.5216
 11
1324.6642999999999
 21
1037.8025
  0
LINE
  8
_0-0_LAYER001
  6
CONTINUOUS
 62
    4
 10
1324.6642999999999
 20
1037.8025
 11
1326.8456000000001
 21
1036.2186999999999
  0
LINE
  8
_0-0_LAYER001
  6
CONTINUOUS
 62
    4
 10
1326.8456000000001
 20
1036.2186999999999
 11
1330.1772000000001
 21
1033.8318999999999
  0
LINE
  8
_0-0_LAYER001
  6
CONTINUOUS
 62
    4
 10
1330.1772000000001
 20
1033.8318999999999
 11
1335.9694
 21
1029.8149000000001
  0
LINE
  8
_0-0_LAYER001
  6
CONTINUOUS
 62
    4
 10
1335.9694
 20
1029.8149000000001
 11
1341.8416
 21
1025.9583
  0
LINE
  8
_0-0_LAYER001
  6
CONTINUOUS
 62
    4
 10
1341.8416
 20
1025.9583
 11
1347.8157000000001
 21
1022.3037999999999
  0
LINE
  8
_0-0_LAYER001
  6
CONTINUOUS
 62
    4
 10
1347.8157000000001
 20
1022.3037999999999
 11
1353.9139
 21
1018.8933
  0
LINE
  8
_0-0_LAYER001
  6
CONTINUOUS
 62
    4
 10
1353.9139
 20
1018.8933
 11
1360.1582000000003
 21
1015.7684999999999
  0
LINE
  8
_0-0_LAYER001
  6
CONTINUOUS
 62
    4
 10
1360.1582000000003
 20
1015.7684999999999
 11
1363.8554999999999
 21
1014.1034999999999
  0
LINE
  8
_0-0_LAYER001
  6
CONTINUOUS
 62
    4
 10
1363.8554999999999
 20
1014.1034999999999
 11
1366.9147
 21
1012.8324
  0
LINE
  8
_0-0_LAYER001
  6
CONTINUOUS
 62
    4
 10
1366.9147
 20
1012.8324
 11
1372.2753
 21
1010.8302000000001
  0
LINE
  8
_0-0_LAYER001
  6
CONTINUOUS
 62
    4
 10
1372.2753
 20
1010.8302000000001
 11
1377.731
 21
1009.0746999999999
  0
LINE
  8
_0-0_LAYER001
  6
CONTINUOUS
 62
    4
 10
1377.731
 20
1009.0746999999999
 11
1383.2659000000001
 21
1007.5740000000001
  0
LINE
  8
_0-0_LAYER001
  6
CONTINUOUS
 62
    4
 10
1383.2659000000001
 20
1007.5740000000001
 11
1388.8642
 21
1006.336
  0
LINE
  8
_0-0_LAYER001
  6
CONTINUOUS
 62
    4
 10
1388.8642
 20
1006.336
 11
1394.51
 21
1005.3688
  0
LINE
  8
_0-0_LAYER001
  6
CONTINUOUS
 62
    4
 10
1394.51
 20
1005.3688
 11
1397.7999
 21
1004.9349999999999
  0
LINE
  8
_0-0_LAYER001
  6
CONTINUOUS
 62
    4
 10
1397.7999
 20
1004.9349999999999
 11
1400.3191999999999
 21
1004.6672000000001
  0
LINE
  8
_0-0_LAYER001
  6
CONTINUOUS
 62
    4
 10
1400.3191999999999
 20
1004.6672000000001
 11
1404.6713
 21
1004.3271
  0
LINE
  8
_0-0_LAYER001
  6
CONTINUOUS
 62
    4
 10
1404.6713
 20
1004.3271
 11
1409.0315000000001
 21
1004.1277
  0
LINE
  8
_0-0_LAYER001
  6
CONTINUOUS
 62
    4
 10
1409.0315000000001
 20
1004.1277
 11
1413.3967000000002
 21
1004.0531000000001
  0
LINE
  8
_0-0_LAYER001
  6
CONTINUOUS
 62
    4
 10
1413.3967000000002
 20
1004.0531000000001
 11
1417.7637999999999
 21
1004.0873999999999
  0
LINE
  8
_0-0_LAYER001
  6
CONTINUOUS
 62
    4
 10
1417.7637999999999
 20
1004.0873999999999
 11
1422.1297
 21
1004.2149999999999
  0
LINE
  8
_0-0_LAYER001
  6
CONTINUOUS
 62
    4
 10
1422.1297
 20
1004.2149999999999
 11
1424.6602000000003
 21
1004.3254999999999
  0
LINE
  8
_0-0_LAYER001
  6
CONTINUOUS
 62
    4
 10
1424.6602000000003
 20
1004.3254999999999
 11
1429.3893
 21
1004.5936999999999
  0
LINE
  8
_0-0_LAYER001
  6
CONTINUOUS
 62
    4
 10
1429.3893
 20
1004.5936999999999
 11
1437.5275000000001
 21
1005.2247
  0
LINE
  8
_0-0_LAYER001
  6
CONTINUOUS
 62
    4
 10
1437.5275000000001
 20
1005.2247
 11
1445.6482000000001
 21
1006.0385000000001
  0
LINE
  8
_0-0_LAYER001
  6
CONTINUOUS
 62
    4
 10
1445.6482000000001
 20
1006.0385000000001
 11
1453.7541000000001
 21
1006.9998000000001
  0
LINE
  8
_0-0_LAYER001
  6
CONTINUOUS
 62
    4
 10
1453.7541000000001
 20
1006.9998000000001
 11
1461.8474999999999
 21
1008.0730000000001
  0
LINE
  8
_0-0_LAYER001
  6
CONTINUOUS
 62
    4
 10
1461.8474999999999
 20
1008.0730000000001
 11
1469.9310999999998
 21
1009.2226000000001
  0
LINE
  8
_0-0_LAYER001
  6
CONTINUOUS
 62
    4
 10
1469.9310999999998
 20
1009.2226000000001
 11
1474.616
 21
1009.9103
  0
LINE
  8
_0-0_LAYER001
  6
CONTINUOUS
 62
    4
 10
1474.616
 20
1009.9103
 11
1477.0509000000002
 21
1010.2711999999999
  0
LINE
  8
_0-0_LAYER001
  6
CONTINUOUS
 62
    4
 10
1477.0509000000002
 20
1010.2711999999999
 11
1481.2478000000001
 21
1010.8972000000001
  0
LINE
  8
_0-0_LAYER001
  6
CONTINUOUS
 62
    4
 10
1481.2478000000001
 20
1010.8972000000001
 11
1485.4436000000001
 21
1011.5273
  0
LINE
  8
_0-0_LAYER001
  6
CONTINUOUS
 62
    4
 10
1485.4436000000001
 20
1011.5273
 11
1489.6383999999998
 21
1012.1605999999999
  0
LINE
  8
_0-0_LAYER001
  6
CONTINUOUS
 62
    4
 10
1489.6383999999998
 20
1012.1605999999999
 11
1493.8326000000002
 21
1012.7962
  0
LINE
  8
_0-0_LAYER001
  6
CONTINUOUS
 62
    4
 10
1493.8326000000002
 20
1012.7962
 11
1498.0264000000002
 21
1013.4331999999999
  0
LINE
  8
_0-0_LAYER001
  6
CONTINUOUS
 62
    4
 10
1498.0264000000002
 20
1013.4331999999999
 11
1500.4587000000001
 21
1013.8028999999999
  0
LINE
  8
_0-0_LAYER001
  6
CONTINUOUS
 62
    4
 10
1255.4218000000001
 20
1021.6993
 11
1257.4837
 21
1022.4762000000001
  0
LINE
  8
_0-0_LAYER001
  6
CONTINUOUS
 62
    4
 10
1257.4837
 20
1022.4762000000001
 11
1261.0513000000001
 21
1023.8226999999999
  0
LINE
  8
_0-0_LAYER001
  6
CONTINUOUS
 62
    4
 10
1261.0513000000001
 20
1023.8226999999999
 11
1264.6432
 21
1025.1849
  0
LINE
  8
_0-0_LAYER001
  6
CONTINUOUS
 62
    4
 10
1264.6432
 20
1025.1849
 11
1268.2636
 21
1026.5687
  0
LINE
  8
_0-0_LAYER001
  6
CONTINUOUS
 62
    4
 10
1268.2636
 20
1026.5687
 11
1271.9165
 21
1027.9799
  0
LINE
  8
_0-0_LAYER001
  6
CONTINUOUS
 62
    4
 10
1271.9165
 20
1027.9799
 11
1275.5957000000001
 21
1029.4203
  0
LINE
  8
_0-0_LAYER001
  6
CONTINUOUS
 62
    4
 10
1275.5957000000001
 20
1029.4203
 11
1277.7509
 21
1030.2743
  0
LINE
  8
_0-0_LAYER001
  6
CONTINUOUS
 62
    4
 10
1277.7509
 20
1030.2743
 11
1279.7745
 21
1031.0809999999999
  0
LINE
  8
_0-0_LAYER001
  6
CONTINUOUS
 62
    4
 10
1279.7745
 20
1031.0809999999999
 11
1283.0464000000002
 21
1032.3524
  0
LINE
  8
_0-0_LAYER001
  6
CONTINUOUS
 62
    4
 10
1283.0464000000002
 20
1032.3524
 11
1285.9414999999999
 21
1033.3747000000001
  0
LINE
  8
_0-0_LAYER001
  6
CONTINUOUS
 62
    4
 10
1285.9414999999999
 20
1033.3747000000001
 11
1288.4096
 21
1034.0943
  0
LINE
  8
_0-0_LAYER001
  6
CONTINUOUS
 62
    4
 10
1288.4096
 20
1034.0943
 11
1290.4014000000002
 21
1034.5018
  0
LINE
  8
_0-0_LAYER001
  6
CONTINUOUS
 62
    4
 10
1290.4014000000002
 20
1034.5018
 11
1292.1806999999999
 21
1034.6663000000001
  0
LINE
  8
_0-0_LAYER001
  6
CONTINUOUS
 62
    4
 10
1292.1806999999999
 20
1034.6663000000001
 11
1292.8602000000001
 21
1034.6575
  0
LINE
  8
_0-0_LAYER001
  6
CONTINUOUS
 62
    4
 10
1292.8602000000001
 20
1034.6575
 11
1292.7841000000001
 21
1034.663
  0
LINE
  8
_0-0_LAYER001
  6
CONTINUOUS
 62
    4
 10
1292.7841000000001
 20
1034.663
 11
1293.3977
 21
1034.5915
  0
LINE
  8
_0-0_LAYER001
  6
CONTINUOUS
 62
    4
 10
1293.3977
 20
1034.5915
 11
1293.9881
 21
1034.4918
  0
LINE
  8
_0-0_LAYER001
  6
CONTINUOUS
 62
    4
 10
1293.9881
 20
1034.4918
 11
1294.6556
 21
1034.3467000000001
  0
LINE
  8
_0-0_LAYER001
  6
CONTINUOUS
 62
    4
 10
1294.6556
 20
1034.3467000000001
 11
1295.3891000000001
 21
1034.1541999999999
  0
LINE
  8
_0-0_LAYER001
  6
CONTINUOUS
 62
    4
 10
1295.3891000000001
 20
1034.1541999999999
 11
1296.2383
 21
1033.8957
  0
LINE
  8
_0-0_LAYER001
  6
CONTINUOUS
 62
    4
 10
1296.2383
 20
1033.8957
 11
1296.4824000000001
 21
1033.8137999999999
  0
LINE
  8
_0-0_LAYER001
  6
CONTINUOUS
 62
    4
 10
1296.4824000000001
 20
1033.8137999999999
 11
1298.0423000000001
 21
1033.2218
  0
LINE
  8
_0-0_LAYER001
  6
CONTINUOUS
 62
    4
 10
1298.0423000000001
 20
1033.2218
 11
1300.9899999999998
 21
1031.8513
  0
LINE
  8
_0-0_LAYER001
  6
CONTINUOUS
 62
    4
 10
1300.9899999999998
 20
1031.8513
 11
1303.9510999999998
 21
1030.1907000000001
  0
LINE
  8
_0-0_LAYER001
  6
CONTINUOUS
 62
    4
 10
1303.9510999999998
 20
1030.1907000000001
 11
1307.1188000000002
 21
1028.1694
  0
LINE
  8
_0-0_LAYER001
  6
CONTINUOUS
 62
    4
 10
1307.1188000000002
 20
1028.1694
 11
1310.5035
 21
1025.8244999999999
  0
LINE
  8
_0-0_LAYER001
  6
CONTINUOUS
 62
    4
 10
1310.5035
 20
1025.8244999999999
 11
1314.1092000000001
 21
1023.222
  0
LINE
  8
_0-0_LAYER001
  6
CONTINUOUS
 62
    4
 10
1314.1092000000001
 20
1023.222
 11
1316.3162
 21
1021.6196
  0
LINE
  8
_0-0_LAYER001
  6
CONTINUOUS
 62
    4
 10
1316.3162
 20
1021.6196
 11
1319.8061000000002
 21
1019.1192000000001
  0
LINE
  8
_0-0_LAYER001
  6
CONTINUOUS
 62
    4
 10
1319.8061000000002
 20
1019.1192000000001
 11
1325.8983000000001
 21
1014.8942999999999
  0
LINE
  8
_0-0_LAYER001
  6
CONTINUOUS
 62
    4
 10
1325.8983000000001
 20
1014.8942999999999
 11
1332.2021
 21
1010.7542000000001
  0
LINE
  8
_0-0_LAYER001
  6
CONTINUOUS
 62
    4
 10
1332.2021
 20
1010.7542000000001
 11
1338.7228
 21
1006.7654
  0
LINE
  8
_0-0_LAYER001
  6
CONTINUOUS
 62
    4
 10
1338.7228
 20
1006.7654
 11
1345.4887000000003
 21
1002.9813999999999
  0
LINE
  8
_0-0_LAYER001
  6
CONTINUOUS
 62
    4
 10
1345.4887000000003
 20
1002.9813999999999
 11
1352.4317999999998
 21
999.50690000000009
  0
LINE
  8
_0-0_LAYER001
  6
CONTINUOUS
 62
    4
 10
1352.4317999999998
 20
999.50690000000009
 11
1356.7052000000001
 21
997.58249999999998
  0
LINE
  8
_0-0_LAYER001
  6
CONTINUOUS
 62
    4
 10
1356.7052000000001
 20
997.58249999999998
 11
1360.3103000000001
 21
996.08459999999991
  0
LINE
  8
_0-0_LAYER001
  6
CONTINUOUS
 62
    4
 10
1360.3103000000001
 20
996.08459999999991
 11
1366.3663999999999
 21
993.82269999999994
  0
LINE
  8
_0-0_LAYER001
  6
CONTINUOUS
 62
    4
 10
1366.3663999999999
 20
993.82269999999994
 11
1372.6161999999999
 21
991.8116
  0
LINE
  8
_0-0_LAYER001
  6
CONTINUOUS
 62
    4
 10
1372.6161999999999
 20
991.8116
 11
1378.9650000000001
 21
990.0902000000001
  0
LINE
  8
_0-0_LAYER001
  6
CONTINUOUS
 62
    4
 10
1378.9650000000001
 20
990.0902000000001
 11
1385.3991999999998
 21
988.66730000000007
  0
LINE
  8
_0-0_LAYER001
  6
CONTINUOUS
 62
    4
 10
1385.3991999999998
 20
988.66730000000007
 11
1391.8128999999999
 21
987.56860000000006
  0
LINE
  8
_0-0_LAYER001
  6
CONTINUOUS
 62
    4
 10
1391.8128999999999
 20
987.56860000000006
 11
1395.6717000000001
 21
987.0598
  0
LINE
  8
_0-0_LAYER001
  6
CONTINUOUS
 62
    4
 10
1395.6717000000001
 20
987.0598
 11
1398.6663000000001
 21
986.74140000000011
  0
LINE
  8
_0-0_LAYER001
  6
CONTINUOUS
 62
    4
 10
1398.6663000000001
 20
986.74140000000011
 11
1403.5588000000002
 21
986.3592000000001
  0
LINE
  8
_0-0_LAYER001
  6
CONTINUOUS
 62
    4
 10
1403.5588000000002
 20
986.3592000000001
 11
1408.4663
 21
986.13470000000007
  0
LINE
  8
_0-0_LAYER001
  6
CONTINUOUS
 62
    4
 10
1408.4663
 20
986.13470000000007
 11
1413.3136999999999
 21
986.05179999999996
  0
LINE
  8
_0-0_LAYER001
  6
CONTINUOUS
 62
    4
 10
1413.3136999999999
 20
986.05179999999996
 11
1418.0976000000001
 21
986.08950000000004
  0
LINE
  8
_0-0_LAYER001
  6
CONTINUOUS
 62
    4
 10
1418.0976000000001
 20
986.08950000000004
 11
1422.7852000000003
 21
986.22649999999999
  0
LINE
  8
_0-0_LAYER001
  6
CONTINUOUS
 62
    4
 10
1422.7852000000003
 20
986.22649999999999
 11
1425.5624
 21
986.34770000000003
  0
LINE
  8
_0-0_LAYER001
  6
CONTINUOUS
 62
    4
 10
1425.5624
 20
986.34770000000003
 11
1430.5947000000001
 21
986.63310000000001
  0
LINE
  8
_0-0_LAYER001
  6
CONTINUOUS
 62
    4
 10
1430.5947000000001
 20
986.63310000000001
 11
1439.1208999999999
 21
987.29420000000005
  0
LINE
  8
_0-0_LAYER001
  6
CONTINUOUS
 62
    4
 10
1439.1208999999999
 20
987.29420000000005
 11
1447.6057999999998
 21
988.14460000000008
  0
LINE
  8
_0-0_LAYER001
  6
CONTINUOUS
 62
    4
 10
1447.6057999999998
 20
988.14460000000008
 11
1455.9971
 21
989.13969999999995
  0
LINE
  8
_0-0_LAYER001
  6
CONTINUOUS
 62
    4
 10
1455.9971
 20
989.13969999999995
 11
1464.2977999999998
 21
990.24029999999993
  0
LINE
  8
_0-0_LAYER001
  6
CONTINUOUS
 62
    4
 10
1464.2977999999998
 20
990.24029999999993
 11
1472.5055000000002
 21
991.4076
  0
LINE
  8
_0-0_LAYER001
  6
CONTINUOUS
 62
    4
 10
1472.5055000000002
 20
991.4076
 11
1477.2426999999998
 21
992.10300000000007
  0
LINE
  8
_0-0_LAYER001
  6
CONTINUOUS
 62
    4
 10
1477.2426999999998
 20
992.10300000000007
 11
1479.6979999999999
 21
992.4668999999999
  0
LINE
  8
_0-0_LAYER001
  6
CONTINUOUS
 62
    4
 10
1479.6979999999999
 20
992.4668999999999
 11
1483.9121
 21
993.0954999999999
  0
LINE
  8
_0-0_LAYER001
  6
CONTINUOUS
 62
    4
 10
1483.9121
 20
993.0954999999999
 11
1488.1237000000001
 21
993.72790000000009
  0
LINE
  8
_0-0_LAYER001
  6
CONTINUOUS
 62
    4
 10
1488.1237000000001
 20
993.72790000000009
 11
1492.3303999999998
 21
994.36300000000006
  0
LINE
  8
_0-0_LAYER001
  6
CONTINUOUS
 62
    4
 10
1492.3303999999998
 20
994.36300000000006
 11
1496.5326
 21
994.99980000000005
  0
LINE
  8
_0-0_LAYER001
  6
CONTINUOUS
 62
    4
 10
1496.5326
 20
994.99980000000005
 11
1500.7305000000001
 21
995.63740000000007
  0
LINE
  8
_0-0_LAYER001
  6
CONTINUOUS
 62
    4
 10
1500.7305000000001
 20
995.63740000000007
 11
1502.3481999999999
 21
995.88339999999994
  0
LINE
  8
_0-0_LAYER001
  6
CONTINUOUS
 62
    4
 10
1249.8929000000001
 20
1038.8494000000001
 11
1250.3189
 21
1039.0125
  0
ARC
  8
_0-0_LAYER001
  6
CONTINUOUS
 62
    4
 10
1250.9656
 20
1036.0477000000001
 40
3
 50
110.94902000000002
 51
178.70000000000002
  0
LINE
  8
_0-0_LAYER001
  6
CONTINUOUS
 62
    4
 10
1247.857
 20
1020.2766999999999
 11
1247.857
 21
1035.9992
  0
LINE
  8
_0-0_LAYER001
  6
CONTINUOUS
 62
    4
 10
1249.211
 20
1019.3414
 11
1255.3858
 21
1021.6786
  0
ARC
  8
_0-0_LAYER001
  6
CONTINUOUS
 62
    4
 10
1248.857
 20
1020.2766999999999
 40
1
 50
180
 51
290.73165999999998
  0
LINE
  8
_0-0_LAYER001
  6
CONTINUOUS
 62
    4
 10
1512.857
 20
998.95450000000005
 11
1512.857
 21
1016.1519000000001
  0
LINE
  8
_0-0_LAYER001
  6
CONTINUOUS
 62
    4
 10
1500.5835999999999
 20
1013.8382999999999
 11
1545.0378999999998
 21
1023.4862000000001
  0
LINE
  8
_0-0_LAYER001
  6
CONTINUOUS
 62
    4
 10
1507.3287999999998
 20
994.00459999999998
 11
1546.0005999999998
 21
1003.0545
  0
LINE
  8
_0-0_LAYER001
  6
CONTINUOUS
 62
    4
 10
1546.0005999999998
 20
1004.011
 11
1546.0005999999998
 21
1003.0545
  0
ARC
  8
_0-0_LAYER001
  6
CONTINUOUS
 62
    4
 10
1547.0005999999998
 20
1004.011
 40
1
 50
102.72435
 51
180
  0
LINE
  8
_0-0_LAYER001
  6
CONTINUOUS
 62
    4
 10
1551.8175999999999
 20
1006.1239
 11
1546.7802999999999
 21
1004.9865
  0
ARC
  8
_0-0_LAYER001
  6
CONTINUOUS
 62
    4
 10
1552.0378999999998
 20
1005.1485
 40
1
 50
0
 51
102.72435
  0
LINE
  8
_0-0_LAYER001
  6
CONTINUOUS
 62
    4
 10
1552.2498999999998
 20
1006.6324
 11
1502.116
 21
995.7518
  0
ARC
  8
_0-0_LAYER001
  6
CONTINUOUS
 62
    4
 10
1552.0378999999998
 20
1007.6096
 40
1
 50
282.24497000000002
 51
0
  0
LINE
  8
_0-0_LAYER001
  6
CONTINUOUS
 62
    4
 10
1552.2557000000002
 20
985.89159999999993
 11
1502.6716999999999
 21
974.82379999999989
  0
LINE
  8
_0-0_LAYER001
  6
CONTINUOUS
 62
    4
 10
1553.0378999999998
 20
986.86760000000004
 11
1553.0378999999998
 21
1005.1485
  0
ARC
  8
_0-0_LAYER001
  6
CONTINUOUS
 62
    4
 10
1552.0378999999998
 20
986.86760000000004
 40
1
 50
282.58296000000001
 51
0.0000000000000254
  0
LINE
  8
_0-0_LAYER001
  6
CONTINUOUS
 62
    4
 10
1545.0378999999998
 20
1024.9431999999999
 11
1545.0378999999998
 21
1023.4862000000001
  0
ARC
  8
_0-0_LAYER001
  6
CONTINUOUS
 62
    4
 10
1546.0378999999998
 20
1024.9431999999999
 40
1
 50
101.73308
 51
180
  0
LINE
  8
_0-0_LAYER001
  6
CONTINUOUS
 62
    4
 10
1551.8344999999999
 20
1027.1685
 11
1545.8344999999999
 21
1025.9223
  0
LINE
  8
_0-0_LAYER001
  6
CONTINUOUS
 62
    4
 10
1553.0378999999998
 20
1026.1894
 11
1553.0378999999998
 21
1007.6096
  0
ARC
  8
_0-0_LAYER001
  6
CONTINUOUS
 62
    4
 10
1552.0378999999998
 20
1026.1894
 40
1
 50
0
 51
101.73308
  0
LINE
  8
_0-0_LAYER001
  6
DASHED1
 62
    2
 10
1352.2487000000001
 20
998.70759999999996
 11
1368.2487000000001
 21
998.70759999999996
  0
LINE
  8
_0-0_LAYER001
  6
DASHED1
 62
    2
 10
1368.2487000000001
 20
998.70759999999996
 11
1368.2487000000001
 21
995.70759999999996
  0
LINE
  8
_0-0_LAYER001
  6
DASHED1
 62
    2
 10
1352.2487000000001
 20
998.70759999999996
 11
1352.2487000000001
 21
995.70759999999996
  0
LINE
  8
_0-0_LAYER001
  6
DASHED1
 62
    2
 10
1352.2487000000001
 20
995.70759999999996
 11
1368.2487000000001
 21
995.70759999999996
  0
LINE
  8
_0-0_LAYER001
  6
DASHED1
 62
    2
 10
1363.2487000000001
 20
940.81150000000002
 11
1360.1985999999999
 21
926.30259999999998
  0
LINE
  8
_0-0_LAYER001
  6
DASHED1
 62
    2
 10
1363.2487000000001
 20
995.70759999999996
 11
1363.2487000000001
 21
940.81150000000002
  0
LINE
  8
_0-0_LAYER001
  6
DASHED1
 62
    2
 10
1360.1985999999999
 20
926.30259999999998
 11
1357.2487000000001
 21
940.56009999999992
  0
LINE
  8
_0-0_LAYER001
  6
DASHED1
 62
    2
 10
1357.2487000000001
 20
995.70759999999996
 11
1357.2487000000001
 21
940.56009999999992
  0
LINE
  8
_0-0_LAYER001
  6
DASHED1
 62
    2
 10
1617.2550000000001
 20
995.97630000000004
 11
1633.2550000000001
 21
995.97630000000004
  0
LINE
  8
_0-0_LAYER001
  6
DASHED1
 62
    2
 10
1633.2550000000001
 20
995.97630000000004
 11
1633.2550000000001
 21
992.97630000000004
  0
LINE
  8
_0-0_LAYER001
  6
DASHED1
 62
    2
 10
1617.2550000000001
 20
995.97630000000004
 11
1617.2550000000001
 21
992.97630000000004
  0
LINE
  8
_0-0_LAYER001
  6
DASHED1
 62
    2
 10
1617.2550000000001
 20
992.97630000000004
 11
1633.2550000000001
 21
992.97630000000004
  0
LINE
  8
_0-0_LAYER001
  6
DASHED1
 62
    2
 10
1628.2550000000001
 20
938.0802000000001
 11
1625.2048
 21
923.57130000000006
  0
LINE
  8
_0-0_LAYER001
  6
DASHED1
 62
    2
 10
1628.2550000000001
 20
992.97630000000004
 11
1628.2550000000001
 21
938.0802000000001
  0
LINE
  8
_0-0_LAYER001
  6
DASHED1
 62
    2
 10
1625.2048
 20
923.57130000000006
 11
1622.2550000000001
 21
937.8288
  0
LINE
  8
_0-0_LAYER001
  6
DASHED1
 62
    2
 10
1622.2550000000001
 20
992.97630000000004
 11
1622.2550000000001
 21
937.8288
  0
LINE
  8
_0-0_LAYER001
  6
CONTINUOUS
 62
    4
 10
1247.6801
 20
996.08739999999989
 11
1247.6801
 21
1013.2847999999999
  0
LINE
  8
_0-0_LAYER001
  6
CONTINUOUS
 62
    4
 10
1107.9535000000001
 20
952.24800000000005
 11
1099.4181000000001
 21
966.78140000000008
  0
LINE
  8
_0-0_LAYER001
  6
CONTINUOUS
 62
    4
 10
1116.1214
 20
951.59770000000003
 11
1124.4276
 21
961.66319999999996
  0
ARC
  8
_0-0_LAYER001
  6
CONTINUOUS
 62
    4
 10
1112.2650000000001
 20
954.78009999999995
 40
5
 50
210.42578
 51
320.47001
  0
LINE
  8
_0-0_LAYER001
  6
CONTINUOUS
 62
    4
 10
1192.067
 20
951.12789999999995
 11
1184.7416000000001
 21
962.43389999999999
  0
LINE
  8
_0-0_LAYER001
  6
CONTINUOUS
 62
    4
 10
1200.5766000000001
 20
951.31780000000003
 11
1209.5150000000001
 21
966.56349999999998
  0
ARC
  8
_0-0_LAYER001
  6
CONTINUOUS
 62
    4
 10
1196.2632000000001
 20
953.84670000000006
 40
5
 50
212.93986000000001
 51
329.61716000000001
  0
LINE
  8
_0-0_LAYER001
  6
CONTINUOUS
 62
    4
 10
1239.8586
 20
990.8753999999999
 11
1242.2867000000001
 21
991.27929999999992
  0
LINE
  8
_0-0_LAYER001
  6
CONTINUOUS
 62
    4
 10
1235.6695999999999
 20
990.17920000000004
 11
1239.8586
 21
990.8753999999999
  0
LINE
  8
_0-0_LAYER001
  6
CONTINUOUS
 62
    4
 10
1231.4757999999999
 20
989.48360000000002
 11
1235.6695999999999
 21
990.17920000000004
  0
LINE
  8
_0-0_LAYER001
  6
CONTINUOUS
 62
    4
 10
1227.277
 20
988.78960000000006
 11
1231.4757999999999
 21
989.48360000000002
  0
LINE
  8
_0-0_LAYER001
  6
CONTINUOUS
 62
    4
 10
1223.0728999999999
 20
988.09819999999991
 11
1227.277
 21
988.78960000000006
  0
LINE
  8
_0-0_LAYER001
  6
CONTINUOUS
 62
    4
 10
1218.8661
 20
987.41049999999996
 11
1223.0728999999999
 21
988.09819999999991
  0
LINE
  8
_0-0_LAYER001
  6
CONTINUOUS
 62
    4
 10
1216.4138
 20
987.01199999999994
 11
1218.8661
 21
987.41049999999996
  0
LINE
  8
_0-0_LAYER001
  6
CONTINUOUS
 62
    4
 10
1211.681
 20
986.2494999999999
 11
1216.4138
 21
987.01199999999994
  0
LINE
  8
_0-0_LAYER001
  6
CONTINUOUS
 62
    4
 10
1203.4766
 20
984.96569999999997
 11
1211.681
 21
986.2494999999999
  0
LINE
  8
_0-0_LAYER001
  6
CONTINUOUS
 62
    4
 10
1195.1691000000001
 20
983.74579999999992
 11
1203.4766
 21
984.96569999999997
  0
LINE
  8
_0-0_LAYER001
  6
CONTINUOUS
 62
    4
 10
1186.7609
 20
982.62950000000001
 11
1195.1691000000001
 21
983.74579999999992
  0
LINE
  8
_0-0_LAYER001
  6
CONTINUOUS
 62
    4
 10
1178.2483
 20
981.65609999999992
 11
1186.7609
 21
982.62950000000001
  0
LINE
  8
_0-0_LAYER001
  6
CONTINUOUS
 62
    4
 10
1169.6891000000001
 20
980.87210000000005
 11
1178.2483
 21
981.65609999999992
  0
LINE
  8
_0-0_LAYER001
  6
CONTINUOUS
 62
    4
 10
1164.6276
 20
980.5141000000001
 11
1169.6891000000001
 21
980.87210000000005
  0
LINE
  8
_0-0_LAYER001
  6
CONTINUOUS
 62
    4
 10
1161.825
 20
980.35249999999996
 11
1164.6276
 21
980.5141000000001
  0
LINE
  8
_0-0_LAYER001
  6
CONTINUOUS
 62
    4
 10
1157.104
 20
980.14850000000001
 11
1161.825
 21
980.35249999999996
  0
LINE
  8
_0-0_LAYER001
  6
CONTINUOUS
 62
    4
 10
1152.2747999999999
 20
980.04310000000009
 11
1157.104
 21
980.14850000000001
  0
LINE
  8
_0-0_LAYER001
  6
CONTINUOUS
 62
    4
 10
1147.3731
 20
980.05839999999989
 11
1152.2747999999999
 21
980.04310000000009
  0
LINE
  8
_0-0_LAYER001
  6
CONTINUOUS
 62
    4
 10
1142.4021
 20
980.21630000000005
 11
1147.3731
 21
980.05839999999989
  0
LINE
  8
_0-0_LAYER001
  6
CONTINUOUS
 62
    4
 10
1137.4447
 20
980.53410000000008
 11
1142.4021
 21
980.21630000000005
  0
LINE
  8
_0-0_LAYER001
  6
CONTINUOUS
 62
    4
 10
1134.3931
 20
980.81549999999993
 11
1137.4447
 21
980.53410000000008
  0
LINE
  8
_0-0_LAYER001
  6
CONTINUOUS
 62
    4
 10
1130.4641999999999
 20
981.2777000000001
 11
1134.3931
 21
980.81549999999993
  0
LINE
  8
_0-0_LAYER001
  6
CONTINUOUS
 62
    4
 10
1123.9503
 20
982.30030000000011
 11
1130.4641999999999
 21
981.2777000000001
  0
LINE
  8
_0-0_LAYER001
  6
CONTINUOUS
 62
    4
 10
1117.4036000000001
 20
983.65239999999994
 11
1123.9503
 21
982.30030000000011
  0
LINE
  8
_0-0_LAYER001
  6
CONTINUOUS
 62
    4
 10
1110.9407000000001
 20
985.30829999999992
 11
1117.4036000000001
 21
983.65239999999994
  0
LINE
  8
_0-0_LAYER001
  6
CONTINUOUS
 62
    4
 10
1104.5748000000001
 20
987.25900000000001
 11
1110.9407000000001
 21
985.30829999999992
  0
LINE
  8
_0-0_LAYER001
  6
CONTINUOUS
 62
    4
 10
1098.4100000000001
 20
989.46399999999994
 11
1104.5748000000001
 21
987.25900000000001
  0
LINE
  8
_0-0_LAYER001
  6
CONTINUOUS
 62
    4
 10
1094.7234000000001
 20
990.9357
 11
1098.4100000000001
 21
989.46399999999994
  0
LINE
  8
_0-0_LAYER001
  6
CONTINUOUS
 62
    4
 10
1090.3590999999999
 20
992.82819999999992
 11
1094.7234000000001
 21
990.9357
  0
LINE
  8
_0-0_LAYER001
  6
CONTINUOUS
 62
    4
 10
1083.29
 20
996.24319999999989
 11
1090.3590999999999
 21
992.82819999999992
  0
LINE
  8
_0-0_LAYER001
  6
CONTINUOUS
 62
    4
 10
1076.3970999999999
 20
999.97280000000001
 11
1083.29
 21
996.24319999999989
  0
LINE
  8
_0-0_LAYER001
  6
CONTINUOUS
 62
    4
 10
1069.7601
 20
1003.9065000000001
 11
1076.3970999999999
 21
999.97280000000001
  0
LINE
  8
_0-0_LAYER001
  6
CONTINUOUS
 62
    4
 10
1063.3507999999999
 20
1007.989
 11
1069.7601
 21
1003.9065000000001
  0
LINE
  8
_0-0_LAYER001
  6
CONTINUOUS
 62
    4
 10
1057.1666
 20
1012.1511
 11
1063.3507999999999
 21
1007.989
  0
LINE
  8
_0-0_LAYER001
  6
CONTINUOUS
 62
    4
 10
1053.6242999999999
 20
1014.6148000000001
 11
1057.1666
 21
1012.1511
  0
LINE
  8
_0-0_LAYER001
  6
CONTINUOUS
 62
    4
 10
1051.3923
 20
1016.1883
 11
1053.6242999999999
 21
1014.6148000000001
  0
LINE
  8
_0-0_LAYER001
  6
CONTINUOUS
 62
    4
 10
1047.7687000000001
 20
1018.7275
 11
1051.3923
 21
1016.1883
  0
LINE
  8
_0-0_LAYER001
  6
CONTINUOUS
 62
    4
 10
1044.3989999999999
 20
1020.9929999999999
 11
1047.7687000000001
 21
1018.7275
  0
LINE
  8
_0-0_LAYER001
  6
CONTINUOUS
 62
    4
 10
1041.2840000000001
 20
1022.9200000000001
 11
1044.3989999999999
 21
1020.9929999999999
  0
LINE
  8
_0-0_LAYER001
  6
CONTINUOUS
 62
    4
 10
1038.4168
 20
1024.4757999999999
 11
1041.2840000000001
 21
1022.9200000000001
  0
LINE
  8
_0-0_LAYER001
  6
CONTINUOUS
 62
    4
 10
1035.5857000000001
 20
1025.7442000000001
 11
1038.4168
 21
1024.4757999999999
  0
LINE
  8
_0-0_LAYER001
  6
CONTINUOUS
 62
    4
 10
1034.1224999999999
 20
1026.2763
 11
1035.5857000000001
 21
1025.7442000000001
  0
LINE
  8
_0-0_LAYER001
  6
CONTINUOUS
 62
    4
 10
1033.9413999999999
 20
1026.3343
 11
1034.1224999999999
 21
1026.2763
  0
LINE
  8
_0-0_LAYER001
  6
CONTINUOUS
 62
    4
 10
1033.1531
 20
1026.5623000000001
 11
1033.9413999999999
 21
1026.3343
  0
LINE
  8
_0-0_LAYER001
  6
CONTINUOUS
 62
    4
 10
1032.4960000000001
 20
1026.7249999999999
 11
1033.1531
 21
1026.5623000000001
  0
LINE
  8
_0-0_LAYER001
  6
CONTINUOUS
 62
    4
 10
1031.9141999999999
 20
1026.8429000000001
 11
1032.4960000000001
 21
1026.7249999999999
  0
LINE
  8
_0-0_LAYER001
  6
CONTINUOUS
 62
    4
 10
1031.8741
 20
1026.8490999999999
 11
1031.9141999999999
 21
1026.8429000000001
  0
LINE
  8
_0-0_LAYER001
  6
CONTINUOUS
 62
    4
 10
1235.848
 20
971.6878999999999
 11
1237.4621
 21
971.95640000000003
  0
LINE
  8
_0-0_LAYER001
  6
CONTINUOUS
 62
    4
 10
1231.6594
 20
970.99180000000001
 11
1235.848
 21
971.6878999999999
  0
LINE
  8
_0-0_LAYER001
  6
CONTINUOUS
 62
    4
 10
1227.4665
 20
970.29629999999997
 11
1231.6594
 21
970.99180000000001
  0
LINE
  8
_0-0_LAYER001
  6
CONTINUOUS
 62
    4
 10
1223.269
 20
969.60259999999994
 11
1227.4665
 21
970.29629999999997
  0
LINE
  8
_0-0_LAYER001
  6
CONTINUOUS
 62
    4
 10
1219.0667000000001
 20
968.91139999999996
 11
1223.269
 21
969.60259999999994
  0
LINE
  8
_0-0_LAYER001
  6
CONTINUOUS
 62
    4
 10
1214.8617999999999
 20
968.22409999999991
 11
1219.0667000000001
 21
968.91139999999996
  0
LINE
  8
_0-0_LAYER001
  6
CONTINUOUS
 62
    4
 10
1212.4118000000001
 20
967.82590000000005
 11
1214.8617999999999
 21
968.22409999999991
  0
LINE
  8
_0-0_LAYER001
  6
CONTINUOUS
 62
    4
 10
1207.6848
 20
967.06439999999998
 11
1212.4118000000001
 21
967.82590000000005
  0
LINE
  8
_0-0_LAYER001
  6
CONTINUOUS
 62
    4
 10
1199.4940999999999
 20
965.78269999999998
 11
1207.6848
 21
967.06439999999998
  0
LINE
  8
_0-0_LAYER001
  6
CONTINUOUS
 62
    4
 10
1191.2095999999999
 20
964.56619999999998
 11
1199.4940999999999
 21
965.78269999999998
  0
LINE
  8
_0-0_LAYER001
  6
CONTINUOUS
 62
    4
 10
1182.8330000000001
 20
963.45399999999995
 11
1191.2095999999999
 21
964.56619999999998
  0
LINE
  8
_0-0_LAYER001
  6
CONTINUOUS
 62
    4
 10
1174.3608999999999
 20
962.48530000000005
 11
1182.8330000000001
 21
963.45399999999995
  0
LINE
  8
_0-0_LAYER001
  6
CONTINUOUS
 62
    4
 10
1165.8448000000001
 20
961.7052000000001
 11
1174.3608999999999
 21
962.48530000000005
  0
LINE
  8
_0-0_LAYER001
  6
CONTINUOUS
 62
    4
 10
1160.8169
 20
961.34960000000001
 11
1165.8448000000001
 21
961.7052000000001
  0
LINE
  8
_0-0_LAYER001
  6
CONTINUOUS
 62
    4
 10
1158.0417
 20
961.18959999999993
 11
1160.8169
 21
961.34960000000001
  0
LINE
  8
_0-0_LAYER001
  6
CONTINUOUS
 62
    4
 10
1153.3563999999999
 20
960.98720000000003
 11
1158.0417
 21
961.18959999999993
  0
LINE
  8
_0-0_LAYER001
  6
CONTINUOUS
 62
    4
 10
1148.5735
 20
960.88270000000011
 11
1153.3563999999999
 21
960.98720000000003
  0
LINE
  8
_0-0_LAYER001
  6
CONTINUOUS
 62
    4
 10
1143.7254
 20
960.89789999999994
 11
1148.5735
 21
960.88270000000011
  0
LINE
  8
_0-0_LAYER001
  6
CONTINUOUS
 62
    4
 10
1138.8153
 20
961.05390000000011
 11
1143.7254
 21
960.89789999999994
  0
LINE
  8
_0-0_LAYER001
  6
CONTINUOUS
 62
    4
 10
1133.9179999999999
 20
961.36779999999999
 11
1138.8153
 21
961.05390000000011
  0
LINE
  8
_0-0_LAYER001
  6
CONTINUOUS
 62
    4
 10
1130.9192
 20
961.64429999999993
 11
1133.9179999999999
 21
961.36779999999999
  0
LINE
  8
_0-0_LAYER001
  6
CONTINUOUS
 62
    4
 10
1127.0536999999999
 20
962.09909999999991
 11
1130.9192
 21
961.64429999999993
  0
LINE
  8
_0-0_LAYER001
  6
CONTINUOUS
 62
    4
 10
1120.6251999999999
 20
963.1083000000001
 11
1127.0536999999999
 21
962.09909999999991
  0
LINE
  8
_0-0_LAYER001
  6
CONTINUOUS
 62
    4
 10
1114.1718000000001
 20
964.44110000000001
 11
1120.6251999999999
 21
963.1083000000001
  0
LINE
  8
_0-0_LAYER001
  6
CONTINUOUS
 62
    4
 10
1107.7996000000001
 20
966.07379999999989
 11
1114.1718000000001
 21
964.44110000000001
  0
LINE
  8
_0-0_LAYER001
  6
CONTINUOUS
 62
    4
 10
1101.5223000000001
 20
967.9973
 11
1107.7996000000001
 21
966.07379999999989
  0
LINE
  8
_0-0_LAYER001
  6
CONTINUOUS
 62
    4
 10
1095.4351999999999
 20
970.17450000000008
 11
1101.5223000000001
 21
967.9973
  0
LINE
  8
_0-0_LAYER001
  6
CONTINUOUS
 62
    4
 10
1091.8095000000001
 20
971.6219000000001
 11
1095.4351999999999
 21
970.17450000000008
  0
LINE
  8
_0-0_LAYER001
  6
CONTINUOUS
 62
    4
 10
1087.5097000000001
 20
973.48649999999998
 11
1091.8095000000001
 21
971.6219000000001
  0
LINE
  8
_0-0_LAYER001
  6
CONTINUOUS
 62
    4
 10
1080.5188000000001
 20
976.86370000000011
 11
1087.5097000000001
 21
973.48649999999998
  0
LINE
  8
_0-0_LAYER001
  6
CONTINUOUS
 62
    4
 10
1073.7007000000001
 20
980.55289999999991
 11
1080.5188000000001
 21
976.86370000000011
  0
LINE
  8
_0-0_LAYER001
  6
CONTINUOUS
 62
    4
 10
1067.1249
 20
984.4502
 11
1073.7007000000001
 21
980.55289999999991
  0
LINE
  8
_0-0_LAYER001
  6
CONTINUOUS
 62
    4
 10
1060.7639999999999
 20
988.50189999999998
 11
1067.1249
 21
984.4502
  0
LINE
  8
_0-0_LAYER001
  6
CONTINUOUS
 62
    4
 10
1054.6134
 20
992.6413
 11
1060.7639999999999
 21
988.50189999999998
  0
LINE
  8
_0-0_LAYER001
  6
CONTINUOUS
 62
    4
 10
1051.0889
 20
995.09269999999992
 11
1054.6134
 21
992.6413
  0
LINE
  8
_0-0_LAYER001
  6
CONTINUOUS
 62
    4
 10
1048.8597
 20
996.66409999999996
 11
1051.0889
 21
995.09269999999992
  0
LINE
  8
_0-0_LAYER001
  6
CONTINUOUS
 62
    4
 10
1045.2180000000001
 20
999.21599999999989
 11
1048.8597
 21
996.66409999999996
  0
LINE
  8
_0-0_LAYER001
  6
CONTINUOUS
 62
    4
 10
1041.8009
 20
1001.5135
 11
1045.2180000000001
 21
999.21599999999989
  0
LINE
  8
_0-0_LAYER001
  6
CONTINUOUS
 62
    4
 10
1038.6052999999999
 20
1003.4903999999999
 11
1041.8009
 21
1001.5135
  0
LINE
  8
_0-0_LAYER001
  6
CONTINUOUS
 62
    4
 10
1035.6213
 20
1005.1095
 11
1038.6052999999999
 21
1003.4903999999999
  0
LINE
  8
_0-0_LAYER001
  6
CONTINUOUS
 62
    4
 10
1032.6548
 20
1006.4386
 11
1035.6213
 21
1005.1095
  0
LINE
  8
_0-0_LAYER001
  6
CONTINUOUS
 62
    4
 10
1031.9048
 20
1006.7113999999999
 11
1032.6548
 21
1006.4386
  0
LINE
  8
_0-0_LAYER001
  6
CONTINUOUS
 62
    4
 10
1032.2379000000001
 20
1026.7545
 11
1032.0617999999999
 21
1006.5811000000001
  0
LINE
  8
_0-0_LAYER001
  6
CONTINUOUS
 62
    4
 10
1232.5635
 20
961.2666999999999
 11
1230.3181
 21
969.84009999999989
  0
ARC
  8
_0-0_LAYER001
  6
CONTINUOUS
 62
    4
 10
1235.4656
 20
962.02680000000009
 40
3
 50
194.67639000000003
 51
270.00000000000006
  0
LINE
  8
_0-0_LAYER001
  6
CONTINUOUS
 62
    4
 10
1238.9081000000001
 20
959.02250000000004
 11
1235.4902999999999
 21
959.02250000000004
  0
LINE
  8
_0-0_LAYER001
  6
CONTINUOUS
 62
    4
 10
1241.8672999999999
 20
961.52929999999992
 11
1243.8013000000001
 21
973.13339999999994
  0
ARC
  8
_0-0_LAYER001
  6
CONTINUOUS
 62
    4
 10
1238.9081000000001
 20
962.02250000000004
 40
3
 50
270
 51
350.53766999999999
  0
LINE
  8
_0-0_LAYER001
  6
CONTINUOUS
 62
    4
 10
985.1416999999999
 20
1036.1447000000001
 11
985.9556
 21
1036.4512999999999
  0
LINE
  8
_0-0_LAYER001
  6
CONTINUOUS
 62
    4
 10
985.9556
 20
1036.4512999999999
 11
989.50489999999991
 21
1037.7909
  0
LINE
  8
_0-0_LAYER001
  6
CONTINUOUS
 62
    4
 10
989.50489999999991
 20
1037.7909
 11
993.06150000000002
 21
1039.1397999999999
  0
LINE
  8
_0-0_LAYER001
  6
CONTINUOUS
 62
    4
 10
993.06150000000002
 20
1039.1397999999999
 11
996.63020000000006
 21
1040.5038
  0
LINE
  8
_0-0_LAYER001
  6
CONTINUOUS
 62
    4
 10
996.63020000000006
 20
1040.5038
 11
1000.2155
 21
1041.8888999999999
  0
LINE
  8
_0-0_LAYER001
  6
CONTINUOUS
 62
    4
 10
1000.2155
 20
1041.8888999999999
 11
1003.8222000000001
 21
1043.3009
  0
LINE
  8
_0-0_LAYER001
  6
CONTINUOUS
 62
    4
 10
1003.8222000000001
 20
1043.3009
 11
1005.9257
 21
1044.1344999999999
  0
LINE
  8
_0-0_LAYER001
  6
CONTINUOUS
 62
    4
 10
1005.9257
 20
1044.1344999999999
 11
1008.0051000000001
 21
1044.9634000000001
  0
LINE
  8
_0-0_LAYER001
  6
CONTINUOUS
 62
    4
 10
1008.0051000000001
 20
1044.9634000000001
 11
1011.6116
 21
1046.3648000000001
  0
LINE
  8
_0-0_LAYER001
  6
CONTINUOUS
 62
    4
 10
1011.6116
 20
1046.3648000000001
 11
1015.2444
 21
1047.6475
  0
LINE
  8
_0-0_LAYER001
  6
CONTINUOUS
 62
    4
 10
1015.2444
 20
1047.6475
 11
1018.9023
 21
1048.7141999999999
  0
LINE
  8
_0-0_LAYER001
  6
CONTINUOUS
 62
    4
 10
1018.9023
 20
1048.7141999999999
 11
1022.5844
 21
1049.4674
  0
LINE
  8
_0-0_LAYER001
  6
CONTINUOUS
 62
    4
 10
1022.5844
 20
1049.4674
 11
1026.2897
 21
1049.8099
  0
LINE
  8
_0-0_LAYER001
  6
CONTINUOUS
 62
    4
 10
1026.2897
 20
1049.8099
 11
1028.4490000000001
 21
1049.7819999999999
  0
LINE
  8
_0-0_LAYER001
  6
CONTINUOUS
 62
    4
 10
1028.4490000000001
 20
1049.7819999999999
 11
1029.2982
 21
1049.7206000000001
  0
LINE
  8
_0-0_LAYER001
  6
CONTINUOUS
 62
    4
 10
1029.2982
 20
1049.7206000000001
 11
1030.7625
 21
1049.5500999999999
  0
LINE
  8
_0-0_LAYER001
  6
CONTINUOUS
 62
    4
 10
1030.7625
 20
1049.5500999999999
 11
1032.2236
 21
1049.3033
  0
LINE
  8
_0-0_LAYER001
  6
CONTINUOUS
 62
    4
 10
1032.2236
 20
1049.3033
 11
1033.6773000000001
 21
1048.9873
  0
LINE
  8
_0-0_LAYER001
  6
CONTINUOUS
 62
    4
 10
1033.6773000000001
 20
1048.9873
 11
1035.1194
 21
1048.6088
  0
LINE
  8
_0-0_LAYER001
  6
CONTINUOUS
 62
    4
 10
1035.1194
 20
1048.6088
 11
1036.5458000000001
 21
1048.1747
  0
LINE
  8
_0-0_LAYER001
  6
CONTINUOUS
 62
    4
 10
1036.5458000000001
 20
1048.1747
 11
1037.3643
 21
1047.9001000000001
  0
LINE
  8
_0-0_LAYER001
  6
CONTINUOUS
 62
    4
 10
1037.3643
 20
1047.9001000000001
 11
1039.8625999999999
 21
1046.9518
  0
LINE
  8
_0-0_LAYER001
  6
CONTINUOUS
 62
    4
 10
1039.8625999999999
 20
1046.9518
 11
1044.0215000000001
 21
1045.0183
  0
LINE
  8
_0-0_LAYER001
  6
CONTINUOUS
 62
    4
 10
1044.0215000000001
 20
1045.0183
 11
1048.0253
 21
1042.7728999999999
  0
LINE
  8
_0-0_LAYER001
  6
CONTINUOUS
 62
    4
 10
1048.0253
 20
1042.7728999999999
 11
1051.9121
 21
1040.2926
  0
LINE
  8
_0-0_LAYER001
  6
CONTINUOUS
 62
    4
 10
1051.9121
 20
1040.2926
 11
1055.7201
 21
1037.6545000000001
  0
LINE
  8
_0-0_LAYER001
  6
CONTINUOUS
 62
    4
 10
1055.7201
 20
1037.6545000000001
 11
1059.4874
 21
1034.9354000000001
  0
LINE
  8
_0-0_LAYER001
  6
CONTINUOUS
 62
    4
 10
1059.4874
 20
1034.9354000000001
 11
1061.6686999999999
 21
1033.3516
  0
LINE
  8
_0-0_LAYER001
  6
CONTINUOUS
 62
    4
 10
1061.6686999999999
 20
1033.3516
 11
1065.0002999999999
 21
1030.9648
  0
LINE
  8
_0-0_LAYER001
  6
CONTINUOUS
 62
    4
 10
1065.0002999999999
 20
1030.9648
 11
1070.7925
 21
1026.9477999999999
  0
LINE
  8
_0-0_LAYER001
  6
CONTINUOUS
 62
    4
 10
1070.7925
 20
1026.9477999999999
 11
1076.6647
 21
1023.0912000000001
  0
LINE
  8
_0-0_LAYER001
  6
CONTINUOUS
 62
    4
 10
1076.6647
 20
1023.0912000000001
 11
1082.6388999999999
 21
1019.4367
  0
LINE
  8
_0-0_LAYER001
  6
CONTINUOUS
 62
    4
 10
1082.6388999999999
 20
1019.4367
 11
1088.7371000000001
 21
1016.0262
  0
LINE
  8
_0-0_LAYER001
  6
CONTINUOUS
 62
    4
 10
1088.7371000000001
 20
1016.0262
 11
1094.9812999999999
 21
1012.9014
  0
LINE
  8
_0-0_LAYER001
  6
CONTINUOUS
 62
    4
 10
1094.9812999999999
 20
1012.9014
 11
1098.6786
 21
1011.2364
  0
LINE
  8
_0-0_LAYER001
  6
CONTINUOUS
 62
    4
 10
1098.6786
 20
1011.2364
 11
1101.7379000000001
 21
1009.9653000000001
  0
LINE
  8
_0-0_LAYER001
  6
CONTINUOUS
 62
    4
 10
1101.7379000000001
 20
1009.9653000000001
 11
1107.0984000000001
 21
1007.9630999999999
  0
LINE
  8
_0-0_LAYER001
  6
CONTINUOUS
 62
    4
 10
1107.0984000000001
 20
1007.9630999999999
 11
1112.5541000000001
 21
1006.2076999999999
  0
LINE
  8
_0-0_LAYER001
  6
CONTINUOUS
 62
    4
 10
1112.5541000000001
 20
1006.2076999999999
 11
1118.0890999999999
 21
1004.7068999999999
  0
LINE
  8
_0-0_LAYER001
  6
CONTINUOUS
 62
    4
 10
1118.0890999999999
 20
1004.7068999999999
 11
1123.6874
 21
1003.4689000000001
  0
LINE
  8
_0-0_LAYER001
  6
CONTINUOUS
 62
    4
 10
1123.6874
 20
1003.4689000000001
 11
1129.3331000000001
 21
1002.5017
  0
LINE
  8
_0-0_LAYER001
  6
CONTINUOUS
 62
    4
 10
1129.3331000000001
 20
1002.5017
 11
1132.6231
 21
1002.0679
  0
LINE
  8
_0-0_LAYER001
  6
CONTINUOUS
 62
    4
 10
1132.6231
 20
1002.0679
 11
1135.1424
 21
1001.8000999999999
  0
LINE
  8
_0-0_LAYER001
  6
CONTINUOUS
 62
    4
 10
1135.1424
 20
1001.8000999999999
 11
1139.4945
 21
1001.46
  0
LINE
  8
_0-0_LAYER001
  6
CONTINUOUS
 62
    4
 10
1139.4945
 20
1001.46
 11
1143.8547000000001
 21
1001.2606000000001
  0
LINE
  8
_0-0_LAYER001
  6
CONTINUOUS
 62
    4
 10
1143.8547000000001
 20
1001.2606000000001
 11
1148.2199000000001
 21
1001.1859999999999
  0
LINE
  8
_0-0_LAYER001
  6
CONTINUOUS
 62
    4
 10
1148.2199000000001
 20
1001.1859999999999
 11
1152.587
 21
1001.2203
  0
LINE
  8
_0-0_LAYER001
  6
CONTINUOUS
 62
    4
 10
1152.587
 20
1001.2203
 11
1156.9529
 21
1001.3479
  0
LINE
  8
_0-0_LAYER001
  6
CONTINUOUS
 62
    4
 10
1156.9529
 20
1001.3479
 11
1159.4833000000001
 21
1001.4584
  0
LINE
  8
_0-0_LAYER001
  6
CONTINUOUS
 62
    4
 10
1159.4833000000001
 20
1001.4584
 11
1164.2123999999999
 21
1001.7266
  0
LINE
  8
_0-0_LAYER001
  6
CONTINUOUS
 62
    4
 10
1164.2123999999999
 20
1001.7266
 11
1172.3506
 21
1002.3576
  0
LINE
  8
_0-0_LAYER001
  6
CONTINUOUS
 62
    4
 10
1172.3506
 20
1002.3576
 11
1180.4713999999999
 21
1003.1713999999999
  0
LINE
  8
_0-0_LAYER001
  6
CONTINUOUS
 62
    4
 10
1180.4713999999999
 20
1003.1713999999999
 11
1188.5771999999999
 21
1004.1327000000001
  0
LINE
  8
_0-0_LAYER001
  6
CONTINUOUS
 62
    4
 10
1188.5771999999999
 20
1004.1327000000001
 11
1196.6706999999999
 21
1005.2058999999999
  0
LINE
  8
_0-0_LAYER001
  6
CONTINUOUS
 62
    4
 10
1196.6706999999999
 20
1005.2058999999999
 11
1204.7542000000001
 21
1006.3554999999999
  0
LINE
  8
_0-0_LAYER001
  6
CONTINUOUS
 62
    4
 10
1204.7542000000001
 20
1006.3554999999999
 11
1209.4391000000001
 21
1007.0433
  0
LINE
  8
_0-0_LAYER001
  6
CONTINUOUS
 62
    4
 10
1209.4391000000001
 20
1007.0433
 11
1211.874
 21
1007.4041
  0
LINE
  8
_0-0_LAYER001
  6
CONTINUOUS
 62
    4
 10
1211.874
 20
1007.4041
 11
1216.0709999999999
 21
1008.0300999999999
  0
LINE
  8
_0-0_LAYER001
  6
CONTINUOUS
 62
    4
 10
1216.0709999999999
 20
1008.0300999999999
 11
1220.2668000000001
 21
1008.6602
  0
LINE
  8
_0-0_LAYER001
  6
CONTINUOUS
 62
    4
 10
1220.2668000000001
 20
1008.6602
 11
1224.4616000000001
 21
1009.2935
  0
LINE
  8
_0-0_LAYER001
  6
CONTINUOUS
 62
    4
 10
1224.4616000000001
 20
1009.2935
 11
1228.6558
 21
1009.9291000000001
  0
LINE
  8
_0-0_LAYER001
  6
CONTINUOUS
 62
    4
 10
1228.6558
 20
1009.9291000000001
 11
1232.8495
 21
1010.5661
  0
LINE
  8
_0-0_LAYER001
  6
CONTINUOUS
 62
    4
 10
1232.8495
 20
1010.5661
 11
1235.2818
 21
1010.9358
  0
LINE
  8
_0-0_LAYER001
  6
CONTINUOUS
 62
    4
 10
990.24489999999992
 20
1018.8322000000001
 11
992.30680000000007
 21
1019.6090999999999
  0
LINE
  8
_0-0_LAYER001
  6
CONTINUOUS
 62
    4
 10
992.30680000000007
 20
1019.6090999999999
 11
995.87439999999992
 21
1020.9556
  0
LINE
  8
_0-0_LAYER001
  6
CONTINUOUS
 62
    4
 10
995.87439999999992
 20
1020.9556
 11
999.46630000000005
 21
1022.3178
  0
LINE
  8
_0-0_LAYER001
  6
CONTINUOUS
 62
    4
 10
999.46630000000005
 20
1022.3178
 11
1003.0867000000001
 21
1023.7016000000001
  0
LINE
  8
_0-0_LAYER001
  6
CONTINUOUS
 62
    4
 10
1003.0867000000001
 20
1023.7016000000001
 11
1006.7397000000001
 21
1025.1128000000001
  0
LINE
  8
_0-0_LAYER001
  6
CONTINUOUS
 62
    4
 10
1006.7397000000001
 20
1025.1128000000001
 11
1010.4188999999999
 21
1026.5532000000001
  0
LINE
  8
_0-0_LAYER001
  6
CONTINUOUS
 62
    4
 10
1010.4188999999999
 20
1026.5532000000001
 11
1012.5741
 21
1027.4072000000001
  0
LINE
  8
_0-0_LAYER001
  6
CONTINUOUS
 62
    4
 10
1012.5741
 20
1027.4072000000001
 11
1014.5976000000001
 21
1028.2139
  0
LINE
  8
_0-0_LAYER001
  6
CONTINUOUS
 62
    4
 10
1014.5976000000001
 20
1028.2139
 11
1017.8695
 21
1029.4853000000001
  0
LINE
  8
_0-0_LAYER001
  6
CONTINUOUS
 62
    4
 10
1017.8695
 20
1029.4853000000001
 11
1020.7646
 21
1030.5075999999999
  0
LINE
  8
_0-0_LAYER001
  6
CONTINUOUS
 62
    4
 10
1020.7646
 20
1030.5075999999999
 11
1023.2328
 21
1031.2273
  0
LINE
  8
_0-0_LAYER001
  6
CONTINUOUS
 62
    4
 10
1023.2328
 20
1031.2273
 11
1025.2245
 21
1031.6347000000001
  0
LINE
  8
_0-0_LAYER001
  6
CONTINUOUS
 62
    4
 10
1025.2245
 20
1031.6347000000001
 11
1027.0038
 21
1031.7991999999999
  0
LINE
  8
_0-0_LAYER001
  6
CONTINUOUS
 62
    4
 10
1027.0038
 20
1031.7991999999999
 11
1027.6832999999999
 21
1031.7904000000001
  0
LINE
  8
_0-0_LAYER001
  6
CONTINUOUS
 62
    4
 10
1027.6832999999999
 20
1031.7904000000001
 11
1027.6071999999999
 21
1031.7959000000001
  0
LINE
  8
_0-0_LAYER001
  6
CONTINUOUS
 62
    4
 10
1027.6071999999999
 20
1031.7959000000001
 11
1028.2209
 21
1031.7244000000001
  0
LINE
  8
_0-0_LAYER001
  6
CONTINUOUS
 62
    4
 10
1028.2209
 20
1031.7244000000001
 11
1028.8113000000001
 21
1031.6247000000001
  0
LINE
  8
_0-0_LAYER001
  6
CONTINUOUS
 62
    4
 10
1028.8113000000001
 20
1031.6247000000001
 11
1029.4786999999999
 21
1031.4795999999999
  0
LINE
  8
_0-0_LAYER001
  6
CONTINUOUS
 62
    4
 10
1029.4786999999999
 20
1031.4795999999999
 11
1030.2122999999999
 21
1031.2871
  0
LINE
  8
_0-0_LAYER001
  6
CONTINUOUS
 62
    4
 10
1030.2122999999999
 20
1031.2871
 11
1031.0614
 21
1031.0286000000001
  0
LINE
  8
_0-0_LAYER001
  6
CONTINUOUS
 62
    4
 10
1031.0614
 20
1031.0286000000001
 11
1031.3054999999999
 21
1030.9467
  0
LINE
  8
_0-0_LAYER001
  6
CONTINUOUS
 62
    4
 10
1031.3054999999999
 20
1030.9467
 11
1032.8653999999999
 21
1030.3547000000001
  0
LINE
  8
_0-0_LAYER001
  6
CONTINUOUS
 62
    4
 10
1032.8653999999999
 20
1030.3547000000001
 11
1035.8131000000001
 21
1028.9842000000001
  0
LINE
  8
_0-0_LAYER001
  6
CONTINUOUS
 62
    4
 10
1035.8131000000001
 20
1028.9842000000001
 11
1038.7742000000001
 21
1027.3235999999999
  0
LINE
  8
_0-0_LAYER001
  6
CONTINUOUS
 62
    4
 10
1038.7742000000001
 20
1027.3235999999999
 11
1041.9419
 21
1025.3023000000001
  0
LINE
  8
_0-0_LAYER001
  6
CONTINUOUS
 62
    4
 10
1041.9419
 20
1025.3023000000001
 11
1045.3266000000001
 21
1022.9574
  0
LINE
  8
_0-0_LAYER001
  6
CONTINUOUS
 62
    4
 10
1045.3266000000001
 20
1022.9574
 11
1048.9322999999999
 21
1020.3549
  0
LINE
  8
_0-0_LAYER001
  6
CONTINUOUS
 62
    4
 10
1048.9322999999999
 20
1020.3549
 11
1051.1393
 21
1018.7525000000001
  0
LINE
  8
_0-0_LAYER001
  6
CONTINUOUS
 62
    4
 10
1051.1393
 20
1018.7525000000001
 11
1054.6293000000001
 21
1016.2520999999999
  0
LINE
  8
_0-0_LAYER001
  6
CONTINUOUS
 62
    4
 10
1054.6293000000001
 20
1016.2520999999999
 11
1060.7215000000001
 21
1012.0272
  0
LINE
  8
_0-0_LAYER001
  6
CONTINUOUS
 62
    4
 10
1060.7215000000001
 20
1012.0272
 11
1067.0252
 21
1007.8870999999999
  0
LINE
  8
_0-0_LAYER001
  6
CONTINUOUS
 62
    4
 10
1067.0252
 20
1007.8870999999999
 11
1073.5459000000001
 21
1003.8983000000001
  0
LINE
  8
_0-0_LAYER001
  6
CONTINUOUS
 62
    4
 10
1073.5459000000001
 20
1003.8983000000001
 11
1080.3118999999999
 21
1000.1143
  0
LINE
  8
_0-0_LAYER001
  6
CONTINUOUS
 62
    4
 10
1080.3118999999999
 20
1000.1143
 11
1087.2548999999999
 21
996.63979999999992
  0
LINE
  8
_0-0_LAYER001
  6
CONTINUOUS
 62
    4
 10
1087.2548999999999
 20
996.63979999999992
 11
1091.5282999999999
 21
994.71540000000005
  0
LINE
  8
_0-0_LAYER001
  6
CONTINUOUS
 62
    4
 10
1091.5282999999999
 20
994.71540000000005
 11
1095.1333999999999
 21
993.21749999999997
  0
LINE
  8
_0-0_LAYER001
  6
CONTINUOUS
 62
    4
 10
1095.1333999999999
 20
993.21749999999997
 11
1101.1895
 21
990.9556
  0
LINE
  8
_0-0_LAYER001
  6
CONTINUOUS
 62
    4
 10
1101.1895
 20
990.9556
 11
1107.4394
 21
988.94450000000006
  0
LINE
  8
_0-0_LAYER001
  6
CONTINUOUS
 62
    4
 10
1107.4394
 20
988.94450000000006
 11
1113.7881
 21
987.22309999999993
  0
LINE
  8
_0-0_LAYER001
  6
CONTINUOUS
 62
    4
 10
1113.7881
 20
987.22309999999993
 11
1120.2222999999999
 21
985.80030000000011
  0
LINE
  8
_0-0_LAYER001
  6
CONTINUOUS
 62
    4
 10
1120.2222999999999
 20
985.80030000000011
 11
1126.636
 21
984.7014999999999
  0
LINE
  8
_0-0_LAYER001
  6
CONTINUOUS
 62
    4
 10
1126.636
 20
984.7014999999999
 11
1130.4948999999999
 21
984.19270000000006
  0
LINE
  8
_0-0_LAYER001
  6
CONTINUOUS
 62
    4
 10
1130.4948999999999
 20
984.19270000000006
 11
1133.4894999999999
 21
983.87439999999992
  0
LINE
  8
_0-0_LAYER001
  6
CONTINUOUS
 62
    4
 10
1133.4894999999999
 20
983.87439999999992
 11
1138.3819000000001
 21
983.49209999999994
  0
LINE
  8
_0-0_LAYER001
  6
CONTINUOUS
 62
    4
 10
1138.3819000000001
 20
983.49209999999994
 11
1143.2893999999999
 21
983.2675999999999
  0
LINE
  8
_0-0_LAYER001
  6
CONTINUOUS
 62
    4
 10
1143.2893999999999
 20
983.2675999999999
 11
1148.1368
 21
983.18470000000002
  0
LINE
  8
_0-0_LAYER001
  6
CONTINUOUS
 62
    4
 10
1148.1368
 20
983.18470000000002
 11
1152.9206999999999
 21
983.22240000000011
  0
LINE
  8
_0-0_LAYER001
  6
CONTINUOUS
 62
    4
 10
1152.9206999999999
 20
983.22240000000011
 11
1157.6084000000001
 21
983.35940000000005
  0
LINE
  8
_0-0_LAYER001
  6
CONTINUOUS
 62
    4
 10
1157.6084000000001
 20
983.35940000000005
 11
1160.3855000000001
 21
983.48060000000009
  0
LINE
  8
_0-0_LAYER001
  6
CONTINUOUS
 62
    4
 10
1160.3855000000001
 20
983.48060000000009
 11
1165.4178999999999
 21
983.76600000000008
  0
LINE
  8
_0-0_LAYER001
  6
CONTINUOUS
 62
    4
 10
1165.4178999999999
 20
983.76600000000008
 11
1173.944
 21
984.42710000000011
  0
LINE
  8
_0-0_LAYER001
  6
CONTINUOUS
 62
    4
 10
1173.944
 20
984.42710000000011
 11
1182.4289000000001
 21
985.27749999999992
  0
LINE
  8
_0-0_LAYER001
  6
CONTINUOUS
 62
    4
 10
1182.4289000000001
 20
985.27749999999992
 11
1190.8202000000001
 21
986.27260000000001
  0
LINE
  8
_0-0_LAYER001
  6
CONTINUOUS
 62
    4
 10
1190.8202000000001
 20
986.27260000000001
 11
1199.1208999999999
 21
987.3732
  0
LINE
  8
_0-0_LAYER001
  6
CONTINUOUS
 62
    4
 10
1199.1208999999999
 20
987.3732
 11
1207.3287
 21
988.54050000000007
  0
LINE
  8
_0-0_LAYER001
  6
CONTINUOUS
 62
    4
 10
1207.3287
 20
988.54050000000007
 11
1212.0658000000001
 21
989.2358999999999
  0
LINE
  8
_0-0_LAYER001
  6
CONTINUOUS
 62
    4
 10
1212.0658000000001
 20
989.2358999999999
 11
1214.5210999999999
 21
989.59979999999996
  0
LINE
  8
_0-0_LAYER001
  6
CONTINUOUS
 62
    4
 10
1214.5210999999999
 20
989.59979999999996
 11
1218.7353000000001
 21
990.22839999999997
  0
LINE
  8
_0-0_LAYER001
  6
CONTINUOUS
 62
    4
 10
1218.7353000000001
 20
990.22839999999997
 11
1222.9467999999999
 21
990.86079999999993
  0
LINE
  8
_0-0_LAYER001
  6
CONTINUOUS
 62
    4
 10
1222.9467999999999
 20
990.86079999999993
 11
1227.1534999999999
 21
991.49589999999989
  0
LINE
  8
_0-0_LAYER001
  6
CONTINUOUS
 62
    4
 10
1227.1534999999999
 20
991.49589999999989
 11
1231.3557000000001
 21
992.13270000000011
  0
LINE
  8
_0-0_LAYER001
  6
CONTINUOUS
 62
    4
 10
1231.3557000000001
 20
992.13270000000011
 11
1235.5536
 21
992.77029999999991
  0
LINE
  8
_0-0_LAYER001
  6
CONTINUOUS
 62
    4
 10
1235.5536
 20
992.77029999999991
 11
1237.1713
 21
993.0163
  0
LINE
  8
_0-0_LAYER001
  6
CONTINUOUS
 62
    4
 10
984.7161000000001
 20
1035.9822999999999
 11
985.14210000000003
 21
1036.1454000000001
  0
ARC
  8
_0-0_LAYER001
  6
CONTINUOUS
 62
    4
 10
985.78870000000006
 20
1033.1805999999999
 40
3
 50
110.94902000000002
 51
178.70000000000002
  0
LINE
  8
_0-0_LAYER001
  6
CONTINUOUS
 62
    4
 10
982.68010000000004
 20
1017.4096
 11
982.68010000000004
 21
1033.1321
  0
LINE
  8
_0-0_LAYER001
  6
CONTINUOUS
 62
    4
 10
984.03410000000008
 20
1016.4743000000001
 11
990.20900000000006
 21
1018.8115
  0
ARC
  8
_0-0_LAYER001
  6
CONTINUOUS
 62
    4
 10
983.68010000000004
 20
1017.4096
 40
1
 50
180
 51
290.73165999999998
  0
LINE
  8
_0-0_LAYER001
  6
CONTINUOUS
 62
    4
 10
1235.4067
 20
1010.9712
 11
1279.8610000000001
 21
1020.6190999999999
  0
LINE
  8
_0-0_LAYER001
  6
CONTINUOUS
 62
    4
 10
1242.1519000000001
 20
991.13750000000005
 11
1280.8236999999999
 21
1000.1874
  0
LINE
  8
_0-0_LAYER001
  6
CONTINUOUS
 62
    4
 10
1280.8236999999999
 20
1001.1439
 11
1280.8236999999999
 21
1000.1874
  0
ARC
  8
_0-0_LAYER001
  6
CONTINUOUS
 62
    4
 10
1281.8236999999999
 20
1001.1439
 40
1
 50
102.72435
 51
180
  0
LINE
  8
_0-0_LAYER001
  6
CONTINUOUS
 62
    4
 10
1286.6406999999999
 20
1003.2568000000001
 11
1281.6034999999999
 21
1002.1194
  0
ARC
  8
_0-0_LAYER001
  6
CONTINUOUS
 62
    4
 10
1286.8610000000001
 20
1002.2814000000001
 40
1
 50
0
 51
102.72435
  0
LINE
  8
_0-0_LAYER001
  6
CONTINUOUS
 62
    4
 10
1287.0731000000001
 20
1003.7653
 11
1236.9391000000001
 21
992.88470000000007
  0
ARC
  8
_0-0_LAYER001
  6
CONTINUOUS
 62
    4
 10
1286.8610000000001
 20
1004.7425000000001
 40
1
 50
282.24497000000002
 51
0
  0
LINE
  8
_0-0_LAYER001
  6
CONTINUOUS
 62
    4
 10
1287.0787999999998
 20
983.02459999999996
 11
1237.4948999999999
 21
971.95669999999996
  0
LINE
  8
_0-0_LAYER001
  6
CONTINUOUS
 62
    4
 10
1287.8610000000001
 20
984.0005000000001
 11
1287.8610000000001
 21
1002.2814000000001
  0
ARC
  8
_0-0_LAYER001
  6
CONTINUOUS
 62
    4
 10
1286.8610000000001
 20
984.0005000000001
 40
1
 50
282.58296000000001
 51
0.0000000000000254
  0
LINE
  8
_0-0_LAYER001
  6
CONTINUOUS
 62
    4
 10
1279.8610000000001
 20
1022.0761
 11
1279.8610000000001
 21
1020.6190999999999
  0
ARC
  8
_0-0_LAYER001
  6
CONTINUOUS
 62
    4
 10
1280.8610000000001
 20
1022.0761
 40
1
 50
101.73308
 51
180
  0
LINE
  8
_0-0_LAYER001
  6
CONTINUOUS
 62
    4
 10
1286.6576
 20
1024.3014000000001
 11
1280.6576
 21
1023.0552
  0
LINE
  8
_0-0_LAYER001
  6
CONTINUOUS
 62
    4
 10
1287.8610000000001
 20
1023.3223
 11
1287.8610000000001
 21
1004.7425000000001
  0
ARC
  8
_0-0_LAYER001
  6
CONTINUOUS
 62
    4
 10
1286.8610000000001
 20
1023.3223
 40
1
 50
0
 51
101.73308
  0
LINE
  8
_0-0_LAYER001
  6
CONTINUOUS
 62
    4
 10
927.24389999999994
 20
951.31220000000008
 11
919.91849999999999
 21
962.61830000000009
  0
LINE
  8
_0-0_LAYER001
  6
CONTINUOUS
 62
    4
 10
935.75340000000006
 20
951.50209999999993
 11
944.69190000000003
 21
966.7478000000001
  0
ARC
  8
_0-0_LAYER001
  6
CONTINUOUS
 62
    4
 10
931.44010000000003
 20
954.03099999999995
 40
5
 50
212.93986000000001
 51
329.61716000000001
  0
LINE
  8
_0-0_LAYER001
  6
CONTINUOUS
 62
    4
 10
975.03549999999996
 20
991.0598
 11
977.46360000000004
 21
991.46360000000004
  0
LINE
  8
_0-0_LAYER001
  6
CONTINUOUS
 62
    4
 10
970.8463999999999
 20
990.36349999999993
 11
975.03549999999996
 21
991.0598
  0
LINE
  8
_0-0_LAYER001
  6
CONTINUOUS
 62
    4
 10
966.65259999999989
 20
989.66799999999989
 11
970.8463999999999
 21
990.36349999999993
  0
LINE
  8
_0-0_LAYER001
  6
CONTINUOUS
 62
    4
 10
962.4538
 20
988.97399999999993
 11
966.65259999999989
 21
989.66799999999989
  0
LINE
  8
_0-0_LAYER001
  6
CONTINUOUS
 62
    4
 10
958.24980000000005
 20
988.28250000000003
 11
962.4538
 21
988.97399999999993
  0
LINE
  8
_0-0_LAYER001
  6
CONTINUOUS
 62
    4
 10
954.04299999999989
 20
987.59480000000008
 11
958.24980000000005
 21
988.28250000000003
  0
LINE
  8
_0-0_LAYER001
  6
CONTINUOUS
 62
    4
 10
951.59069999999997
 20
987.19630000000006
 11
954.04299999999989
 21
987.59480000000008
  0
LINE
  8
_0-0_LAYER001
  6
CONTINUOUS
 62
    4
 10
946.85789999999997
 20
986.43389999999999
 11
951.59069999999997
 21
987.19630000000006
  0
LINE
  8
_0-0_LAYER001
  6
CONTINUOUS
 62
    4
 10
938.65349999999989
 20
985.15000000000009
 11
946.85789999999997
 21
986.43389999999999
  0
LINE
  8
_0-0_LAYER001
  6
CONTINUOUS
 62
    4
 10
930.346
 20
983.93020000000001
 11
938.65349999999989
 21
985.15000000000009
  0
LINE
  8
_0-0_LAYER001
  6
CONTINUOUS
 62
    4
 10
921.93769999999995
 20
982.8137999999999
 11
930.346
 21
983.93020000000001
  0
LINE
  8
_0-0_LAYER001
  6
CONTINUOUS
 62
    4
 10
913.42509999999993
 20
981.84040000000005
 11
921.93769999999995
 21
982.8137999999999
  0
LINE
  8
_0-0_LAYER001
  6
CONTINUOUS
 62
    4
 10
904.86599999999999
 20
981.05639999999994
 11
913.42509999999993
 21
981.84040000000005
  0
LINE
  8
_0-0_LAYER001
  6
CONTINUOUS
 62
    4
 10
899.80449999999996
 20
980.69839999999999
 11
904.86599999999999
 21
981.05639999999994
  0
LINE
  8
_0-0_LAYER001
  6
CONTINUOUS
 62
    4
 10
897.00189999999998
 20
980.53680000000008
 11
899.80449999999996
 21
980.69839999999999
  0
LINE
  8
_0-0_LAYER001
  6
CONTINUOUS
 62
    4
 10
892.28089999999997
 20
980.33290000000011
 11
897.00189999999998
 21
980.53680000000008
  0
LINE
  8
_0-0_LAYER001
  6
CONTINUOUS
 62
    4
 10
891.67129999999997
 20
980.31960000000004
 11
892.28089999999997
 21
980.33290000000011
  0
LINE
  8
_0-0_LAYER001
  6
CONTINUOUS
 62
    4
 10
971.02479999999991
 20
971.8723
 11
972.63889999999992
 21
972.1407999999999
  0
LINE
  8
_0-0_LAYER001
  6
CONTINUOUS
 62
    4
 10
966.83629999999994
 20
971.17609999999991
 11
971.02479999999991
 21
971.8723
  0
LINE
  8
_0-0_LAYER001
  6
CONTINUOUS
 62
    4
 10
962.64339999999993
 20
970.48070000000007
 11
966.83629999999994
 21
971.17609999999991
  0
LINE
  8
_0-0_LAYER001
  6
CONTINUOUS
 62
    4
 10
958.44589999999994
 20
969.78690000000006
 11
962.64339999999993
 21
970.48070000000007
  0
LINE
  8
_0-0_LAYER001
  6
CONTINUOUS
 62
    4
 10
954.24360000000001
 20
969.09570000000008
 11
958.44589999999994
 21
969.78690000000006
  0
LINE
  8
_0-0_LAYER001
  6
CONTINUOUS
 62
    4
 10
950.03870000000006
 20
968.40840000000003
 11
954.24360000000001
 21
969.09570000000008
  0
LINE
  8
_0-0_LAYER001
  6
CONTINUOUS
 62
    4
 10
947.58860000000004
 20
968.01029999999992
 11
950.03870000000006
 21
968.40840000000003
  0
LINE
  8
_0-0_LAYER001
  6
CONTINUOUS
 62
    4
 10
942.86169999999993
 20
967.2487000000001
 11
947.58860000000004
 21
968.01029999999992
  0
LINE
  8
_0-0_LAYER001
  6
CONTINUOUS
 62
    4
 10
934.67100000000005
 20
965.9670000000001
 11
942.86169999999993
 21
967.2487000000001
  0
LINE
  8
_0-0_LAYER001
  6
CONTINUOUS
 62
    4
 10
926.38650000000007
 20
964.75060000000008
 11
934.67100000000005
 21
965.9670000000001
  0
LINE
  8
_0-0_LAYER001
  6
CONTINUOUS
 62
    4
 10
918.00990000000002
 20
963.63840000000005
 11
926.38650000000007
 21
964.75060000000008
  0
LINE
  8
_0-0_LAYER001
  6
CONTINUOUS
 62
    4
 10
909.53770000000009
 20
962.66959999999995
 11
918.00990000000002
 21
963.63840000000005
  0
LINE
  8
_0-0_LAYER001
  6
CONTINUOUS
 62
    4
 10
901.02160000000003
 20
961.88959999999997
 11
909.53770000000009
 21
962.66959999999995
  0
LINE
  8
_0-0_LAYER001
  6
CONTINUOUS
 62
    4
 10
895.99379999999996
 20
961.53400000000011
 11
901.02160000000003
 21
961.88959999999997
  0
LINE
  8
_0-0_LAYER001
  6
CONTINUOUS
 62
    4
 10
893.21859999999992
 20
961.37390000000005
 11
895.99379999999996
 21
961.53400000000011
  0
LINE
  8
_0-0_LAYER001
  6
CONTINUOUS
 62
    4
 10
891.67129999999997
 20
961.30709999999999
 11
893.21859999999992
 21
961.37390000000005
  0
LINE
  8
_0-0_LAYER001
  6
CONTINUOUS
 62
    4
 10
967.74039999999991
 20
961.4511
 11
965.49489999999992
 21
970.02449999999999
  0
ARC
  8
_0-0_LAYER001
  6
CONTINUOUS
 62
    4
 10
970.64249999999993
 20
962.21109999999999
 40
3
 50
194.67639000000003
 51
270.00000000000006
  0
LINE
  8
_0-0_LAYER001
  6
CONTINUOUS
 62
    4
 10
974.08500000000004
 20
959.20679999999993
 11
970.66709999999989
 21
959.20679999999993
  0
LINE
  8
_0-0_LAYER001
  6
CONTINUOUS
 62
    4
 10
977.04410000000007
 20
961.71360000000004
 11
978.97820000000002
 21
973.31780000000003
  0
ARC
  8
_0-0_LAYER001
  6
CONTINUOUS
 62
    4
 10
974.08500000000004
 20
962.20679999999993
 40
3
 50
270
 51
350.53766999999999
  0
LINE
  8
_0-0_LAYER001
  6
CONTINUOUS
 62
    4
 10
891.67129999999997
 20
1001.5189
 11
892.12969999999996
 21
1001.5322000000001
  0
LINE
  8
_0-0_LAYER001
  6
CONTINUOUS
 62
    4
 10
892.12969999999996
 20
1001.5322000000001
 11
894.66020000000003
 21
1001.6427000000001
  0
LINE
  8
_0-0_LAYER001
  6
CONTINUOUS
 62
    4
 10
894.66020000000003
 20
1001.6427000000001
 11
899.38930000000005
 21
1001.9109000000001
  0
LINE
  8
_0-0_LAYER001
  6
CONTINUOUS
 62
    4
 10
899.38930000000005
 20
1001.9109000000001
 11
907.52749999999992
 21
1002.5418999999999
  0
LINE
  8
_0-0_LAYER001
  6
CONTINUOUS
 62
    4
 10
907.52749999999992
 20
1002.5418999999999
 11
915.64820000000009
 21
1003.3558
  0
LINE
  8
_0-0_LAYER001
  6
CONTINUOUS
 62
    4
 10
915.64820000000009
 20
1003.3558
 11
923.75410000000011
 21
1004.3171
  0
LINE
  8
_0-0_LAYER001
  6
CONTINUOUS
 62
    4
 10
923.75410000000011
 20
1004.3171
 11
931.84750000000008
 21
1005.3902
  0
LINE
  8
_0-0_LAYER001
  6
CONTINUOUS
 62
    4
 10
931.84750000000008
 20
1005.3902
 11
939.93110000000001
 21
1006.5398
  0
LINE
  8
_0-0_LAYER001
  6
CONTINUOUS
 62
    4
 10
939.93110000000001
 20
1006.5398
 11
944.61599999999999
 21
1007.2275999999999
  0
LINE
  8
_0-0_LAYER001
  6
CONTINUOUS
 62
    4
 10
944.61599999999999
 20
1007.2275999999999
 11
947.05089999999996
 21
1007.5885000000001
  0
LINE
  8
_0-0_LAYER001
  6
CONTINUOUS
 62
    4
 10
947.05089999999996
 20
1007.5885000000001
 11
951.2478000000001
 21
1008.2145
  0
LINE
  8
_0-0_LAYER001
  6
CONTINUOUS
 62
    4
 10
951.2478000000001
 20
1008.2145
 11
955.44360000000006
 21
1008.8444999999999
  0
LINE
  8
_0-0_LAYER001
  6
CONTINUOUS
 62
    4
 10
955.44360000000006
 20
1008.8444999999999
 11
959.63840000000005
 21
1009.4777999999999
  0
LINE
  8
_0-0_LAYER001
  6
CONTINUOUS
 62
    4
 10
959.63840000000005
 20
1009.4777999999999
 11
963.83259999999996
 21
1010.1134
  0
LINE
  8
_0-0_LAYER001
  6
CONTINUOUS
 62
    4
 10
963.83259999999996
 20
1010.1134
 11
968.02639999999997
 21
1010.7503999999999
  0
LINE
  8
_0-0_LAYER001
  6
CONTINUOUS
 62
    4
 10
968.02639999999997
 20
1010.7503999999999
 11
970.45869999999991
 21
1011.1202000000001
  0
LINE
  8
_0-0_LAYER001
  6
CONTINUOUS
 62
    4
 10
891.67129999999997
 20
983.51119999999992
 11
892.78520000000003
 21
983.54369999999994
  0
LINE
  8
_0-0_LAYER001
  6
CONTINUOUS
 62
    4
 10
892.78520000000003
 20
983.54369999999994
 11
895.56240000000003
 21
983.66499999999996
  0
LINE
  8
_0-0_LAYER001
  6
CONTINUOUS
 62
    4
 10
895.56240000000003
 20
983.66499999999996
 11
900.5947000000001
 21
983.95039999999995
  0
LINE
  8
_0-0_LAYER001
  6
CONTINUOUS
 62
    4
 10
900.5947000000001
 20
983.95039999999995
 11
909.12089999999989
 21
984.6114
  0
LINE
  8
_0-0_LAYER001
  6
CONTINUOUS
 62
    4
 10
909.12089999999989
 20
984.6114
 11
917.60580000000004
 21
985.46180000000004
  0
LINE
  8
_0-0_LAYER001
  6
CONTINUOUS
 62
    4
 10
917.60580000000004
 20
985.46180000000004
 11
925.99710000000005
 21
986.45689999999991
  0
LINE
  8
_0-0_LAYER001
  6
CONTINUOUS
 62
    4
 10
925.99710000000005
 20
986.45689999999991
 11
934.29780000000005
 21
987.55760000000009
  0
LINE
  8
_0-0_LAYER001
  6
CONTINUOUS
 62
    4
 10
934.29780000000005
 20
987.55760000000009
 11
942.50549999999998
 21
988.72479999999996
  0
LINE
  8
_0-0_LAYER001
  6
CONTINUOUS
 62
    4
 10
942.50549999999998
 20
988.72479999999996
 11
947.24270000000001
 21
989.4203
  0
LINE
  8
_0-0_LAYER001
  6
CONTINUOUS
 62
    4
 10
947.24270000000001
 20
989.4203
 11
949.69800000000009
 21
989.78420000000006
  0
LINE
  8
_0-0_LAYER001
  6
CONTINUOUS
 62
    4
 10
949.69800000000009
 20
989.78420000000006
 11
953.91210000000001
 21
990.41270000000009
  0
LINE
  8
_0-0_LAYER001
  6
CONTINUOUS
 62
    4
 10
953.91210000000001
 20
990.41270000000009
 11
958.1237000000001
 21
991.04520000000002
  0
LINE
  8
_0-0_LAYER001
  6
CONTINUOUS
 62
    4
 10
958.1237000000001
 20
991.04520000000002
 11
962.33040000000005
 21
991.68029999999999
  0
LINE
  8
_0-0_LAYER001
  6
CONTINUOUS
 62
    4
 10
962.33040000000005
 20
991.68029999999999
 11
966.5326
 21
992.31709999999998
  0
LINE
  8
_0-0_LAYER001
  6
CONTINUOUS
 62
    4
 10
966.5326
 20
992.31709999999998
 11
970.73049999999989
 21
992.9547
  0
LINE
  8
_0-0_LAYER001
  6
CONTINUOUS
 62
    4
 10
970.73049999999989
 20
992.9547
 11
972.34819999999991
 21
993.20059999999989
  0
LINE
  8
_0-0_LAYER001
  6
CONTINUOUS
 62
    4
 10
982.85699999999997
 20
996.27170000000001
 11
982.85699999999997
 21
1013.4691
  0
LINE
  8
_0-0_LAYER001
  6
CONTINUOUS
 62
    4
 10
970.58359999999993
 20
1011.1555000000001
 11
1015.0379
 21
1020.8034
  0
LINE
  8
_0-0_LAYER001
  6
CONTINUOUS
 62
    4
 10
977.3288
 20
991.32179999999994
 11
1016.0006000000001
 21
1000.3717999999999
  0
LINE
  8
_0-0_LAYER001
  6
CONTINUOUS
 62
    4
 10
1016.0006000000001
 20
1001.3282999999999
 11
1016.0006000000001
 21
1000.3717999999999
  0
ARC
  8
_0-0_LAYER001
  6
CONTINUOUS
 62
    4
 10
1017.0006000000001
 20
1001.3282999999999
 40
1
 50
102.72435
 51
180
  0
LINE
  8
_0-0_LAYER001
  6
CONTINUOUS
 62
    4
 10
1021.8176000000001
 20
1003.4412
 11
1016.7802999999999
 21
1002.3036999999999
  0
ARC
  8
_0-0_LAYER001
  6
CONTINUOUS
 62
    4
 10
1022.0379
 20
1002.4657
 40
1
 50
0
 51
102.72435
  0
LINE
  8
_0-0_LAYER001
  6
CONTINUOUS
 62
    4
 10
1022.2499
 20
1003.9495999999999
 11
972.11599999999999
 21
993.06909999999993
  0
ARC
  8
_0-0_LAYER001
  6
CONTINUOUS
 62
    4
 10
1022.0379
 20
1004.9268999999999
 40
1
 50
282.24497000000002
 51
0
  0
LINE
  8
_0-0_LAYER001
  6
CONTINUOUS
 62
    4
 10
1022.2556999999999
 20
983.20890000000009
 11
972.6717000000001
 21
972.14100000000008
  0
LINE
  8
_0-0_LAYER001
  6
CONTINUOUS
 62
    4
 10
1023.0379
 20
984.18489999999997
 11
1023.0379
 21
1002.4657
  0
ARC
  8
_0-0_LAYER001
  6
CONTINUOUS
 62
    4
 10
1022.0379
 20
984.18489999999997
 40
1
 50
282.58296000000001
 51
0.0000000000000254
  0
LINE
  8
_0-0_LAYER001
  6
CONTINUOUS
 62
    4
 10
1015.0379
 20
1022.2605000000001
 11
1015.0379
 21
1020.8034
  0
ARC
  8
_0-0_LAYER001
  6
CONTINUOUS
 62
    4
 10
1016.0379
 20
1022.2605000000001
 40
1
 50
101.73308
 51
180
  0
LINE
  8
_0-0_LAYER001
  6
CONTINUOUS
 62
    4
 10
1021.8344999999999
 20
1024.4857
 11
1015.8344999999999
 21
1023.2396000000001
  0
LINE
  8
_0-0_LAYER001
  6
CONTINUOUS
 62
    4
 10
1023.0379
 20
1023.5065999999999
 11
1023.0379
 21
1004.9268999999999
  0
ARC
  8
_0-0_LAYER001
  6
CONTINUOUS
 62
    4
 10
1022.0379
 20
1023.5065999999999
 40
1
 50
0
 51
101.73308
  0
LINE
  8
_0-0_LAYER001
  6
DASHED1
 62
    2
 10
1087.2550000000001
 20
993.29359999999997
 11
1103.2550000000001
 21
993.29359999999997
  0
LINE
  8
_0-0_LAYER001
  6
DASHED1
 62
    2
 10
1103.2550000000001
 20
993.29359999999997
 11
1103.2550000000001
 21
990.29359999999997
  0
LINE
  8
_0-0_LAYER001
  6
DASHED1
 62
    2
 10
1087.2550000000001
 20
993.29359999999997
 11
1087.2550000000001
 21
990.29359999999997
  0
LINE
  8
_0-0_LAYER001
  6
DASHED1
 62
    2
 10
1087.2550000000001
 20
990.29359999999997
 11
1103.2550000000001
 21
990.29359999999997
  0
LINE
  8
_0-0_LAYER001
  6
DASHED1
 62
    2
 10
1098.2550000000001
 20
935.39750000000004
 11
1095.2048
 21
920.8886
  0
LINE
  8
_0-0_LAYER001
  6
DASHED1
 62
    2
 10
1098.2550000000001
 20
990.29359999999997
 11
1098.2550000000001
 21
935.39750000000004
  0
LINE
  8
_0-0_LAYER001
  6
DASHED1
 62
    2
 10
1095.2048
 20
920.8886
 11
1092.2550000000001
 21
935.14609999999993
  0
LINE
  8
_0-0_LAYER001
  6
DASHED1
 62
    2
 10
1092.2550000000001
 20
990.29359999999997
 11
1092.2550000000001
 21
935.14609999999993
  0
LINE
  8
_0-1_LAYER004
  6
CONTINUOUS
 62
    7
 10
1715.7053999999998
 20
1307.2882999999999
 11
1546.5113000000001
 21
1307.2882999999999
  0
LINE
  8
_0-1_LAYER004
  6
CONTINUOUS
 62
    7
 10
1238.3105
 20
1278.9453000000001
 11
1033.4876999999999
 21
1278.9453000000001
  0
LINE
  8
_0-1_LAYER004
  6
CONTINUOUS
 62
    7
 10
1244.366
 20
1249.0787
 11
915.48360000000002
 21
1249.0787
  0
LINE
  8
_0-1_LAYER004
  6
CONTINUOUS
 62
    7
 10
1254.1972000000001
 20
1218.9834000000001
 11
921.87120000000004
 21
1218.9834000000001
  0
LINE
  8
_0-1_LAYER004
  6
CONTINUOUS
 62
    7
 10
1881.114
 20
1286.6075000000001
 11
2028.114
 21
1286.6075000000001
  0
LINE
  8
_0-1_LAYER004
  6
CONTINUOUS
 62
    7
 10
1733.3320999999999
 20
1221.2673
 11
1805.5170999999998
 21
1221.2673
  0
LINE
  8
_0-1_LAYER004
  6
CONTINUOUS
 62
    7
 10
1731.6320999999998
 20
1221.2673
 11
1807.2170999999998
 21
1221.2673
  0
LINE
  8
_0-1_LAYER004
  6
CONTINUOUS
 62
    7
 10
1731.6320999999998
 20
1222.9673
 11
1731.6320999999998
 21
1156.4817
  0
LINE
  8
_0-1_LAYER004
  6
CONTINUOUS
 62
    7
 10
1807.2170999999998
 20
1129.5208
 11
1807.2170999999998
 21
1381.7633000000001
  0
LINE
  8
_0-1_LAYER004
  6
CONTINUOUS
 62
    7
 10
1819.2170999999998
 20
1381.7633000000001
 11
1819.2170999999998
 21
1129.5208
  0
LINE
  8
_0-1_LAYER004
  6
CONTINUOUS
 62
    7
 10
1819.2170999999998
 20
1129.5208
 11
1807.2170999999998
 21
1129.5208
  0
LINE
  8
_0-1_LAYER004
  6
CONTINUOUS
 62
    7
 10
1819.2170999999998
 20
1147.7985000000001
 11
1837.2170999999998
 21
1147.7985000000001
  0
LINE
  8
_0-1_LAYER004
  6
CONTINUOUS
 62
    7
 10
1837.2170999999998
 20
1147.7985000000001
 11
1837.2170999999998
 21
1187.7985000000001
  0
LINE
  8
_0-1_LAYER004
  6
CONTINUOUS
 62
    7
 10
1837.2170999999998
 20
1187.7985000000001
 11
1819.2170999999998
 21
1187.7985000000001
  0
LINE
  8
_0-1_LAYER004
  6
CONTINUOUS
 62
    7
 10
1842.2170999999998
 20
1381.7633000000001
 11
1842.2170999999998
 21
937.44280000000003
  0
LINE
  8
_0-1_LAYER004
  6
CONTINUOUS
 62
    7
 10
1840.6320999999998
 20
937.44280000000003
 11
1840.6320999999998
 21
912.44280000000003
  0
LINE
  8
_0-1_LAYER004
  6
CONTINUOUS
 62
    7
 10
1840.6320999999998
 20
912.44280000000003
 11
891.67129999999997
 21
912.44280000000003
  0
LINE
  8
_0-1_LAYER004
  6
CONTINUOUS
 62
    7
 10
891.67129999999997
 20
937.44280000000003
 11
1842.2170999999998
 21
937.44280000000003
  0
LINE
  8
_0-1_LAYER004
  6
CONTINUOUS
 62
    7
 10
1839.8941
 20
939.44280000000003
 11
891.67129999999997
 21
939.44280000000003
  0
LINE
  8
_0-1_LAYER004
  6
CONTINUOUS
 62
    7
 10
891.67129999999997
 20
943.44280000000003
 11
1703.6320000000001
 21
943.44280000000003
  0
LINE
  8
_0-1_LAYER004
  6
CONTINUOUS
 62
    7
 10
1703.6320000000001
 20
943.44280000000003
 11
1703.6320000000001
 21
958.44280000000003
  0
LINE
  8
_0-1_LAYER004
  6
CONTINUOUS
 62
    7
 10
1703.6320000000001
 20
958.44280000000003
 11
891.67129999999997
 21
958.44280000000003
  0
LINE
  8
_0-1_LAYER004
  6
CONTINUOUS
 62
    7
 10
891.67129999999997
 20
812.44280000000003
 11
1830.6320999999998
 21
812.44280000000003
  0
LINE
  8
_0-1_LAYER004
  6
CONTINUOUS
 62
    7
 10
1830.6320999999998
 20
812.44280000000003
 11
1830.6320999999998
 21
912.44280000000003
  0
LINE
  8
_0-1_LAYER004
  6
CONTINUOUS
 62
    7
 10
1902.7986999999998
 20
854.46000000000004
 11
2049.7986999999998
 21
854.46000000000004
  0
LINE
  8
_0-1_LAYER004
  6
CONTINUOUS
 62
    7
 10
1906.0689000000002
 20
804.74669999999992
 11
1988.5868999999998
 21
804.74669999999992
  0
LINE
  8
_0-1_LAYER004
  6
CONTINUOUS
 62
    7
 10
1825.6320999999998
 20
810.7041999999999
 11
1825.6320999999998
 21
759.00419999999997
  0
LINE
  8
_0-1_LAYER004
  6
CONTINUOUS
 62
    7
 10
1825.6320999999998
 20
760.7041999999999
 11
1705.6320999999998
 21
760.7041999999999
  0
LINE
  8
_0-1_LAYER004
  6
CONTINUOUS
 62
    7
 10
1705.6320999999998
 20
759.00419999999997
 11
1705.6320999999998
 21
810.7041999999999
  0
LINE
  8
_0-1_LAYER004
  6
CONTINUOUS
 62
    7
 10
1817.3959
 20
750.16210000000001
 11
1817.3959
 21
700.16210000000001
  0
LINE
  8
_0-1_LAYER004
  6
CONTINUOUS
 62
    7
 10
1817.3959
 20
698.46209999999996
 11
1817.3959
 21
700.16210000000001
  0
LINE
  8
_0-1_LAYER004
  6
CONTINUOUS
 62
    7
 10
1817.3959
 20
700.16210000000001
 11
984.09590000000003
 21
700.16210000000001
  0
LINE
  8
_0-1_LAYER004
  6
CONTINUOUS
 62
    7
 10
984.09590000000003
 20
700.16210000000001
 11
982.39589999999998
 21
700.16210000000001
  0
LINE
  8
_0-1_LAYER004
  6
CONTINUOUS
 62
    7
 10
982.39589999999998
 20
698.46209999999996
 11
982.39589999999998
 21
750.16210000000001
  0
LINE
  8
_0-1_LAYER004
  6
CONTINUOUS
 62
    7
 10
1247.3959
 20
698.46209999999996
 11
1247.3959
 21
750.16210000000001
  0
LINE
  8
_0-1_LAYER004
  6
CONTINUOUS
 62
    7
 10
1512.3959
 20
698.46209999999996
 11
1512.3959
 21
750.16210000000001
  0
LINE
  8
_0-1_LAYER004
  6
CONTINUOUS
 62
    7
 10
1846.8697999999999
 20
680.59690000000001
 11
1846.8697999999999
 21
1381.7633000000001
  0
LINE
  8
_0-1_LAYER004
  6
CONTINUOUS
 62
    7
 10
1903.2316999999998
 20
1274.4428
 11
1955.7316999999998
 21
1274.4428
  0
LINE
  8
_0-1_LAYER004
  6
CONTINUOUS
 62
    7
 10
1953.2316999999998
 20
1272.7428
 11
1953.2316999999998
 21
1274.4428
  0
LINE
  8
_0-1_LAYER004
  6
CONTINUOUS
 62
    7
 10
1953.2316999999998
 20
1272.7428
 11
1953.2316999999998
 21
937.44280000000003
  0
LINE
  8
_0-1_LAYER004
  6
CONTINUOUS
 62
    7
 10
1954.9316999999999
 20
937.44280000000003
 11
1903.2316999999998
 21
937.44280000000003
  0
LINE
  8
_0-1_LAYER004
  6
CONTINUOUS
 62
    7
 10
1984.0906
 20
937.44280000000003
 11
2035.7906
 21
937.44280000000003
  0
LINE
  8
_0-1_LAYER004
  6
CONTINUOUS
 62
    7
 10
2034.0906
 20
937.44280000000003
 11
2034.0906
 21
1237.4428
  0
LINE
  8
_0-1_LAYER004
  6
CONTINUOUS
 62
    7
 10
2035.7906
 20
1237.4428
 11
1984.0906
 21
1237.4428
  0
LINE
  8
_0-1_LAYER004
  6
CONTINUOUS
 62
    7
 10
1903.2316999999998
 20
1124.4428
 11
1954.9316999999999
 21
1124.4428
  0
LINE
  8
_0-1_LAYER004
  6
CONTINUOUS
 62
    7
 10
1903.2316999999998
 20
1067.4428
 11
1954.9316999999999
 21
1067.4428
  0
LINE
  8
_0-1_LAYER004
  6
CONTINUOUS
 62
    7
 10
1839.8941
 20
1067.4428
 11
1810.6320999999998
 21
1067.4428
  0
LINE
  8
_0-1_LAYER004
  6
CONTINUOUS
 62
    7
 10
1810.6320999999998
 20
1067.4428
 11
1810.6320999999998
 21
1102.153
  0
LINE
  8
_0-1_LAYER004
  6
CONTINUOUS
 62
    7
 10
1796.4259000000002
 20
1096.5342000000001
 11
1818.6039000000001
 21
1096.5342000000001
  0
LINE
  8
_0-1_LAYER004
  6
CONTINUOUS
 62
    7
 10
1818.6039000000001
 20
1096.5342000000001
 11
1818.6039000000001
 21
1078.7726
  0
LINE
  8
_0-1_LAYER004
  6
CONTINUOUS
 62
    7
 10
1818.6039000000001
 20
1078.7726
 11
1796.4259000000002
 21
1078.7726
  0
LINE
  8
_0-1_LAYER004
  6
CONTINUOUS
 62
    7
 10
1796.4259000000002
 20
1078.7726
 11
1796.4259000000002
 21
1096.5342000000001
  0
LINE
  8
_0-1_LAYER004
  6
CONTINUOUS
 62
    7
 10
1783.8489
 20
1062.7228
 11
1783.8489
 21
1043.3616999999999
  0
LINE
  8
_0-1_LAYER004
  6
CONTINUOUS
 62
    7
 10
1821.6320999999998
 20
1067.4428
 11
1821.6320999999998
 21
941.44280000000003
  0
LINE
  8
_0-1_LAYER004
  6
CONTINUOUS
 62
    7
 10
1821.6320999999998
 20
941.44280000000003
 11
1705.6320999999998
 21
941.44280000000003
  0
LINE
  8
_0-1_LAYER004
  6
CONTINUOUS
 62
    7
 10
1705.6320999999998
 20
941.44280000000003
 11
1705.6320999999998
 21
959.1857
  0
LINE
  8
_0-1_LAYER004
  6
CONTINUOUS
 62
    7
 10
1705.6320999999998
 20
959.1857
 11
1714.4345374792674
 21
959.1857
  0
LINE
  8
_0-1_LAYER004
  6
CONTINUOUS
 62
    7
 10
1823.5646999999999
 20
941.56459999999993
 11
1823.5646999999999
 21
1067.4428
  0
LINE
  8
_0-1_LAYER004
  6
CONTINUOUS
 62
    7
 10
1823.5646999999999
 20
941.56459999999993
 11
1838.5646999999999
 21
941.56459999999993
  0
LINE
  8
_0-1_LAYER004
  6
CONTINUOUS
 62
    7
 10
1838.5646999999999
 20
941.56459999999993
 11
1838.5646999999999
 21
1067.4428
  0
LINE
  8
_0-1_LAYER004
  6
CONTINUOUS
 62
    7
 10
1839.8941
 20
939.44280000000003
 11
1839.8941
 21
1234.3523
  0
LINE
  8
_0-1_LAYER004
  6
CONTINUOUS
 62
    7
 10
1838.6320999999998
 20
1274.4428
 11
1838.6320999999998
 21
1124.3523
  0
LINE
  8
_0-1_LAYER004
  6
CONTINUOUS
 62
    7
 10
1838.6320999999998
 20
1124.3523
 11
1731.6320999999998
 21
1105.4853000000001
  0
LINE
  8
_0-1_LAYER004
  6
CONTINUOUS
 62
    7
 10
1731.6320999999998
 20
1105.4853000000001
 11
1734.3321000000001
 21
1090.1723999999999
  0
LINE
  8
_0-1_LAYER004
  6
CONTINUOUS
 62
    7
 10
1734.3321000000001
 20
1090.1723999999999
 11
1713.7217999999998
 21
1082.6708000000001
  0
LINE
  8
_0-1_LAYER004
  6
CONTINUOUS
 62
    7
 10
1713.7217999999998
 20
1082.6708000000001
 11
1719.6343999999999
 21
1083.6911
  0
LINE
  8
_0-1_LAYER004
  6
CONTINUOUS
 62
    7
 10
1734.0616
 20
1103.8829000000001
 11
1736.6662000000001
 21
1089.1107999999999
  0
LINE
  8
_0-1_LAYER004
  6
CONTINUOUS
 62
    7
 10
1840.0709999999999
 20
1107.3439000000001
 11
1837.4663999999998
 21
1122.116
  0
LINE
  8
_0-1_LAYER004
  6
CONTINUOUS
 62
    7
 10
1837.4663999999998
 20
1122.116
 11
1734.0616
 21
1103.8829000000001
  0
LINE
  8
_0-1_LAYER004
  6
CONTINUOUS
 62
    7
 10
1736.6662000000001
 20
1089.1107999999999
 11
1837.4663999999998
 21
1122.116
  0
LINE
  8
_0-1_LAYER004
  6
CONTINUOUS
 62
    7
 10
1829.1752999999999
 20
1100.2696000000001
 11
1829.1752999999999
 21
1092.7696000000001
  0
LINE
  8
_0-1_LAYER004
  6
CONTINUOUS
 62
    7
 10
1829.1752999999999
 20
1092.7696000000001
 11
1832.9252999999999
 21
1099.2646999999999
  0
LINE
  8
_0-1_LAYER004
  6
CONTINUOUS
 62
    7
 10
1829.1752999999999
 20
1092.7696000000001
 11
1881.114
 21
1286.6075000000001
  0
LINE
  8
_0-1_LAYER004
  6
CONTINUOUS
 62
    7
 10
1809.9477000000002
 20
1320.9997000000001
 11
1813.6977000000002
 21
1314.5046
  0
LINE
  8
_0-1_LAYER004
  6
CONTINUOUS
 62
    7
 10
1813.6977000000002
 20
1314.5046
 11
1813.6977000000002
 21
1322.0046
  0
LINE
  8
_0-1_LAYER004
  6
CONTINUOUS
 62
    7
 10
1813.6977000000002
 20
1314.5046
 11
1790.2793999999999
 21
1401.903
  0
LINE
  8
_0-1_LAYER004
  6
CONTINUOUS
 62
    7
 10
1779.7532999999999
 20
1332.8543999999999
 11
1823.2435999999998
 21
1170.5465999999999
  0
LINE
  8
_0-1_LAYER004
  6
CONTINUOUS
 62
    7
 10
1823.2435999999998
 20
1170.5465999999999
 11
1823.2435999999998
 21
1178.0465999999999
  0
LINE
  8
_0-1_LAYER004
  6
CONTINUOUS
 62
    7
 10
1819.4935999999998
 20
1177.0418
 11
1823.2435999999998
 21
1170.5465999999999
  0
LINE
  8
_0-1_LAYER004
  6
CONTINUOUS
 62
    7
 10
1819.2170999999998
 20
1147.7985000000001
 11
1837.2170999999998
 21
1187.7985000000001
  0
LINE
  8
_0-1_LAYER004
  6
CONTINUOUS
 62
    7
 10
1767.9731000000002
 20
1104.7225000000001
 11
1771.7231000000002
 21
1098.2273
  0
LINE
  8
_0-1_LAYER004
  6
CONTINUOUS
 62
    7
 10
1771.7231000000002
 20
1098.2273
 11
1771.7231000000002
 21
1105.7273
  0
LINE
  8
_0-1_LAYER004
  6
CONTINUOUS
 62
    7
 10
1771.7231000000002
 20
1098.2273
 11
1715.7053999999998
 21
1307.2882999999999
  0
LINE
  8
_0-1_LAYER004
  6
CONTINUOUS
 62
    7
 10
1711.8842
 20
1264.4132999999999
 11
1753.4038999999998
 21
1109.4598000000001
  0
LINE
  8
_0-1_LAYER004
  6
CONTINUOUS
 62
    7
 10
1753.4038999999998
 20
1116.9598000000001
 11
1753.4038999999998
 21
1109.4598000000001
  0
LINE
  8
_0-1_LAYER004
  6
CONTINUOUS
 62
    7
 10
1753.4038999999998
 20
1109.4598000000001
 11
1749.6538999999998
 21
1115.9549999999999
  0
LINE
  8
_0-1_LAYER004
  6
CONTINUOUS
 62
    7
 10
1714.4841999999999
 20
1064.4593
 11
1714.4841999999999
 21
1056.9593
  0
LINE
  8
_0-1_LAYER004
  6
CONTINUOUS
 62
    7
 10
1714.4841999999999
 20
1056.9593
 11
1710.7341999999999
 21
1063.4545000000001
  0
LINE
  8
_0-1_LAYER004
  6
CONTINUOUS
 62
    7
 10
1714.4841999999999
 20
1056.9593
 11
1689.6563999999998
 21
1149.6180999999999
  0
LINE
  8
_0-1_LAYER004
  6
CONTINUOUS
 62
    7
 10
1816.6320000000001
 20
1090.4428
 11
1883.6320000000001
 21
1090.4428
  0
LINE
  8
_0-1_LAYER004
  6
CONTINUOUS
 62
    7
 10
1883.6320000000001
 20
1090.4428
 11
1888.6320999999998
 21
1087.4428
  0
LINE
  8
_0-1_LAYER004
  6
CONTINUOUS
 62
    7
 10
1888.6320999999998
 20
1087.4428
 11
1883.6320000000001
 21
1084.4429
  0
LINE
  8
_0-1_LAYER004
  6
CONTINUOUS
 62
    7
 10
1883.6320000000001
 20
1084.4429
 11
1816.6320000000001
 21
1084.4429
  0
LINE
  8
_0-1_LAYER004
  6
CONTINUOUS
 62
    7
 10
1816.6320000000001
 20
1084.4429
 11
1816.6320000000001
 21
1090.4428
  0
LINE
  8
_0-1_LAYER004
  6
CONTINUOUS
 62
    7
 10
1816.6320000000001
 20
1090.4428
 11
1810.6320999999998
 21
1093.4429
  0
LINE
  8
_0-1_LAYER004
  6
CONTINUOUS
 62
    7
 10
1816.6320000000001
 20
1084.4429
 11
1810.6320999999998
 21
1081.4428
  0
LINE
  8
_0-1_LAYER004
  6
CONTINUOUS
 62
    7
 10
1828.1163319997536
 20
1089.4225432530527
 11
1830.1964919929603
 21
1084.4429
  0
LINE
  8
_0-1_LAYER004
  6
CONTINUOUS
 62
    7
 10
1830.9859999999999
 20
1091.9346
 11
1826.3074235599042
 21
1118.4621952535745
  0
LINE
  8
_0-1_LAYER004
  6
CONTINUOUS
 62
    7
 10
1826.2961
 20
1118.5264
 11
1828.5796999999998
 21
1120.549
  0
LINE
  8
_0-1_LAYER004
  6
CONTINUOUS
 62
    7
 10
1822.7496853760942
 20
1117.2972783158657
 11
1822.6462000000001
 21
1117.8841
  0
LINE
  8
_0-1_LAYER004
  6
CONTINUOUS
 62
    7
 10
1822.6462000000001
 20
1117.8841
 11
1819.8101999999999
 21
1119.0027
  0
LINE
  8
_0-1_LAYER004
  6
CONTINUOUS
 62
    7
 10
1828.1163319997536
 20
1089.4225432530527
 11
1827.3359
 21
1091.2908
  0
LINE
  8
_0-1_LAYER004
  6
CONTINUOUS
 62
    7
 10
1827.3359
 20
1091.2908
 11
1822.6462000000001
 21
1117.8841
  0
LINE
  8
_0-1_LAYER004
  6
CONTINUOUS
 62
    7
 10
1830.9859999999999
 20
1091.9346
 11
1830.7775999999999
 21
1083.0518
  0
LINE
  8
_0-1_LAYER004
  6
CONTINUOUS
 62
    7
 10
1830.7775999999999
 20
1083.0518
 11
1830.1964919929603
 21
1084.4429
  0
LINE
  8
_0-1_LAYER004
  6
CONTINUOUS
 62
    7
 10
1839.8941
 20
1067.4428
 11
1840.6320999999998
 21
1067.4428
  0
LINE
  8
_0-1_LAYER004
  6
CONTINUOUS
 62
    7
 10
1840.6320999999998
 20
1067.4428
 11
1814.1361222590908
 21
1102.7708703211285
  0
LINE
  8
_0-0_LAYER001
  6
CONTINUOUS
 62
    2
 10
1736.6662000000001
 20
1089.1107999999999
 11
1840.6320999999998
 21
1107.4428373066821
  0
LINE
  8
_0-1_LAYER004
  6
CONTINUOUS
 62
    7
 10
1736.6662000000001
 20
1089.1107999999999
 11
1840.6320999999998
 21
1107.4428373066821
  0
LINE
  8
_0-1_LAYER004
  6
CONTINUOUS
 62
    7
 10
1840.6320999999998
 20
1067.4428
 11
1840.6320999999998
 21
1107.4428373066821
  0
ARC
  8
_0-1_LAYER004
  6
CONTINUOUS
 62
    7
 10
1712.8317573950678
 20
1061.0591546696826
 40
27.748185130721644
 50
341.59997469325481
 51
1.47083975791929
  0
ARC
  8
_0-1_LAYER004
  6
CONTINUOUS
 62
    7
 10
1663.8262007148337
 20
1018.6266477625147
 40
77.421053949339182
 50
336.59042916211837
 51
11.093513278516527
  0
LINE
  8
_0-1_LAYER004
  6
CONTINUOUS
 62
    7
 10
1783.8489
 20
1062.7228
 11
1814.3842
 21
1074.8925999999999
  0
LINE
  8
_0-1_LAYER004
  6
CONTINUOUS
 62
    7
 10
1814.3842
 20
1074.8925999999999
 11
1817.5925999999999
 21
1070.9096999999999
  0
LINE
  8
_0-1_LAYER004
  6
CONTINUOUS
 62
    7
 10
1817.5925999999999
 20
1070.9096999999999
 11
1789.6329000000001
 21
1045.1570999999999
  0
LINE
  8
_0-1_LAYER004
  6
CONTINUOUS
 62
    7
 10
1789.6329000000001
 20
1045.1570999999999
 11
1783.8489
 21
1043.3616999999999
  0
LINE
  8
_0-1_LAYER004
  6
CONTINUOUS
 62
    7
 10
1783.8489
 20
1043.3616999999999
 11
1790.7806
 21
1045.1641999999999
  0
LINE
  8
_0-1_LAYER004
  6
CONTINUOUS
 62
    7
 10
1790.7806
 20
1045.1641999999999
 11
1817.5925999999999
 21
1070.9096999999999
  0
LINE
  8
_0-1_LAYER004
  6
CONTINUOUS
 62
    7
 10
1821.6320999999998
 20
1067.4428
 11
1814.1320999999998
 21
1054.4525000000001
  0
LINE
  8
_0-1_LAYER004
  6
CONTINUOUS
 62
    7
 10
1823.5646999999999
 20
1067.4428
 11
1838.5646999999999
 21
941.56459999999993
  0
LINE
  8
_0-1_LAYER004
  6
CONTINUOUS
 62
    7
 10
1778.1003000000001
 20
1026.3949
 11
1780.0414000000001
 21
1019.1505
  0
LINE
  8
_0-1_LAYER004
  6
CONTINUOUS
 62
    7
 10
1778.1003000000001
 20
1026.3949
 11
1783.4036000000001
 21
1021.0916
  0
LINE
  8
_0-1_LAYER004
  6
CONTINUOUS
 62
    7
 10
1778.1003000000001
 20
1026.3949
 11
1906.0689000000002
 21
804.74669999999992
  0
LINE
  8
_0-1_LAYER004
  6
CONTINUOUS
 62
    7
 10
1902.7986999999998
 20
854.46000000000004
 11
1834.9381618937873
 21
971.99807260276316
  0
LINE
  8
_0-1_LAYER004
  6
CONTINUOUS
 62
    7
 10
1834.9381618937873
 20
971.99807260276316
 11
1836.7856000000002
 21
964.91579999999999
  0
LINE
  8
_0-1_LAYER004
  6
CONTINUOUS
 62
    7
 10
1834.8445000000002
 20
972.16030000000001
 11
1840.1478000000002
 21
966.85699999999997
  0
LINE
  8
_0-1_LAYER004
  6
CONTINUOUS
 62
    7
 10
1787.8782999999999
 20
941.44280000000003
 11
1789.8193999999999
 21
934.19839999999999
  0
LINE
  8
_0-1_LAYER004
  6
CONTINUOUS
 62
    7
 10
1787.8782999999999
 20
941.44280000000003
 11
1793.1815999999999
 21
936.1395
  0
LINE
  8
_0-1_LAYER004
  6
CONTINUOUS
 62
    7
 10
1787.8782999999999
 20
941.44280000000003
 11
1895.9917
 21
754.18499999999995
  0
LINE
  8
_0-1_LAYER004
  6
CONTINUOUS
 62
    7
 10
1448.0074
 20
980.24099999999999
 11
1451.7574
 21
973.74579999999992
  0
LINE
  8
_0-1_LAYER004
  6
CONTINUOUS
 62
    7
 10
1451.7574
 20
973.74579999999992
 11
1451.7574
 21
981.24579999999992
  0
LINE
  8
_0-1_LAYER004
  6
CONTINUOUS
 62
    7
 10
1451.7574
 20
973.74579999999992
 11
1424.6609000000001
 21
1074.8712
  0
LINE
  8
_0-1_LAYER004
  6
CONTINUOUS
 62
    7
 10
1324.4340999999999
 20
950.02729999999997
 11
1328.1840999999999
 21
943.5322000000001
  0
LINE
  8
_0-1_LAYER004
  6
CONTINUOUS
 62
    7
 10
1328.1840999999999
 20
943.5322000000001
 11
1328.1840999999999
 21
951.0322000000001
  0
LINE
  8
_0-1_LAYER004
  6
CONTINUOUS
 62
    7
 10
1328.1840999999999
 20
943.5322000000001
 11
1238.3105
 21
1278.9453000000001
  0
TEXT
  8
_0-2_LAYER006
 62
    7
 10
1202.4682318417908
 20
695.30289913143702
 40
20
 41
1
 50
0
  1
：
  0
TEXT
  8
_0-2_LAYER006
 62
    7
 10
1376.5141885643939
 20
1270.6146048457704
 40
20
 41
1
 50
0
  1
雨押水切カラー鋼板0.35ｍｍ以上
  0
TEXT
  8
_0-2_LAYER006
 62
    7
 10
1761.7337957191114
 20
1225.929130415823
 40
20
 41
1
 50
0
  1
75
  0
TEXT
  8
_0-2_LAYER006
 62
    7
 10
1991.3246815833227
 20
988.63385240851699
 40
20
 41
1
 50
90
  1
水切り立上がり寸法
  0
TEXT
  8
_0-2_LAYER006
 62
    7
 10
2068.3686030142662
 20
984.01121712266047
 40
20
 41
1
 50
90
  1
下葺き材立上がり寸法
  0
TEXT
  8
_0-2_LAYER006
 62
    7
 10
2023.6831285843191
 20
1071.8412875539361
 40
20
 41
1
 50
90
  1
300
  0
TEXT
  8
_0-2_LAYER006
 62
    7
 10
1937.3939365816625
 20
988.63385240851699
 40
20
 41
1
 50
90
  1
130
  0
TEXT
  8
_0-2_LAYER006
 62
    7
 10
1938.9348150102815
 20
1087.2500718401247
 40
20
 41
1
 50
90
  1
57
  0
TEXT
  8
_0-2_LAYER006
 62
    7
 10
1929.689544438568
 20
1178.161899128638
 40
20
 41
1
 50
90
  1
150
  0
TEXT
  8
_0-2_LAYER006
 62
    7
 10
1533.6837882835187
 20
1153.5078442707361
 40
20
 41
1
 50
0
  1
熨斗瓦２段積み
  0
TEXT
  8
_0-2_LAYER006
 62
    7
 10
1900.4128542948094
 20
759.0429665443055
 40
20
 41
1
 50
0
  1
捨谷　カラー鋼板0.35ｍｍ以上
  0
TEXT
  8
_0-2_LAYER006
 62
    7
 10
1367.2689179926806
 20
1082.6274365542681
 40
20
 41
1
 50
0
  1
桟　瓦
  0
TEXT
  8
_0-2_LAYER006
 62
    7
 10
1003.6216088386275
 20
1192.0298049862076
 40
20
 41
1
 50
0
  1
　鋼製：C100x50x20x2.3
  0
TEXT
  8
_0-2_LAYER006
 62
    7
 10
914.25065997873298
 20
1222.8473735585853
 40
20
 41
1
 50
0
  1
野地板：硬質木片パネル　t＝25
  0
TEXT
  8
_0-2_LAYER006
 62
    7
 10
1065.2567459833822
 20
1287.5642675605777
 40
20
 41
1
 50
0
  1
瓦桟：15x30以上
  0
TEXT
  8
_0-2_LAYER006
 62
    7
 10
1009.785122553103
 20
1253.6649421309626
 40
20
 41
1
 50
0
  1
下葺材：ルーフィング
  0
TEXT
  8
_0-2_LAYER006
 62
    7
 10
1546.0108157124696
 20
1407.7527849928495
 40
20
 41
1
 50
0
  1
外壁：防火サイディング
  0
TEXT
  8
_0-2_LAYER006
 62
    7
 10
1912.7398817237604
 20
808.35107626010938
 40
20
 41
1
 50
0
  1
葺　土　
  0
TEXT
  8
_0-2_LAYER006
 62
    7
 10
1661.5766978588849
 20
709.73485682850173
 40
20
 41
1
 50
0
  1
305
  0
TEXT
  8
_0-2_LAYER006
 62
    7
 10
1365.7280395640619
 20
717.43924897159604
 40
20
 41
1
 50
0
  1
265
  0
TEXT
  8
_0-2_LAYER006
 62
    7
 10
1754.0294035760169
 20
766.74735868739981
 40
20
 41
1
 50
0
  1
120
  0
TEXT
  8
_0-2_LAYER006
 62
    7
 10
1102.2378282702352
 20
712.81661368573941
 40
20
 41
1
 50
0
  1
265
  0
TEXT
  8
_0-0_LAYER001
 62
    7
 10
1908.117246437904
 20
859.20006440453199
 40
20
 41
1
 50
0
  1
下地：15x145
  0
LINE
  8
_0-0_LAYER001
  6
CONTINUOUS
 62
    2
 10
1895.9917
 20
754.18499999999995
 11
2223.9973243047725
 21
754.18499999999995
  0
LINE
  8
_0-1_LAYER004
  6
CONTINUOUS
 62
    7
 10
1895.9917
 20
754.18499999999995
 11
2216.292932161678
 21
754.18499999999995
  0
LINE
  8
_0-0_LAYER001
  6
CONTINUOUS
 62
    2
 10
1261.9358
 20
1189.1168
 11
1032.898298982386
 21
1189.1168
  0
LINE
  8
_0-1_LAYER004
  6
CONTINUOUS
 62
    7
 10
1261.9358
 20
1189.1168
 11
1020.5712715534349
 21
1189.1168
  0
LINE
  8
_0-0_LAYER001
  6
CONTINUOUS
 62
    2
 10
1711.8842
 20
1264.4132999999999
 11
1368.8097964212993
 21
1264.4132999999999
  0
LINE
  8
_0-1_LAYER004
  6
CONTINUOUS
 62
    7
 10
1711.8842
 20
1264.4132999999999
 11
1378.0550669930128
 21
1264.4132999999999
  0
LINE
  8
_0-0_LAYER001
  6
CONTINUOUS
 62
    2
 10
1790.2793999999999
 20
1401.903
 11
1542.9290588552317
 21
1401.903
  0
LINE
  8
_0-1_LAYER004
  6
CONTINUOUS
 62
    7
 10
1549.0925725697073
 20
1401.903
 11
1790.2793999999999
 21
1401.903
  0
LINE
  8
_0-0_LAYER001
  6
CONTINUOUS
 62
    2
 10
1689.6563999999998
 20
1149.6180999999999
 11
1541.388180426613
 21
1149.6180999999999
  0
LINE
  8
_0-1_LAYER004
  6
CONTINUOUS
 62
    7
 10
1689.6563999999998
 20
1149.6180999999999
 11
1542.9290588552317
 21
1149.6180999999999
  0
LINE
  8
_0-0_LAYER001
  6
CONTINUOUS
 62
    2
 10
1424.6609000000001
 20
1074.8712
 11
1370.3506748499183
 21
1074.8712
  0
LINE
  8
_0-1_LAYER004
  6
CONTINUOUS
 62
    7
 10
1424.6609000000001
 20
1074.8712
 11
1362.646282706824
 21
1074.8712
  0
LINE
  8
_0-0_LAYER001
  6
CONTINUOUS
 62
    2
 10
1779.7532999999999
 20
1332.8543999999999
 11
1713.9665644319261
 21
1332.8543999999999
  0
LINE
  8
_0-1_LAYER004
  6
CONTINUOUS
 62
    7
 10
1713.9665644319261
 20
1332.8543999999999
 11
1779.7532999999999
 21
1332.8543999999999
  0
TEXT
  8
_0-0_LAYER001
 62
    7
 10
1712.4256860033074
 20
1339.9541341336194
 40
20
 41
1
 50
0
  1
胴　縁
  0
TEXT
  8
_0-2_LAYER006
 62
    7
 10
1555.2560862841826
 20
1312.2183224184798
 40
20
 41
1
 50
0
  1
笠木：15x105
  0
TEXT
  8
_0-2_LAYER006
 62
    7
 10
1881.9223131513832
 20
1292.1869028464344
 40
20
 41
1
 50
0
  1
下地材：40x30
  0
ENDSEC
  0
EOF
