  0
SECTION
  2
HEADER
  9
$ACADVER
  1
AC1009
  9
$INSBASE
 10
0
 20
0
 30
0
  9
$EXTMIN
 10
0
 20
0
  9
$EXTMAX
 10
2970
 20
2100
  9
$LIMMIN
 10
0
 20
0
  9
$LIMMAX
 10
2970
 20
2100
  9
$LTSCALE
 40
10
  0
ENDSEC
  0
SECTION
  2
TABLES
  0
TABLE
  2
LTYPE
 70
     9
  0
LTYPE
  2
CONTINUOUS
 70
    64
  3
実線
 72
    65
 73
     0
 40
0.0
  0
LTYPE
  2
DASHED1
 70
    64
  3
--  --  --  --  --  --  --  --  
 72
    65
 73
     2
 40
2.5
 49
1.25
 49
-1.25
  0
LTYPE
  2
DASHED2
 70
    64
  3
----    ----    ----    ----    
 72
    65
 73
     2
 40
5.0
 49
2.5
 49
-2.5
  0
LTYPE
  2
DASHED3
 70
    64
  3
------  ------  ------  ------  
 72
    65
 73
     2
 40
5.0
 49
3.75
 49
-1.25
  0
LTYPE
  2
CENTER1
 70
    64
  3
----- - ----- - ----- - ----- - 
 72
    65
 73
     4
 40
10.0
 49
6.25
 49
-1.25
 49
1.25
 49
-1.25
  0
LTYPE
  2
CENTER2
 70
    64
  3
----------  --  ----------  --  
 72
    65
 73
     4
 40
20.0
 49
12.5
 49
-2.5
 49
2.5
 49
-2.5
  0
LTYPE
  2
PHANTOM1
 70
    64
  3
--- - - --- - - --- - - --- - - 
 72
    65
 73
     6
 40
10.0
 49
3.25
 49
-1.25
 49
1.25
 49
-1.25
 49
1.25
 49
-1.25
  0
LTYPE
  2
PHANTOM2
 70
    64
  3
--------  -  -  --------  -  -  
 72
    65
 73
     6
 40
20.0
 49
10.0
 49
-2.5
 49
1.25
 49
-2.5
 49
1.25
 49
-2.5
  0
LTYPE
  2
DOT
 70
    64
  3
-   -   -   -   -   -   -   -   
 72
    65
 73
     2
 40
2.5
 49
0.625
 49
-1.875
  0
LTYPE
  2
DUMMY
 70
    64
  3
ダミー
 72
    65
 73
     0
 40
0.0
  0
LTYPE
  2
RAND1
 70
    64
  3
ランダム線1
 72
    65
 73
     4
 40
10.0
 49
1.0
 49
-2.0
 49
3.0
 49
-4.0
  0
LTYPE
  2
RAND2
 70
    64
  3
ランダム線2
 72
    65
 73
     4
 40
14.0
 49
2.0
 49
-3.0
 49
4.0
 49
-5.0
  0
LTYPE
  2
RAND3
 70
    64
  3
ランダム線3
 72
    65
 73
     4
 40
18.0
 49
3.0
 49
-4.0
 49
5.0
 49
-6.0
  0
LTYPE
  2
RAND4
 70
    64
  3
ランダム線4
 72
    65
 73
     4
 40
22.0
 49
4.0
 49
-5.0
 49
6.0
 49
-7.0
  0
LTYPE
  2
RAND5
 70
    64
  3
ランダム線5
 72
    65
 73
     4
 40
26.0
 49
5.0
 49
-6.0
 49
7.0
 49
-8.0
  0
LTYPE
  2
LONG1
 70
    64
  3
----------  --  ----------  --  
 72
    65
 73
     4
 40
40.0
 49
32.5
 49
-2.5
 49
2.5
 49
-2.5
  0
LTYPE
  2
LONG2
 70
    64
  3
--------  -  -  --------  -  -  
 72
    65
 73
     6
 40
40.0
 49
30.0
 49
-2.5
 49
1.25
 49
-2.5
 49
1.25
 49
-2.5
  0
LTYPE
  2
LONG3
 70
    64
  3
+++++++++++++++..+++++++++++++++
 72
    65
 73
     2
 40
40.0
 49
37.5
 49
-2.5
  0
LTYPE
  2
LONG4
 70
    64
  3
+++++++++++++++..+++++++++++++++
 72
    65
 73
     2
 40
80.0
 49
75.0
 49
-5.0
  0
LTYPE
  2
LONG5
 70
    64
  3
----------  --  ----------  --  
 72
    65
 73
     4
 40
60.0
 49
37.5
 49
-7.5
 49
7.5
 49
-7.5
  0
LTYPE
  2
dashed
 70
   64
  3
-------   -------------   ------
 72
   65
 73
    2
 40
7.5
 49
6
 49
-1.5
  0
LTYPE
  2
dashed_spaced
 70
   64
  3
----        --------        ----
 72
   65
 73
    2
 40
12
 49
6
 49
-6
  0
LTYPE
  2
long_dashed_dotted
 70
   64
  3
------------- --- --------------
 72
   65
 73
    4
 40
15.25
 49
12
 49
-1.5
 49
0.25
 49
-1.5
  0
LTYPE
  2
long_dashed_double-dotted
 70
   64
  3
----------- --- --- ------------
 72
   65
 73
    6
 40
17
 49
12
 49
-1.5
 49
0.25
 49
-1.5
 49
0.25
 49
-1.5
  0
LTYPE
  2
long_dashed_triplicate-dotted
 70
   64
  3
--------- --- --- --- ----------
 72
   65
 73
    8
 40
18.75
 49
12
 49
-1.5
 49
0.25
 49
-1.5
 49
0.25
 49
-1.5
 49
0.25
 49
-1.5
  0
LTYPE
  2
dotted
 70
   64
  3
   -       -       -       -    
 72
   65
 73
    2
 40
1.75
 49
0.25
 49
-1.5
  0
LTYPE
  2
chain
 70
   64
  3
-------------- -- --------------
 72
   65
 73
    4
 40
18.5
 49
12
 49
-1.5
 49
3.5
 49
-1.5
  0
LTYPE
  2
chain_double_dash
 70
   64
  3
------------ -- -- -------------
 72
   65
 73
    6
 40
23.5
 49
12
 49
-1.5
 49
3.5
 49
-1.5
 49
3.5
 49
-1.5
  0
LTYPE
  2
dashed_dotted
 70
   64
  3
-----------     -     ----------
 72
   65
 73
    4
 40
9.25
 49
6
 49
-1.5
 49
0.25
 49
-1.5
  0
LTYPE
  2
double-dashed_dotted
 70
   64
  3
------   -----------   -   -----
 72
   65
 73
    6
 40
16.75
 49
6
 49
-1.5
 49
6
 49
-1.5
 49
0.25
 49
-1.5
  0
LTYPE
  2
dashed_double-dotted
 70
   64
  3
---------    -    -    ---------
 72
   65
 73
    6
 40
11
 49
6
 49
-1.5
 49
0.25
 49
-1.5
 49
0.25
 49
-1.5
  0
LTYPE
  2
double-dashed_double-dotted
 70
   64
  3
-----   ---------   -   -   ----
 72
   65
 73
    8
 40
18.5
 49
6
 49
-1.5
 49
6
 49
-1.5
 49
0.25
 49
-1.5
 49
0.25
 49
-1.5
  0
LTYPE
  2
dashed_triplicate-dotted
 70
   64
  3
-------    -    -    -    ------
 72
   65
 73
    8
 40
12.75
 49
6
 49
-1.5
 49
0.25
 49
-1.5
 49
0.25
 49
-1.5
 49
0.25
 49
-1.5
  0
LTYPE
  2
double-dashed_triplicate-dotted
 70
   64
  3
-----  ---------  -  -  -  -----
 72
   65
 73
   10
 40
20.25
 49
6
 49
-1.5
 49
6
 49
-1.5
 49
0.25
 49
-1.5
 49
0.25
 49
-1.5
 49
0.25
 49
-1.5
  0
LTYPE
  2
undefined
 70
   64
  3
--------------------------------
 72
   65
 73
    0
 40
0
  0
LTYPE
  2
HIDDEN
 70
   64
  3
----        --------        ----
 72
   65
 73
    2
 40
2
 49
1
 49
-1
  0
LTYPE
  2
DASHED
 70
   64
  3
-------   -------------   ------
 72
   65
 73
    2
 40
10
 49
8
 49
-2
  0
LTYPE
  2
CENTER
 70
   64
  3
------------   ---   -----------
 72
   65
 73
    4
 40
20
 49
14
 49
-2
 49
2
 49
-2
  0
LTYPE
  2
PHANTOM
 70
   64
  3
---------   ---   ---   --------
 72
   65
 73
    6
 40
20
 49
10
 49
-2
 49
2
 49
-2
 49
2
 49
-2
  0
ENDTAB
  0
TABLE
  2
STYLE
  5
3
100
AcDbSymbolTable
 70
     1
  0
STYLE
  5
10
100
AcDbSymbolTableRecord
100
AcDbTextStyleTableRecord
  2
STANDARD
 70
     0
 40
0.0
 41
1.0
 50
0.0
 71
     0
 42
0.2
  3
txt
  4
bigfont.shx
  0
STYLE
  5
26
100
AcDbSymbolTableRecord
100
AcDbTextStyleTableRecord
  2
TATEGAKI
 70
    68
 40
0.0
 41
1.0
 50
0.0
 71
     0
 42
1.0
  3
txt
  4
bigfont.shx
  0
ENDTAB
  0
TABLE
  2
LAYER
 70
    6
  0
LAYER
  2
_0-0_1
 70
   64
 62
    7
  6
CONTINUOUS
  0
LAYER
  2
_0-1_2
 70
   64
 62
    7
  6
CONTINUOUS
  0
LAYER
  2
_0-2_3
 70
   64
 62
    7
  6
CONTINUOUS
  0
LAYER
  2
_0-3_4
 70
   64
 62
    7
  6
CONTINUOUS
  0
LAYER
  2
_0-4_6
 70
   64
 62
    7
  6
CONTINUOUS
  0
LAYER
  2
ADD_LINE
 70
   64
 62
    7
  6
CONTINUOUS
  0
ENDTAB
  0
ENDSEC
  0
SECTION
  2
BLOCKS
  0
ENDSEC
  0
SECTION
  2
ENTITIES
  0
LINE
  8
_0-0_1
  6
CONTINUOUS
 62
    1
 10
1049.1451594999999
 20
783.50634549999813
 11
2119.4700475
 21
1265.1515054999982
  0
LINE
  8
_0-0_1
  6
CONTINUOUS
 62
    1
 10
1048.1192494999996
 20
785.78614949999974
 11
2118.4441374999997
 21
1267.4313104999965
  0
LINE
  8
_0-0_1
  6
CONTINUOUS
 62
    1
 10
1047.0933395000002
 20
788.06595449999804
 11
2117.4182284999997
 21
1269.7111154999984
  0
LINE
  8
_0-0_1
  6
CONTINUOUS
 62
    1
 10
1046.0674305000002
 20
790.34575849999965
 11
2116.3923185000003
 21
1271.9909195
  0
LINE
  8
_0-0_1
  6
CONTINUOUS
 62
    1
 10
1045.0415204999999
 20
792.62556349999795
 11
2115.3664085
 21
1274.2707244999983
  0
LINE
  8
_0-0_1
  6
CONTINUOUS
 62
    1
 10
1044.0156104999996
 20
794.90536849999989
 11
2114.3404984999997
 21
1276.5505284999999
  0
LINE
  8
_0-0_1
  6
CONTINUOUS
 62
    1
 10
1042.9897005000003
 20
797.18517249999786
 11
2113.3145885000004
 21
1278.8303334999982
  0
LINE
  8
_0-0_1
  6
CONTINUOUS
 62
    1
 10
1041.9637905
 20
799.4649774999998
 11
2112.2886785000001
 21
1281.1101384999965
  0
LINE
  8
_0-0_1
  6
CONTINUOUS
 62
    1
 10
1040.9378804999997
 20
801.74478149999777
 11
2111.2627684999998
 21
1283.3899424999981
  0
LINE
  8
_0-0_1
  6
CONTINUOUS
 62
    4
 10
1212.6646014999997
 20
962.308622499997
 11
1218.2685625000004
 21
964.07889149999755
  0
ARC
  8
_0-0_1
  6
CONTINUOUS
 62
    4
 10
1235.0533404999996
 20
965.79242149999845
 40
16.872017
 50
103.35714900000002
 51
185.82903500000003
  0
LINE
  8
_0-0_1
  6
CONTINUOUS
 62
    4
 10
1236.6995004999999
 20
965.60693549999996
 11
1542.8739944999998
 21
1062.326241499999
  0
LINE
  8
_0-0_1
  6
CONTINUOUS
 62
    4
 10
1536.7950185
 20
1081.5698384999996
 11
1513.4100344999997
 21
1074.1826154999981
  0
LINE
  8
_0-0_1
  6
CONTINUOUS
 62
    4
 10
1231.1555614999997
 20
982.20803249999881
 11
1511.0007164999997
 21
1070.6100054999988
  0
ARC
  8
_0-0_1
  6
CONTINUOUS
 62
    4
 10
1516.6314844999997
 20
1069.1300374999992
 40
5.8220139999999994
 50
113.701938
 51
165.27368200000001
  0
LINE
  8
_0-0_1
  6
CONTINUOUS
 62
    4
 10
1212.6552085000003
 20
962.33836049999809
 11
1218.5383105000001
 21
943.71481849999691
  0
ARC
  8
_0-0_1
  6
CONTINUOUS
 62
    4
 10
1240.5972785000004
 20
949.19132449999961
 40
16.872017
 50
103.35714900000002
 51
192.69455200000002
  0
LINE
  8
_0-0_1
  6
CONTINUOUS
 62
    4
 10
1544.0299494999999
 20
1043.2151794999991
 11
1542.2684444999995
 21
1048.7913974999974
  0
LINE
  8
_0-0_1
  6
CONTINUOUS
 62
    4
 10
1536.7950185
 20
1081.5698384999996
 11
1548.4682075000001
 21
1044.6172074999995
  0
LINE
  8
_0-0_1
  6
CONTINUOUS
 62
    4
 10
1544.0299494999999
 20
1043.2151794999991
 11
1548.4682075000001
 21
1044.6172074999995
  0
LINE
  8
_0-0_1
  6
CONTINUOUS
 62
    4
 10
1224.1376904999997
 20
945.48364049999873
 11
1218.5383105000001
 21
943.71481849999691
  0
LINE
  8
_0-0_1
  6
CONTINUOUS
 62
    4
 10
1223.7672004999995
 20
948.17811949999668
 11
1542.2684444999995
 21
1048.7913974999974
  0
LINE
  8
_0-0_1
  6
CONTINUOUS
 62
    4
 10
1467.1853325000002
 20
1079.4177464999993
 11
1472.8037674999996
 21
1081.1415264999996
  0
ARC
  8
_0-0_1
  6
CONTINUOUS
 62
    4
 10
1489.6021664999998
 20
1082.7159345
 40
16.872017
 50
102.88244700000001
 51
185.354333
  0
LINE
  8
_0-0_1
  6
CONTINUOUS
 62
    4
 10
1491.2467324999998
 20
1082.5168164999995
 11
1798.2120395000002
 21
1176.6961404999965
  0
LINE
  8
_0-0_1
  6
CONTINUOUS
 62
    4
 10
1792.2927065000003
 20
1195.9894414999981
 11
1768.8473215000004
 21
1188.796216499999
  0
LINE
  8
_0-0_1
  6
CONTINUOUS
 62
    4
 10
1485.8405245000004
 20
1099.1632754999991
 11
1766.4084874999999
 21
1185.2436914999998
  0
ARC
  8
_0-0_1
  6
CONTINUOUS
 62
    4
 10
1772.0268004999998
 20
1183.7171224999984
 40
5.8220139999999994
 50
113.22723600000002
 51
164.79898000000003
  0
LINE
  8
_0-0_1
  6
CONTINUOUS
 62
    4
 10
1467.1761854999995
 20
1079.4475614999974
 11
1472.9047885
 21
1060.7759164999989
  0
ARC
  8
_0-0_1
  6
CONTINUOUS
 62
    4
 10
1495.0083734999998
 20
1066.0694764999971
 40
16.872017
 50
102.88244700000001
 51
192.21985000000001
  0
LINE
  8
_0-0_1
  6
CONTINUOUS
 62
    4
 10
1799.2096195000004
 20
1157.5761564999993
 11
1797.4943745
 21
1163.1667784999991
  0
LINE
  8
_0-0_1
  6
CONTINUOUS
 62
    4
 10
1792.2927065000003
 20
1195.9894414999981
 11
1803.6593414999998
 21
1158.9413654999989
  0
LINE
  8
_0-0_1
  6
CONTINUOUS
 62
    4
 10
1799.2096195000004
 20
1157.5761564999993
 11
1803.6593414999998
 21
1158.9413654999989
  0
LINE
  8
_0-0_1
  6
CONTINUOUS
 62
    4
 10
1478.5186315000001
 20
1062.4982874999987
 11
1472.9047885
 21
1060.7759164999989
  0
LINE
  8
_0-0_1
  6
CONTINUOUS
 62
    4
 10
1478.1704785000002
 20
1065.1957434999968
 11
1797.4943745
 21
1163.1667784999991
  0
LINE
  8
_0-0_1
  6
CONTINUOUS
 62
    4
 10
1722.5041664999999
 20
1194.3624954999977
 11
1728.1226015000002
 21
1196.0862744999977
  0
ARC
  8
_0-0_1
  6
CONTINUOUS
 62
    4
 10
1744.9210004999995
 20
1197.6606834999984
 40
16.872017
 50
102.88244700000001
 51
185.354333
  0
LINE
  8
_0-0_1
  6
CONTINUOUS
 62
    4
 10
1746.5655665000004
 20
1197.461565499998
 11
2053.5308734999999
 21
1291.6408894999986
  0
LINE
  8
_0-0_1
  6
CONTINUOUS
 62
    4
 10
2047.6115405
 20
1310.9341894999998
 11
2024.1661555000001
 21
1303.7409654999974
  0
LINE
  8
_0-0_1
  6
CONTINUOUS
 62
    4
 10
1741.1593585000001
 20
1214.1080234999972
 11
2021.7273214999996
 21
1300.1884394999979
  0
ARC
  8
_0-0_1
  6
CONTINUOUS
 62
    4
 10
2027.3456344999995
 20
1298.6618705000001
 40
5.8220139999999994
 50
113.22723600000002
 51
164.79898000000003
  0
LINE
  8
_0-0_1
  6
CONTINUOUS
 62
    4
 10
1722.4950195000001
 20
1194.3923094999991
 11
1728.2236235
 21
1175.7206654999973
  0
ARC
  8
_0-0_1
  6
CONTINUOUS
 62
    4
 10
1750.3272074999995
 20
1181.0142244999988
 40
16.872017
 50
102.88244700000001
 51
192.21985000000001
  0
LINE
  8
_0-0_1
  6
CONTINUOUS
 62
    4
 10
2054.5284535000001
 20
1272.5209054999978
 11
2052.8132084999997
 21
1278.1115264999971
  0
LINE
  8
_0-0_1
  6
CONTINUOUS
 62
    4
 10
2047.6115405
 20
1310.9341894999998
 11
2058.9781755000004
 21
1273.8861144999973
  0
LINE
  8
_0-0_1
  6
CONTINUOUS
 62
    4
 10
2054.5284535000001
 20
1272.5209054999978
 11
2058.9781755000004
 21
1273.8861144999973
  0
LINE
  8
_0-0_1
  6
CONTINUOUS
 62
    4
 10
1733.8374654999998
 20
1177.4430354999968
 11
1728.2236235
 21
1175.7206654999973
  0
LINE
  8
_0-0_1
  6
CONTINUOUS
 62
    4
 10
1733.4893124999999
 20
1180.1404914999985
 11
2052.8132084999997
 21
1278.1115264999971
  0
LINE
  8
_0-0_1
  6
CONTINUOUS
 62
    4
 10
1977.8230004999996
 20
1309.3072434999995
 11
1983.4414354999999
 21
1311.0310224999994
  0
ARC
  8
_0-0_1
  6
CONTINUOUS
 62
    4
 10
2000.2398345000001
 20
1312.6054314999965
 40
16.872017
 50
102.88244700000001
 51
185.354333
  0
LINE
  8
_0-0_1
  6
CONTINUOUS
 62
    4
 10
2001.8844005000001
 20
1312.4063134999997
 11
2081.4540834999998
 21
1336.8189054999966
  0
LINE
  8
_0-0_1
  6
CONTINUOUS
 62
    4
 10
1996.4781924999997
 20
1329.0527724999993
 11
2073.7764184999996
 21
1352.7684644999972
  0
LINE
  8
_0-0_1
  6
CONTINUOUS
 62
    4
 10
1977.8138534999998
 20
1309.3370584999975
 11
1983.5424574999997
 21
1290.665413499999
  0
ARC
  8
_0-0_1
  6
CONTINUOUS
 62
    4
 10
2005.6460415000001
 20
1295.9589724999969
 40
16.872017
 50
102.88244700000001
 51
192.21985000000001
  0
LINE
  8
_0-0_1
  6
CONTINUOUS
 62
    4
 10
1989.1563004999998
 20
1292.3877834999985
 11
1983.5424574999997
 21
1290.665413499999
  0
LINE
  8
_0-0_1
  6
CONTINUOUS
 62
    4
 10
1988.8081464999996
 20
1295.0852404999969
 11
2087.0363125000003
 21
1325.2223994999986
  0
LINE
  8
_0-0_1
  6
CONTINUOUS
 62
    4
 10
959.42340849999982
 20
847.7375334999997
 11
965.02736949999962
 21
849.50780249999661
  0
ARC
  8
_0-0_1
  6
CONTINUOUS
 62
    4
 10
981.81214749999981
 20
851.22133249999752
 40
16.872017
 50
103.35714900000002
 51
185.82903500000003
  0
LINE
  8
_0-0_1
  6
CONTINUOUS
 62
    4
 10
983.45830750000005
 20
851.03584649999902
 11
1289.6328014999999
 21
947.75515249999808
  0
LINE
  8
_0-0_1
  6
CONTINUOUS
 62
    4
 10
1283.5538255000001
 20
966.99874949999867
 11
1260.1688414999999
 21
959.61152549999679
  0
LINE
  8
_0-0_1
  6
CONTINUOUS
 62
    4
 10
977.91436849999991
 20
867.63694349999787
 11
1257.7595234999999
 21
956.03891649999787
  0
ARC
  8
_0-0_1
  6
CONTINUOUS
 62
    4
 10
1263.3902914999999
 20
954.55894749999788
 40
5.8220139999999994
 50
113.701938
 51
165.27368200000001
  0
LINE
  8
_0-0_1
  6
CONTINUOUS
 62
    4
 10
959.41401450000012
 20
847.76727149999715
 11
965.29711750000024
 21
829.14372949999961
  0
ARC
  8
_0-0_1
  6
CONTINUOUS
 62
    4
 10
987.35608549999961
 20
834.62023549999867
 40
16.872017
 50
103.35714900000002
 51
192.69455200000002
  0
LINE
  8
_0-0_1
  6
CONTINUOUS
 62
    4
 10
1290.7887565000001
 20
928.64408949999779
 11
1289.0272514999997
 21
934.22030849999646
  0
LINE
  8
_0-0_1
  6
CONTINUOUS
 62
    4
 10
1283.5538255000001
 20
966.99874949999867
 11
1295.2270145000002
 21
930.04611749999822
  0
LINE
  8
_0-0_1
  6
CONTINUOUS
 62
    4
 10
1290.7887565000001
 20
928.64408949999779
 11
1295.2270145000002
 21
930.04611749999822
  0
LINE
  8
_0-0_1
  6
CONTINUOUS
 62
    4
 10
970.8964974999999
 20
830.91255049999745
 11
965.29711750000024
 21
829.14372949999961
  0
LINE
  8
_0-0_1
  6
CONTINUOUS
 62
    4
 10
970.52600749999965
 20
833.60703049999938
 11
1289.0272514999997
 21
934.22030849999646
  0
LINE
  8
_0-0_1
  6
CONTINUOUS
 62
   18
 10
1145.7853594999997
 20
665.23617949999971
 11
1138.5502825000003
 21
677.95993549999912
  0
LINE
  8
_0-0_1
  6
CONTINUOUS
 62
   18
 10
1172.2308135000003
 20
700.16413649999959
 11
1145.7995615
 21
674.90760749999754
  0
LINE
  8
_0-0_1
  6
CONTINUOUS
 62
   18
 10
1137.0376065
 20
666.53507249999893
 11
1116.0965955000001
 21
646.52477349999754
  0
LINE
  8
_0-0_1
  6
CONTINUOUS
 62
   18
 10
1136.9928014999996
 20
666.49225849999857
 11
1145.7853594999997
 21
665.23617949999971
  0
LINE
  8
_0-0_1
  6
CONTINUOUS
 62
   18
 10
1138.5502825000003
 20
677.95993549999912
 11
1145.7995615
 21
674.90760749999754
  0
LINE
  8
_0-0_1
  6
DASHED
 62
   18
 10
1039.2964435000004
 20
805.39247749999777
 11
2109.6213134999998
 21
1287.0376294999987
  0
LINE
  8
_0-3_4
  6
CONTINUOUS
 62
   18
 10
1039.9119885
 20
804.02459449999878
 11
1050.1710714999999
 21
781.22649049999745
  0
LINE
  8
_0-1_2
  6
CONTINUOUS
 62
   18
 10
1161.1520174999996
 20
809.23617949999971
 11
1163.2495054999999
 21
810.17992149999918
  0
LINE
  8
_0-1_2
  6
CONTINUOUS
 62
   18
 10
1185.7736844999999
 20
754.5207554999979
 11
1187.8712214999996
 21
755.4645094999978
  0
LINE
  8
_0-1_2
  6
CONTINUOUS
 62
   18
 10
1114.3111364999995
 20
807.56753249999747
 11
1152.0648314999999
 21
824.55642549999902
  0
LINE
  8
_0-1_2
  6
CONTINUOUS
 62
   18
 10
1161.1520174999996
 20
809.23617949999971
 11
1154.7094164999999
 21
823.55333249999967
  0
LINE
  8
_0-1_2
  6
CONTINUOUS
 62
   18
 10
1192.2163444999996
 20
740.20362549999845
 11
1185.7736844999999
 21
754.5207554999979
  0
LINE
  8
_0-1_2
  6
CONTINUOUS
 62
   18
 10
1153.4596565000002
 20
720.5699214999986
 11
1191.2131495000003
 21
737.55883549999999
  0
LINE
  8
_0-1_2
  6
CONTINUOUS
 62
   18
 10
1163.2495054999999
 20
810.17992149999918
 11
1156.8067954999997
 21
824.49704949999796
  0
LINE
  8
_0-1_2
  6
CONTINUOUS
 62
   18
 10
1113.3672445000002
 20
809.66479449999679
 11
1151.1209364999995
 21
826.65374649999649
  0
LINE
  8
_0-1_2
  6
CONTINUOUS
 62
   18
 10
1194.3139325000002
 20
741.14736149999953
 11
1187.8712214999996
 21
755.4645094999978
  0
LINE
  8
_0-1_2
  6
CONTINUOUS
 62
   18
 10
1154.4035645000004
 20
718.47252049999952
 11
1192.1569934999998
 21
735.46153149999736
  0
LINE
  8
_0-1_2
  6
CONTINUOUS
 62
   18
 10
1150.8150635000002
 20
721.57317349999721
 11
1113.3080295
 21
804.92302649999692
  0
LINE
  8
_0-1_2
  6
CONTINUOUS
 62
   18
 10
1111.2107745000003
 20
803.9789944999975
 11
1148.7178045000001
 21
720.6292214999994
  0
LINE
  8
_0-0_1
  6
CONTINUOUS
 62
   18
 10
1125.9831155000002
 20
842.79136749999816
 11
1116.8627895
 21
838.68734649999897
  0
LINE
  8
_0-0_1
  6
CONTINUOUS
 62
   18
 10
1127.2130655000001
 20
840.05488249999689
 11
1118.0946345000002
 21
835.95220349999727
  0
LINE
  8
_0-0_1
  6
CONTINUOUS
 62
   18
 10
1116.8627895
 20
838.68734649999897
 11
1118.0946345000002
 21
835.95220349999727
  0
LINE
  8
_0-0_1
  6
CONTINUOUS
 62
   18
 10
1125.9831155000002
 20
842.79136749999816
 11
1127.2130655000001
 21
840.05488249999689
  0
LINE
  8
_0-0_1
  6
CONTINUOUS
 62
   18
 10
1121.4230344999996
 20
840.73942049999823
 11
1122.6538755000001
 21
838.00293349999993
  0
LINE
  8
_0-0_1
  6
CONTINUOUS
 62
   18
 10
1141.9134535000003
 20
795.20570949999819
 11
1137.7912054999997
 21
799.49189949999709
  0
LINE
  8
_0-0_1
  6
CONTINUOUS
 62
   18
 10
1141.9134535000003
 20
795.20570949999819
 11
1141.4389634999998
 21
801.13270549999652
  0
LINE
  8
_0-0_1
  6
CONTINUOUS
 62
   18
 10
1126.3091034999998
 20
821.99150049999662
 11
1131.9368944999997
 21
825.68294849999802
  0
LINE
  8
_0-0_1
  6
CONTINUOUS
 62
   18
 10
1128.3610445000004
 20
817.43226049999794
 11
1133.9899155000003
 21
821.12278249999872
  0
LINE
  8
_0-0_1
  6
CONTINUOUS
 62
   18
 10
1130.4140214999998
 20
812.8719534999982
 11
1136.0415844999998
 21
816.56360149999819
  0
LINE
  8
_0-0_1
  6
CONTINUOUS
 62
   18
 10
1132.4648434999999
 20
808.31174549999923
 11
1138.0925765000002
 21
812.00432149999688
  0
LINE
  8
_0-0_1
  6
CONTINUOUS
 62
   18
 10
1134.5167814999995
 20
803.75352549999661
 11
1140.1444085000003
 21
807.44506649999676
  0
LINE
  8
_0-0_1
  6
CONTINUOUS
 62
   18
 10
1136.5686065
 20
799.19325049999679
 11
1142.1974735000003
 21
802.88505349999832
  0
LINE
  8
_0-0_1
  6
CONTINUOUS
 62
   18
 10
1132.4382875000001
 20
808.37523249999867
 11
1138.0651664999996
 21
812.06576949999726
  0
LINE
  8
_0-0_1
  6
CONTINUOUS
 62
   18
 10
1134.4893224999996
 20
803.81495249999716
 11
1140.1170414999997
 21
807.5066874999975
  0
LINE
  8
_0-0_1
  6
CONTINUOUS
 62
   18
 10
1136.0252545000003
 20
800.40292649999901
 11
1141.6526574999998
 21
804.09456749999663
  0
LINE
  8
_0-0_1
  6
CONTINUOUS
 62
   18
 10
1124.4785915000002
 20
838.82457649999924
 11
1141.4389634999998
 21
801.13270549999652
  0
LINE
  8
_0-0_1
  6
CONTINUOUS
 62
   18
 10
1127.2130655000001
 20
840.05488249999689
 11
1125.7088114999997
 21
836.09059749999869
  0
LINE
  8
_0-0_1
  6
CONTINUOUS
 62
   18
 10
1120.9669384999997
 20
836.88057149999804
 11
1137.7912054999997
 21
799.49189949999709
  0
LINE
  8
_0-0_1
  6
CONTINUOUS
 62
   18
 10
1118.0946345000002
 20
835.95220349999727
 11
1122.0620145000003
 21
834.4467095
  0
LINE
  8
_0-1_2
  6
CONTINUOUS
 62
   18
 10
1156.8067934999999
 20
824.49709949999669
 11
1194.3140304999997
 21
741.14741549999962
  0
LINE
  8
_0-1_2
  6
CONTINUOUS
 62
   18
 10
1160.9103974999998
 20
826.34370749999653
 11
1198.4176834999998
 21
742.99405549999938
  0
LINE
  8
_0-1_2
  6
CONTINUOUS
 62
   18
 10
1156.8067954999997
 20
824.49704949999796
 11
1160.9103985000002
 21
826.34368749999703
  0
LINE
  8
_0-1_2
  6
CONTINUOUS
 62
   18
 10
1198.4176834999998
 20
742.99405549999938
 11
1194.3137255000001
 21
741.14727249999851
  0
LINE
  8
_0-0_1
  6
CONTINUOUS
 62
   18
 10
1204.2856595000003
 20
729.95409149999978
 11
1167.3538834999999
 21
812.02788349999901
  0
LINE
  8
_0-0_1
  6
CONTINUOUS
 62
   18
 10
1175.7889194999998
 20
810.34050149999894
 11
1203.6926654999997
 21
748.3296214999973
  0
LINE
  8
_0-0_1
  6
CONTINUOUS
 62
   18
 10
1169.1771534999998
 20
812.84907649999877
 11
1167.3538834999999
 21
812.02788349999901
  0
LINE
  8
_0-0_1
  6
CONTINUOUS
 62
   18
 10
1278.9272835000002
 20
771.21841749999658
 11
1216.9157535000004
 21
743.3139534999973
  0
LINE
  8
_0-0_1
  6
CONTINUOUS
 62
   18
 10
1175.5598465000003
 20
782.82319449999704
 11
1172.8238654999996
 21
781.5915344999994
  0
LINE
  8
_0-0_1
  6
CONTINUOUS
 62
   18
 10
1168.9943444999999
 20
797.41343949999646
 11
1166.2585065000003
 21
796.1819454999968
  0
LINE
  8
_0-0_1
  6
CONTINUOUS
 62
   18
 10
1179.3884895000001
 20
767.00216349999755
 11
1166.2585065000003
 21
796.1819454999968
  0
LINE
  8
_0-0_1
  6
CONTINUOUS
 62
   18
 10
1182.1253454999996
 20
768.2330194999995
 11
1179.3884895000001
 21
767.00216349999755
  0
LINE
  8
_0-0_1
  6
CONTINUOUS
 62
   18
 10
1167.5240544999997
 20
771.6116544999968
 11
1175.6649834999998
 21
775.27556849999746
  0
LINE
  8
_0-0_1
  6
CONTINUOUS
 62
   18
 10
1161.8389004999999
 20
784.24653549999857
 11
1169.9797234999996
 21
787.90917349999654
  0
LINE
  8
_0-0_1
  6
CONTINUOUS
 62
   18
 10
1158.9948334999999
 20
790.56405749999976
 11
1167.1371724999999
 21
794.22800149999966
  0
LINE
  8
_0-0_1
  6
CONTINUOUS
 62
   18
 10
1158.7793714999998
 20
788.43358649999936
 11
1158.9948334999999
 21
790.56405749999976
  0
LINE
  8
_0-0_1
  6
CONTINUOUS
 62
   18
 10
1168.6277005000002
 20
766.54654549999759
 11
1158.7793714999998
 21
788.43358649999936
  0
LINE
  8
_0-0_1
  6
CONTINUOUS
 62
   18
 10
1170.3675334999998
 20
765.29334649999873
 11
1178.5089564999998
 21
768.95673149999857
  0
LINE
  8
_0-0_1
  6
CONTINUOUS
 62
   18
 10
1168.6277005000002
 20
766.54654549999759
 11
1170.3675334999998
 21
765.29334649999873
  0
LINE
  8
_0-0_1
  6
CONTINUOUS
 62
   18
 10
1151.7593514999999
 20
780.88547249999829
 11
1160.8983065000002
 21
767.45327049999833
  0
LINE
  8
_0-0_1
  6
CONTINUOUS
 62
   18
 10
1157.3158825
 20
783.38558549999652
 11
1166.4538725000002
 21
769.95253149999917
  0
LINE
  8
_0-0_1
  6
CONTINUOUS
 62
   18
 10
1191.3472105000001
 20
797.52359849999993
 11
1183.2063865
 21
793.85979849999785
  0
LINE
  8
_0-0_1
  6
CONTINUOUS
 62
   18
 10
1197.0326724999995
 20
784.88876049999817
 11
1188.8909375000003
 21
781.22544249999919
  0
LINE
  8
_0-0_1
  6
CONTINUOUS
 62
   18
 10
1199.8764284999997
 20
778.5712554999991
 11
1191.7344014999999
 21
774.90727449999758
  0
LINE
  8
_0-0_1
  6
CONTINUOUS
 62
   18
 10
1200.0921035000001
 20
780.70165549999729
 11
1199.8764284999997
 21
778.5712554999991
  0
LINE
  8
_0-0_1
  6
CONTINUOUS
 62
   18
 10
1190.2435624999998
 20
802.58873749999839
 11
1200.0921035000001
 21
780.70165549999729
  0
LINE
  8
_0-0_1
  6
CONTINUOUS
 62
   18
 10
1188.5041535
 20
803.84184449999884
 11
1180.3625124999999
 21
800.17867049999768
  0
LINE
  8
_0-0_1
  6
CONTINUOUS
 62
   18
 10
1190.2435624999998
 20
802.58873749999839
 11
1188.5041535
 21
803.84184449999884
  0
LINE
  8
_0-0_1
  6
CONTINUOUS
 62
   18
 10
1285.5381234999995
 20
768.71043349999673
 11
1286.3587964999997
 21
766.8864614999984
  0
LINE
  8
_0-0_1
  6
CONTINUOUS
 62
   18
 10
1286.3587964999997
 20
766.8864614999984
 11
1204.2858274999999
 21
729.9536784999982
  0
LINE
  8
_0-0_1
  6
CONTINUOUS
 62
   18
 10
1160.4220294999996
 20
784.78298449999784
 11
1151.7593514999999
 21
780.88547249999829
  0
LINE
  8
_0-0_1
  6
CONTINUOUS
 62
   18
 10
1151.7593514999999
 20
780.88547249999829
 11
1150.7561534999995
 21
778.24077149999721
  0
LINE
  8
_0-0_1
  6
CONTINUOUS
 62
   18
 10
1166.9868294999997
 20
770.19325949999984
 11
1158.3250145000002
 21
766.29522449999786
  0
LINE
  8
_0-0_1
  6
CONTINUOUS
 62
   18
 10
1151.7593514999999
 20
780.88547249999829
 11
1158.3250145000002
 21
766.29522449999786
  0
LINE
  8
_0-0_1
  6
CONTINUOUS
 62
   18
 10
1155.6796594999996
 20
767.29803449999963
 11
1158.3250145000002
 21
766.29522449999786
  0
LINE
  8
_0-0_1
  6
CONTINUOUS
 62
   18
 10
1150.7561534999995
 20
778.24077149999721
 11
1155.6796594999996
 21
767.29803449999963
  0
LINE
  8
_0-0_1
  6
CONTINUOUS
 62
   18
 10
1082.3159304999999
 20
746.34591649999857
 11
1086.4201364999999
 21
737.22570849999829
  0
LINE
  8
_0-0_1
  6
CONTINUOUS
 62
   18
 10
1085.0524095000001
 20
747.57597649999661
 11
1089.1551684999995
 21
738.45756849999816
  0
LINE
  8
_0-0_1
  6
CONTINUOUS
 62
   18
 10
1086.4201364999999
 20
737.22570849999829
 11
1089.1551684999995
 21
738.45756849999816
  0
LINE
  8
_0-0_1
  6
CONTINUOUS
 62
   18
 10
1082.3159304999999
 20
746.34591649999857
 11
1085.0524095000001
 21
747.57597649999661
  0
LINE
  8
_0-0_1
  6
CONTINUOUS
 62
   18
 10
1084.3679515000003
 20
741.78596949999701
 11
1087.1043895000003
 21
743.01678749999701
  0
LINE
  8
_0-0_1
  6
CONTINUOUS
 62
   18
 10
1143.6423164999997
 20
768.46047550000003
 11
1139.3561614999999
 21
764.3380984999967
  0
LINE
  8
_0-0_1
  6
CONTINUOUS
 62
   18
 10
1143.6423164999997
 20
768.46047550000003
 11
1137.7152955000001
 21
767.98586449999857
  0
LINE
  8
_0-0_1
  6
CONTINUOUS
 62
   18
 10
1103.1158114999998
 20
746.67227549999734
 11
1099.4241755000003
 21
752.30002849999801
  0
LINE
  8
_0-0_1
  6
CONTINUOUS
 62
   18
 10
1107.6749984999997
 20
748.72428450000007
 11
1103.9843664999999
 21
754.35313150000002
  0
LINE
  8
_0-0_1
  6
CONTINUOUS
 62
   18
 10
1112.2353025000002
 20
750.77732249999826
 11
1108.5435195
 21
756.40477849999661
  0
LINE
  8
_0-0_1
  6
CONTINUOUS
 62
   18
 10
1116.7954264999998
 20
752.82823949999874
 11
1113.1027555000001
 21
758.45586849999745
  0
LINE
  8
_0-0_1
  6
CONTINUOUS
 62
   18
 10
1121.3536215000004
 20
754.88028749999648
 11
1117.6619945000002
 21
760.50783049999882
  0
LINE
  8
_0-0_1
  6
CONTINUOUS
 62
   18
 10
1125.9138634999999
 20
756.9322104999992
 11
1122.2219265000003
 21
762.56092149999677
  0
LINE
  8
_0-0_1
  6
CONTINUOUS
 62
   18
 10
1130.4729145000001
 20
758.9850544999972
 11
1126.7823175000003
 21
764.61191049999979
  0
LINE
  8
_0-0_1
  6
CONTINUOUS
 62
   18
 10
1135.0332394999996
 20
761.03620149999915
 11
1131.3413485000001
 21
766.66383349999887
  0
LINE
  8
_0-0_1
  6
CONTINUOUS
 62
   18
 10
1138.4451314999997
 20
762.57222849999744
 11
1134.7534674999997
 21
768.19947949999914
  0
LINE
  8
_0-0_1
  6
CONTINUOUS
 62
   18
 10
1089.0166945000001
 20
746.07174249999662
 11
1137.7152955000001
 21
767.98586449999857
  0
LINE
  8
_0-0_1
  6
CONTINUOUS
 62
   18
 10
1085.0524095000001
 20
747.57597649999661
 11
1089.0166945000001
 21
746.07174249999662
  0
LINE
  8
_0-0_1
  6
CONTINUOUS
 62
   18
 10
1090.6606075
 20
742.42505749999691
 11
1139.3561614999999
 21
764.3380984999967
  0
LINE
  8
_0-0_1
  6
CONTINUOUS
 62
   18
 10
1089.1551684999995
 20
738.45756849999816
 11
1090.6606075
 21
742.42505749999691
  0
LINE
  8
_0-2_3
  6
CONTINUOUS
 62
   18
 10
1154.5859035000003
 20
707.58874250000008
 11
2165.6359855000001
 21
1162.5603174999997
  0
LINE
  8
_0-4_6
  6
CONTINUOUS
 62
   18
 10
1109.4460564999999
 20
807.90008149999994
 11
1162.7931225000002
 21
689.35026749999815
  0
LINE
  8
_0-4_6
  6
CONTINUOUS
 62
   18
 10
1063.8499275000004
 20
787.38197249999939
 11
1124.5986295000002
 21
652.38399349999963
  0
LINE
  8
_0-4_6
  6
CONTINUOUS
 62
   18
 10
1136.9497234999999
 20
746.78068449999773
 11
1070.8352974999998
 21
771.85864549999678
  0
LINE
  8
_0-4_6
  6
CONTINUOUS
 62
   18
 10
1138.6907924999996
 20
742.91175249999651
 11
1072.5764294999999
 21
767.9896364999986
  0
LINE
  8
_0-4_6
  6
CONTINUOUS
 62
   18
 10
1050.1710695000002
 20
781.22654049999983
 11
2120.4959575000003
 21
1262.8717014999966
  0
ARC
  8
_0-1_2
  6
CONTINUOUS
 62
   18
 10
1152.8854995000002
 20
822.73253249999834
 40
2.000003
 50
24.227606000000002
 51
114.227597
  0
ARC
  8
_0-1_2
  6
CONTINUOUS
 62
   18
 10
1190.3924294999997
 20
739.38277549999839
 40
2.000003
 50
294.22760599999998
 51
24.22760599999997
  0
ARC
  8
_0-1_2
  6
CONTINUOUS
 62
   18
 10
1190.3924294999997
 20
739.38277549999839
 40
4.2999999999999998
 50
294.22760599999998
 51
24.22760599999997
  0
ARC
  8
_0-1_2
  6
CONTINUOUS
 62
   18
 10
1152.8854995000002
 20
822.73253249999834
 40
4.2999999999999998
 50
24.227606000000002
 51
114.227597
  0
ARC
  8
_0-1_2
  6
CONTINUOUS
 62
   18
 10
1115.1318615
 20
805.74368449999747
 40
2.000003
 50
114.227597
 51
204.22760600000001
  0
ARC
  8
_0-1_2
  6
CONTINUOUS
 62
   18
 10
1152.6389884999999
 20
722.3937834999997
 40
2.000003
 50
204.22760599999998
 51
294.22760599999998
  0
ARC
  8
_0-1_2
  6
CONTINUOUS
 62
   18
 10
1152.6389884999999
 20
722.3937834999997
 40
4.2999999999999998
 50
204.22760599999998
 51
294.22760599999998
  0
ARC
  8
_0-1_2
  6
CONTINUOUS
 62
   18
 10
1115.1320655
 20
805.74364149999747
 40
4.2999999999999998
 50
114.227597
 51
204.22760600000001
  0
ARC
  8
_0-0_1
  6
CONTINUOUS
 62
   18
 10
1212.8127054999995
 20
752.43542149999848
 40
10.001999
 50
204.23162600000001
 51
294.21885600000002
  0
ARC
  8
_0-0_1
  6
CONTINUOUS
 62
   18
 10
1171.2301424999996
 20
808.28990049999993
 40
4.9989999999999997
 50
24.224675999999999
 51
114.23531699999998
  0
ARC
  8
_0-0_1
  6
CONTINUOUS
 62
   18
 10
1280.9796125000003
 20
766.65971449999779
 40
4.9989999999999997
 50
24.224675999999999
 51
114.23531699999998
  0
ARC
  8
_0-0_1
  6
CONTINUOUS
 62
   18
 10
1165.0426035
 20
789.49568749999889
 40
6.1470010000000013
 50
204.58583600000003
 51
238.59310600000003
  0
ARC
  8
_0-0_1
  6
CONTINUOUS
 62
   18
 10
1173.5880815
 20
770.53165249999802
 40
6.1580000000000004
 50
169.89976100000001
 51
203.85441599999999
  0
ARC
  8
_0-0_1
  6
CONTINUOUS
 62
   18
 10
1184.5852054999996
 20
786.8868584999982
 40
22.898997999999999
 50
186.623276
 51
221.838796
  0
ARC
  8
_0-0_1
  6
CONTINUOUS
 62
   18
 10
1193.8260895000003
 20
779.64072749999832
 40
6.1479999999999997
 50
24.562656
 51
58.577396
  0
ARC
  8
_0-0_1
  6
CONTINUOUS
 62
   18
 10
1185.2939735
 20
798.60311749999892
 40
6.1479999999999997
 50
349.89938599999999
 51
23.901645999999964
  0
ARC
  8
_0-0_1
  6
CONTINUOUS
 62
   18
 10
1174.2496005000003
 20
782.2333974999965
 40
22.936000999999997
 50
6.6513660000000003
 51
41.808135999999998
  0
LINE
  8
_0-0_1
  6
CONTINUOUS
 62
   18
 10
1039.9119885
 20
804.02459449999878
 11
2110.2368594999998
 21
1285.6697475000001
  0
LINE
  8
_0-0_1
  6
CONTINUOUS
 62
   18
 10
905.7132744999999
 20
956.56193949999943
 11
927.25737649999974
 21
908.68604049999703
  0
CIRCLE
  8
_0-0_1
  6
CONTINUOUS
 62
   18
 10
906.73918450000019
 20
954.28213449999748
 40
1.6999999999999997
  0
LINE
  8
_0-0_1
  6
CONTINUOUS
 62
   18
 10
906.73918450000019
 20
954.28213449999748
 11
1162.0773094999995
 21
1069.1840124999981
  0
CIRCLE
  8
_0-0_1
  6
CONTINUOUS
 62
   18
 10
1162.0773094999995
 20
1069.1840124999981
 40
1.6999999999999997
  0
LINE
  8
_0-0_1
  6
CONTINUOUS
 62
   18
 10
1161.0514004999995
 20
1071.4638175
 11
1182.5955025000003
 21
1023.5879184999976
  0
LINE
  8
_0-0_1
  6
CONTINUOUS
 62
   18
 10
1152.8441235
 20
1089.7022545
 11
1174.3882254999999
 21
1041.8263564999979
  0
CIRCLE
  8
_0-0_1
  6
CONTINUOUS
 62
   18
 10
1153.8700325
 20
1087.422449499998
 40
1.6999999999999997
  0
LINE
  8
_0-0_1
  6
CONTINUOUS
 62
   18
 10
1153.8700325
 20
1087.422449499998
 11
1409.2081584999996
 21
1202.324328499999
  0
CIRCLE
  8
_0-0_1
  6
CONTINUOUS
 62
   18
 10
1409.2081584999996
 20
1202.324328499999
 40
1.6999999999999997
  0
LINE
  8
_0-0_1
  6
CONTINUOUS
 62
   18
 10
1408.1822485000002
 20
1204.6041324999969
 11
1429.7263505000001
 21
1156.7282344999985
  0
LINE
  8
_0-0_1
  6
CONTINUOUS
 62
   18
 10
1399.9749714999998
 20
1222.8425704999972
 11
1421.5190734999996
 21
1174.9666714999985
  0
CIRCLE
  8
_0-0_1
  6
CONTINUOUS
 62
   18
 10
1401.0008815000001
 20
1220.5627654999989
 40
1.6999999999999997
  0
LINE
  8
_0-0_1
  6
CONTINUOUS
 62
   18
 10
1401.0008815000001
 20
1220.5627654999989
 11
1656.3390074999998
 21
1335.4646434999995
  0
CIRCLE
  8
_0-0_1
  6
CONTINUOUS
 62
   18
 10
1656.3390074999998
 20
1335.4646434999995
 40
1.6999999999999997
  0
LINE
  8
_0-0_1
  6
CONTINUOUS
 62
   18
 10
1655.3130975000004
 20
1337.7444484999978
 11
1676.8571995000002
 21
1289.8685494999991
  0
LINE
  8
_0-0_1
  6
CONTINUOUS
 62
   18
 10
1647.1058204999999
 20
1355.9828854999978
 11
1668.6499224999998
 21
1308.1069874999994
  0
CIRCLE
  8
_0-0_1
  6
CONTINUOUS
 62
   18
 10
1648.1317305000002
 20
1353.7030814999998
 40
1.6999999999999997
  0
LINE
  8
_0-0_1
  6
CONTINUOUS
 62
   18
 10
1648.1317305000002
 20
1353.7030814999998
 11
1903.4698554999995
 21
1468.6049594999968
  0
CIRCLE
  8
_0-0_1
  6
CONTINUOUS
 62
   18
 10
1903.4698554999995
 20
1468.6049594999968
 40
1.6999999999999997
  0
LINE
  8
_0-0_1
  6
CONTINUOUS
 62
   18
 10
1902.4439464999996
 20
1470.8847644999987
 11
1923.9880485000003
 21
1423.0088655
  0
LINE
  8
_0-0_1
  6
CONTINUOUS
 62
   18
 10
1894.2366695000001
 20
1489.1232014999987
 11
1915.7807714999999
 21
1441.2473024999999
  0
CIRCLE
  8
_0-0_1
  6
CONTINUOUS
 62
   18
 10
1895.2625785
 20
1486.8433964999967
 40
1.6999999999999997
  0
LINE
  8
_0-0_1
  6
CONTINUOUS
 62
   18
 10
1895.2625785
 20
1486.8433964999967
 11
1991.1370845000001
 21
1529.9868194999981
  0
LINE
  8
_0-0_1
  6
CONTINUOUS
 62
   18
 10
928.14093150000008
 20
906.72257949999766
 11
939.42593750000015
 21
881.64472749999914
  0
CIRCLE
  8
_0-0_1
  6
CONTINUOUS
 62
   18
 10
929.16684150000037
 20
904.44277449999936
 40
1.6999999999999997
  0
LINE
  8
_0-0_1
  6
CONTINUOUS
 62
   18
 10
929.16684150000037
 20
904.44277449999936
 11
997.5613814999997
 21
935.22024349999992
  0
CIRCLE
  8
_0-0_1
  6
CONTINUOUS
 62
   18
 10
997.5613814999997
 20
935.22024349999992
 40
1.6999999999999997
  0
LINE
  8
_0-0_1
  6
CONTINUOUS
 62
   18
 10
996.53547249999974
 20
937.50004849999823
 11
1007.8204784999998
 21
912.4221964999997
  0
CIRCLE
  8
_0-0_1
  6
CONTINUOUS
 62
   18
 10
997.5613814999997
 20
935.22024349999992
 40
1.6999999999999997
  0
LINE
  8
_0-0_1
  6
CONTINUOUS
 62
   18
 10
997.5613814999997
 20
935.22024349999992
 11
1184.5049675
 21
1019.3446524999999
  0
CIRCLE
  8
_0-0_1
  6
CONTINUOUS
 62
   18
 10
1184.5049675
 20
1019.3446524999999
 40
1.6999999999999997
  0
LINE
  8
_0-0_1
  6
CONTINUOUS
 62
   18
 10
1183.4790574999997
 20
1021.6244574999982
 11
1194.7640634999998
 21
996.54660549999971
  0
CIRCLE
  8
_0-0_1
  6
CONTINUOUS
 62
   18
 10
1184.5049675
 20
1019.3446524999999
 40
1.6999999999999997
  0
LINE
  8
_0-0_1
  6
CONTINUOUS
 62
   18
 10
1184.5049675
 20
1019.3446524999999
 11
1239.2202795000003
 21
1043.9664834999967
  0
CIRCLE
  8
_0-0_1
  6
CONTINUOUS
 62
   18
 10
1239.2202795000003
 20
1043.9664834999967
 40
1.6999999999999997
  0
LINE
  8
_0-0_1
  6
CONTINUOUS
 62
   18
 10
1238.1943705000003
 20
1046.2462884999986
 11
1249.4793764999995
 21
1021.1684364999965
  0
LINE
  8
_0-0_1
  6
CONTINUOUS
 62
   18
 10
1620.5184364999996
 20
1126.7189414999993
 11
1622.4595794999996
 21
1119.4744984999998
  0
LINE
  8
_0-0_1
  6
CONTINUOUS
 62
   18
 10
1622.4595794999996
 20
1119.4744984999998
 11
1617.1562784999996
 21
1124.7777984999993
  0
LINE
  8
_0-0_1
  6
CONTINUOUS
 62
   18
 10
1622.4595794999996
 20
1119.4744984999998
 11
1568.5758935000003
 21
1212.8037804999985
  0
LINE
  8
_0-0_1
  6
CONTINUOUS
 62
   18
 10
1519.6703985000004
 20
1022.3531584999982
 11
1547.2408624999998
 21
1034.1798024999989
  0
LINE
  8
_0-0_1
  6
CONTINUOUS
 62
   18
 10
1547.2408624999998
 20
1034.1798024999989
 11
1541.3275404999995
 21
1047.9650344999973
  0
LINE
  8
_0-0_1
  6
CONTINUOUS
 62
   18
 10
1541.3275404999995
 20
1047.9650344999973
 11
1513.7570765
 21
1036.1383904999966
  0
LINE
  8
_0-0_1
  6
CONTINUOUS
 62
   18
 10
1513.7570765
 20
1036.1383904999966
 11
1519.6703985000004
 21
1022.3531584999982
  0
LINE
  8
_0-0_1
  6
CONTINUOUS
 62
   18
 10
1541.3275404999995
 20
1047.9650344999973
 11
1519.6703985000004
 21
1022.3531584999982
  0
LINE
  8
_0-0_1
  6
CONTINUOUS
 62
   18
 10
1774.6780625000001
 20
1136.9166714999992
 11
1802.3455645000004
 21
1148.5144884999972
  0
LINE
  8
_0-0_1
  6
CONTINUOUS
 62
   18
 10
1802.3455645000004
 20
1148.5144884999972
 11
1796.5466555000003
 21
1162.3482394999992
  0
LINE
  8
_0-0_1
  6
CONTINUOUS
 62
   18
 10
1796.5466555000003
 20
1162.3482394999992
 11
1768.8791545000004
 21
1150.7504224999975
  0
LINE
  8
_0-0_1
  6
CONTINUOUS
 62
   18
 10
1768.8791545000004
 20
1150.7504224999975
 11
1774.6780625000001
 21
1136.9166714999992
  0
LINE
  8
_0-0_1
  6
CONTINUOUS
 62
   18
 10
1796.5466555000003
 20
1162.3482394999992
 11
1774.6780625000001
 21
1136.9166714999992
  0
LINE
  8
_0-0_1
  6
CONTINUOUS
 62
   18
 10
2029.9968964999998
 20
1251.8614204999976
 11
2057.6643985000001
 21
1263.459236499999
  0
LINE
  8
_0-0_1
  6
CONTINUOUS
 62
   18
 10
2057.6643985000001
 20
1263.459236499999
 11
2051.8654895
 21
1277.2929874999973
  0
LINE
  8
_0-0_1
  6
CONTINUOUS
 62
   18
 10
2051.8654895
 20
1277.2929874999973
 11
2024.1979885000001
 21
1265.6951714999996
  0
LINE
  8
_0-0_1
  6
CONTINUOUS
 62
   18
 10
2024.1979885000001
 20
1265.6951714999996
 11
2029.9968964999998
 21
1251.8614204999976
  0
LINE
  8
_0-0_1
  6
CONTINUOUS
 62
   18
 10
2051.8654895
 20
1277.2929874999973
 11
2029.9968964999998
 21
1251.8614204999976
  0
LINE
  8
_0-0_1
  6
CONTINUOUS
 62
   18
 10
1266.4292054999996
 20
907.78206949999731
 11
1293.9996695
 21
919.60871349999798
  0
LINE
  8
_0-0_1
  6
CONTINUOUS
 62
   18
 10
1293.9996695
 20
919.60871349999798
 11
1288.0863474999996
 21
933.39394549999997
  0
LINE
  8
_0-0_1
  6
CONTINUOUS
 62
   18
 10
1288.0863474999996
 20
933.39394549999997
 11
1260.5158835000002
 21
921.5673014999993
  0
LINE
  8
_0-0_1
  6
CONTINUOUS
 62
   18
 10
1260.5158835000002
 20
921.5673014999993
 11
1266.4292054999996
 21
907.78206949999731
  0
LINE
  8
_0-0_1
  6
CONTINUOUS
 62
   18
 10
1288.0863474999996
 20
933.39394549999997
 11
1266.4292054999996
 21
907.78206949999731
  0
LINE
  8
_0-0_1
  6
CONTINUOUS
 62
   18
 10
1052.3337405000002
 20
812.97342449999996
 11
1036.5606834999999
 21
848.02479649999805
  0
LINE
  8
_0-0_1
  6
CONTINUOUS
 62
   18
 10
1073.0375574999998
 20
864.43935449999844
 11
1036.5606834999999
 21
848.02479649999805
  0
LINE
  8
_0-0_1
  6
CONTINUOUS
 62
   18
 10
1073.0375574999998
 20
864.43935449999844
 11
1089.4520924999997
 21
827.96247049999874
  0
LINE
  8
_0-0_1
  6
CONTINUOUS
 62
   18
 10
1073.0375574999998
 20
864.43935449999844
 11
1052.3337565000002
 21
812.97343249999903
  0
LINE
  8
_0-0_1
  6
CONTINUOUS
 62
   18
 10
1089.4520924999997
 20
827.96247049999874
 11
1036.5606834999999
 21
848.02479649999805
  0
LINE
  8
_0-0_1
  6
CONTINUOUS
 62
   18
 10
1070.9866464999996
 20
825.60966949999784
 11
1074.7366464999996
 21
832.10485949999929
  0
LINE
  8
_0-0_1
  6
CONTINUOUS
 62
   18
 10
1074.7366464999996
 20
832.10485949999929
 11
1074.7366464999996
 21
824.60485949999929
  0
LINE
  8
_0-0_1
  6
CONTINUOUS
 62
   18
 10
1074.7366464999996
 20
832.10485949999929
 11
1022.5926934999998
 21
637.50097849999656
  0
LINE
  8
_0-0_1
  6
CONTINUOUS
 62
   18
 10
1118.4492215
 20
699.67624849999993
 11
1122.1992215
 21
706.17143949999809
  0
LINE
  8
_0-0_1
  6
CONTINUOUS
 62
   18
 10
1122.1992215
 20
706.17143949999809
 11
1122.1992215
 21
698.67143949999809
  0
LINE
  8
_0-0_1
  6
CONTINUOUS
 62
   18
 10
1122.1992215
 20
706.17143949999809
 11
1085.7157255000002
 21
570.01318049999827
  0
LINE
  8
_0-0_1
  6
CONTINUOUS
 62
   18
 10
1831.5517104999999
 20
1019.8993674999983
 11
1769.5403175000001
 21
991.99457249999978
  0
LINE
  8
_0-0_1
  6
CONTINUOUS
 62
   18
 10
1838.1626145
 20
1017.3913884999965
 11
1838.9832964999996
 21
1015.5673895
  0
LINE
  8
_0-0_1
  6
CONTINUOUS
 62
   18
 10
1838.9832964999996
 20
1015.5673895
 11
1756.9104564999998
 21
978.63423549999789
  0
ARC
  8
_0-0_1
  6
CONTINUOUS
 62
   18
 10
1765.4372254999998
 20
1001.1160204999978
 40
10.001999
 50
204.23190399999996
 51
294.219134
  0
ARC
  8
_0-0_1
  6
CONTINUOUS
 62
   18
 10
1833.6040634999999
 20
1015.3406445000001
 40
4.9989999999999997
 50
24.224954
 51
114.23559500000002
  0
LINE
  8
_0-0_1
  6
CONTINUOUS
 62
   18
 10
1722.4645435000002
 20
1015.7722404999986
 11
1724.2043844999998
 21
1014.5190004999968
  0
LINE
  8
_0-0_1
  6
CONTINUOUS
 62
   18
 10
1705.5961264999996
 20
1030.1110354999983
 11
1714.7351465000002
 21
1016.678878499999
  0
LINE
  8
_0-0_1
  6
CONTINUOUS
 62
   18
 10
1711.1526455000003
 20
1032.6111754999984
 11
1720.2907004999997
 21
1019.178166499998
  0
LINE
  8
_0-0_1
  6
CONTINUOUS
 62
   18
 10
1705.5961264999996
 20
1030.1110354999983
 11
1704.5929404999997
 21
1027.4663604999987
  0
LINE
  8
_0-0_1
  6
CONTINUOUS
 62
   18
 10
1720.8237055
 20
1019.4189194999999
 11
1712.1618605000003
 21
1015.5208194999977
  0
LINE
  8
_0-0_1
  6
CONTINUOUS
 62
   18
 10
1705.5961264999996
 20
1030.1110354999983
 11
1712.1618605000003
 21
1015.5208194999977
  0
LINE
  8
_0-0_1
  6
CONTINUOUS
 62
   18
 10
1709.5164914999996
 20
1016.5235864999995
 11
1712.1618605000003
 21
1015.5208194999977
  0
LINE
  8
_0-0_1
  6
CONTINUOUS
 62
   18
 10
1704.5929404999997
 20
1027.4663604999987
 11
1709.5164914999996
 21
1016.5235864999995
  0
ARC
  8
_0-0_1
  6
CONTINUOUS
 62
   18
 10
1727.4249065000004
 20
1019.7573214999975
 40
6.1580000000000004
 50
169.90003899999999
 51
203.85469399999999
  0
LINE
  8
_0-0_1
  6
CONTINUOUS
 62
   18
 10
1721.8013785000003
 20
1061.5294824999983
 11
1719.9781114999996
 21
1060.7082914999992
  0
LINE
  8
_0-0_1
  6
CONTINUOUS
 62
   18
 10
1756.9102784999995
 20
978.63464849999946
 11
1719.9781114999996
 21
1060.7082914999992
  0
LINE
  8
_0-0_1
  6
CONTINUOUS
 62
   18
 10
1728.4131465
 20
1059.0209494999981
 11
1756.3172034999998
 21
997.01020549999885
  0
LINE
  8
_0-0_1
  6
CONTINUOUS
 62
   18
 10
1729.3966135000001
 20
1032.048843499997
 11
1726.6606265
 21
1030.8171994999975
  0
LINE
  8
_0-0_1
  6
CONTINUOUS
 62
   18
 10
1722.8310375000001
 20
1046.6391364999981
 11
1720.0952065000001
 21
1045.4075994999985
  0
LINE
  8
_0-0_1
  6
CONTINUOUS
 62
   18
 10
1733.2253305000004
 20
1016.2278904999985
 11
1720.0952065000001
 21
1045.4075994999985
  0
LINE
  8
_0-0_1
  6
CONTINUOUS
 62
   18
 10
1735.9621815
 20
1017.4587604999979
 11
1733.2253305000004
 21
1016.2278904999985
  0
LINE
  8
_0-0_1
  6
CONTINUOUS
 62
   18
 10
1721.3608734999998
 20
1020.8373244999966
 11
1729.5017854999996
 21
1024.5012684999965
  0
LINE
  8
_0-0_1
  6
CONTINUOUS
 62
   18
 10
1715.6756574999999
 20
1033.4721774999998
 11
1723.8164644999997
 21
1037.1348254999975
  0
LINE
  8
_0-0_1
  6
CONTINUOUS
 62
   18
 10
1712.8315515000004
 20
1039.789655499997
 11
1720.9739325
 21
1043.4536414999966
  0
LINE
  8
_0-0_1
  6
CONTINUOUS
 62
   18
 10
1712.6161105000001
 20
1037.6591834999999
 11
1712.8315515000004
 21
1039.789655499997
  0
LINE
  8
_0-0_1
  6
CONTINUOUS
 62
   18
 10
1722.4645435000002
 20
1015.7722404999986
 11
1712.6161105000001
 21
1037.6591834999999
  0
LINE
  8
_0-0_1
  6
CONTINUOUS
 62
   18
 10
1724.2043844999998
 20
1014.5190004999968
 11
1732.3457884999998
 21
1018.1824444999984
  0
LINE
  8
_0-0_1
  6
CONTINUOUS
 62
   18
 10
1743.9715095000001
 20
1046.2041224999994
 11
1735.8306935000001
 21
1042.5402834999986
  0
LINE
  8
_0-0_1
  6
CONTINUOUS
 62
   18
 10
1749.6570345
 20
1033.5692834999973
 11
1741.5153074999998
 21
1029.9059254999993
  0
LINE
  8
_0-0_1
  6
CONTINUOUS
 62
   18
 10
1752.5008214999998
 20
1027.2517914999989
 11
1744.3588104999999
 21
1023.5877904999979
  0
LINE
  8
_0-0_1
  6
CONTINUOUS
 62
   18
 10
1752.7164844999998
 20
1029.382212499997
 11
1752.5008214999998
 21
1027.2517914999989
  0
LINE
  8
_0-0_1
  6
CONTINUOUS
 62
   18
 10
1742.8678375
 20
1051.2692465
 11
1752.7164844999998
 21
1029.382212499997
  0
LINE
  8
_0-0_1
  6
CONTINUOUS
 62
   18
 10
1741.1284224999999
 20
1052.5223544999972
 11
1732.9868484999997
 21
1048.8591334999983
  0
LINE
  8
_0-0_1
  6
CONTINUOUS
 62
   18
 10
1742.8678375
 20
1051.2692465
 11
1741.1284224999999
 21
1052.5223544999972
  0
LINE
  8
_0-0_1
  6
CONTINUOUS
 62
   18
 10
1714.2587874999999
 20
1034.0085594999982
 11
1705.5961264999996
 21
1030.1110354999983
  0
ARC
  8
_0-0_1
  6
CONTINUOUS
 62
   18
 10
1723.8543794999996
 20
1056.9703264999989
 40
4.9989999999999997
 50
24.224954
 51
114.23559500000002
  0
ARC
  8
_0-0_1
  6
CONTINUOUS
 62
   18
 10
1718.8793265000004
 20
1038.7213144999987
 40
6.1470010000000013
 50
204.58611400000004
 51
238.59338400000001
  0
ARC
  8
_0-0_1
  6
CONTINUOUS
 62
   18
 10
1738.4219505000001
 20
1036.112611499997
 40
22.898997999999999
 50
186.62355400000004
 51
221.83907400000001
  0
ARC
  8
_0-0_1
  6
CONTINUOUS
 62
   18
 10
1746.4504754999998
 20
1028.3212544999988
 40
6.1479999999999997
 50
24.562933999999998
 51
58.577674000000009
  0
ARC
  8
_0-0_1
  6
CONTINUOUS
 62
   18
 10
1737.9182675000002
 20
1047.2836024999997
 40
6.1479999999999997
 50
349.89966399999997
 51
23.901923999999994
  0
ARC
  8
_0-0_1
  6
CONTINUOUS
 62
   18
 10
1726.8739644999996
 20
1030.9138384999969
 40
22.936000999999997
 50
6.651644000000001
 51
41.808413999999999
  0
LINE
  8
_0-0_1
  6
CONTINUOUS
 62
   18
 10
1674.0938994999997
 20
1089.4061494999987
 11
1683.2141394999999
 21
1093.5103604999968
  0
LINE
  8
_0-0_1
  6
CONTINUOUS
 62
   18
 10
1675.3262855000003
 20
1086.6707614999978
 11
1684.4442655000003
 21
1090.7744434999986
  0
LINE
  8
_0-0_1
  6
CONTINUOUS
 62
   18
 10
1683.2141394999999
 20
1093.5103604999968
 11
1684.4442655000003
 21
1090.7744434999986
  0
LINE
  8
_0-0_1
  6
CONTINUOUS
 62
   18
 10
1674.0938994999997
 20
1089.4061494999987
 11
1675.3262855000003
 21
1086.6707614999978
  0
LINE
  8
_0-0_1
  6
CONTINUOUS
 62
   18
 10
1678.6539174999998
 20
1091.4582354999984
 11
1679.8857145000002
 21
1088.7221784999965
  0
LINE
  8
_0-0_1
  6
CONTINUOUS
 62
   18
 10
1697.0550995000003
 20
1050.5656724999972
 11
1696.5810334999996
 21
1056.4935404999997
  0
LINE
  8
_0-0_1
  6
CONTINUOUS
 62
   18
 10
1697.0550995000003
 20
1050.5656724999972
 11
1692.9337855000003
 21
1054.851602499999
  0
LINE
  8
_0-0_1
  6
CONTINUOUS
 62
   18
 10
1689.3793795000001
 20
1075.511406499998
 11
1682.8842255
 21
1073.7477104999998
  0
LINE
  8
_0-0_1
  6
CONTINUOUS
 62
   18
 10
1691.4316925000003
 20
1070.9513504999995
 11
1684.9355194999998
 21
1069.1869004999971
  0
LINE
  8
_0-0_1
  6
CONTINUOUS
 62
   18
 10
1693.4824705000001
 20
1066.3913294999984
 11
1686.9885624999997
 21
1064.6275294999978
  0
LINE
  8
_0-0_1
  6
CONTINUOUS
 62
   18
 10
1695.5353105000004
 20
1061.8318624999993
 11
1689.0399495000001
 21
1060.0682274999999
  0
LINE
  8
_0-0_1
  6
CONTINUOUS
 62
   18
 10
1697.0703695000002
 20
1058.419443499999
 11
1690.5752885000002
 21
1056.6559824999968
  0
LINE
  8
_0-0_1
  6
CONTINUOUS
 62
   18
 10
1679.2909385000003
 20
1085.1674774999992
 11
1692.9337855000003
 21
1054.851602499999
  0
LINE
  8
_0-0_1
  6
CONTINUOUS
 62
   18
 10
1675.3262855000003
 20
1086.6707614999978
 11
1679.2909385000003
 21
1085.1674774999992
  0
LINE
  8
_0-0_1
  6
CONTINUOUS
 62
   18
 10
1682.9397835
 20
1086.8064574999989
 11
1696.5810334999996
 21
1056.4935404999997
  0
LINE
  8
_0-0_1
  6
CONTINUOUS
 62
   18
 10
1684.4442655000003
 20
1090.7744434999986
 11
1682.9397835
 21
1086.8064574999989
  0
LINE
  8
_0-0_1
  6
CONTINUOUS
 62
   18
 10
1676.0740345000004
 20
1040.9509664999969
 11
1673.9766405
 21
1040.0070164999997
  0
LINE
  8
_0-0_1
  6
CONTINUOUS
 62
   18
 10
1700.6960415000003
 20
986.2356964999999
 11
1698.5986055000003
 21
985.29171749999659
  0
LINE
  8
_0-0_1
  6
CONTINUOUS
 62
   18
 10
1708.3879395000004
 20
1074.9018734999991
 11
1670.6344115000002
 21
1057.9126114999999
  0
LINE
  8
_0-0_1
  6
CONTINUOUS
 62
   18
 10
1676.0740345000004
 20
1040.9509664999969
 11
1669.6312674999999
 21
1055.2680444999969
  0
LINE
  8
_0-0_1
  6
CONTINUOUS
 62
   18
 10
1707.1387525
 20
971.91858849999699
 11
1700.6960415000003
 21
986.2356964999999
  0
LINE
  8
_0-0_1
  6
CONTINUOUS
 62
   18
 10
1747.5369504999999
 20
987.90448249999827
 11
1709.7835395000002
 21
970.91538549999677
  0
LINE
  8
_0-0_1
  6
CONTINUOUS
 62
   18
 10
1673.9766405
 20
1040.0070164999997
 11
1667.5339645000004
 21
1054.3241595
  0
LINE
  8
_0-0_1
  6
CONTINUOUS
 62
   18
 10
1707.4442595
 20
1076.9992304999978
 11
1669.6906874999995
 21
1060.010009499998
  0
LINE
  8
_0-0_1
  6
CONTINUOUS
 62
   18
 10
1705.0412964999996
 20
970.97455949999858
 11
1698.5986055000003
 21
985.29171749999659
  0
LINE
  8
_0-0_1
  6
CONTINUOUS
 62
   18
 10
1748.4807254999996
 20
985.80702149999706
 11
1710.7272835000003
 21
968.81803649999711
  0
LINE
  8
_0-0_1
  6
CONTINUOUS
 62
   18
 10
1748.5399795000003
 20
990.54916049999883
 11
1711.0324554999997
 21
1073.8987924999965
  0
LINE
  8
_0-0_1
  6
CONTINUOUS
 62
   18
 10
1713.1299134999999
 20
1074.8423754999967
 11
1750.6373795
 21
991.49279949999982
  0
ARC
  8
_0-0_1
  6
CONTINUOUS
 62
   18
 10
1671.4552144999998
 20
1056.0887784999977
 40
2.000003
 50
114.227773
 51
204.22776400000001
  0
ARC
  8
_0-0_1
  6
CONTINUOUS
 62
   18
 10
1708.9627355000002
 20
972.7392884999972
 40
2.000003
 50
204.22776400000001
 51
294.22776399999998
  0
ARC
  8
_0-0_1
  6
CONTINUOUS
 62
   18
 10
1708.9627355000002
 20
972.7392884999972
 40
4.2999999999999998
 50
204.22776400000001
 51
294.22776399999998
  0
ARC
  8
_0-0_1
  6
CONTINUOUS
 62
   18
 10
1671.4552144999998
 20
1056.0887784999977
 40
4.2999999999999998
 50
114.227773
 51
204.22776400000001
  0
ARC
  8
_0-0_1
  6
CONTINUOUS
 62
   18
 10
1709.2085694999996
 20
1073.077847499997
 40
2.000003
 50
24.227764000000004
 51
114.22777300000001
  0
ARC
  8
_0-0_1
  6
CONTINUOUS
 62
   18
 10
1746.7161694999995
 20
989.72829449999699
 40
2.000003
 50
294.22776399999998
 51
24.227763999999983
  0
ARC
  8
_0-0_1
  6
CONTINUOUS
 62
   18
 10
1746.7161694999995
 20
989.72829449999699
 40
4.2999999999999998
 50
294.22776399999998
 51
24.227763999999983
  0
ARC
  8
_0-0_1
  6
CONTINUOUS
 62
   18
 10
1709.2085694999996
 20
1073.077847499997
 40
4.2999999999999998
 50
24.227764000000004
 51
114.22777300000001
  0
LINE
  8
_0-0_1
  6
CONTINUOUS
 62
   18
 10
1534.7899134999998
 20
1026.9178854999991
 11
1532.8487704999998
 21
1034.162329499999
  0
LINE
  8
_0-0_1
  6
CONTINUOUS
 62
   18
 10
1532.8487704999998
 20
1034.162329499999
 11
1538.1520714999997
 21
1028.8590284999991
  0
LINE
  8
_0-0_1
  6
CONTINUOUS
 62
   18
 10
1532.8487704999998
 20
1034.162329499999
 11
1717.7867575
 21
713.84033849999832
  0
LINE
  8
_0-0_1
  6
CONTINUOUS
 62
   18
 10
1683.3537225
 20
773.80223349999869
 11
1919.4788595
 21
773.80223349999869
  0
LINE
  8
_0-0_1
  6
CONTINUOUS
 62
   18
 10
1665.6770815
 20
803.78318149999905
 11
1858.0697694999999
 21
803.78318149999905
  0
TEXT
  8
_0-2_3
 62
    7
 10
1758.6188302750497
 20
1412.0400135517868
 40
20
 41
1
 50
24.227692999999942
  1
280
  0
TEXT
  8
_0-2_3
 62
    7
 10
1515.4522741173171
 20
1290.4567354729204
 40
20
 41
1
 50
24.227693000000016
  1
280
  0
TEXT
  8
_0-2_3
 62
    7
 10
1275.2877742084447
 20
1150.8611199008885
 40
20
 41
1
 50
24.227693000000027
  1
280
  0
TEXT
  8
_0-2_3
 62
    7
 10
1029.1191618018511
 20
1021.7727011998699
 40
20
 41
1
 50
24.227692999999988
  1
280
  0
TEXT
  8
_0-2_3
 62
    7
 10
954.06775558032848
 20
922.70484498746009
 40
20
 41
1
 50
24.227692999999988
  1
75
  0
TEXT
  8
_0-2_3
 62
    7
 10
1086.1582305302081
 20
985.74802621353911
 40
20
 41
1
 50
24.227692999999988
  1
205
  0
TEXT
  8
_0-2_3
 62
    7
 10
1204.7394523602136
 20
1035.281954319744
 40
20
 41
1
 50
24.227693000000013
  1
60
  0
TEXT
  8
_0-2_3
 62
    7
 10
1504.9450772463038
 20
1216.9063573758283
 40
20
 41
1
 50
0
  1
桟　瓦
  0
TEXT
  8
_0-2_3
 62
    7
 10
1671.5591990580838
 20
811.62876377960686
 40
20
 41
1
 50
0
  1
瓦桟：15x30以上
  0
TEXT
  8
_0-2_3
 62
    7
 10
1685.0684521779579
 20
775.60408879327599
 40
20
 41
1
 50
0
  1
下葺材：ルーフィング
  0
TEXT
  8
_0-2_3
 62
    7
 10
1697.0766771734015
 20
748.58558255352796
 40
20
 41
1
 50
0
  1
野地板：硬質木片セメントパネルｔ＝２５
  0
TEXT
  8
_0-2_3
 62
    7
 10
1715.0890146665668
 20
715.56296381605785
 40
20
 41
1
 50
0
  1
鋼製：C100x50x20x2.3@606　
  0
LINE
  8
_0-0_1
  6
CONTINUOUS
 62
   18
 10
1717.7867575
 20
713.84033849999832
 11
1991.2781895617695
 21
713.84033849999832
  0
LINE
  8
_0-0_1
  6
CONTINUOUS
 62
   18
 10
1701.0054115000003
 20
742.90648249999867
 11
2130.8738051338014
 21
742.90648249999867
  0
TEXT
  8
_0-2_3
 62
    7
 10
865.50709623893181
 20
640.51155759453536
 40
20
 41
1
 50
0
  1
　瓦座：40x40　
  0
TEXT
  8
_0-2_3
 62
    7
 10
745.42484628449574
 20
574.46632011959559
 40
20
 41
1
 50
0
  1
破風板：薄型ALCパネル　t＝50　
  0
LINE
  8
_0-0_1
  6
CONTINUOUS
 62
   18
 10
1085.7157255000002
 20
570.01318049999827
 11
737.91970566234352
 21
570.01318049999827
  0
LINE
  8
_0-0_1
  6
CONTINUOUS
 62
   18
 10
1022.5926934999998
 20
637.50097849999656
 11
891.02457435424935
 21
637.50097849999656
  0
LINE
  8
_0-0_1
  6
CONTINUOUS
 62
   18
 10
1568.5758935000003
 20
1212.8037804999985
 11
1497.4399366241516
 21
1212.8037804999985
  0
ENDSEC
  0
EOF
