  0
SECTION
  2
HEADER
  9
$ACADVER
  1
AC1009
  9
$INSBASE
 10
0
 20
0
 30
0
  9
$EXTMIN
 10
0
 20
0
  9
$EXTMAX
 10
2970
 20
2100
  9
$LIMMIN
 10
0
 20
0
  9
$LIMMAX
 10
2970
 20
2100
  9
$LTSCALE
 40
10
  0
ENDSEC
  0
SECTION
  2
TABLES
  0
TABLE
  2
LTYPE
 70
     9
  0
LTYPE
  2
CONTINUOUS
 70
    64
  3
実線
 72
    65
 73
     0
 40
0.0
  0
LTYPE
  2
DASHED1
 70
    64
  3
--  --  --  --  --  --  --  --  
 72
    65
 73
     2
 40
2.5
 49
1.25
 49
-1.25
  0
LTYPE
  2
DASHED2
 70
    64
  3
----    ----    ----    ----    
 72
    65
 73
     2
 40
5.0
 49
2.5
 49
-2.5
  0
LTYPE
  2
DASHED3
 70
    64
  3
------  ------  ------  ------  
 72
    65
 73
     2
 40
5.0
 49
3.75
 49
-1.25
  0
LTYPE
  2
CENTER1
 70
    64
  3
----- - ----- - ----- - ----- - 
 72
    65
 73
     4
 40
10.0
 49
6.25
 49
-1.25
 49
1.25
 49
-1.25
  0
LTYPE
  2
CENTER2
 70
    64
  3
----------  --  ----------  --  
 72
    65
 73
     4
 40
20.0
 49
12.5
 49
-2.5
 49
2.5
 49
-2.5
  0
LTYPE
  2
PHANTOM1
 70
    64
  3
--- - - --- - - --- - - --- - - 
 72
    65
 73
     6
 40
10.0
 49
3.25
 49
-1.25
 49
1.25
 49
-1.25
 49
1.25
 49
-1.25
  0
LTYPE
  2
PHANTOM2
 70
    64
  3
--------  -  -  --------  -  -  
 72
    65
 73
     6
 40
20.0
 49
10.0
 49
-2.5
 49
1.25
 49
-2.5
 49
1.25
 49
-2.5
  0
LTYPE
  2
DOT
 70
    64
  3
-   -   -   -   -   -   -   -   
 72
    65
 73
     2
 40
2.5
 49
0.625
 49
-1.875
  0
LTYPE
  2
DUMMY
 70
    64
  3
ダミー
 72
    65
 73
     0
 40
0.0
  0
LTYPE
  2
RAND1
 70
    64
  3
ランダム線1
 72
    65
 73
     4
 40
10.0
 49
1.0
 49
-2.0
 49
3.0
 49
-4.0
  0
LTYPE
  2
RAND2
 70
    64
  3
ランダム線2
 72
    65
 73
     4
 40
14.0
 49
2.0
 49
-3.0
 49
4.0
 49
-5.0
  0
LTYPE
  2
RAND3
 70
    64
  3
ランダム線3
 72
    65
 73
     4
 40
18.0
 49
3.0
 49
-4.0
 49
5.0
 49
-6.0
  0
LTYPE
  2
RAND4
 70
    64
  3
ランダム線4
 72
    65
 73
     4
 40
22.0
 49
4.0
 49
-5.0
 49
6.0
 49
-7.0
  0
LTYPE
  2
RAND5
 70
    64
  3
ランダム線5
 72
    65
 73
     4
 40
26.0
 49
5.0
 49
-6.0
 49
7.0
 49
-8.0
  0
LTYPE
  2
LONG1
 70
    64
  3
----------  --  ----------  --  
 72
    65
 73
     4
 40
40.0
 49
32.5
 49
-2.5
 49
2.5
 49
-2.5
  0
LTYPE
  2
LONG2
 70
    64
  3
--------  -  -  --------  -  -  
 72
    65
 73
     6
 40
40.0
 49
30.0
 49
-2.5
 49
1.25
 49
-2.5
 49
1.25
 49
-2.5
  0
LTYPE
  2
LONG3
 70
    64
  3
+++++++++++++++..+++++++++++++++
 72
    65
 73
     2
 40
40.0
 49
37.5
 49
-2.5
  0
LTYPE
  2
LONG4
 70
    64
  3
+++++++++++++++..+++++++++++++++
 72
    65
 73
     2
 40
80.0
 49
75.0
 49
-5.0
  0
LTYPE
  2
LONG5
 70
    64
  3
----------  --  ----------  --  
 72
    65
 73
     4
 40
60.0
 49
37.5
 49
-7.5
 49
7.5
 49
-7.5
  0
LTYPE
  2
dashed
 70
   64
  3
-------   -------------   ------
 72
   65
 73
    2
 40
7.5
 49
6
 49
-1.5
  0
LTYPE
  2
dashed_spaced
 70
   64
  3
----        --------        ----
 72
   65
 73
    2
 40
12
 49
6
 49
-6
  0
LTYPE
  2
long_dashed_dotted
 70
   64
  3
------------- --- --------------
 72
   65
 73
    4
 40
15.25
 49
12
 49
-1.5
 49
0.25
 49
-1.5
  0
LTYPE
  2
long_dashed_double-dotted
 70
   64
  3
----------- --- --- ------------
 72
   65
 73
    6
 40
17
 49
12
 49
-1.5
 49
0.25
 49
-1.5
 49
0.25
 49
-1.5
  0
LTYPE
  2
long_dashed_triplicate-dotted
 70
   64
  3
--------- --- --- --- ----------
 72
   65
 73
    8
 40
18.75
 49
12
 49
-1.5
 49
0.25
 49
-1.5
 49
0.25
 49
-1.5
 49
0.25
 49
-1.5
  0
LTYPE
  2
dotted
 70
   64
  3
   -       -       -       -    
 72
   65
 73
    2
 40
1.75
 49
0.25
 49
-1.5
  0
LTYPE
  2
chain
 70
   64
  3
-------------- -- --------------
 72
   65
 73
    4
 40
18.5
 49
12
 49
-1.5
 49
3.5
 49
-1.5
  0
LTYPE
  2
chain_double_dash
 70
   64
  3
------------ -- -- -------------
 72
   65
 73
    6
 40
23.5
 49
12
 49
-1.5
 49
3.5
 49
-1.5
 49
3.5
 49
-1.5
  0
LTYPE
  2
dashed_dotted
 70
   64
  3
-----------     -     ----------
 72
   65
 73
    4
 40
9.25
 49
6
 49
-1.5
 49
0.25
 49
-1.5
  0
LTYPE
  2
double-dashed_dotted
 70
   64
  3
------   -----------   -   -----
 72
   65
 73
    6
 40
16.75
 49
6
 49
-1.5
 49
6
 49
-1.5
 49
0.25
 49
-1.5
  0
LTYPE
  2
dashed_double-dotted
 70
   64
  3
---------    -    -    ---------
 72
   65
 73
    6
 40
11
 49
6
 49
-1.5
 49
0.25
 49
-1.5
 49
0.25
 49
-1.5
  0
LTYPE
  2
double-dashed_double-dotted
 70
   64
  3
-----   ---------   -   -   ----
 72
   65
 73
    8
 40
18.5
 49
6
 49
-1.5
 49
6
 49
-1.5
 49
0.25
 49
-1.5
 49
0.25
 49
-1.5
  0
LTYPE
  2
dashed_triplicate-dotted
 70
   64
  3
-------    -    -    -    ------
 72
   65
 73
    8
 40
12.75
 49
6
 49
-1.5
 49
0.25
 49
-1.5
 49
0.25
 49
-1.5
 49
0.25
 49
-1.5
  0
LTYPE
  2
double-dashed_triplicate-dotted
 70
   64
  3
-----  ---------  -  -  -  -----
 72
   65
 73
   10
 40
20.25
 49
6
 49
-1.5
 49
6
 49
-1.5
 49
0.25
 49
-1.5
 49
0.25
 49
-1.5
 49
0.25
 49
-1.5
  0
LTYPE
  2
undefined
 70
   64
  3
--------------------------------
 72
   65
 73
    0
 40
0
  0
LTYPE
  2
HIDDEN
 70
   64
  3
----        --------        ----
 72
   65
 73
    2
 40
2
 49
1
 49
-1
  0
LTYPE
  2
DASHED
 70
   64
  3
-------   -------------   ------
 72
   65
 73
    2
 40
10
 49
8
 49
-2
  0
LTYPE
  2
CENTER
 70
   64
  3
------------   ---   -----------
 72
   65
 73
    4
 40
20
 49
14
 49
-2
 49
2
 49
-2
  0
LTYPE
  2
PHANTOM
 70
   64
  3
---------   ---   ---   --------
 72
   65
 73
    6
 40
20
 49
10
 49
-2
 49
2
 49
-2
 49
2
 49
-2
  0
ENDTAB
  0
TABLE
  2
STYLE
  5
3
100
AcDbSymbolTable
 70
     1
  0
STYLE
  5
10
100
AcDbSymbolTableRecord
100
AcDbTextStyleTableRecord
  2
STANDARD
 70
     0
 40
0.0
 41
1.0
 50
0.0
 71
     0
 42
0.2
  3
txt
  4
bigfont.shx
  0
STYLE
  5
26
100
AcDbSymbolTableRecord
100
AcDbTextStyleTableRecord
  2
TATEGAKI
 70
    68
 40
0.0
 41
1.0
 50
0.0
 71
     0
 42
1.0
  3
txt
  4
bigfont.shx
  0
ENDTAB
  0
TABLE
  2
LAYER
 70
    5
  0
LAYER
  2
_0-0_1
 70
   64
 62
    7
  6
CONTINUOUS
  0
LAYER
  2
_0-1_2
 70
   64
 62
    7
  6
CONTINUOUS
  0
LAYER
  2
_0-2_3
 70
   64
 62
    7
  6
CONTINUOUS
  0
LAYER
  2
_0-3_4
 70
   64
 62
    7
  6
CONTINUOUS
  0
LAYER
  2
ADD_LINE
 70
   64
 62
    7
  6
CONTINUOUS
  0
ENDTAB
  0
ENDSEC
  0
SECTION
  2
BLOCKS
  0
ENDSEC
  0
SECTION
  2
ENTITIES
  0
LINE
  8
_0-0_1
  6
CONTINUOUS
 62
    1
 10
2193.5043610000012
 20
1041.637006500001
 11
1084.9158900000002
 21
1041.637006500001
  0
LINE
  8
_0-0_1
  6
CONTINUOUS
 62
    1
 10
2193.5043610000012
 20
1044.137006500001
 11
1084.9158900000002
 21
1044.137006500001
  0
LINE
  8
_0-0_1
  6
CONTINUOUS
 62
    1
 10
2193.5043610000012
 20
1046.637006500001
 11
1084.9158900000002
 21
1046.637006500001
  0
LINE
  8
_0-0_1
  6
CONTINUOUS
 62
    1
 10
2193.5043610000012
 20
1049.137006500001
 11
1084.9158900000002
 21
1049.137006500001
  0
LINE
  8
_0-0_1
  6
CONTINUOUS
 62
    1
 10
2193.5043610000012
 20
1051.637006500001
 11
1084.9158900000002
 21
1051.637006500001
  0
LINE
  8
_0-0_1
  6
CONTINUOUS
 62
    1
 10
2193.5043610000012
 20
1054.137006500001
 11
1084.9158900000002
 21
1054.137006500001
  0
LINE
  8
_0-0_1
  6
CONTINUOUS
 62
    1
 10
2193.5043610000012
 20
1056.637006500001
 11
1084.9158900000002
 21
1056.637006500001
  0
LINE
  8
_0-0_1
  6
CONTINUOUS
 62
    1
 10
2193.5043610000012
 20
1059.137006500001
 11
1084.9158900000002
 21
1059.137006500001
  0
LINE
  8
_0-0_1
  6
CONTINUOUS
 62
    1
 10
2193.5043610000012
 20
1061.637006500001
 11
1084.9158900000002
 21
1061.637006500001
  0
LINE
  8
_0-2_3
  6
DASHED
 62
    2
 10
1084.9158900000002
 20
1066.1369764999981
 11
2193.5043610000012
 21
1066.1369764999981
  0
LINE
  8
_0-1_2
  6
CONTINUOUS
 62
    2
 10
1192.9158800000005
 20
1067.6369764999981
 11
1192.9158800000005
 21
1082.6369764999981
  0
LINE
  8
_0-1_2
  6
CONTINUOUS
 62
    2
 10
1197.616750000001
 20
959.1368865000004
 11
1199.916290000001
 21
959.13680649999878
  0
LINE
  8
_0-1_2
  6
CONTINUOUS
 62
    2
 10
1197.6159100000004
 20
1019.1370165000008
 11
1199.9164500000006
 21
1019.1366464999992
  0
LINE
  8
_0-1_2
  6
CONTINUOUS
 62
    2
 10
1197.6166400000002
 20
1034.1376664999989
 11
1197.6159100000004
 21
1019.1370165000008
  0
LINE
  8
_0-1_2
  6
CONTINUOUS
 62
    2
 10
1154.9172300000009
 20
1036.8386165000011
 11
1194.9162100000012
 21
1036.8377064999986
  0
LINE
  8
_0-1_2
  6
CONTINUOUS
 62
    2
 10
1194.9171600000009
 20
1039.1368464999978
 11
1154.9162800000013
 21
1039.1375364999985
  0
LINE
  8
_0-1_2
  6
CONTINUOUS
 62
    2
 10
1199.9167600000001
 20
1034.1373265000002
 11
1199.9164500000006
 21
1019.1366464999992
  0
LINE
  8
_0-1_2
  6
CONTINUOUS
 62
    2
 10
1149.9145200000003
 20
944.13678649999929
 11
1149.91662
 21
1034.1376664999989
  0
LINE
  8
_0-1_2
  6
CONTINUOUS
 62
    2
 10
1194.9162100000012
 20
939.13625649999813
 11
1154.9141799999998
 21
939.13715650000086
  0
LINE
  8
_0-1_2
  6
CONTINUOUS
 62
    2
 10
1199.9158700000007
 20
944.13596649999818
 11
1199.916290000001
 21
959.13680649999878
  0
LINE
  8
_0-1_2
  6
CONTINUOUS
 62
    2
 10
1197.6165900000015
 20
944.13604649999979
 11
1197.616750000001
 21
959.1368865000004
  0
LINE
  8
_0-1_2
  6
CONTINUOUS
 62
    2
 10
1154.9154400000007
 20
941.43627650000053
 11
1194.9163200000003
 21
941.43569650000063
  0
LINE
  8
_0-1_2
  6
CONTINUOUS
 62
    2
 10
1152.2150099999999
 20
944.13636649999899
 11
1152.2174300000006
 21
1034.1381965
  0
LINE
  8
_0-3_4
  6
CONTINUOUS
 62
    2
 10
1149.9158900000002
 20
1039.137006500001
 11
1149.9158900000002
 21
872.41938450000089
  0
LINE
  8
_0-3_4
  6
CONTINUOUS
 62
    2
 10
1099.9159600000003
 20
1039.137006500001
 11
1099.9159600000003
 21
872.41938450000089
  0
LINE
  8
_0-3_4
  6
CONTINUOUS
 62
    2
 10
1149.9148400000013
 20
956.99754649999886
 11
1099.9159600000003
 21
1006.9965264999992
  0
LINE
  8
_0-3_4
  6
CONTINUOUS
 62
    2
 10
1149.9146799999999
 20
952.75493650000135
 11
1099.9159600000003
 21
1002.7538165000005
  0
LINE
  8
_0-1_2
  6
CONTINUOUS
 62
    2
 10
1099.91554
 20
994.13786650000111
 11
1099.9162800000013
 21
984.13681649999853
  0
LINE
  8
_0-1_2
  6
CONTINUOUS
 62
    2
 10
1102.9157000000014
 20
994.13694649999888
 11
1102.9161199999999
 21
984.13802650000071
  0
LINE
  8
_0-1_2
  6
CONTINUOUS
 62
    2
 10
1099.9162800000013
 20
984.13681649999853
 11
1102.9161199999999
 21
984.13802650000071
  0
LINE
  8
_0-1_2
  6
CONTINUOUS
 62
    2
 10
1099.91554
 20
994.13786650000111
 11
1102.9157000000014
 21
994.13694649999888
  0
LINE
  8
_0-1_2
  6
CONTINUOUS
 62
    2
 10
1099.9159600000003
 20
989.13726649999808
 11
1102.91633
 21
989.13726649999808
  0
LINE
  8
_0-1_2
  6
CONTINUOUS
 62
    2
 10
1164.9158000000007
 20
989.14350650000051
 11
1159.315630000001
 21
987.14275650000127
  0
LINE
  8
_0-1_2
  6
CONTINUOUS
 62
    2
 10
1164.9158000000007
 20
989.14350650000051
 11
1159.3158400000011
 21
991.14279650000026
  0
LINE
  8
_0-1_2
  6
CONTINUOUS
 62
    2
 10
1119.0180099999998
 20
985.90143650000027
 11
1117.9602900000009
 21
992.54828650000127
  0
LINE
  8
_0-1_2
  6
CONTINUOUS
 62
    2
 10
1129.0185900000015
 20
985.90335649999906
 11
1127.960860000001
 21
992.55022649999955
  0
LINE
  8
_0-1_2
  6
CONTINUOUS
 62
    2
 10
1139.0175900000013
 20
985.90392649999922
 11
1137.9598600000008
 21
992.5506764999991
  0
LINE
  8
_0-1_2
  6
CONTINUOUS
 62
    2
 10
1149.0181600000014
 20
985.90576650000003
 11
1147.9611199999999
 21
992.55132650000087
  0
LINE
  8
_0-1_2
  6
CONTINUOUS
 62
    2
 10
1157.7601700000014
 20
985.90592649999962
 11
1156.70255
 21
992.5528564999986
  0
LINE
  8
_0-1_2
  6
CONTINUOUS
 62
    2
 10
1105.9137600000013
 20
991.13841649999813
 11
1159.3158400000011
 21
991.14279650000026
  0
LINE
  8
_0-1_2
  6
CONTINUOUS
 62
    2
 10
1102.9157000000014
 20
994.13694649999888
 11
1105.9137600000013
 21
991.13841649999813
  0
LINE
  8
_0-1_2
  6
CONTINUOUS
 62
    2
 10
1105.9166000000005
 20
987.13831650000066
 11
1159.315630000001
 21
987.14275650000127
  0
LINE
  8
_0-1_2
  6
CONTINUOUS
 62
    2
 10
1102.9161199999999
 20
984.13802650000071
 11
1105.9166000000005
 21
987.13831650000066
  0
LINE
  8
_0-1_2
  6
CONTINUOUS
 62
    2
 10
1179.9111000000012
 20
1064.1373265000002
 11
1169.9100500000004
 21
1064.1366464999992
  0
LINE
  8
_0-1_2
  6
CONTINUOUS
 62
    2
 10
1179.91021
 20
1061.1372664999981
 11
1169.9112600000008
 21
1061.136796499999
  0
LINE
  8
_0-1_2
  6
CONTINUOUS
 62
    2
 10
1169.9100500000004
 20
1064.1366464999992
 11
1169.9112600000008
 21
1061.136796499999
  0
LINE
  8
_0-1_2
  6
CONTINUOUS
 62
    2
 10
1179.9111000000012
 20
1064.1373265000002
 11
1179.91021
 21
1061.1372664999981
  0
LINE
  8
_0-1_2
  6
CONTINUOUS
 62
    2
 10
1174.9105
 20
1064.137006500001
 11
1174.9105
 21
1061.1366364999994
  0
LINE
  8
_0-1_2
  6
CONTINUOUS
 62
    2
 10
1174.9167400000006
 20
1024.1371964999998
 11
1172.9159900000013
 21
1029.7373665000014
  0
LINE
  8
_0-1_2
  6
CONTINUOUS
 62
    2
 10
1174.9167400000006
 20
1024.1371964999998
 11
1176.9160800000009
 21
1029.7371364999999
  0
LINE
  8
_0-1_2
  6
CONTINUOUS
 62
    2
 10
1171.6765900000009
 20
1060.0343064999979
 11
1178.3235100000002
 21
1061.0920364999984
  0
LINE
  8
_0-1_2
  6
CONTINUOUS
 62
    2
 10
1171.6771600000011
 20
1050.0353665000002
 11
1178.3239300000005
 21
1051.0930865000009
  0
LINE
  8
_0-1_2
  6
CONTINUOUS
 62
    2
 10
1171.6790000000001
 20
1040.0347865000003
 11
1178.3245600000009
 21
1041.0918864999985
  0
LINE
  8
_0-1_2
  6
CONTINUOUS
 62
    2
 10
1171.6791600000015
 20
1031.2928064999978
 11
1178.3260900000005
 21
1032.3504565000003
  0
LINE
  8
_0-1_2
  6
CONTINUOUS
 62
    2
 10
1176.9116700000013
 20
1058.1391565000013
 11
1176.9140150000003
 21
1029.7371354999996
  0
LINE
  8
_0-1_2
  6
CONTINUOUS
 62
    2
 10
1179.91021
 20
1061.1372664999981
 11
1176.9116700000013
 21
1058.1391565000013
  0
LINE
  8
_0-1_2
  6
CONTINUOUS
 62
    2
 10
1172.91158
 20
1058.1363764999987
 11
1172.9139250000007
 21
1029.737365500001
  0
LINE
  8
_0-1_2
  6
CONTINUOUS
 62
    2
 10
1169.9112600000008
 20
1061.136796499999
 11
1172.91158
 21
1058.1363764999987
  0
LINE
  8
_0-3_4
  6
CONTINUOUS
 62
    2
 10
2193.5043610000012
 20
1064.137006500001
 11
1084.9158900000002
 21
1064.137006500001
  0
LINE
  8
_0-3_4
  6
CONTINUOUS
 62
    2
 10
1084.9158900000002
 20
1064.137006500001
 11
1084.9158900000002
 21
1039.137006500001
  0
LINE
  8
_0-3_4
  6
CONTINUOUS
 62
    2
 10
2193.5043610000012
 20
1039.137006500001
 11
1084.9158900000002
 21
1039.137006500001
  0
ARC
  8
_0-1_2
  6
CONTINUOUS
 62
    2
 10
1194.9163200000003
 20
1034.1374864999998
 40
2.7000000000000002
 50
0.01099
 51
90.003097999999994
  0
ARC
  8
_0-1_2
  6
CONTINUOUS
 62
    2
 10
1154.9175400000004
 20
1034.1384264999979
 40
2.7000000000000002
 50
90.003098000000008
 51
179.98341400000004
  0
ARC
  8
_0-1_2
  6
CONTINUOUS
 62
    2
 10
1154.9153900000001
 20
1034.1383265000004
 40
4.9989999999999997
 50
89.991318000000007
 51
180.00197
  0
ARC
  8
_0-1_2
  6
CONTINUOUS
 62
    2
 10
1194.917730000001
 20
1034.1381965
 40
4.9989999999999997
 50
359.99557999999996
 51
90.012588999999963
  0
ARC
  8
_0-1_2
  6
CONTINUOUS
 62
    2
 10
1154.9137600000013
 20
944.13596649999818
 40
4.9989999999999997
 50
179.980682
 51
270.00623000000007
  0
ARC
  8
_0-1_2
  6
CONTINUOUS
 62
    2
 10
1194.9169500000007
 20
944.13549649999914
 40
4.9989999999999997
 50
269.98493999999999
 51
0.0168699999999887
  0
ARC
  8
_0-1_2
  6
CONTINUOUS
 62
    2
 10
1194.9160000000011
 20
944.13596649999818
 40
2.7000000000000002
 50
269.99128999999999
 51
0.0109900000000208
  0
ARC
  8
_0-1_2
  6
CONTINUOUS
 62
    2
 10
1154.9149200000011
 20
944.13649649999934
 40
2.7000000000000002
 50
179.98341400000001
 51
269.99128999999999
  0
LINE
  8
_0-0_1
  6
CONTINUOUS
 62
    3
 10
1132.9159200000013
 20
1080.8564494999991
 11
1072.9159200000013
 21
1108.4074694999981
  0
LINE
  8
_0-0_1
  6
CONTINUOUS
 62
    3
 10
1072.9159200000013
 20
1068.6230555000002
 11
1132.9159200000013
 21
1068.6230555000002
  0
LINE
  8
_0-0_1
  6
CONTINUOUS
 62
    3
 10
1132.9159200000013
 20
1080.8564494999991
 11
1132.9159200000013
 21
1068.6230555000002
  0
ARC
  8
_0-0_1
  6
CONTINUOUS
 62
    4
 10
1697.762702
 20
1082.6006554999985
 40
5.9904000000000002
 50
199.47122100000004
 51
344.27761299999997
  0
LINE
  8
_0-0_1
  6
CONTINUOUS
 62
    4
 10
1686.2333190000008
 20
1096.5782555000005
 11
1692.2237190000014
 21
1080.3193055000011
  0
LINE
  8
_0-0_1
  6
CONTINUOUS
 62
    4
 10
1464.6300730000003
 20
1096.5782555000005
 11
1458.9417540000013
 21
1080.9773974999989
  0
LINE
  8
_0-0_1
  6
CONTINUOUS
 62
    4
 10
1704.8489070000014
 20
1084.5974554999993
 11
1703.5289769999999
 21
1080.9773974999989
  0
LINE
  8
_0-0_1
  6
CONTINUOUS
 62
    4
 10
1440.910401000001
 20
1098.5750555000013
 11
1403.7068960000015
 21
1098.5750555000013
  0
LINE
  8
_0-0_1
  6
CONTINUOUS
 62
    4
 10
1440.910401000001
 20
1098.5750555000013
 11
1447.636496000001
 21
1080.3193055000011
  0
LINE
  8
_0-0_1
  6
CONTINUOUS
 62
    4
 10
1686.2333190000008
 20
1096.5782555000005
 11
1646.2973190000012
 21
1096.5782555000005
  0
LINE
  8
_0-0_1
  6
CONTINUOUS
 62
    4
 10
1638.3101189999998
 20
1096.5782555000005
 11
1591.3853190000009
 21
1096.5782555000005
  0
LINE
  8
_0-0_1
  6
CONTINUOUS
 62
    4
 10
1583.3981190000013
 20
1096.5782555000005
 11
1530.482919
 21
1096.5782555000005
  0
LINE
  8
_0-0_1
  6
CONTINUOUS
 62
    4
 10
1522.4957190000005
 20
1096.5782555000005
 11
1464.6300730000003
 21
1096.5782555000005
  0
LINE
  8
_0-0_1
  6
CONTINUOUS
 62
    4
 10
1669.281296000001
 20
1118.5430554999984
 11
1669.281296000001
 21
1115.5478555000009
  0
LINE
  8
_0-0_1
  6
CONTINUOUS
 62
    4
 10
1594.401296
 20
1115.5478555000009
 11
1669.281296000001
 21
1115.5478555000009
  0
LINE
  8
_0-0_1
  6
CONTINUOUS
 62
    4
 10
1443.6428960000012
 20
1115.5478555000009
 11
1594.401296
 21
1115.5478555000009
  0
LINE
  8
_0-0_1
  6
CONTINUOUS
 62
    4
 10
1443.6428960000012
 20
1118.5430554999984
 11
1443.6428960000012
 21
1115.5478555000009
  0
LINE
  8
_0-0_1
  6
CONTINUOUS
 62
    4
 10
1443.6428960000012
 20
1118.5430554999984
 11
1403.7068960000015
 21
1118.5430554999984
  0
LINE
  8
_0-0_1
  6
CONTINUOUS
 62
    4
 10
1522.4957190000005
 20
1096.5782555000005
 11
1522.4957190000005
 21
1085.5958554999997
  0
LINE
  8
_0-0_1
  6
CONTINUOUS
 62
    4
 10
1530.482919
 20
1085.5958554999997
 11
1522.4957190000005
 21
1085.5958554999997
  0
LINE
  8
_0-0_1
  6
CONTINUOUS
 62
    4
 10
1530.482919
 20
1096.5782555000005
 11
1530.482919
 21
1085.5958554999997
  0
LINE
  8
_0-0_1
  6
CONTINUOUS
 62
    4
 10
1583.3981190000013
 20
1096.5782555000005
 11
1583.3981190000013
 21
1085.5958554999997
  0
LINE
  8
_0-0_1
  6
CONTINUOUS
 62
    4
 10
1591.3853190000009
 20
1085.5958554999997
 11
1583.3981190000013
 21
1085.5958554999997
  0
LINE
  8
_0-0_1
  6
CONTINUOUS
 62
    4
 10
1591.3853190000009
 20
1096.5782555000005
 11
1591.3853190000009
 21
1085.5958554999997
  0
LINE
  8
_0-0_1
  6
CONTINUOUS
 62
    4
 10
1638.3101189999998
 20
1096.5782555000005
 11
1638.3101189999998
 21
1085.5958554999997
  0
LINE
  8
_0-0_1
  6
CONTINUOUS
 62
    4
 10
1646.2973190000012
 20
1085.5958554999997
 11
1638.3101189999998
 21
1085.5958554999997
  0
LINE
  8
_0-0_1
  6
CONTINUOUS
 62
    4
 10
1646.2973190000012
 20
1085.5958554999997
 11
1646.2973190000012
 21
1096.5782555000005
  0
LINE
  8
_0-0_1
  6
CONTINUOUS
 62
    4
 10
1403.7068960000015
 20
1118.5430554999984
 11
1403.7068960000015
 21
1098.5750555000013
  0
ARC
  8
_0-0_1
  6
CONTINUOUS
 62
    4
 10
1453.1011560000006
 20
1082.6006554999985
 40
5.9904000000000002
 50
199.47122100000004
 51
344.27761299999997
  0
LINE
  8
_0-0_1
  6
CONTINUOUS
 62
    4
 10
1709.7068960000015
 20
1118.5430554999984
 11
1669.281296000001
 21
1118.5430554999984
  0
LINE
  8
_0-0_1
  6
CONTINUOUS
 62
    4
 10
1709.7068960000015
 20
1118.5430554999984
 11
1709.7068960000015
 21
1096.5782555000005
  0
LINE
  8
_0-0_1
  6
CONTINUOUS
 62
    4
 10
1709.7068960000015
 20
1118.5430554999984
 11
1709.7068960000015
 21
1098.5750555000013
  0
LINE
  8
_0-0_1
  6
CONTINUOUS
 62
    4
 10
1748.7068960000015
 20
1084.5974554999993
 11
1704.8489070000014
 21
1084.5974554999993
  0
LINE
  8
_0-0_1
  6
CONTINUOUS
 62
    4
 10
1748.7068960000015
 20
1084.5974554999993
 11
1748.7068960000015
 21
1096.5782555000005
  0
LINE
  8
_0-0_1
  6
CONTINUOUS
 62
    4
 10
1748.7068960000015
 20
1096.5782555000005
 11
1709.7068960000015
 21
1096.5782555000005
  0
ARC
  8
_0-0_1
  6
CONTINUOUS
 62
    4
 10
2005.762702
 20
1082.6006554999985
 40
5.9904000000000002
 50
199.47122100000004
 51
344.27761299999997
  0
LINE
  8
_0-0_1
  6
CONTINUOUS
 62
    4
 10
1994.2333190000008
 20
1096.5782555000005
 11
2000.2237190000014
 21
1080.3193055000011
  0
LINE
  8
_0-0_1
  6
CONTINUOUS
 62
    4
 10
1772.6300730000003
 20
1096.5782555000005
 11
1766.9417540000013
 21
1080.9773974999989
  0
LINE
  8
_0-0_1
  6
CONTINUOUS
 62
    4
 10
2012.8489070000014
 20
1084.5974554999993
 11
2011.5289769999999
 21
1080.9773974999989
  0
LINE
  8
_0-0_1
  6
CONTINUOUS
 62
    4
 10
1748.910401000001
 20
1098.5750555000013
 11
1711.7068960000015
 21
1098.5750555000013
  0
LINE
  8
_0-0_1
  6
CONTINUOUS
 62
    4
 10
1748.910401000001
 20
1098.5750555000013
 11
1755.636496000001
 21
1080.3193055000011
  0
LINE
  8
_0-0_1
  6
CONTINUOUS
 62
    4
 10
1994.2333190000008
 20
1096.5782555000005
 11
1954.2973190000012
 21
1096.5782555000005
  0
LINE
  8
_0-0_1
  6
CONTINUOUS
 62
    4
 10
1946.3101189999998
 20
1096.5782555000005
 11
1899.3853190000009
 21
1096.5782555000005
  0
LINE
  8
_0-0_1
  6
CONTINUOUS
 62
    4
 10
1891.3981190000013
 20
1096.5782555000005
 11
1838.482919
 21
1096.5782555000005
  0
LINE
  8
_0-0_1
  6
CONTINUOUS
 62
    4
 10
1830.4957190000005
 20
1096.5782555000005
 11
1772.6300730000003
 21
1096.5782555000005
  0
LINE
  8
_0-0_1
  6
CONTINUOUS
 62
    4
 10
1977.281296000001
 20
1118.5430554999984
 11
1977.281296000001
 21
1115.5478555000009
  0
LINE
  8
_0-0_1
  6
CONTINUOUS
 62
    4
 10
1902.401296
 20
1115.5478555000009
 11
1977.281296000001
 21
1115.5478555000009
  0
LINE
  8
_0-0_1
  6
CONTINUOUS
 62
    4
 10
1751.6428960000012
 20
1115.5478555000009
 11
1902.401296
 21
1115.5478555000009
  0
LINE
  8
_0-0_1
  6
CONTINUOUS
 62
    4
 10
1751.6428960000012
 20
1118.5430554999984
 11
1751.6428960000012
 21
1115.5478555000009
  0
LINE
  8
_0-0_1
  6
CONTINUOUS
 62
    4
 10
1751.6428960000012
 20
1118.5430554999984
 11
1711.7068960000015
 21
1118.5430554999984
  0
LINE
  8
_0-0_1
  6
CONTINUOUS
 62
    4
 10
1830.4957190000005
 20
1096.5782555000005
 11
1830.4957190000005
 21
1085.5958554999997
  0
LINE
  8
_0-0_1
  6
CONTINUOUS
 62
    4
 10
1838.482919
 20
1085.5958554999997
 11
1830.4957190000005
 21
1085.5958554999997
  0
LINE
  8
_0-0_1
  6
CONTINUOUS
 62
    4
 10
1838.482919
 20
1096.5782555000005
 11
1838.482919
 21
1085.5958554999997
  0
LINE
  8
_0-0_1
  6
CONTINUOUS
 62
    4
 10
1891.3981190000013
 20
1096.5782555000005
 11
1891.3981190000013
 21
1085.5958554999997
  0
LINE
  8
_0-0_1
  6
CONTINUOUS
 62
    4
 10
1899.3853190000009
 20
1085.5958554999997
 11
1891.3981190000013
 21
1085.5958554999997
  0
LINE
  8
_0-0_1
  6
CONTINUOUS
 62
    4
 10
1899.3853190000009
 20
1096.5782555000005
 11
1899.3853190000009
 21
1085.5958554999997
  0
LINE
  8
_0-0_1
  6
CONTINUOUS
 62
    4
 10
1946.3101189999998
 20
1096.5782555000005
 11
1946.3101189999998
 21
1085.5958554999997
  0
LINE
  8
_0-0_1
  6
CONTINUOUS
 62
    4
 10
1954.2973190000012
 20
1085.5958554999997
 11
1946.3101189999998
 21
1085.5958554999997
  0
LINE
  8
_0-0_1
  6
CONTINUOUS
 62
    4
 10
1954.2973190000012
 20
1085.5958554999997
 11
1954.2973190000012
 21
1096.5782555000005
  0
LINE
  8
_0-0_1
  6
CONTINUOUS
 62
    4
 10
1711.7068960000015
 20
1118.5430554999984
 11
1711.7068960000015
 21
1098.5750555000013
  0
ARC
  8
_0-0_1
  6
CONTINUOUS
 62
    4
 10
1761.1011560000006
 20
1082.6006554999985
 40
5.9904000000000002
 50
199.47122100000004
 51
344.27761299999997
  0
LINE
  8
_0-0_1
  6
CONTINUOUS
 62
    4
 10
2017.7068960000015
 20
1118.5430554999984
 11
1977.281296000001
 21
1118.5430554999984
  0
LINE
  8
_0-0_1
  6
CONTINUOUS
 62
    4
 10
2017.7068960000015
 20
1118.5430554999984
 11
2017.7068960000015
 21
1096.5782555000005
  0
LINE
  8
_0-0_1
  6
CONTINUOUS
 62
    4
 10
2017.7068960000015
 20
1118.5430554999984
 11
2017.7068960000015
 21
1098.5750555000013
  0
LINE
  8
_0-0_1
  6
CONTINUOUS
 62
    4
 10
2056.7068960000015
 20
1084.5974554999993
 11
2012.8489070000014
 21
1084.5974554999993
  0
LINE
  8
_0-0_1
  6
CONTINUOUS
 62
    4
 10
2056.7068960000015
 20
1084.5974554999993
 11
2056.7068960000015
 21
1096.5782555000005
  0
LINE
  8
_0-0_1
  6
CONTINUOUS
 62
    4
 10
2056.7068960000015
 20
1096.5782555000005
 11
2017.7068960000015
 21
1096.5782555000005
  0
LINE
  8
_0-0_1
  6
CONTINUOUS
 62
    4
 10
2080.6300730000003
 20
1096.5782555000005
 11
2074.9417540000013
 21
1080.9773974999989
  0
LINE
  8
_0-0_1
  6
CONTINUOUS
 62
    4
 10
2056.910401000001
 20
1098.5750555000013
 11
2019.7068960000015
 21
1098.5750555000013
  0
LINE
  8
_0-0_1
  6
CONTINUOUS
 62
    4
 10
2056.910401000001
 20
1098.5750555000013
 11
2063.636496000001
 21
1080.3193055000011
  0
LINE
  8
_0-0_1
  6
CONTINUOUS
 62
    4
 10
2167.059827000001
 20
1096.5782555000005
 11
2146.482919
 21
1096.5782555000005
  0
LINE
  8
_0-0_1
  6
CONTINUOUS
 62
    4
 10
2138.4957190000005
 20
1096.5782555000005
 11
2080.6300730000003
 21
1096.5782555000005
  0
LINE
  8
_0-0_1
  6
CONTINUOUS
 62
    4
 10
2059.6428960000012
 20
1115.5478555000009
 11
2167.059827000001
 21
1115.5478555000009
  0
LINE
  8
_0-0_1
  6
CONTINUOUS
 62
    4
 10
2059.6428960000012
 20
1118.5430554999984
 11
2059.6428960000012
 21
1115.5478555000009
  0
LINE
  8
_0-0_1
  6
CONTINUOUS
 62
    4
 10
2059.6428960000012
 20
1118.5430554999984
 11
2019.7068960000015
 21
1118.5430554999984
  0
LINE
  8
_0-0_1
  6
CONTINUOUS
 62
    4
 10
2138.4957190000005
 20
1096.5782555000005
 11
2138.4957190000005
 21
1085.5958554999997
  0
LINE
  8
_0-0_1
  6
CONTINUOUS
 62
    4
 10
2146.482919
 20
1085.5958554999997
 11
2138.4957190000005
 21
1085.5958554999997
  0
LINE
  8
_0-0_1
  6
CONTINUOUS
 62
    4
 10
2146.482919
 20
1096.5782555000005
 11
2146.482919
 21
1085.5958554999997
  0
LINE
  8
_0-0_1
  6
CONTINUOUS
 62
    4
 10
2019.7068960000015
 20
1118.5430554999984
 11
2019.7068960000015
 21
1098.5750555000013
  0
ARC
  8
_0-0_1
  6
CONTINUOUS
 62
    4
 10
2069.1011560000006
 20
1082.6006554999985
 40
5.9904000000000002
 50
199.47122100000004
 51
344.27761299999997
  0
LINE
  8
_0-0_1
  6
CONTINUOUS
 62
    3
 10
1072.9159200000013
 20
1068.6230555000002
 11
1072.9159200000013
 21
1108.4074694999981
  0
ARC
  8
_0-0_1
  6
CONTINUOUS
 62
    4
 10
1389.762702
 20
1082.6006554999985
 40
5.9904000000000002
 50
199.47122100000004
 51
344.27761299999997
  0
LINE
  8
_0-0_1
  6
CONTINUOUS
 62
    4
 10
1378.2333190000008
 20
1096.5782555000005
 11
1384.2237190000014
 21
1080.3193055000011
  0
LINE
  8
_0-0_1
  6
CONTINUOUS
 62
    4
 10
1156.6300730000003
 20
1096.5782555000005
 11
1150.9417540000013
 21
1080.9773974999989
  0
LINE
  8
_0-0_1
  6
CONTINUOUS
 62
    4
 10
1396.8489070000014
 20
1084.5974554999993
 11
1395.5289769999999
 21
1080.9773974999989
  0
LINE
  8
_0-0_1
  6
CONTINUOUS
 62
    4
 10
1132.910401000001
 20
1098.5750555000013
 11
1095.7068960000015
 21
1098.5750555000013
  0
LINE
  8
_0-0_1
  6
CONTINUOUS
 62
    4
 10
1132.910401000001
 20
1098.5750555000013
 11
1139.636496000001
 21
1080.3193055000011
  0
LINE
  8
_0-0_1
  6
CONTINUOUS
 62
    4
 10
1378.2333190000008
 20
1096.5782555000005
 11
1338.2973190000012
 21
1096.5782555000005
  0
LINE
  8
_0-0_1
  6
CONTINUOUS
 62
    4
 10
1330.3101189999998
 20
1096.5782555000005
 11
1283.3853190000009
 21
1096.5782555000005
  0
LINE
  8
_0-0_1
  6
CONTINUOUS
 62
    4
 10
1275.3981190000013
 20
1096.5782555000005
 11
1222.482919
 21
1096.5782555000005
  0
LINE
  8
_0-0_1
  6
CONTINUOUS
 62
    4
 10
1214.4957190000005
 20
1096.5782555000005
 11
1156.6300730000003
 21
1096.5782555000005
  0
LINE
  8
_0-0_1
  6
CONTINUOUS
 62
    4
 10
1361.281296000001
 20
1118.5430554999984
 11
1361.281296000001
 21
1115.5478555000009
  0
LINE
  8
_0-0_1
  6
CONTINUOUS
 62
    4
 10
1286.401296
 20
1115.5478555000009
 11
1361.281296000001
 21
1115.5478555000009
  0
LINE
  8
_0-0_1
  6
CONTINUOUS
 62
    4
 10
1135.6428960000012
 20
1115.5478555000009
 11
1286.401296
 21
1115.5478555000009
  0
LINE
  8
_0-0_1
  6
CONTINUOUS
 62
    4
 10
1135.6428960000012
 20
1118.5430554999984
 11
1135.6428960000012
 21
1115.5478555000009
  0
LINE
  8
_0-0_1
  6
CONTINUOUS
 62
    4
 10
1135.6428960000012
 20
1118.5430554999984
 11
1095.7068960000015
 21
1118.5430554999984
  0
LINE
  8
_0-0_1
  6
CONTINUOUS
 62
    4
 10
1214.4957190000005
 20
1096.5782555000005
 11
1214.4957190000005
 21
1085.5958554999997
  0
LINE
  8
_0-0_1
  6
CONTINUOUS
 62
    4
 10
1222.482919
 20
1085.5958554999997
 11
1214.4957190000005
 21
1085.5958554999997
  0
LINE
  8
_0-0_1
  6
CONTINUOUS
 62
    4
 10
1222.482919
 20
1096.5782555000005
 11
1222.482919
 21
1085.5958554999997
  0
LINE
  8
_0-0_1
  6
CONTINUOUS
 62
    4
 10
1275.3981190000013
 20
1096.5782555000005
 11
1275.3981190000013
 21
1085.5958554999997
  0
LINE
  8
_0-0_1
  6
CONTINUOUS
 62
    4
 10
1283.3853190000009
 20
1085.5958554999997
 11
1275.3981190000013
 21
1085.5958554999997
  0
LINE
  8
_0-0_1
  6
CONTINUOUS
 62
    4
 10
1283.3853190000009
 20
1096.5782555000005
 11
1283.3853190000009
 21
1085.5958554999997
  0
LINE
  8
_0-0_1
  6
CONTINUOUS
 62
    4
 10
1330.3101189999998
 20
1096.5782555000005
 11
1330.3101189999998
 21
1085.5958554999997
  0
LINE
  8
_0-0_1
  6
CONTINUOUS
 62
    4
 10
1338.2973190000012
 20
1085.5958554999997
 11
1330.3101189999998
 21
1085.5958554999997
  0
LINE
  8
_0-0_1
  6
CONTINUOUS
 62
    4
 10
1338.2973190000012
 20
1085.5958554999997
 11
1338.2973190000012
 21
1096.5782555000005
  0
LINE
  8
_0-0_1
  6
CONTINUOUS
 62
    4
 10
1095.7068960000015
 20
1118.5430554999984
 11
1095.7068960000015
 21
1098.5750555000013
  0
ARC
  8
_0-0_1
  6
CONTINUOUS
 62
    4
 10
1145.1011560000006
 20
1082.6006554999985
 40
5.9904000000000002
 50
199.47122100000004
 51
344.27761299999997
  0
LINE
  8
_0-0_1
  6
CONTINUOUS
 62
    4
 10
1439.6460960000004
 20
1096.5782555000005
 11
1401.7068960000015
 21
1096.5782555000005
  0
LINE
  8
_0-0_1
  6
CONTINUOUS
 62
    4
 10
1401.7068960000015
 20
1118.5430554999984
 11
1361.281296000001
 21
1118.5430554999984
  0
LINE
  8
_0-0_1
  6
CONTINUOUS
 62
    4
 10
1401.7068960000015
 20
1118.5430554999984
 11
1401.7068960000015
 21
1096.5782555000005
  0
LINE
  8
_0-0_1
  6
CONTINUOUS
 62
    4
 10
1439.6460960000004
 20
1084.5974554999993
 11
1396.8489070000014
 21
1084.5974554999993
  0
LINE
  8
_0-0_1
  6
CONTINUOUS
 62
    4
 10
1439.6460960000004
 20
1096.5782555000005
 11
1439.6460960000004
 21
1084.5974554999993
  0
LINE
  8
_0-0_1
  6
CONTINUOUS
 62
    4
 10
1196.7175200000001
 20
1144.7318554999983
 11
1054.4685600000012
 21
1144.7318554999983
  0
ARC
  8
_0-0_1
  6
CONTINUOUS
 62
    4
 10
1196.7175200000001
 20
1139.8934554999978
 40
4.8384
 50
0
 51
90
  0
LINE
  8
_0-0_1
  6
CONTINUOUS
 62
    4
 10
1201.5559200000007
 20
1118.6044954999998
 11
1201.5559200000007
 21
1139.8934554999978
  0
LINE
  8
_0-0_1
  6
CONTINUOUS
 62
    4
 10
1201.5559200000007
 20
1118.6044954999998
 11
1193.8144800000009
 21
1118.6044954999998
  0
LINE
  8
_0-0_1
  6
CONTINUOUS
 62
    4
 10
1193.8144800000009
 20
1120.5398554999992
 11
1193.8144800000009
 21
1118.6044954999998
  0
LINE
  8
_0-0_1
  6
CONTINUOUS
 62
    4
 10
1070.9191200000005
 20
1120.5398554999992
 11
1193.8144800000009
 21
1120.5398554999992
  0
LINE
  8
_0-0_1
  6
CONTINUOUS
 62
    4
 10
1054.4685600000012
 20
1057.6786824999981
 11
1054.4685600000012
 21
1144.7318554999983
  0
ARC
  8
_0-0_1
  6
CONTINUOUS
 62
    4
 10
1059.3069599999999
 20
1057.6786824999981
 40
4.8384
 50
180
 51
270
  0
LINE
  8
_0-0_1
  6
CONTINUOUS
 62
    4
 10
1070.9191200000005
 20
1052.8402825000012
 11
1059.3069599999999
 21
1052.8402825000012
  0
LINE
  8
_0-0_1
  6
CONTINUOUS
 62
    4
 10
1070.9191200000005
 20
1120.5398554999992
 11
1070.9191200000005
 21
1052.8402825000012
  0
LINE
  8
_0-0_1
  6
CONTINUOUS
 62
    4
 10
1401.7068960000015
 20
1118.5430554999984
 11
1401.7068960000015
 21
1098.5750555000013
  0
LINE
  8
_0-0_1
  6
HIDDEN
 62
    1
 10
1076.9465250000012
 20
1096.2218554999999
 11
1081.2027940000007
 21
1097.3623184999997
  0
LINE
  8
_0-0_1
  6
HIDDEN
 62
    1
 10
1074.5034320000013
 20
1143.8918554999982
 11
1074.5034320000013
 21
1144.7318554999983
  0
LINE
  8
_0-0_1
  6
HIDDEN
 62
    1
 10
1074.5034320000013
 20
1144.7318554999983
 11
1082.8659240000015
 21
1144.7318554999983
  0
LINE
  8
_0-0_1
  6
HIDDEN
 62
    1
 10
1082.8659240000015
 20
1143.8918554999982
 11
1082.8659240000015
 21
1144.7318554999983
  0
LINE
  8
_0-0_1
  6
HIDDEN
 62
    1
 10
1074.5034320000013
 20
1143.8918554999982
 11
1082.8659240000015
 21
1143.8918554999982
  0
LINE
  8
_0-0_1
  6
HIDDEN
 62
    1
 10
1079.9427940000005
 20
1143.8918554999982
 11
1079.9427940000005
 21
1096.851855500001
  0
LINE
  8
_0-0_1
  6
HIDDEN
 62
    1
 10
1078.6827940000003
 20
1089.2918554999997
 11
1079.9427940000005
 21
1096.851855500001
  0
LINE
  8
_0-0_1
  6
HIDDEN
 62
    1
 10
1077.4227940000001
 20
1096.851855500001
 11
1077.4227940000001
 21
1143.8918554999982
  0
LINE
  8
_0-0_1
  6
HIDDEN
 62
    1
 10
1078.6827940000003
 20
1089.2918554999997
 11
1077.4227940000001
 21
1096.851855500001
  0
LINE
  8
_0-0_1
  6
HIDDEN
 62
    1
 10
1076.5827939999999
 20
1124.6843934999997
 11
1080.7827940000006
 21
1125.8097804999998
  0
LINE
  8
_0-0_1
  6
HIDDEN
 62
    1
 10
1076.5827939999999
 20
1123.0043934999994
 11
1080.7827940000006
 21
1124.1297804999995
  0
LINE
  8
_0-0_1
  6
HIDDEN
 62
    1
 10
1076.5827939999999
 20
1121.3243934999991
 11
1080.7827940000006
 21
1122.4497804999992
  0
LINE
  8
_0-0_1
  6
HIDDEN
 62
    1
 10
1076.5827939999999
 20
1119.6443934999988
 11
1080.7827940000006
 21
1120.7697804999989
  0
LINE
  8
_0-0_1
  6
HIDDEN
 62
    1
 10
1076.5827939999999
 20
1117.9643934999986
 11
1080.7827940000006
 21
1119.0897804999986
  0
LINE
  8
_0-0_1
  6
HIDDEN
 62
    1
 10
1076.5827939999999
 20
1116.2843934999983
 11
1080.7827940000006
 21
1117.4097804999983
  0
LINE
  8
_0-0_1
  6
HIDDEN
 62
    1
 10
1076.5827939999999
 20
1114.604393499998
 11
1080.7827940000006
 21
1115.729780499998
  0
LINE
  8
_0-0_1
  6
HIDDEN
 62
    1
 10
1076.5827939999999
 20
1112.9243935000013
 11
1080.7827940000006
 21
1114.0497805000014
  0
LINE
  8
_0-0_1
  6
HIDDEN
 62
    1
 10
1076.5827939999999
 20
1111.244393500001
 11
1080.7827940000006
 21
1112.3697805000011
  0
LINE
  8
_0-0_1
  6
HIDDEN
 62
    1
 10
1076.5827939999999
 20
1109.5643935000007
 11
1080.7827940000006
 21
1110.6897805000008
  0
LINE
  8
_0-0_1
  6
HIDDEN
 62
    1
 10
1076.5827939999999
 20
1107.8843935000004
 11
1080.7827940000006
 21
1109.0097805000005
  0
LINE
  8
_0-0_1
  6
HIDDEN
 62
    1
 10
1076.5827939999999
 20
1106.2043935000002
 11
1080.7827940000006
 21
1107.3297805000002
  0
LINE
  8
_0-0_1
  6
HIDDEN
 62
    1
 10
1076.5827939999999
 20
1104.5243934999999
 11
1080.7827940000006
 21
1105.6497804999999
  0
LINE
  8
_0-0_1
  6
HIDDEN
 62
    1
 10
1076.5827939999999
 20
1102.8443934999996
 11
1080.7827940000006
 21
1103.9697804999996
  0
LINE
  8
_0-0_1
  6
HIDDEN
 62
    1
 10
1076.5827939999999
 20
1101.1643934999993
 11
1080.7827940000006
 21
1102.2897804999993
  0
LINE
  8
_0-0_1
  6
HIDDEN
 62
    1
 10
1076.5827939999999
 20
1099.484393499999
 11
1080.7827940000006
 21
1100.609780499999
  0
LINE
  8
_0-0_1
  6
HIDDEN
 62
    1
 10
1076.5827939999999
 20
1097.8043934999987
 11
1080.7827940000006
 21
1098.9297804999987
  0
LINE
  8
_0-0_1
  6
HIDDEN
 62
    1
 10
1102.9785600000014
 20
1077.0576924999987
 11
1101.8380960000013
 21
1081.3139625000003
  0
LINE
  8
_0-0_1
  6
HIDDEN
 62
    1
 10
1055.3085600000013
 20
1074.614600500001
 11
1054.4685600000012
 21
1074.614600500001
  0
LINE
  8
_0-0_1
  6
HIDDEN
 62
    1
 10
1054.4685600000012
 20
1074.614600500001
 11
1054.4685600000012
 21
1082.9770925000012
  0
LINE
  8
_0-0_1
  6
HIDDEN
 62
    1
 10
1055.3085600000013
 20
1082.9770925000012
 11
1054.4685600000012
 21
1082.9770925000012
  0
LINE
  8
_0-0_1
  6
HIDDEN
 62
    1
 10
1055.3085600000013
 20
1074.614600500001
 11
1055.3085600000013
 21
1082.9770925000012
  0
LINE
  8
_0-0_1
  6
HIDDEN
 62
    1
 10
1055.3085600000013
 20
1080.0539624999983
 11
1102.3485600000004
 21
1080.0539624999983
  0
LINE
  8
_0-0_1
  6
HIDDEN
 62
    1
 10
1109.9085599999999
 20
1078.7939624999999
 11
1102.3485600000004
 21
1080.0539624999983
  0
LINE
  8
_0-0_1
  6
HIDDEN
 62
    1
 10
1102.3485600000004
 20
1077.5339624999979
 11
1055.3085600000013
 21
1077.5339624999979
  0
LINE
  8
_0-0_1
  6
HIDDEN
 62
    1
 10
1109.9085599999999
 20
1078.7939624999999
 11
1102.3485600000004
 21
1077.5339624999979
  0
LINE
  8
_0-0_1
  6
HIDDEN
 62
    1
 10
1074.5160210000013
 20
1076.6939625000014
 11
1073.3906350000016
 21
1080.8939624999985
  0
LINE
  8
_0-0_1
  6
HIDDEN
 62
    1
 10
1076.1960210000016
 20
1076.6939625000014
 11
1075.070635
 21
1080.8939624999985
  0
LINE
  8
_0-0_1
  6
HIDDEN
 62
    1
 10
1077.876021
 20
1076.6939625000014
 11
1076.7506350000003
 21
1080.8939624999985
  0
LINE
  8
_0-0_1
  6
HIDDEN
 62
    1
 10
1079.5560210000003
 20
1076.6939625000014
 11
1078.4306350000006
 21
1080.8939624999985
  0
LINE
  8
_0-0_1
  6
HIDDEN
 62
    1
 10
1081.2360210000006
 20
1076.6939625000014
 11
1080.1106350000009
 21
1080.8939624999985
  0
LINE
  8
_0-0_1
  6
HIDDEN
 62
    1
 10
1082.9160210000009
 20
1076.6939625000014
 11
1081.7906350000012
 21
1080.8939624999985
  0
LINE
  8
_0-0_1
  6
HIDDEN
 62
    1
 10
1084.5960210000012
 20
1076.6939625000014
 11
1083.4706350000015
 21
1080.8939624999985
  0
LINE
  8
_0-0_1
  6
HIDDEN
 62
    1
 10
1086.2760210000015
 20
1076.6939625000014
 11
1085.150635
 21
1080.8939624999985
  0
LINE
  8
_0-0_1
  6
HIDDEN
 62
    1
 10
1087.956021
 20
1076.6939625000014
 11
1086.8306350000003
 21
1080.8939624999985
  0
LINE
  8
_0-0_1
  6
HIDDEN
 62
    1
 10
1089.6360210000003
 20
1076.6939625000014
 11
1088.5106350000005
 21
1080.8939624999985
  0
LINE
  8
_0-0_1
  6
HIDDEN
 62
    1
 10
1091.3160210000005
 20
1076.6939625000014
 11
1090.1906350000008
 21
1080.8939624999985
  0
LINE
  8
_0-0_1
  6
HIDDEN
 62
    1
 10
1092.9960210000008
 20
1076.6939625000014
 11
1091.8706350000011
 21
1080.8939624999985
  0
LINE
  8
_0-0_1
  6
HIDDEN
 62
    1
 10
1094.6760210000011
 20
1076.6939625000014
 11
1093.5506350000014
 21
1080.8939624999985
  0
LINE
  8
_0-0_1
  6
HIDDEN
 62
    1
 10
1096.3560210000014
 20
1076.6939625000014
 11
1095.2306349999999
 21
1080.8939624999985
  0
LINE
  8
_0-0_1
  6
HIDDEN
 62
    1
 10
1098.0360209999999
 20
1076.6939625000014
 11
1096.9106350000002
 21
1080.8939624999985
  0
LINE
  8
_0-0_1
  6
HIDDEN
 62
    1
 10
1099.7160210000002
 20
1076.6939625000014
 11
1098.5906350000005
 21
1080.8939624999985
  0
LINE
  8
_0-0_1
  6
HIDDEN
 62
    1
 10
1101.3960210000005
 20
1076.6939625000014
 11
1100.2706350000008
 21
1080.8939624999985
  0
LINE
  8
_0-0_1
  6
CONTINUOUS
 62
    7
 10
1127.4283940000005
 20
878.07869449999998
 11
1131.9609150000015
 21
865.06597450000118
  0
LINE
  8
_0-0_1
  6
CONTINUOUS
 62
    7
 10
1125.1646700000001
 20
872.41938450000089
 11
1127.4283940000005
 21
878.07869449999998
  0
LINE
  8
_0-0_1
  6
CONTINUOUS
 62
    7
 10
1131.9609150000015
 20
865.06597450000118
 11
1133.4870940000001
 21
872.41938450000089
  0
LINE
  8
_0-0_1
  6
CONTINUOUS
 62
    7
 10
1092.8227930000012
 20
872.41938450000089
 11
1125.1646700000001
 21
872.41938450000089
  0
LINE
  8
_0-0_1
  6
CONTINUOUS
 62
    7
 10
1133.4870940000001
 20
872.41938450000089
 11
1162.574079
 21
872.41938450000089
  0
LINE
  8
_0-0_1
  6
CONTINUOUS
 62
    7
 10
1192.9158800000005
 20
1082.6369764999981
 11
2193.5043610000012
 21
1082.6369764999981
  0
LINE
  8
_0-0_1
  6
CONTINUOUS
 62
    7
 10
1192.9158800000005
 20
1067.6369764999981
 11
2193.5043610000012
 21
1067.6369764999981
  0
LINE
  8
_0-0_1
  6
CONTINUOUS
 62
    7
 10
974.75268400000095
 20
1143.7457764999999
 11
1027.252684000001
 21
1143.7457764999999
  0
CIRCLE
  8
_0-0_1
  6
CONTINUOUS
 62
    7
 10
977.25268400000095
 20
1143.7457764999999
 40
1.6999999999999997
  0
LINE
  8
_0-0_1
  6
CONTINUOUS
 62
    7
 10
977.25268400000095
 20
1143.7457764999999
 11
977.25268400000095
 21
1051.8542034999991
  0
CIRCLE
  8
_0-0_1
  6
CONTINUOUS
 62
    7
 10
977.25268400000095
 20
1051.8542034999991
 40
1.6999999999999997
  0
LINE
  8
_0-0_1
  6
CONTINUOUS
 62
    7
 10
974.75268400000095
 20
1051.8542034999991
 11
1027.252684000001
 21
1051.8542034999991
  0
LINE
  8
_0-0_1
  6
CONTINUOUS
 62
    7
 10
1054.4685600000012
 20
1278.0234984999988
 11
1054.4685600000012
 21
1225.5234984999988
  0
CIRCLE
  8
_0-0_1
  6
CONTINUOUS
 62
    7
 10
1054.4685600000012
 20
1275.5234984999988
 40
1.6999999999999997
  0
LINE
  8
_0-0_1
  6
CONTINUOUS
 62
    7
 10
1054.4685600000012
 20
1275.5234984999988
 11
1201.5559200000007
 21
1275.5234984999988
  0
CIRCLE
  8
_0-0_1
  6
CONTINUOUS
 62
    7
 10
1201.5559200000007
 20
1275.5234984999988
 40
1.6999999999999997
  0
LINE
  8
_0-0_1
  6
CONTINUOUS
 62
    7
 10
1201.5559200000007
 20
1278.0234984999988
 11
1201.5559200000007
 21
1225.5234984999988
  0
LINE
  8
_0-0_1
  6
CONTINUOUS
 62
    7
 10
1054.4685600000012
 20
1331.3742705000004
 11
1054.4685600000012
 21
1278.8742705000004
  0
CIRCLE
  8
_0-0_1
  6
CONTINUOUS
 62
    7
 10
1054.4685600000012
 20
1328.8742705000004
 40
1.6999999999999997
  0
LINE
  8
_0-0_1
  6
CONTINUOUS
 62
    7
 10
1054.4685600000012
 20
1328.8742705000004
 11
1095.7068960000015
 21
1328.8742705000004
  0
CIRCLE
  8
_0-0_1
  6
CONTINUOUS
 62
    7
 10
1095.7068960000015
 20
1328.8742705000004
 40
1.6999999999999997
  0
LINE
  8
_0-0_1
  6
CONTINUOUS
 62
    7
 10
1095.7068960000015
 20
1331.3742705000004
 11
1095.7068960000015
 21
1278.8742705000004
  0
CIRCLE
  8
_0-0_1
  6
CONTINUOUS
 62
    7
 10
1095.7068960000015
 20
1328.8742705000004
 40
1.6999999999999997
  0
LINE
  8
_0-0_1
  6
CONTINUOUS
 62
    7
 10
1095.7068960000015
 20
1328.8742705000004
 11
1403.7068960000015
 21
1328.8742705000004
  0
CIRCLE
  8
_0-0_1
  6
CONTINUOUS
 62
    7
 10
1403.7068960000015
 20
1328.8742705000004
 40
1.6999999999999997
  0
LINE
  8
_0-0_1
  6
CONTINUOUS
 62
    7
 10
1403.7068960000015
 20
1331.3742705000004
 11
1403.7068960000015
 21
1278.8742705000004
  0
CIRCLE
  8
_0-0_1
  6
CONTINUOUS
 62
    7
 10
1403.7068960000015
 20
1328.8742705000004
 40
1.6999999999999997
  0
LINE
  8
_0-0_1
  6
CONTINUOUS
 62
    7
 10
1403.7068960000015
 20
1328.8742705000004
 11
1711.7068960000015
 21
1328.8742705000004
  0
CIRCLE
  8
_0-0_1
  6
CONTINUOUS
 62
    7
 10
1711.7068960000015
 20
1328.8742705000004
 40
1.6999999999999997
  0
LINE
  8
_0-0_1
  6
CONTINUOUS
 62
    7
 10
1711.7068960000015
 20
1331.3742705000004
 11
1711.7068960000015
 21
1278.8742705000004
  0
CIRCLE
  8
_0-0_1
  6
CONTINUOUS
 62
    7
 10
1711.7068960000015
 20
1328.8742705000004
 40
1.6999999999999997
  0
LINE
  8
_0-0_1
  6
CONTINUOUS
 62
    7
 10
1711.7068960000015
 20
1328.8742705000004
 11
2019.7068960000015
 21
1328.8742705000004
  0
CIRCLE
  8
_0-0_1
  6
CONTINUOUS
 62
    7
 10
2019.7068960000015
 20
1328.8742705000004
 40
1.6999999999999997
  0
LINE
  8
_0-0_1
  6
CONTINUOUS
 62
    7
 10
2019.7068960000015
 20
1331.3742705000004
 11
2019.7068960000015
 21
1278.8742705000004
  0
LINE
  8
_0-0_1
  6
CONTINUOUS
 62
    7
 10
1224.9176200000002
 20
980.1373065000007
 11
1217.1232
 21
984.63709649999873
  0
LINE
  8
_0-0_1
  6
CONTINUOUS
 62
    7
 10
1217.1232
 20
984.63709649999873
 11
1217.1228900000006
 21
993.63700650000101
  0
LINE
  8
_0-0_1
  6
CONTINUOUS
 62
    7
 10
1217.1228900000006
 20
993.63700650000101
 11
1224.9167300000008
 21
998.13722649999909
  0
LINE
  8
_0-0_1
  6
CONTINUOUS
 62
    7
 10
1224.9167300000008
 20
998.13722649999909
 11
1232.7111400000013
 21
993.63745650000055
  0
LINE
  8
_0-0_1
  6
CONTINUOUS
 62
    7
 10
1232.7111400000013
 20
993.63745650000055
 11
1232.7115600000016
 21
984.63757650000116
  0
LINE
  8
_0-0_1
  6
CONTINUOUS
 62
    7
 10
1232.7115600000016
 20
984.63757650000116
 11
1224.9176200000002
 21
980.1373065000007
  0
LINE
  8
_0-0_1
  6
CONTINUOUS
 62
    7
 10
1229.9166999999998
 20
979.13713650000136
 11
1229.9172699999999
 21
983.02389649999895
  0
LINE
  8
_0-0_1
  6
CONTINUOUS
 62
    7
 10
1219.9173300000002
 20
979.13692649999939
 11
1219.9170700000013
 21
983.02405649999855
  0
LINE
  8
_0-0_1
  6
CONTINUOUS
 62
    7
 10
1219.9176500000012
 20
999.13744650000081
 11
1219.9171700000006
 21
995.25062650000109
  0
LINE
  8
_0-0_1
  6
CONTINUOUS
 62
    7
 10
1229.917010000001
 20
999.1376264999999
 11
1229.9173300000002
 21
995.25047650000124
  0
LINE
  8
_0-0_1
  6
CONTINUOUS
 62
    7
 10
2193.5043610000012
 20
939.1370265000005
 11
1204.9167300000008
 21
939.1370265000005
  0
LINE
  8
_0-0_1
  6
CONTINUOUS
 62
    7
 10
1199.9167600000001
 20
1029.1372764999978
 11
1199.9167600000001
 21
949.13725649999833
  0
LINE
  8
_0-0_1
  6
CONTINUOUS
 62
    7
 10
1204.9167300000008
 20
941.43598650000058
 11
2193.5043610000012
 21
941.43598650000058
  0
LINE
  8
_0-0_1
  6
CONTINUOUS
 62
    7
 10
1204.9167300000008
 20
1036.837466500001
 11
2193.5043610000012
 21
1036.837466500001
  0
LINE
  8
_0-0_1
  6
CONTINUOUS
 62
    7
 10
1249.9167400000006
 20
1029.1372764999978
 11
1249.9167400000006
 21
1019.1366464999992
  0
LINE
  8
_0-0_1
  6
CONTINUOUS
 62
    7
 10
1203.1167100000002
 20
1029.1372764999978
 11
1203.1167100000002
 21
949.13725649999833
  0
LINE
  8
_0-0_1
  6
CONTINUOUS
 62
    7
 10
1199.9167600000001
 20
1029.1372764999978
 11
1204.9167300000008
 21
1029.1372764999978
  0
LINE
  8
_0-0_1
  6
CONTINUOUS
 62
    7
 10
1204.9167300000008
 20
1029.1372764999978
 11
1249.9167400000006
 21
1029.1372764999978
  0
LINE
  8
_0-0_1
  6
CONTINUOUS
 62
    7
 10
1249.9167400000006
 20
1019.1366464999992
 11
1249.9167400000006
 21
959.13680649999878
  0
LINE
  8
_0-0_1
  6
CONTINUOUS
 62
    7
 10
1249.9167400000006
 20
959.13680649999878
 11
1249.9167400000006
 21
949.13725649999833
  0
LINE
  8
_0-0_1
  6
CONTINUOUS
 62
    7
 10
1199.9167600000001
 20
949.13725649999833
 11
1204.9167300000008
 21
949.13725649999833
  0
LINE
  8
_0-0_1
  6
CONTINUOUS
 62
    7
 10
1204.9167300000008
 20
949.13725649999833
 11
1249.9167400000006
 21
949.13725649999833
  0
LINE
  8
_0-0_1
  6
CONTINUOUS
 62
    7
 10
1204.9167300000008
 20
1039.137006500001
 11
1204.9167300000008
 21
1019.1366464999992
  0
LINE
  8
_0-0_1
  6
CONTINUOUS
 62
    7
 10
1204.9167300000008
 20
1019.1366464999992
 11
1204.9167300000008
 21
949.13725649999833
  0
LINE
  8
_0-0_1
  6
CONTINUOUS
 62
    7
 10
1204.9167300000008
 20
949.13725649999833
 11
1204.9167300000008
 21
939.1370265000005
  0
LINE
  8
_0-0_1
  6
CONTINUOUS
 62
    7
 10
1204.9167300000008
 20
1019.1366464999992
 11
2193.5043610000012
 21
1019.1366464999992
  0
LINE
  8
_0-0_1
  6
CONTINUOUS
 62
    7
 10
1204.9167300000008
 20
959.13680649999878
 11
2193.5043610000012
 21
959.13680649999878
  0
ARC
  8
_0-0_1
  6
CONTINUOUS
 62
    7
 10
1224.9170400000003
 20
979.13700650000101
 40
5
 50
179.99697900000001
 51
0.0118600000000128
  0
ARC
  8
_0-0_1
  6
CONTINUOUS
 62
    7
 10
1224.917300000001
 20
999.13752649999878
 40
5
 50
0.0118599999999999
 51
179.99697900000001
  0
LINE
  8
_0-0_1
  6
CONTINUOUS
 62
    7
 10
1076.1791000000012
 20
1072.1268204999978
 11
1081.4824010000011
 21
1077.4301214999978
  0
LINE
  8
_0-0_1
  6
CONTINUOUS
 62
    7
 10
1081.4824010000011
 20
1077.4301214999978
 11
1079.5412580000011
 21
1070.1856784999982
  0
LINE
  8
_0-0_1
  6
CONTINUOUS
 62
    7
 10
1081.4824010000011
 20
1077.4301214999978
 11
1022.4956390000007
 21
975.26205249999839
  0
LINE
  8
_0-0_1
  6
CONTINUOUS
 62
    7
 10
1022.4956390000007
 20
975.26205249999839
 11
776.49563900000066
 21
975.26205249999839
  0
LINE
  8
_0-0_1
  6
CONTINUOUS
 62
    7
 10
1112.5705670000007
 20
906.92120150000119
 11
1116.3205670000007
 21
913.41639149999901
  0
LINE
  8
_0-0_1
  6
CONTINUOUS
 62
    7
 10
1116.3205670000007
 20
913.41639149999901
 11
1116.3205670000007
 21
905.91639149999901
  0
LINE
  8
_0-0_1
  6
CONTINUOUS
 62
    7
 10
1116.3205670000007
 20
913.41639149999901
 11
1079.8370720000003
 21
777.25813249999919
  0
LINE
  8
_0-0_1
  6
CONTINUOUS
 62
    7
 10
1079.8370720000003
 20
777.25813249999919
 11
855.87834699999985
 21
777.25813249999919
  0
LINE
  8
_0-0_1
  6
CONTINUOUS
 62
    7
 10
1749.1238360000007
 20
784.69187349999993
 11
2082.0981710000015
 21
784.69187349999993
  0
LINE
  8
_0-0_1
  6
CONTINUOUS
 62
    7
 10
1582.9083380000011
 20
1068.7032765000004
 11
1580.9671950000011
 21
1075.9477194999999
  0
LINE
  8
_0-0_1
  6
CONTINUOUS
 62
    7
 10
1580.9671950000011
 20
1075.9477194999999
 11
1586.270496000001
 21
1070.6444195000004
  0
LINE
  8
_0-0_1
  6
CONTINUOUS
 62
    7
 10
1580.9671950000011
 20
1075.9477194999999
 11
1765.9051830000008
 21
755.62572949999958
  0
LINE
  8
_0-0_1
  6
CONTINUOUS
 62
    7
 10
1765.9051830000008
 20
755.62572949999958
 11
2150.3474679999999
 21
755.62572949999958
  0
LINE
  8
_0-0_1
  6
CONTINUOUS
 62
    7
 10
1731.4721470000004
 20
815.58762449999995
 11
1967.5972840000013
 21
815.58762449999995
  0
LINE
  8
_0-0_1
  6
CONTINUOUS
 62
    7
 10
1713.7955060000004
 20
845.5685725000003
 11
1906.1881950000006
 21
845.5685725000003
  0
LINE
  8
_0-0_1
  6
CONTINUOUS
 62
    7
 10
2055.6460960000004
 20
1128.5782555000005
 11
2055.6460960000004
 21
1121.0810654999987
  0
LINE
  8
_0-0_1
  6
CONTINUOUS
 62
    7
 10
2056.910401000001
 20
1130.5750555000013
 11
2056.910401000001
 21
1121.0810654999987
  0
LINE
  8
_0-0_1
  6
CONTINUOUS
 62
    7
 10
2056.910401000001
 20
1130.5750555000013
 11
2019.7068960000015
 21
1130.5750555000013
  0
LINE
  8
_0-0_1
  6
CONTINUOUS
 62
    7
 10
2055.6460960000004
 20
1128.5782555000005
 11
2017.7068960000015
 21
1128.5782555000005
  0
LINE
  8
_0-0_1
  6
CONTINUOUS
 62
    7
 10
1747.6460960000004
 20
1128.5782555000005
 11
1747.6460960000004
 21
1121.0810654999987
  0
LINE
  8
_0-0_1
  6
CONTINUOUS
 62
    7
 10
1748.910401000001
 20
1130.5750555000013
 11
1748.910401000001
 21
1121.0810654999987
  0
LINE
  8
_0-0_1
  6
CONTINUOUS
 62
    7
 10
1748.910401000001
 20
1130.5750555000013
 11
1711.7068960000015
 21
1130.5750555000013
  0
LINE
  8
_0-0_1
  6
CONTINUOUS
 62
    7
 10
1747.6460960000004
 20
1128.5782555000005
 11
1709.7068960000015
 21
1128.5782555000005
  0
LINE
  8
_0-0_1
  6
CONTINUOUS
 62
    7
 10
1439.6460960000004
 20
1128.5782555000005
 11
1439.6460960000004
 21
1121.0810654999987
  0
LINE
  8
_0-0_1
  6
CONTINUOUS
 62
    7
 10
1440.910401000001
 20
1130.5750555000013
 11
1440.910401000001
 21
1121.0810654999987
  0
LINE
  8
_0-0_1
  6
CONTINUOUS
 62
    7
 10
1440.910401000001
 20
1130.5750555000013
 11
1403.7068960000015
 21
1130.5750555000013
  0
LINE
  8
_0-0_1
  6
CONTINUOUS
 62
    7
 10
1439.6460960000004
 20
1128.5782555000005
 11
1401.7068960000015
 21
1128.5782555000005
  0
LINE
  8
_0-0_1
  6
CONTINUOUS
 62
    7
 10
2167.059827000001
 20
1121.0810654999987
 11
2056.910401000001
 21
1121.0810654999987
  0
LINE
  8
_0-0_1
  6
CONTINUOUS
 62
    7
 10
2055.6460960000004
 20
1121.0810654999987
 11
1748.910401000001
 21
1121.0810654999987
  0
LINE
  8
_0-0_1
  6
CONTINUOUS
 62
    7
 10
1747.6460960000004
 20
1121.0810654999987
 11
1440.910401000001
 21
1121.0810654999987
  0
LINE
  8
_0-0_1
  6
CONTINUOUS
 62
    7
 10
1439.6460960000004
 20
1121.0810654999987
 11
1203.6269090000005
 21
1121.0810654999987
  0
LINE
  8
_0-0_1
  6
CONTINUOUS
 62
    7
 10
1361.281296000001
 20
1150.5430554999984
 11
1361.281296000001
 21
1147.5478555000009
  0
LINE
  8
_0-0_1
  6
CONTINUOUS
 62
    7
 10
1286.401296
 20
1147.5478555000009
 11
1361.281296000001
 21
1147.5478555000009
  0
LINE
  8
_0-0_1
  6
CONTINUOUS
 62
    7
 10
1203.6269090000005
 20
1147.5478555000009
 11
1286.401296
 21
1147.5478555000009
  0
LINE
  8
_0-0_1
  6
CONTINUOUS
 62
    7
 10
1401.7068960000015
 20
1150.5430554999984
 11
1361.281296000001
 21
1150.5430554999984
  0
LINE
  8
_0-0_1
  6
CONTINUOUS
 62
    7
 10
1401.7068960000015
 20
1150.5430554999984
 11
1401.7068960000015
 21
1128.5782555000005
  0
LINE
  8
_0-0_1
  6
CONTINUOUS
 62
    7
 10
1669.281296000001
 20
1150.5430554999984
 11
1669.281296000001
 21
1147.5478555000009
  0
LINE
  8
_0-0_1
  6
CONTINUOUS
 62
    7
 10
1594.401296
 20
1147.5478555000009
 11
1669.281296000001
 21
1147.5478555000009
  0
LINE
  8
_0-0_1
  6
CONTINUOUS
 62
    7
 10
1443.6428960000012
 20
1147.5478555000009
 11
1594.401296
 21
1147.5478555000009
  0
LINE
  8
_0-0_1
  6
CONTINUOUS
 62
    7
 10
1443.6428960000012
 20
1150.5430554999984
 11
1443.6428960000012
 21
1147.5478555000009
  0
LINE
  8
_0-0_1
  6
CONTINUOUS
 62
    7
 10
1443.6428960000012
 20
1150.5430554999984
 11
1403.7068960000015
 21
1150.5430554999984
  0
LINE
  8
_0-0_1
  6
CONTINUOUS
 62
    7
 10
1403.7068960000015
 20
1150.5430554999984
 11
1403.7068960000015
 21
1130.5750555000013
  0
LINE
  8
_0-0_1
  6
CONTINUOUS
 62
    7
 10
1709.7068960000015
 20
1150.5430554999984
 11
1669.281296000001
 21
1150.5430554999984
  0
LINE
  8
_0-0_1
  6
CONTINUOUS
 62
    7
 10
1709.7068960000015
 20
1150.5430554999984
 11
1709.7068960000015
 21
1128.5782555000005
  0
LINE
  8
_0-0_1
  6
CONTINUOUS
 62
    7
 10
1709.7068960000015
 20
1150.5430554999984
 11
1709.7068960000015
 21
1130.5750555000013
  0
LINE
  8
_0-0_1
  6
CONTINUOUS
 62
    7
 10
1977.281296000001
 20
1150.5430554999984
 11
1977.281296000001
 21
1147.5478555000009
  0
LINE
  8
_0-0_1
  6
CONTINUOUS
 62
    7
 10
1902.401296
 20
1147.5478555000009
 11
1977.281296000001
 21
1147.5478555000009
  0
LINE
  8
_0-0_1
  6
CONTINUOUS
 62
    7
 10
1751.6428960000012
 20
1147.5478555000009
 11
1902.401296
 21
1147.5478555000009
  0
LINE
  8
_0-0_1
  6
CONTINUOUS
 62
    7
 10
1751.6428960000012
 20
1150.5430554999984
 11
1751.6428960000012
 21
1147.5478555000009
  0
LINE
  8
_0-0_1
  6
CONTINUOUS
 62
    7
 10
1751.6428960000012
 20
1150.5430554999984
 11
1711.7068960000015
 21
1150.5430554999984
  0
LINE
  8
_0-0_1
  6
CONTINUOUS
 62
    7
 10
1711.7068960000015
 20
1150.5430554999984
 11
1711.7068960000015
 21
1130.5750555000013
  0
LINE
  8
_0-0_1
  6
CONTINUOUS
 62
    7
 10
2017.7068960000015
 20
1150.5430554999984
 11
1977.281296000001
 21
1150.5430554999984
  0
LINE
  8
_0-0_1
  6
CONTINUOUS
 62
    7
 10
2017.7068960000015
 20
1150.5430554999984
 11
2017.7068960000015
 21
1128.5782555000005
  0
LINE
  8
_0-0_1
  6
CONTINUOUS
 62
    7
 10
2017.7068960000015
 20
1150.5430554999984
 11
2017.7068960000015
 21
1130.5750555000013
  0
LINE
  8
_0-0_1
  6
CONTINUOUS
 62
    7
 10
2059.6428960000012
 20
1147.5478555000009
 11
2167.059827000001
 21
1147.5478555000009
  0
LINE
  8
_0-0_1
  6
CONTINUOUS
 62
    7
 10
2059.6428960000012
 20
1150.5430554999984
 11
2059.6428960000012
 21
1147.5478555000009
  0
LINE
  8
_0-0_1
  6
CONTINUOUS
 62
    7
 10
2059.6428960000012
 20
1150.5430554999984
 11
2019.7068960000015
 21
1150.5430554999984
  0
LINE
  8
_0-0_1
  6
CONTINUOUS
 62
    7
 10
2019.7068960000015
 20
1150.5430554999984
 11
2019.7068960000015
 21
1130.5750555000013
  0
LINE
  8
_0-0_1
  6
CONTINUOUS
 62
    7
 10
1194.9107140000015
 20
1173.6752154999995
 11
1052.6617540000007
 21
1173.6752154999995
  0
ARC
  8
_0-0_1
  6
CONTINUOUS
 62
    7
 10
1194.9107140000015
 20
1168.8368154999989
 40
4.8384
 50
0
 51
90
  0
LINE
  8
_0-0_1
  6
CONTINUOUS
 62
    7
 10
1199.7491140000002
 20
1147.5478555000009
 11
1199.7491140000002
 21
1168.8368154999989
  0
LINE
  8
_0-0_1
  6
CONTINUOUS
 62
    7
 10
1199.7491140000002
 20
1147.5478555000009
 11
1192.0076740000004
 21
1147.5478555000009
  0
LINE
  8
_0-0_1
  6
CONTINUOUS
 62
    7
 10
1192.0076740000004
 20
1149.4832155000004
 11
1192.0076740000004
 21
1147.5478555000009
  0
LINE
  8
_0-0_1
  6
CONTINUOUS
 62
    7
 10
1069.112314
 20
1149.4832155000004
 11
1192.0076740000004
 21
1149.4832155000004
  0
LINE
  8
_0-0_1
  6
CONTINUOUS
 62
    7
 10
1052.6617540000007
 20
1086.6220424999992
 11
1052.6617540000007
 21
1173.6752154999995
  0
ARC
  8
_0-0_1
  6
CONTINUOUS
 62
    7
 10
1057.5001540000012
 20
1086.6220424999992
 40
4.8384
 50
180
 51
231.20251099999999
  0
LINE
  8
_0-0_1
  6
CONTINUOUS
 62
    7
 10
1069.112314
 20
1149.4832155000004
 11
1069.112314
 21
1144.7318554999983
  0
LINE
  8
_0-0_1
  6
CONTINUOUS
 62
    7
 10
1186.2105510000001
 20
1120.5398554999992
 11
1186.2105510000001
 21
1115.5478555000009
  0
LINE
  8
_0-0_1
  6
CONTINUOUS
 62
    7
 10
1162.9310080000014
 20
1120.5398554999992
 11
1162.9310080000014
 21
1115.5478555000009
  0
LINE
  8
_0-0_1
  6
CONTINUOUS
 62
    7
 10
1162.9310080000014
 20
1115.5499544999984
 11
1186.2105510000001
 21
1115.5499544999984
  0
LINE
  8
_0-0_1
  6
CONTINUOUS
 62
    7
 10
1162.9310080000014
 20
1116.7969054999994
 11
1186.2105510000001
 21
1116.7969054999994
  0
LINE
  8
_0-0_1
  6
CONTINUOUS
 62
    7
 10
1162.9310080000014
 20
1118.0438555000001
 11
1186.2105510000001
 21
1118.0438555000001
  0
LINE
  8
_0-0_1
  6
CONTINUOUS
 62
    7
 10
1162.9310080000014
 20
1119.2908055000007
 11
1186.2105510000001
 21
1119.2908055000007
  0
LINE
  8
_0-0_1
  6
CONTINUOUS
 62
    7
 10
1162.9310080000014
 20
1120.5377564999981
 11
1186.2105510000001
 21
1120.5377564999981
  0
ARC
  8
_0-0_1
  6
CONTINUOUS
 62
    7
 10
1072.9159200000013
 20
1104.6294554999986
 40
14.244633
 50
270
 51
349.28339799999998
  0
ARC
  8
_0-0_1
  6
CONTINUOUS
 62
    7
 10
1072.9159200000013
 20
1098.0906565000005
 40
17.809041000000001
 50
270
 51
7.1023220000000249
  0
ARC
  8
_0-0_1
  6
CONTINUOUS
 62
    7
 10
1074.2036810000009
 20
1103.8935915000002
 40
32.541984999999997
 50
267.74394899999999
 51
341.62509599999998
  0
ARC
  8
_0-0_1
  6
CONTINUOUS
 62
    7
 10
1072.9159200000013
 20
1097.9194165000008
 40
41.995542
 50
315.76471700000008
 51
348.45426100000003
  0
ARC
  8
_0-0_1
  6
CONTINUOUS
 62
    7
 10
1072.9159200000013
 20
1085.5900804999983
 40
53.368561
 50
341.46271400000001
 51
358.19984799999997
  0
LINE
  8
_0-0_1
  6
CONTINUOUS
 62
    7
 10
1563.6679070000009
 20
1119.239766499999
 11
1558.364606000001
 21
1113.936465499999
  0
LINE
  8
_0-0_1
  6
CONTINUOUS
 62
    7
 10
1558.364606000001
 20
1113.936465499999
 11
1560.305749000001
 21
1121.180909499999
  0
LINE
  8
_0-0_1
  6
CONTINUOUS
 62
    7
 10
1558.364606000001
 20
1113.936465499999
 11
1601.6296040000016
 21
1188.8736394999978
  0
LINE
  8
_0-0_1
  6
CONTINUOUS
 62
    7
 10
1601.6296040000016
 20
1188.8736394999978
 11
1642.1296040000016
 21
1188.8736394999978
  0
LINE
  8
_0-0_1
  6
CONTINUOUS
 62
    7
 10
1177.488311000001
 20
1125.8431564999992
 11
1172.1850100000011
 21
1120.5398554999992
  0
LINE
  8
_0-0_1
  6
CONTINUOUS
 62
    7
 10
1172.1850100000011
 20
1120.5398554999992
 11
1174.1261530000011
 21
1127.7842994999992
  0
LINE
  8
_0-0_1
  6
CONTINUOUS
 62
    7
 10
1172.1850100000011
 20
1120.5398554999992
 11
1221.7875469999999
 21
1206.4539694999985
  0
LINE
  8
_0-0_1
  6
CONTINUOUS
 62
    7
 10
1221.7875469999999
 20
1206.4539694999985
 11
1319.2875469999999
 21
1206.4539694999985
  0
LINE
  8
_0-0_1
  6
CONTINUOUS
 62
    7
 10
1319.2875469999999
 20
1206.4539694999985
 11
1348.6964117597099
 21
1206.4539694999985
  0
LINE
  8
_0-0_1
  6
CONTINUOUS
 62
    7
 10
1642.1296040000016
 20
1188.8736394999978
 11
1667.8930683065164
 21
1188.8736394999978
  0
LINE
  8
_0-0_1
  6
CONTINUOUS
 62
    7
 10
2082.0981710000015
 20
784.69187349999993
 11
2161.5344092451819
 21
784.69187349999993
  0
LINE
  8
_0-0_1
  6
CONTINUOUS
 62
    7
 10
855.87834699999985
 20
777.25813249999919
 11
791.95805731760538
 21
777.25813249999919
  0
LINE
  8
_0-0_1
  6
CONTINUOUS
 62
    7
 10
776.49563900000066
 20
975.26205249999839
 11
728.86104381416703
 21
975.26205249999839
  0
TEXT
  8
_0-2_3
 62
    7
 10
1250.02754969544
 20
1338.9322810535305
 40
20
 41
1
 50
0
  1
308
  0
TEXT
  8
_0-2_3
 62
    7
 10
1570.357578196682
 20
1344.9762438554408
 40
20
 41
1
 50
0
  1
308
  0
TEXT
  8
_0-2_3
 62
    7
 10
1865.0007647898046
 20
1338.9322810535305
 40
20
 41
1
 50
0
  1
308
  0
TEXT
  8
_0-2_3
 62
    7
 10
1221.3187263863665
 20
1210.4980715129384
 40
20
 41
1
 50
0
  1
弾性シール材
  0
TEXT
  8
_0-2_3
 62
    7
 10
1602.0883829067106
 20
1193.8771738076853
 40
20
 41
1
 50
0
  1
桟　瓦
  0
TEXT
  8
_0-2_3
 62
    7
 10
789.17538604978563
 20
782.88770327779025
 40
20
 41
1
 50
0
  1
破風板：薄型ＡＬＣパネル　
  0
TEXT
  8
_0-2_3
 62
    7
 10
1714.4950877089468
 20
851.55623773850493
 40
20
 41
1
 50
0
  1
瓦桟：15x30以上
  0
TEXT
  8
_0-2_3
 62
    7
 10
1737.8142523815968
 20
823.16768944136606
 40
20
 41
1
 50
0
  1
下葺材：ルーフィング
  0
TEXT
  8
_0-2_3
 62
    7
 10
1749.98077308037
 20
791.73751096953401
 40
20
 41
1
 50
0
  1
　野地板：硬質木片セメントパネルｔ＝25
  0
TEXT
  8
_0-2_3
 62
    7
 10
1766.2028006787359
 20
760.30733249770174
 40
20
 41
1
 50
0
  1
　鋼製：C100x50x20x2.3@606　
  0
TEXT
  8
_0-2_3
 62
    7
 10
1134.5576010673974
 20
1280.42609237028
 40
20
 41
1
 50
0
  1
147
  0
TEXT
  8
_0-2_3
 62
    7
 10
1065.6139837743463
 20
1339.2309424143532
 40
20
 41
1
 50
0
  1
41
  0
TEXT
  8
_0-2_3
 62
    7
 10
1005.5091565511452
 20
1092.171993486978
 40
20
 41
1
 50
90
  1
92
  0
TEXT
  8
_0-2_3
 62
    7
 10
731.88637374439293
 20
981.71876006039906
 40
20
 41
1
 50
0
  1
登り淀：40x60（防腐処理）
  0
ENDSEC
  0
EOF
