  0
SECTION
  2
HEADER
  9
$ACADVER
  1
AC1009
  9
$INSBASE
 10
0
 20
0
 30
0
  9
$EXTMIN
 10
0
 20
0
  9
$EXTMAX
 10
2970
 20
2100
  9
$LIMMIN
 10
0
 20
0
  9
$LIMMAX
 10
2970
 20
2100
  9
$LTSCALE
 40
10
  0
ENDSEC
  0
SECTION
  2
TABLES
  0
TABLE
  2
LTYPE
 70
     9
  0
LTYPE
  2
CONTINUOUS
 70
    64
  3
実線
 72
    65
 73
     0
 40
0.0
  0
LTYPE
  2
DASHED1
 70
    64
  3
--  --  --  --  --  --  --  --  
 72
    65
 73
     2
 40
2.5
 49
1.25
 49
-1.25
  0
LTYPE
  2
DASHED2
 70
    64
  3
----    ----    ----    ----    
 72
    65
 73
     2
 40
5.0
 49
2.5
 49
-2.5
  0
LTYPE
  2
DASHED3
 70
    64
  3
------  ------  ------  ------  
 72
    65
 73
     2
 40
5.0
 49
3.75
 49
-1.25
  0
LTYPE
  2
CENTER1
 70
    64
  3
----- - ----- - ----- - ----- - 
 72
    65
 73
     4
 40
10.0
 49
6.25
 49
-1.25
 49
1.25
 49
-1.25
  0
LTYPE
  2
CENTER2
 70
    64
  3
----------  --  ----------  --  
 72
    65
 73
     4
 40
20.0
 49
12.5
 49
-2.5
 49
2.5
 49
-2.5
  0
LTYPE
  2
PHANTOM1
 70
    64
  3
--- - - --- - - --- - - --- - - 
 72
    65
 73
     6
 40
10.0
 49
3.25
 49
-1.25
 49
1.25
 49
-1.25
 49
1.25
 49
-1.25
  0
LTYPE
  2
PHANTOM2
 70
    64
  3
--------  -  -  --------  -  -  
 72
    65
 73
     6
 40
20.0
 49
10.0
 49
-2.5
 49
1.25
 49
-2.5
 49
1.25
 49
-2.5
  0
LTYPE
  2
DOT
 70
    64
  3
-   -   -   -   -   -   -   -   
 72
    65
 73
     2
 40
2.5
 49
0.625
 49
-1.875
  0
LTYPE
  2
DUMMY
 70
    64
  3
ダミー
 72
    65
 73
     0
 40
0.0
  0
LTYPE
  2
RAND1
 70
    64
  3
ランダム線1
 72
    65
 73
     4
 40
10.0
 49
1.0
 49
-2.0
 49
3.0
 49
-4.0
  0
LTYPE
  2
RAND2
 70
    64
  3
ランダム線2
 72
    65
 73
     4
 40
14.0
 49
2.0
 49
-3.0
 49
4.0
 49
-5.0
  0
LTYPE
  2
RAND3
 70
    64
  3
ランダム線3
 72
    65
 73
     4
 40
18.0
 49
3.0
 49
-4.0
 49
5.0
 49
-6.0
  0
LTYPE
  2
RAND4
 70
    64
  3
ランダム線4
 72
    65
 73
     4
 40
22.0
 49
4.0
 49
-5.0
 49
6.0
 49
-7.0
  0
LTYPE
  2
RAND5
 70
    64
  3
ランダム線5
 72
    65
 73
     4
 40
26.0
 49
5.0
 49
-6.0
 49
7.0
 49
-8.0
  0
LTYPE
  2
LONG1
 70
    64
  3
----------  --  ----------  --  
 72
    65
 73
     4
 40
40.0
 49
32.5
 49
-2.5
 49
2.5
 49
-2.5
  0
LTYPE
  2
LONG2
 70
    64
  3
--------  -  -  --------  -  -  
 72
    65
 73
     6
 40
40.0
 49
30.0
 49
-2.5
 49
1.25
 49
-2.5
 49
1.25
 49
-2.5
  0
LTYPE
  2
LONG3
 70
    64
  3
+++++++++++++++..+++++++++++++++
 72
    65
 73
     2
 40
40.0
 49
37.5
 49
-2.5
  0
LTYPE
  2
LONG4
 70
    64
  3
+++++++++++++++..+++++++++++++++
 72
    65
 73
     2
 40
80.0
 49
75.0
 49
-5.0
  0
LTYPE
  2
LONG5
 70
    64
  3
----------  --  ----------  --  
 72
    65
 73
     4
 40
60.0
 49
37.5
 49
-7.5
 49
7.5
 49
-7.5
  0
LTYPE
  2
dashed
 70
   64
  3
-------   -------------   ------
 72
   65
 73
    2
 40
7.5
 49
6
 49
-1.5
  0
LTYPE
  2
dashed_spaced
 70
   64
  3
----        --------        ----
 72
   65
 73
    2
 40
12
 49
6
 49
-6
  0
LTYPE
  2
long_dashed_dotted
 70
   64
  3
------------- --- --------------
 72
   65
 73
    4
 40
15.25
 49
12
 49
-1.5
 49
0.25
 49
-1.5
  0
LTYPE
  2
long_dashed_double-dotted
 70
   64
  3
----------- --- --- ------------
 72
   65
 73
    6
 40
17
 49
12
 49
-1.5
 49
0.25
 49
-1.5
 49
0.25
 49
-1.5
  0
LTYPE
  2
long_dashed_triplicate-dotted
 70
   64
  3
--------- --- --- --- ----------
 72
   65
 73
    8
 40
18.75
 49
12
 49
-1.5
 49
0.25
 49
-1.5
 49
0.25
 49
-1.5
 49
0.25
 49
-1.5
  0
LTYPE
  2
dotted
 70
   64
  3
   -       -       -       -    
 72
   65
 73
    2
 40
1.75
 49
0.25
 49
-1.5
  0
LTYPE
  2
chain
 70
   64
  3
-------------- -- --------------
 72
   65
 73
    4
 40
18.5
 49
12
 49
-1.5
 49
3.5
 49
-1.5
  0
LTYPE
  2
chain_double_dash
 70
   64
  3
------------ -- -- -------------
 72
   65
 73
    6
 40
23.5
 49
12
 49
-1.5
 49
3.5
 49
-1.5
 49
3.5
 49
-1.5
  0
LTYPE
  2
dashed_dotted
 70
   64
  3
-----------     -     ----------
 72
   65
 73
    4
 40
9.25
 49
6
 49
-1.5
 49
0.25
 49
-1.5
  0
LTYPE
  2
double-dashed_dotted
 70
   64
  3
------   -----------   -   -----
 72
   65
 73
    6
 40
16.75
 49
6
 49
-1.5
 49
6
 49
-1.5
 49
0.25
 49
-1.5
  0
LTYPE
  2
dashed_double-dotted
 70
   64
  3
---------    -    -    ---------
 72
   65
 73
    6
 40
11
 49
6
 49
-1.5
 49
0.25
 49
-1.5
 49
0.25
 49
-1.5
  0
LTYPE
  2
double-dashed_double-dotted
 70
   64
  3
-----   ---------   -   -   ----
 72
   65
 73
    8
 40
18.5
 49
6
 49
-1.5
 49
6
 49
-1.5
 49
0.25
 49
-1.5
 49
0.25
 49
-1.5
  0
LTYPE
  2
dashed_triplicate-dotted
 70
   64
  3
-------    -    -    -    ------
 72
   65
 73
    8
 40
12.75
 49
6
 49
-1.5
 49
0.25
 49
-1.5
 49
0.25
 49
-1.5
 49
0.25
 49
-1.5
  0
LTYPE
  2
double-dashed_triplicate-dotted
 70
   64
  3
-----  ---------  -  -  -  -----
 72
   65
 73
   10
 40
20.25
 49
6
 49
-1.5
 49
6
 49
-1.5
 49
0.25
 49
-1.5
 49
0.25
 49
-1.5
 49
0.25
 49
-1.5
  0
LTYPE
  2
undefined
 70
   64
  3
--------------------------------
 72
   65
 73
    0
 40
0
  0
LTYPE
  2
HIDDEN
 70
   64
  3
----        --------        ----
 72
   65
 73
    2
 40
10
 49
5
 49
-5
  0
LTYPE
  2
DASHED
 70
   64
  3
-------   -------------   ------
 72
   65
 73
    2
 40
50
 49
40
 49
-10
  0
LTYPE
  2
CENTER
 70
   64
  3
------------   ---   -----------
 72
   65
 73
    4
 40
100
 49
70
 49
-10
 49
10
 49
-10
  0
LTYPE
  2
PHANTOM
 70
   64
  3
---------   ---   ---   --------
 72
   65
 73
    6
 40
100
 49
50
 49
-10
 49
10
 49
-10
 49
10
 49
-10
  0
ENDTAB
  0
TABLE
  2
STYLE
  5
3
100
AcDbSymbolTable
 70
     1
  0
STYLE
  5
10
100
AcDbSymbolTableRecord
100
AcDbTextStyleTableRecord
  2
STANDARD
 70
     0
 40
0.0
 41
1.0
 50
0.0
 71
     0
 42
0.2
  3
txt
  4
bigfont.shx
  0
STYLE
  5
26
100
AcDbSymbolTableRecord
100
AcDbTextStyleTableRecord
  2
TATEGAKI
 70
    68
 40
0.0
 41
1.0
 50
0.0
 71
     0
 42
1.0
  3
txt
  4
bigfont.shx
  0
ENDTAB
  0
TABLE
  2
LAYER
 70
    8
  0
LAYER
  2
_0-0_LAYER001
 70
   64
 62
    7
  6
CONTINUOUS
  0
LAYER
  2
_0-1_LAYER002
 70
   64
 62
    7
  6
CONTINUOUS
  0
LAYER
  2
_0-2_LAYER003
 70
   64
 62
    7
  6
CONTINUOUS
  0
LAYER
  2
_0-3_LAYER004
 70
   64
 62
    7
  6
CONTINUOUS
  0
LAYER
  2
_0-4_LAYER006
 70
   64
 62
    7
  6
CONTINUOUS
  0
LAYER
  2
_0-5_LAYER007
 70
   64
 62
    7
  6
CONTINUOUS
  0
LAYER
  2
_0-6_LAYER009
 70
   64
 62
    7
  6
CONTINUOUS
  0
LAYER
  2
ADD_LINE
 70
   64
 62
    7
  6
CONTINUOUS
  0
ENDTAB
  0
ENDSEC
  0
SECTION
  2
BLOCKS
  0
ENDSEC
  0
SECTION
  2
ENTITIES
  0
LINE
  8
_0-0_LAYER001
  6
CONTINUOUS
 62
    2
 10
1932.1283370000001
 20
1052.4145309999999
 11
1932.1283370000001
 21
1528.0343360000002
  0
LINE
  8
_0-0_LAYER001
  6
CONTINUOUS
 62
    2
 10
1947.1283370000001
 20
1523.8759539999999
 11
1947.1283370000001
 21
732.94133999999985
  0
LINE
  8
_0-6_LAYER009
  6
CONTINUOUS
 62
    2
 10
1401.3052479999997
 20
836.04459599999996
 11
1335.1909389999996
 21
861.12250199999994
  0
LINE
  8
_0-6_LAYER009
  6
CONTINUOUS
 62
    2
 10
1405.1741119999997
 20
837.78561100000002
 11
1339.0598009999999
 21
862.86356799999999
  0
LINE
  8
_0-6_LAYER009
  6
CONTINUOUS
 62
    2
 10
1207.8574049999997
 20
748.99322699999993
 11
1141.7430949999998
 21
774.0711339999998
  0
LINE
  8
_0-6_LAYER009
  6
CONTINUOUS
 62
    2
 10
1211.7262689999998
 20
750.73424299999988
 11
1145.6119569999996
 21
775.81219899999996
  0
LINE
  8
_0-0_LAYER001
  6
CONTINUOUS
 62
    4
 10
933.57544999999982
 20
735.54794799999991
 11
1093.0918609999999
 21
785.93854899999997
  0
LINE
  8
_0-0_LAYER001
  6
CONTINUOUS
 62
    4
 10
1087.0128849999996
 20
805.18214599999988
 11
1063.6279009999998
 21
797.79492199999981
  0
LINE
  8
_0-0_LAYER001
  6
CONTINUOUS
 62
    4
 10
926.30600699999968
 20
751.6039659999999
 11
1061.2185829999999
 21
794.22231299999999
  0
ARC
  8
_0-0_LAYER001
  6
CONTINUOUS
 62
    4
 10
1066.8493509999998
 20
792.742344
 40
5.8220140000000011
 50
113.701938
 51
165.27368200000001
  0
LINE
  8
_0-0_LAYER001
  6
CONTINUOUS
 62
    4
 10
1094.2478159999996
 20
766.82748599999991
 11
1092.4863109999997
 21
772.40370499999995
  0
LINE
  8
_0-0_LAYER001
  6
CONTINUOUS
 62
    4
 10
1087.0128849999996
 20
805.18214599999988
 11
1098.6860739999997
 21
768.22951399999988
  0
LINE
  8
_0-0_LAYER001
  6
CONTINUOUS
 62
    4
 10
1094.2478159999996
 20
766.82748599999991
 11
1098.6860739999997
 21
768.22951399999988
  0
LINE
  8
_0-0_LAYER001
  6
CONTINUOUS
 62
    4
 10
938.86087199999963
 20
723.87403799999993
 11
1092.4863109999997
 21
772.40370499999995
  0
LINE
  8
_0-0_LAYER001
  6
CONTINUOUS
 62
    2
 10
1069.8882649999996
 20
745.96546599999988
 11
1097.4587289999999
 21
757.79210999999987
  0
LINE
  8
_0-0_LAYER001
  6
CONTINUOUS
 62
    2
 10
1097.4587289999999
 20
757.79210999999987
 11
1091.5454069999996
 21
771.57734199999982
  0
LINE
  8
_0-0_LAYER001
  6
CONTINUOUS
 62
    2
 10
1091.5454069999996
 20
771.57734199999982
 11
1063.9749429999997
 21
759.75069799999983
  0
LINE
  8
_0-0_LAYER001
  6
CONTINUOUS
 62
    2
 10
1063.9749429999997
 20
759.75069799999983
 11
1069.8882649999996
 21
745.96546599999988
  0
LINE
  8
_0-0_LAYER001
  6
CONTINUOUS
 62
    2
 10
1091.5454069999996
 20
771.57734199999982
 11
1069.8882649999996
 21
745.96546599999988
  0
LINE
  8
_0-0_LAYER001
  6
CONTINUOUS
 62
    4
 10
1017.4031989999997
 20
803.03005399999984
 11
1023.0216339999997
 21
804.75383299999999
  0
ARC
  8
_0-0_LAYER001
  6
CONTINUOUS
 62
    4
 10
1039.820033
 20
806.32824199999982
 40
16.872017
 50
102.88244700000001
 51
185.35433299999997
  0
LINE
  8
_0-0_LAYER001
  6
CONTINUOUS
 62
    4
 10
1041.4645989999999
 20
806.12912399999982
 11
1348.4299069999997
 21
900.308448
  0
LINE
  8
_0-0_LAYER001
  6
CONTINUOUS
 62
    4
 10
1342.5105729999996
 20
919.60174899999993
 11
1319.0651879999996
 21
912.40852399999994
  0
LINE
  8
_0-0_LAYER001
  6
CONTINUOUS
 62
    4
 10
1036.0583909999996
 20
822.77558299999987
 11
1316.6263539999995
 21
908.85599899999988
  0
ARC
  8
_0-0_LAYER001
  6
CONTINUOUS
 62
    4
 10
1322.2446669999999
 20
907.32943
 40
5.8220140000000011
 50
113.22723600000002
 51
164.79898000000003
  0
LINE
  8
_0-0_LAYER001
  6
CONTINUOUS
 62
    4
 10
1017.3940519999996
 20
803.05986899999994
 11
1023.1226559999996
 21
784.38822399999981
  0
ARC
  8
_0-0_LAYER001
  6
CONTINUOUS
 62
    4
 10
1045.22624
 20
789.681783
 40
16.872017
 50
102.88244700000001
 51
192.21985000000001
  0
LINE
  8
_0-0_LAYER001
  6
CONTINUOUS
 62
    4
 10
1349.4274859999996
 20
881.18846399999984
 11
1347.7122409999997
 21
886.7790849999999
  0
LINE
  8
_0-0_LAYER001
  6
CONTINUOUS
 62
    4
 10
1342.5105729999996
 20
919.60174899999993
 11
1353.8772079999999
 21
882.55367299999989
  0
LINE
  8
_0-0_LAYER001
  6
CONTINUOUS
 62
    4
 10
1349.4274859999996
 20
881.18846399999984
 11
1353.8772079999999
 21
882.55367299999989
  0
LINE
  8
_0-0_LAYER001
  6
CONTINUOUS
 62
    4
 10
1028.7364989999996
 20
786.11059399999999
 11
1023.1226559999996
 21
784.38822399999981
  0
LINE
  8
_0-0_LAYER001
  6
CONTINUOUS
 62
    4
 10
1028.3883449999998
 20
788.80805099999998
 11
1347.7122409999997
 21
886.7790849999999
  0
LINE
  8
_0-0_LAYER001
  6
CONTINUOUS
 62
    2
 10
1324.8959289999998
 20
860.52897899999994
 11
1352.5634309999996
 21
872.1267949999999
  0
LINE
  8
_0-0_LAYER001
  6
CONTINUOUS
 62
    2
 10
1352.5634309999996
 20
872.1267949999999
 11
1346.7645229999998
 21
885.96054599999979
  0
LINE
  8
_0-0_LAYER001
  6
CONTINUOUS
 62
    2
 10
1346.7645229999998
 20
885.96054599999979
 11
1319.0970209999996
 21
874.36272999999983
  0
LINE
  8
_0-0_LAYER001
  6
CONTINUOUS
 62
    2
 10
1319.0970209999996
 20
874.36272999999983
 11
1324.8959289999998
 21
860.52897899999994
  0
LINE
  8
_0-0_LAYER001
  6
CONTINUOUS
 62
    2
 10
1346.7645229999998
 20
885.96054599999979
 11
1324.8959289999998
 21
860.52897899999994
  0
LINE
  8
_0-0_LAYER001
  6
CONTINUOUS
 62
    4
 10
1272.7220329999996
 20
917.97480199999995
 11
1278.3404679999999
 21
919.69858199999999
  0
ARC
  8
_0-0_LAYER001
  6
CONTINUOUS
 62
    4
 10
1295.1388669999997
 20
921.27298999999994
 40
16.872017
 50
102.88244700000001
 51
185.35433299999997
  0
LINE
  8
_0-0_LAYER001
  6
CONTINUOUS
 62
    4
 10
1296.7834329999996
 20
921.07387199999994
 11
1603.7487409999999
 21
1015.2531959999999
  0
LINE
  8
_0-0_LAYER001
  6
CONTINUOUS
 62
    4
 10
1597.8294069999997
 20
1034.5464969999998
 11
1574.3840219999997
 21
1027.3532719999998
  0
LINE
  8
_0-0_LAYER001
  6
CONTINUOUS
 62
    4
 10
1291.3772249999997
 20
937.72033099999999
 11
1571.9451879999997
 21
1023.800747
  0
ARC
  8
_0-0_LAYER001
  6
CONTINUOUS
 62
    4
 10
1577.5635009999996
 20
1022.2741779999999
 40
5.8220140000000011
 50
113.22723600000002
 51
164.79898000000003
  0
LINE
  8
_0-0_LAYER001
  6
CONTINUOUS
 62
    4
 10
1272.7128859999998
 20
918.00461699999983
 11
1278.4414899999997
 21
899.33297199999993
  0
ARC
  8
_0-0_LAYER001
  6
CONTINUOUS
 62
    4
 10
1300.5450739999997
 20
904.62653099999989
 40
16.872017
 50
102.88244700000001
 51
192.21985000000001
  0
LINE
  8
_0-0_LAYER001
  6
CONTINUOUS
 62
    4
 10
1604.7463209999996
 20
996.13321199999996
 11
1603.0310749999999
 21
1001.7238339999999
  0
LINE
  8
_0-0_LAYER001
  6
CONTINUOUS
 62
    4
 10
1597.8294069999997
 20
1034.5464969999998
 11
1609.1960419999996
 21
997.49842100000001
  0
LINE
  8
_0-0_LAYER001
  6
CONTINUOUS
 62
    4
 10
1604.7463209999996
 20
996.13321199999996
 11
1609.1960419999996
 21
997.49842100000001
  0
LINE
  8
_0-0_LAYER001
  6
CONTINUOUS
 62
    4
 10
1284.0553329999998
 20
901.05534299999999
 11
1278.4414899999997
 21
899.33297199999993
  0
LINE
  8
_0-0_LAYER001
  6
CONTINUOUS
 62
    4
 10
1283.7071789999995
 20
903.75279899999987
 11
1603.0310749999999
 21
1001.7238339999999
  0
LINE
  8
_0-0_LAYER001
  6
CONTINUOUS
 62
    2
 10
1580.2147629999999
 20
975.47372699999983
 11
1607.8822650000002
 21
987.0715439999999
  0
LINE
  8
_0-0_LAYER001
  6
CONTINUOUS
 62
    2
 10
1607.8822650000002
 20
987.0715439999999
 11
1602.083357
 21
1000.9052949999998
  0
LINE
  8
_0-0_LAYER001
  6
CONTINUOUS
 62
    2
 10
1602.083357
 20
1000.9052949999998
 11
1574.4158549999997
 21
989.30747799999995
  0
LINE
  8
_0-0_LAYER001
  6
CONTINUOUS
 62
    2
 10
1574.4158549999997
 20
989.30747799999995
 11
1580.2147629999999
 21
975.47372699999983
  0
LINE
  8
_0-0_LAYER001
  6
CONTINUOUS
 62
    2
 10
1602.083357
 20
1000.9052949999998
 11
1580.2147629999999
 21
975.47372699999983
  0
LINE
  8
_0-0_LAYER001
  6
CONTINUOUS
 62
    4
 10
1528.0408669999997
 20
1032.919551
 11
1533.6593029999999
 21
1034.6433299999999
  0
ARC
  8
_0-0_LAYER001
  6
CONTINUOUS
 62
    4
 10
1550.4577009999998
 20
1036.2177389999999
 40
16.872017
 50
102.88244700000001
 51
185.35433299999997
  0
LINE
  8
_0-0_LAYER001
  6
CONTINUOUS
 62
    4
 10
1552.1022679999996
 20
1036.0186199999998
 11
1859.067575
 21
1130.1979449999999
  0
LINE
  8
_0-0_LAYER001
  6
CONTINUOUS
 62
    4
 10
1853.1482409999999
 20
1149.4912449999999
 11
1829.7028559999999
 21
1142.2980209999998
  0
LINE
  8
_0-0_LAYER001
  6
CONTINUOUS
 62
    4
 10
1546.6960599999998
 20
1052.6650789999999
 11
1827.2640219999994
 21
1138.7454949999999
  0
ARC
  8
_0-0_LAYER001
  6
CONTINUOUS
 62
    4
 10
1832.8823349999993
 20
1137.218926
 40
5.8220140000000011
 50
113.22723600000002
 51
164.79898000000003
  0
LINE
  8
_0-0_LAYER001
  6
CONTINUOUS
 62
    4
 10
1528.03172
 20
1032.9493649999999
 11
1533.7603239999999
 21
1014.2777209999999
  0
ARC
  8
_0-0_LAYER001
  6
CONTINUOUS
 62
    4
 10
1555.8639079999998
 20
1019.5712799999999
 40
16.872017
 50
102.88244700000001
 51
192.21985000000001
  0
LINE
  8
_0-0_LAYER001
  6
CONTINUOUS
 62
    4
 10
1860.0651549999993
 20
1111.077961
 11
1858.3499089999996
 21
1116.668582
  0
LINE
  8
_0-0_LAYER001
  6
CONTINUOUS
 62
    4
 10
1853.1482409999999
 20
1149.4912449999999
 11
1864.5148760000002
 21
1112.4431689999999
  0
LINE
  8
_0-0_LAYER001
  6
CONTINUOUS
 62
    4
 10
1860.0651549999993
 20
1111.077961
 11
1864.5148760000002
 21
1112.4431689999999
  0
LINE
  8
_0-0_LAYER001
  6
CONTINUOUS
 62
    4
 10
1539.3741669999999
 20
1016.0000909999999
 11
1533.7603239999999
 21
1014.2777209999999
  0
LINE
  8
_0-0_LAYER001
  6
CONTINUOUS
 62
    4
 10
1539.0260139999996
 20
1018.697547
 11
1858.3499089999996
 21
1116.668582
  0
LINE
  8
_0-0_LAYER001
  6
CONTINUOUS
 62
    2
 10
1835.5335969999996
 20
1090.4184759999998
 11
1863.2010989999999
 21
1102.0162919999998
  0
LINE
  8
_0-0_LAYER001
  6
CONTINUOUS
 62
    2
 10
1863.2010989999999
 20
1102.0162919999998
 11
1857.4021910000001
 21
1115.8500429999999
  0
LINE
  8
_0-0_LAYER001
  6
CONTINUOUS
 62
    2
 10
1857.4021910000001
 20
1115.8500429999999
 11
1829.7346889999999
 21
1104.2522259999998
  0
LINE
  8
_0-0_LAYER001
  6
CONTINUOUS
 62
    2
 10
1829.7346889999999
 20
1104.2522259999998
 11
1835.5335969999996
 21
1090.4184759999998
  0
LINE
  8
_0-0_LAYER001
  6
CONTINUOUS
 62
    2
 10
1857.4021910000001
 20
1115.8500429999999
 11
1835.5335969999996
 21
1090.4184759999998
  0
LINE
  8
_0-0_LAYER001
  6
CONTINUOUS
 62
    4
 10
1758.7096160000001
 20
1152.366687
 11
1760.6140459999997
 21
1122.3851169999998
  0
LINE
  8
_0-0_LAYER001
  6
CONTINUOUS
 62
    4
 10
1760.6140459999997
 20
1122.3851169999998
 11
1769.1422279999997
 21
1125.2608929999999
  0
ARC
  8
_0-0_LAYER001
  6
CONTINUOUS
 62
    4
 10
1860.9772119999998
 20
1027.4125429999999
 40
134.19375500000001
 50
114.794572
 51
133.18420900000001
  0
ARC
  8
_0-0_LAYER001
  6
CONTINUOUS
 62
    4
 10
1816.4325939999999
 20
1145.773788
 40
12.231889000000002
 50
103.69505300000002
 51
163.558077
  0
LINE
  8
_0-0_LAYER001
  6
CONTINUOUS
 62
    4
 10
1860.267578
 20
1182.960482
 11
1862.5195509999994
 21
1168.1304909999999
  0
ARC
  8
_0-0_LAYER001
  6
CONTINUOUS
 62
    4
 10
1925.2995249999994
 20
754.703307
 40
418.16666700000013
 50
98.634545000000003
 51
105.501806
  0
ARC
  8
_0-0_LAYER001
  6
CONTINUOUS
 62
    4
 10
1916.5668779999996
 20
812.21071599999982
 40
375
 50
98.634545000000003
 51
114.89475
  0
LINE
  8
_0-0_LAYER001
  6
CONTINUOUS
 62
    2
 10
1796.0164649999997
 20
1183.122427
 11
1799.8772869999993
 21
1168.6280959999999
  0
LINE
  8
_0-0_LAYER001
  6
CONTINUOUS
 62
    2
 10
1814.371889
 20
1172.4889899999998
 11
1810.5108890000001
 21
1186.9839899999999
  0
LINE
  8
_0-0_LAYER001
  6
CONTINUOUS
 62
    1
 10
1810.1845489999996
 20
1171.750912
 11
1813.6467079999993
 21
1175.2130709999999
  0
LINE
  8
_0-0_LAYER001
  6
CONTINUOUS
 62
    1
 10
1805.1122479999995
 20
1170.2141449999999
 11
1812.9030439999997
 21
1178.0049409999999
  0
LINE
  8
_0-0_LAYER001
  6
CONTINUOUS
 62
    1
 10
1800.0399459999999
 20
1168.677377
 11
1812.1593800000001
 21
1180.7968099999998
  0
LINE
  8
_0-0_LAYER001
  6
CONTINUOUS
 62
    1
 10
1799.1574709999995
 20
1171.3304349999999
 11
1811.4157159999995
 21
1183.5886799999998
  0
LINE
  8
_0-0_LAYER001
  6
CONTINUOUS
 62
    1
 10
1798.4138069999999
 20
1174.1223049999999
 11
1810.6720519999999
 21
1186.3805499999999
  0
LINE
  8
_0-0_LAYER001
  6
CONTINUOUS
 62
    1
 10
1797.6701429999994
 20
1176.9141749999999
 11
1806.733886
 21
1185.9779179999998
  0
LINE
  8
_0-0_LAYER001
  6
CONTINUOUS
 62
    1
 10
1796.9264789999997
 20
1179.7060449999999
 11
1801.9146679999994
 21
1184.6942339999998
  0
LINE
  8
_0-0_LAYER001
  6
CONTINUOUS
 62
    1
 10
1796.1828150000001
 20
1182.4979149999999
 11
1797.0954499999998
 21
1183.4105499999998
  0
LINE
  8
_0-0_LAYER001
  6
CONTINUOUS
 62
    1
 10
1799.5744119999999
 20
1169.7651509999998
 11
1800.5174999999999
 21
1168.8220629999998
  0
LINE
  8
_0-0_LAYER001
  6
CONTINUOUS
 62
    1
 10
1798.2907279999999
 20
1174.5843689999999
 11
1803.2309369999994
 21
1169.6441589999999
  0
LINE
  8
_0-0_LAYER001
  6
CONTINUOUS
 62
    1
 10
1797.007044
 20
1179.403587
 11
1805.944375
 21
1170.4662559999999
  0
LINE
  8
_0-0_LAYER001
  6
CONTINUOUS
 62
    1
 10
1796.65337
 20
1183.292794
 11
1808.6578119999995
 21
1171.2883529999999
  0
LINE
  8
_0-0_LAYER001
  6
CONTINUOUS
 62
    1
 10
1799.44524
 20
1184.0364579999998
 11
1811.3712489999998
 21
1172.110449
  0
LINE
  8
_0-0_LAYER001
  6
CONTINUOUS
 62
    1
 10
1802.23711
 20
1184.7801219999999
 11
1814.0846860000001
 21
1172.932546
  0
LINE
  8
_0-0_LAYER001
  6
CONTINUOUS
 62
    1
 10
1805.02898
 20
1185.523786
 11
1813.0320169999995
 21
1177.5207489999998
  0
LINE
  8
_0-0_LAYER001
  6
CONTINUOUS
 62
    1
 10
1807.8208500000001
 20
1186.2674499999998
 11
1811.7483329999995
 21
1182.3399669999999
  0
LINE
  8
_0-0_LAYER001
  6
CONTINUOUS
 62
    2
 10
1777.1952869999996
 20
1178.1086949999999
 11
1878.257388
 21
1205.0304019999999
  0
LINE
  8
_0-0_LAYER001
  6
CONTINUOUS
 62
    2
 10
1768.4602989999994
 20
1150.0284949999998
 11
1770.4014419999994
 21
1142.7840509999999
  0
LINE
  8
_0-0_LAYER001
  6
CONTINUOUS
 62
    2
 10
1770.4014419999994
 20
1142.7840509999999
 11
1765.0981409999995
 21
1148.087352
  0
LINE
  8
_0-0_LAYER001
  6
CONTINUOUS
 62
    2
 10
1770.4014419999994
 20
1142.7840509999999
 11
1736.5451139999996
 21
1201.4249319999999
  0
LINE
  8
_0-0_LAYER001
  6
CONTINUOUS
 62
    2
 10
1736.5451139999996
 20
1201.4249319999999
 11
1688.5451139999996
 21
1201.4249319999999
  0
LINE
  8
_0-0_LAYER001
  6
CONTINUOUS
 62
    2
 10
1804.4046600000001
 20
1185.763211
 11
1806.3458030000002
 21
1178.5187679999999
  0
LINE
  8
_0-0_LAYER001
  6
CONTINUOUS
 62
    2
 10
1806.3458030000002
 20
1178.5187679999999
 11
1801.0425019999993
 21
1183.8220689999998
  0
LINE
  8
_0-0_LAYER001
  6
CONTINUOUS
 62
    2
 10
1806.3458030000002
 20
1178.5187679999999
 11
1766.2372310000001
 21
1247.988852
  0
LINE
  8
_0-0_LAYER001
  6
CONTINUOUS
 62
    2
 10
1766.2372310000001
 20
1247.988852
 11
1668.7372310000001
 21
1247.988852
  0
LINE
  8
_0-0_LAYER001
  6
CONTINUOUS
 62
    2
 10
1777.1952869999996
 20
1163.0841679999999
 11
1781.5313989999995
 21
1170.202059
  0
LINE
  8
_0-0_LAYER001
  6
CONTINUOUS
 62
    2
 10
1777.1952869999996
 20
1178.1086949999999
 11
1777.1952869999996
 21
1162.5123389999999
  0
LINE
  8
_0-0_LAYER001
  6
CONTINUOUS
 62
    2
 10
1882.1283370000001
 20
1052.4145309999999
 11
1882.1283370000001
 21
1275.4597709999998
  0
LINE
  8
_0-0_LAYER001
  6
CONTINUOUS
 62
    2
 10
1882.1283370000001
 20
1319.4304319999997
 11
1882.1283370000001
 21
1556.0049369999999
  0
LINE
  8
_0-0_LAYER001
  6
HIDDEN
 62
    2
 10
1895.3687159999999
 20
1283.9063819999999
 11
1900.5106949999999
 21
1282.2125599999999
  0
LINE
  8
_0-0_LAYER001
  6
HIDDEN
 62
    2
 10
1900.5106949999999
 20
1282.2125599999999
 11
1894.8322360000002
 21
1280.8440719999999
  0
LINE
  8
_0-0_LAYER001
  6
CONTINUOUS
 62
    2
 10
1892.5283359999994
 20
1313.8304119999998
 11
1894.1283359999998
 21
1313.8304119999998
  0
LINE
  8
_0-0_LAYER001
  6
CONTINUOUS
 62
    2
 10
1892.5283359999994
 20
1309.0303919999999
 11
1894.1283359999998
 21
1309.0303919999999
  0
LINE
  8
_0-5_LAYER007
  6
CONTINUOUS
 62
    2
 10
1878.1283359999998
 20
1205.0304019999999
 11
1878.1283359999998
 21
1303.4303719999998
  0
LINE
  8
_0-5_LAYER007
  6
CONTINUOUS
 62
    2
 10
1878.1283359999998
 20
1303.4303719999998
 11
1875.9902860000002
 21
1291.622482
  0
LINE
  8
_0-2_LAYER003
  6
CONTINUOUS
 62
    2
 10
1875.7283159999997
 20
1273.030442
 11
1876.9706660000002
 21
1277.6669019999999
  0
LINE
  8
_0-2_LAYER003
  6
CONTINUOUS
 62
    2
 10
1875.7283159999997
 20
1273.030442
 11
1875.7283159999997
 21
1305.0304019999999
  0
LINE
  8
_0-6_LAYER009
  6
CONTINUOUS
 62
    2
 10
1894.1283359999998
 20
1303.4303719999998
 11
1894.1283359999998
 21
1319.4304319999997
  0
LINE
  8
_0-2_LAYER003
  6
CONTINUOUS
 62
    2
 10
1892.5283359999994
 20
1305.0304019999999
 11
1892.5283359999994
 21
1317.0304719999999
  0
LINE
  8
_0-2_LAYER003
  6
CONTINUOUS
 62
    2
 10
1892.5283359999994
 20
1305.0304019999999
 11
1875.7283159999997
 21
1305.0304019999999
  0
LINE
  8
_0-4_LAYER006
  6
CONTINUOUS
 62
    2
 10
1892.5283359999994
 20
1305.0304019999999
 11
1883.9938059999995
 21
1313.5649119999998
  0
LINE
  8
_0-4_LAYER006
  6
CONTINUOUS
 62
    2
 10
1889.134196
 20
1305.0304019999999
 11
1884.0753759999998
 21
1310.0892719999999
  0
LINE
  8
_0-4_LAYER006
  6
CONTINUOUS
 62
    2
 10
1885.740076
 20
1305.0304019999999
 11
1883.5888459999996
 21
1307.1817019999999
  0
LINE
  8
_0-4_LAYER006
  6
CONTINUOUS
 62
    2
 10
1883.846716
 20
1308.3488219999999
 11
1892.5283359999994
 21
1317.030362
  0
LINE
  8
_0-4_LAYER006
  6
CONTINUOUS
 62
    2
 10
1884.118316
 20
1312.0145419999999
 11
1891.5342359999995
 21
1319.4304319999997
  0
LINE
  8
_0-4_LAYER006
  6
CONTINUOUS
 62
    2
 10
1883.7422859999997
 20
1315.0327119999999
 11
1888.1399860000001
 21
1319.4304319999997
  0
LINE
  8
_0-4_LAYER006
  6
CONTINUOUS
 62
    2
 10
1887.3165859999999
 20
1305.0304019999999
 11
1891.2603760000002
 21
1308.9742219999998
  0
LINE
  8
_0-4_LAYER006
  6
CONTINUOUS
 62
    2
 10
1890.7106759999997
 20
1305.0304019999999
 11
1892.2861659999999
 21
1306.6058619999999
  0
LINE
  8
_0-4_LAYER006
  6
CONTINUOUS
 62
    2
 10
1891.0563959999999
 20
1309.8964120000001
 11
1882.6987060000001
 21
1318.2541219999998
  0
LINE
  8
_0-4_LAYER006
  6
CONTINUOUS
 62
    2
 10
1891.1070460000001
 20
1313.239932
 11
1884.9166459999997
 21
1319.4304319999997
  0
LINE
  8
_0-4_LAYER006
  6
CONTINUOUS
 62
    2
 10
1883.9224359999998
 20
1305.0304019999999
 11
1890.9495959999995
 21
1312.0575819999999
  0
LINE
  8
_0-4_LAYER006
  6
CONTINUOUS
 62
    2
 10
1882.9541359999994
 20
1317.6387519999998
 11
1884.7457559999993
 21
1319.4304319999997
  0
LINE
  8
_0-4_LAYER006
  6
CONTINUOUS
 62
    2
 10
1891.9962159999995
 20
1315.7450319999998
 11
1888.3108459999994
 21
1319.4304319999997
  0
LINE
  8
_0-4_LAYER006
  6
CONTINUOUS
 62
    2
 10
1892.5283359999994
 20
1318.6070319999999
 11
1891.7049859999997
 21
1319.4304319999997
  0
LINE
  8
_0-4_LAYER006
  6
CONTINUOUS
 62
    2
 10
1892.5283359999994
 20
1317.030362
 11
1892.5283359999994
 21
1319.4304319999997
  0
LINE
  8
_0-3_LAYER004
  6
CONTINUOUS
 62
    2
 10
1875.728736
 20
1277.169122
 11
1875.728736
 21
1287.1726819999999
  0
LINE
  8
_0-3_LAYER004
  6
CONTINUOUS
 62
    2
 10
1873.8108160000002
 20
1277.169122
 11
1873.8105559999995
 21
1287.1726819999999
  0
LINE
  8
_0-3_LAYER004
  6
CONTINUOUS
 62
    2
 10
1873.8105559999995
 20
1287.1726819999999
 11
1875.728736
 21
1287.1726819999999
  0
LINE
  8
_0-3_LAYER004
  6
CONTINUOUS
 62
    2
 10
1873.8108160000002
 20
1277.169122
 11
1875.728736
 21
1277.169122
  0
LINE
  8
_0-3_LAYER004
  6
CONTINUOUS
 62
    2
 10
1873.8112860000001
 20
1282.174442
 11
1875.7283159999997
 21
1282.174442
  0
LINE
  8
_0-3_LAYER004
  6
HIDDEN
 62
    2
 10
1895.3687159999999
 20
1283.9063819999999
 11
1875.7290560000001
 21
1283.907432
  0
LINE
  8
_0-3_LAYER004
  6
HIDDEN
 62
    2
 10
1894.8322360000002
 20
1280.8440719999999
 11
1875.728376
 21
1280.845022
  0
LINE
  8
_0-4_LAYER006
  6
CONTINUOUS
 62
    2
 10
1875.7283159999997
 20
1287.8313619999999
 11
1874.8242359999995
 21
1288.7353919999998
  0
LINE
  8
_0-4_LAYER006
  6
CONTINUOUS
 62
    2
 10
1875.7283159999997
 20
1285.0029519999998
 11
1873.2211159999997
 21
1287.510102
  0
LINE
  8
_0-4_LAYER006
  6
CONTINUOUS
 62
    2
 10
1875.7283159999997
 20
1287.8313619999999
 11
1871.0825960000002
 21
1283.1856619999999
  0
LINE
  8
_0-4_LAYER006
  6
CONTINUOUS
 62
    2
 10
1875.7283159999997
 20
1282.174442
 11
1871.9991959999998
 21
1285.9036219999998
  0
LINE
  8
_0-4_LAYER006
  6
CONTINUOUS
 62
    2
 10
1875.7283159999997
 20
1279.3460419999999
 11
1871.2067959999995
 21
1283.867542
  0
LINE
  8
_0-4_LAYER006
  6
CONTINUOUS
 62
    2
 10
1875.7283159999997
 20
1276.5176319999998
 11
1871.082566
 21
1281.1633319999999
  0
LINE
  8
_0-4_LAYER006
  6
CONTINUOUS
 62
    2
 10
1874.3141159999996
 20
1283.588702
 11
1871.2067959999995
 21
1280.4813519999998
  0
LINE
  8
_0-4_LAYER006
  6
CONTINUOUS
 62
    2
 10
1875.7283159999997
 20
1282.174442
 11
1871.9991659999996
 21
1278.4453719999999
  0
LINE
  8
_0-4_LAYER006
  6
CONTINUOUS
 62
    2
 10
1875.7283159999997
 20
1279.3460419999999
 11
1873.2210859999996
 21
1276.838892
  0
LINE
  8
_0-4_LAYER006
  6
CONTINUOUS
 62
    2
 10
1875.7283159999997
 20
1276.5176319999998
 11
1874.8242359999995
 21
1275.6135019999999
  0
LINE
  8
_0-6_LAYER009
  6
CONTINUOUS
 62
    2
 10
1894.1283359999998
 20
1303.4303719999998
 11
1882.128326
 21
1303.4303719999998
  0
LINE
  8
_0-6_LAYER009
  6
CONTINUOUS
 62
    2
 10
1882.128326
 20
1303.4303719999998
 11
1882.128326
 21
1258.8140269999999
  0
LINE
  8
_0-6_LAYER009
  6
CONTINUOUS
 62
    2
 10
1894.1283359999998
 20
1319.4304319999997
 11
1882.128326
 21
1319.4304319999997
  0
ARC
  8
_0-2_LAYER003
  6
CONTINUOUS
 62
    2
 10
1900.1782359999997
 20
1311.430402
 40
9.2499219999999998
 50
145.79423600000001
 51
214.20577000000011
  0
ARC
  8
_0-0_LAYER001
  6
CONTINUOUS
 62
    2
 10
1895.3407859999998
 20
1311.430402
 40
4.4124889999999999
 50
129.59738200000001
 51
230.40261999999998
  0
ARC
  8
_0-2_LAYER003
  6
CONTINUOUS
 62
    2
 10
1867.128436
 20
1311.430402
 40
16.999911999999998
 50
337.88465000000002
 51
28.072639999999978
  0
ARC
  8
_0-2_LAYER003
  6
CONTINUOUS
 62
    2
 10
1878.569066
 20
1282.174442
 40
7.5544529999999996
 50
112.088334
 51
247.91166999999999
  0
LINE
  8
_0-0_LAYER001
  6
CONTINUOUS
 62
    2
 10
2012.7802789999996
 20
1305.0304019999999
 11
1985.2802789999996
 21
1305.0304019999999
  0
CIRCLE
  8
_0-0_LAYER001
  6
CONTINUOUS
 62
    2
 10
2010.2802789999996
 20
1305.0304019999999
 40
1.7000000000000004
  0
LINE
  8
_0-0_LAYER001
  6
CONTINUOUS
 62
    2
 10
2010.2802789999996
 20
1305.0304019999999
 11
2010.2802789999996
 21
1205.0304019999999
  0
CIRCLE
  8
_0-0_LAYER001
  6
CONTINUOUS
 62
    2
 10
2010.2802789999996
 20
1205.0304019999999
 40
1.7000000000000004
  0
LINE
  8
_0-0_LAYER001
  6
CONTINUOUS
 62
    2
 10
2012.7802789999996
 20
1205.0304019999999
 11
1985.2802789999996
 21
1205.0304019999999
  0
LINE
  8
_0-0_LAYER001
  6
CONTINUOUS
 62
    2
 10
1778.4285620000001
 20
1375.4683659999998
 11
1778.4285620000001
 21
1347.9683659999998
  0
CIRCLE
  8
_0-0_LAYER001
  6
CONTINUOUS
 62
    2
 10
1778.4285620000001
 20
1372.9683659999998
 40
1.7000000000000004
  0
LINE
  8
_0-0_LAYER001
  6
CONTINUOUS
 62
    2
 10
1778.4285620000001
 20
1372.9683659999998
 11
1876.2598769999995
 21
1372.9683659999998
  0
CIRCLE
  8
_0-0_LAYER001
  6
CONTINUOUS
 62
    2
 10
1876.2598769999995
 20
1372.9683659999998
 40
1.7000000000000004
  0
LINE
  8
_0-0_LAYER001
  6
CONTINUOUS
 62
    2
 10
1876.2598769999995
 20
1375.4683659999998
 11
1876.2598769999995
 21
1347.9683659999998
  0
LINE
  8
_0-0_LAYER001
  6
CONTINUOUS
 62
    2
 10
1882.1283370000001
 20
1221.121676
 11
1928.3884840000001
 21
1267.3818229999999
  0
LINE
  8
_0-0_LAYER001
  6
CONTINUOUS
 62
    2
 10
1882.1283370000001
 20
1433.2537109999998
 11
1928.3884840000001
 21
1479.5138569999999
  0
LINE
  8
_0-0_LAYER001
  6
CONTINUOUS
 62
    2
 10
1882.1283370000001
 20
1225.3643169999998
 11
1928.3884840000001
 21
1271.624464
  0
LINE
  8
_0-0_LAYER001
  6
CONTINUOUS
 62
    2
 10
1882.1283370000001
 20
1437.496351
 11
1928.3884840000001
 21
1483.756498
  0
LINE
  8
_0-0_LAYER001
  6
CONTINUOUS
 62
    2
 10
1833.0156859999997
 20
1200.7401069999999
 11
1834.9568289999997
 21
1193.4956629999999
  0
LINE
  8
_0-0_LAYER001
  6
CONTINUOUS
 62
    2
 10
1834.9568289999997
 20
1193.4956629999999
 11
1829.6535279999998
 21
1198.7989639999998
  0
LINE
  8
_0-0_LAYER001
  6
CONTINUOUS
 62
    2
 10
1834.9568289999997
 20
1193.4956629999999
 11
1712.2119149999999
 21
1406.09609
  0
LINE
  8
_0-0_LAYER001
  6
CONTINUOUS
 62
    2
 10
1712.2119149999999
 20
1406.09609
 11
1478.2119149999999
 21
1406.09609
  0
LINE
  8
_0-3_LAYER004
  6
CONTINUOUS
 62
    2
 10
1811.487349
 20
1077.6485949999999
 11
1833.3734049999994
 21
1087.497269
  0
LINE
  8
_0-6_LAYER009
  6
CONTINUOUS
 62
    2
 10
1882.1283370000001
 20
1052.4145309999999
 11
975.21976299999949
 21
644.30653600000005
  0
LINE
  8
_0-6_LAYER009
  6
CONTINUOUS
 62
    2
 10
1594.7530859999997
 20
923.09596399999987
 11
1528.6387759999998
 21
948.17387099999996
  0
LINE
  8
_0-6_LAYER009
  6
CONTINUOUS
 62
    2
 10
1598.6219499999997
 20
924.83697999999981
 11
1532.5076379999996
 21
949.9149359999999
  0
LINE
  8
_0-6_LAYER009
  6
CONTINUOUS
 62
    2
 10
1788.2009239999998
 20
1010.1473329999999
 11
1722.086577
 21
1035.2251769999998
  0
LINE
  8
_0-6_LAYER009
  6
CONTINUOUS
 62
    2
 10
1792.0699479999994
 20
1011.8883349999999
 11
1725.9554790000002
 21
1036.966244
  0
LINE
  8
_0-2_LAYER003
  6
CONTINUOUS
 62
    2
 10
1947.1283370000001
 20
961.04008299999987
 11
1020.3598389999996
 21
543.99506299999985
  0
LINE
  8
_0-6_LAYER009
  6
CONTINUOUS
 62
    2
 10
1882.1283370000001
 20
1052.4145309999999
 11
1861.6101659999995
 21
1098.01064
  0
LINE
  8
_0-6_LAYER009
  6
CONTINUOUS
 62
    2
 10
1861.6101659999995
 20
1098.01064
 11
954.70154299999967
 21
689.90266799999995
  0
LINE
  8
_0-2_LAYER003
  6
DASHED
 62
    2
 10
1880.6283370000001
 20
1108.7619889999999
 11
953.88086799999974
 21
691.7263939999998
  0
LINE
  8
_0-0_LAYER001
  6
DASHED
 62
    2
 10
1880.6283370000001
 20
1108.7619889999999
 11
1880.6283370000001
 21
1297.9402969999999
  0
LINE
  8
_0-0_LAYER001
  6
CONTINUOUS
 62
    2
 10
2091.3950209999994
 20
1108.7619889999999
 11
2038.8950209999994
 21
1108.7619889999999
  0
CIRCLE
  8
_0-0_LAYER001
  6
CONTINUOUS
 62
    2
 10
2088.8950209999994
 20
1108.7619889999999
 40
1.7000000000000004
  0
LINE
  8
_0-0_LAYER001
  6
CONTINUOUS
 62
    2
 10
2088.8950209999994
 20
1108.7619889999999
 11
2088.8950209999994
 21
1308.7619889999999
  0
CIRCLE
  8
_0-0_LAYER001
  6
CONTINUOUS
 62
    2
 10
2088.8950209999994
 20
1308.7619889999999
 40
1.7000000000000004
  0
LINE
  8
_0-0_LAYER001
  6
CONTINUOUS
 62
    2
 10
2091.3950209999994
 20
1308.7619889999999
 11
2038.8950209999994
 21
1308.7619889999999
  0
LINE
  8
_0-0_LAYER001
  6
CONTINUOUS
 62
    2
 10
858.04565799999955
 20
902.48280899999986
 11
951.13060999999959
 21
944.3709359999998
  0
CIRCLE
  8
_0-0_LAYER001
  6
CONTINUOUS
 62
    2
 10
951.13060999999959
 20
944.3709359999998
 40
1.7000000000000004
  0
LINE
  8
_0-0_LAYER001
  6
CONTINUOUS
 62
    2
 10
950.10469999999987
 20
946.65074099999993
 11
971.64880199999971
 21
898.77484199999981
  0
LINE
  8
_0-0_LAYER001
  6
CONTINUOUS
 62
    2
 10
941.89742299999978
 20
964.8891779999999
 11
963.44152499999973
 21
917.0132799999999
  0
CIRCLE
  8
_0-0_LAYER001
  6
CONTINUOUS
 62
    2
 10
942.92333299999973
 20
962.60937300000001
 40
1.7000000000000004
  0
LINE
  8
_0-0_LAYER001
  6
CONTINUOUS
 62
    2
 10
942.92333299999973
 20
962.60937300000001
 11
1198.2614589999998
 21
1077.511252
  0
CIRCLE
  8
_0-0_LAYER001
  6
CONTINUOUS
 62
    2
 10
1198.2614589999998
 20
1077.511252
 40
1.7000000000000004
  0
LINE
  8
_0-0_LAYER001
  6
CONTINUOUS
 62
    2
 10
1197.2355489999995
 20
1079.7910559999998
 11
1218.7796509999998
 21
1031.915158
  0
LINE
  8
_0-0_LAYER001
  6
CONTINUOUS
 62
    2
 10
1189.0282719999996
 20
1098.0294939999999
 11
1210.5723739999999
 21
1050.153595
  0
CIRCLE
  8
_0-0_LAYER001
  6
CONTINUOUS
 62
    2
 10
1190.0541819999999
 20
1095.749689
 40
1.7000000000000004
  0
LINE
  8
_0-0_LAYER001
  6
CONTINUOUS
 62
    2
 10
1190.0541819999999
 20
1095.749689
 11
1445.3923069999996
 21
1210.6515669999999
  0
CIRCLE
  8
_0-0_LAYER001
  6
CONTINUOUS
 62
    2
 10
1445.3923069999996
 20
1210.6515669999999
 40
1.7000000000000004
  0
LINE
  8
_0-0_LAYER001
  6
CONTINUOUS
 62
    2
 10
1444.3663979999997
 20
1212.931372
 11
1465.9105
 21
1165.0554729999999
  0
LINE
  8
_0-0_LAYER001
  6
CONTINUOUS
 62
    2
 10
1436.1591209999997
 20
1231.169809
 11
1457.703223
 21
1183.293911
  0
CIRCLE
  8
_0-0_LAYER001
  6
CONTINUOUS
 62
    2
 10
1437.1850299999996
 20
1228.890005
 40
1.7000000000000004
  0
LINE
  8
_0-0_LAYER001
  6
CONTINUOUS
 62
    2
 10
1437.1850299999996
 20
1228.890005
 11
1692.5231560000002
 21
1343.7918829999999
  0
CIRCLE
  8
_0-0_LAYER001
  6
CONTINUOUS
 62
    2
 10
1692.5231560000002
 20
1343.7918829999999
 40
1.7000000000000004
  0
LINE
  8
_0-0_LAYER001
  6
CONTINUOUS
 62
    2
 10
1691.4972459999999
 20
1346.0716869999999
 11
1713.0413479999997
 21
1298.1957889999999
  0
LINE
  8
_0-0_LAYER001
  6
CONTINUOUS
 62
    2
 10
1895.5987779999996
 20
1317.355646
 11
1889.1035879999999
 21
1313.605646
  0
LINE
  8
_0-0_LAYER001
  6
CONTINUOUS
 62
    2
 10
1889.1035879999999
 20
1313.605646
 11
1892.8535879999999
 21
1320.1008359999996
  0
LINE
  8
_0-0_LAYER001
  6
CONTINUOUS
 62
    2
 10
1889.1035879999999
 20
1313.605646
 11
1996.6597329999995
 21
1421.161791
  0
LINE
  8
_0-0_LAYER001
  6
CONTINUOUS
 62
    2
 10
1996.6597329999995
 20
1421.161791
 11
2077.6597329999995
 21
1421.161791
  0
LINE
  8
_0-0_LAYER001
  6
CONTINUOUS
 62
    2
 10
1898.8742899999997
 20
1408.6880449999999
 11
1900.8154329999998
 21
1401.4436009999999
  0
LINE
  8
_0-0_LAYER001
  6
CONTINUOUS
 62
    2
 10
1900.8154329999998
 20
1401.4436009999999
 11
1895.5121319999998
 21
1406.7469019999999
  0
LINE
  8
_0-0_LAYER001
  6
CONTINUOUS
 62
    2
 10
1900.8154329999998
 20
1401.4436009999999
 11
1841.4575340000001
 21
1504.254498
  0
LINE
  8
_0-0_LAYER001
  6
CONTINUOUS
 62
    2
 10
1841.4575340000001
 20
1504.254498
 11
1611.4167010000001
 21
1504.254498
  0
LINE
  8
_0-0_LAYER001
  6
CONTINUOUS
 62
    2
 10
1506.1647479999997
 20
578.06258999999977
 11
1773.4738319999997
 21
578.06258999999977
  0
LINE
  8
_0-0_LAYER001
  6
CONTINUOUS
 62
    2
 10
1339.9492489999998
 20
862.07399299999997
 11
1338.0081059999998
 21
869.3184369999999
  0
LINE
  8
_0-0_LAYER001
  6
CONTINUOUS
 62
    2
 10
1338.0081059999998
 20
869.3184369999999
 11
1343.3114069999997
 21
864.01513599999998
  0
LINE
  8
_0-0_LAYER001
  6
CONTINUOUS
 62
    2
 10
1338.0081059999998
 20
869.3184369999999
 11
1522.9460939999999
 21
548.99644599999988
  0
LINE
  8
_0-0_LAYER001
  6
CONTINUOUS
 62
    2
 10
1522.9460939999999
 20
548.99644599999988
 11
1841.5884799999994
 21
548.99644599999988
  0
LINE
  8
_0-0_LAYER001
  6
CONTINUOUS
 62
    2
 10
1488.5130589999999
 20
608.9583409999999
 11
1724.6381949999995
 21
608.9583409999999
  0
LINE
  8
_0-0_LAYER001
  6
CONTINUOUS
 62
    2
 10
1470.8364179999999
 20
638.93928899999992
 11
1663.2291059999998
 21
638.93928899999992
  0
LINE
  8
_0-1_LAYER002
  6
CONTINUOUS
 62
    7
 10
1947.1283370000001
 20
1523.8759539999999
 11
1947.1283370000001
 21
732.94133999999985
  0
LINE
  8
_0-1_LAYER002
  6
CONTINUOUS
 62
    7
 10
1996.6597329999995
 20
1421.161791
 11
2062.6597329999995
 21
1421.161791
  0
LINE
  8
_0-1_LAYER002
  6
CONTINUOUS
 62
    7
 10
1985.2802789999996
 20
1305.0304019999999
 11
2012.7802789999996
 21
1305.0304019999999
  0
LINE
  8
_0-1_LAYER002
  6
CONTINUOUS
 62
    7
 10
2010.2802789999996
 20
1305.0304019999999
 11
2010.2802789999996
 21
1205.0304019999999
  0
LINE
  8
_0-1_LAYER002
  6
CONTINUOUS
 62
    7
 10
2011.9802789999997
 20
1205.0304019999999
 11
1985.2802789999996
 21
1205.0304019999999
  0
LINE
  8
_0-1_LAYER002
  6
CONTINUOUS
 62
    7
 10
2038.8950209999994
 20
1308.7619889999999
 11
2090.5950209999996
 21
1308.7619889999999
  0
LINE
  8
_0-1_LAYER002
  6
CONTINUOUS
 62
    7
 10
2088.8950209999994
 20
1308.7619889999999
 11
2088.8950209999994
 21
1108.7619889999999
  0
LINE
  8
_0-1_LAYER002
  6
CONTINUOUS
 62
    7
 10
2088.8950209999994
 20
1108.7619889999999
 11
2038.8950209999994
 21
1108.7619889999999
  0
LINE
  8
_0-1_LAYER002
  6
CONTINUOUS
 62
    7
 10
2087.1950209999995
 20
1108.7619889999999
 11
2090.5950209999996
 21
1108.7619889999999
  0
LINE
  8
_0-1_LAYER002
  6
CONTINUOUS
 62
    7
 10
1778.4285620000001
 20
1374.6683659999999
 11
1778.4285620000001
 21
1347.9683659999998
  0
LINE
  8
_0-1_LAYER002
  6
CONTINUOUS
 62
    7
 10
1778.4285620000001
 20
1372.9683659999998
 11
1876.2598769999995
 21
1372.9683659999998
  0
LINE
  8
_0-1_LAYER002
  6
CONTINUOUS
 62
    7
 10
1876.2598769999995
 20
1374.6683659999999
 11
1876.2598769999995
 21
1347.9683659999998
  0
LINE
  8
_0-1_LAYER002
  6
CONTINUOUS
 62
    7
 10
1882.1283369812115
 20
1319.4304006600992
 11
1882.1283369812115
 21
1556.0049369999999
  0
LINE
  8
_0-1_LAYER002
  6
CONTINUOUS
 62
    7
 10
1841.4575340000001
 20
1504.254498
 11
1611.4167010000001
 21
1504.254498
  0
LINE
  8
_0-1_LAYER002
  6
CONTINUOUS
 62
    7
 10
1932.1283370000001
 20
1528.0343360000002
 11
1932.1283370000001
 21
1052.4145309999999
  0
LINE
  8
_0-1_LAYER002
  6
CONTINUOUS
 62
    7
 10
1882.1283370000001
 20
1052.4145309999999
 11
1882.1283370000001
 21
1303.4303719999998
  0
LINE
  8
_0-1_LAYER002
  6
CONTINUOUS
 62
    7
 10
1882.1283370000001
 20
1303.4303719999998
 11
1894.1283359999998
 21
1303.4303719999998
  0
LINE
  8
_0-1_LAYER002
  6
CONTINUOUS
 62
    7
 10
1894.1283359999998
 20
1303.4303719999998
 11
1894.1283359999998
 21
1319.4304319999997
  0
LINE
  8
_0-1_LAYER002
  6
CONTINUOUS
 62
    7
 10
1894.1283359999998
 20
1319.4304319999997
 11
1882.1283370000001
 21
1319.4304319999997
  0
LINE
  8
_0-1_LAYER002
  6
CONTINUOUS
 62
    7
 10
1878.1283359999998
 20
1303.4303719999998
 11
1878.1283359999998
 21
1205.0304019999999
  0
LINE
  8
_0-1_LAYER002
  6
CONTINUOUS
 62
    7
 10
1878.257388
 20
1205.0304019999999
 11
1878.257388
 21
1303.4303719999998
  0
LINE
  8
_0-1_LAYER002
  6
CONTINUOUS
 62
    7
 10
1880.6283370000001
 20
1297.9402969999999
 11
1880.6283370000001
 21
1108.7619889999999
  0
LINE
  8
_0-1_LAYER002
  6
CONTINUOUS
 62
    7
 10
1478.2119149999999
 20
1406.09609
 11
1712.2119149999999
 21
1406.09609
  0
LINE
  8
_0-1_LAYER002
  6
CONTINUOUS
 62
    7
 10
1668.7372310000001
 20
1247.988852
 11
1766.2372310000001
 21
1247.988852
  0
LINE
  8
_0-1_LAYER002
  6
CONTINUOUS
 62
    7
 10
1688.5451139999996
 20
1201.4249319999999
 11
1736.5451139999996
 21
1201.4249319999999
  0
LINE
  8
_0-1_LAYER002
  6
CONTINUOUS
 62
    7
 10
1471.0175693067956
 20
638.93928899999992
 11
1652.3364179999999
 21
638.93928899999992
  0
LINE
  8
_0-1_LAYER002
  6
CONTINUOUS
 62
    7
 10
1488.5130589999999
 20
608.9583409999999
 11
1724.6381949999995
 21
608.9583409999999
  0
LINE
  8
_0-1_LAYER002
  6
CONTINUOUS
 62
    7
 10
1506.1647479999997
 20
578.06258999999977
 11
1773.4738319999997
 21
578.06258999999977
  0
LINE
  8
_0-1_LAYER002
  6
CONTINUOUS
 62
    7
 10
1522.9460939999999
 20
548.99644599999988
 11
1841.5884799999994
 21
548.99644599999988
  0
LINE
  8
_0-1_LAYER002
  6
CONTINUOUS
 62
    7
 10
858.04565799999955
 20
902.48280899999986
 11
951.1306096435992
 21
944.37093583961996
  0
LINE
  8
_0-1_LAYER002
  6
CONTINUOUS
 62
    7
 10
971.64880199999971
 20
898.77484199999981
 11
942.22571425943079
 21
964.1596401036976
  0
LINE
  8
_0-1_LAYER002
  6
CONTINUOUS
 62
    7
 10
942.92333299999973
 20
962.60937300000001
 11
1198.2614589999998
 21
1077.511252
  0
LINE
  8
_0-1_LAYER002
  6
CONTINUOUS
 62
    7
 10
1218.7796509999998
 20
1031.915158
 11
1189.3565632537279
 21
1097.2999561011313
  0
LINE
  8
_0-1_LAYER002
  6
CONTINUOUS
 62
    7
 10
1190.0541819999999
 20
1095.749689
 11
1445.3923069999996
 21
1210.6515669999999
  0
LINE
  8
_0-1_LAYER002
  6
CONTINUOUS
 62
    7
 10
1465.9105
 20
1165.0554729999999
 11
1436.4874117168122
 21
1230.4402723095188
  0
LINE
  8
_0-1_LAYER002
  6
CONTINUOUS
 62
    7
 10
1437.1850302653208
 20
1228.8900051193943
 11
1692.5231560000002
 21
1343.7918829999999
  0
LINE
  8
_0-1_LAYER002
  6
CONTINUOUS
 62
    7
 10
1692.5231560000002
 20
1343.7918829999999
 11
1691.8255368852112
 21
1345.3421499352987
  0
LINE
  8
_0-1_LAYER002
  6
CONTINUOUS
 62
    7
 10
1692.5231554337197
 20
1343.7918827451742
 11
1713.0413479999997
 21
1298.1957889999999
  0
LINE
  8
_0-1_LAYER002
  6
CONTINUOUS
 62
    7
 10
1712.2119149999999
 20
1406.09609
 11
1834.9568289999997
 21
1193.4956629999999
  0
LINE
  8
_0-1_LAYER002
  6
CONTINUOUS
 62
    7
 10
1834.9568289999997
 20
1193.4956629999999
 11
1833.0156859999997
 21
1200.7401069999999
  0
LINE
  8
_0-1_LAYER002
  6
CONTINUOUS
 62
    7
 10
1834.9568289999997
 20
1193.4956629999999
 11
1829.6535279999998
 21
1198.7989639999998
  0
LINE
  8
_0-1_LAYER002
  6
CONTINUOUS
 62
    7
 10
1878.1283359999998
 20
1205.0304019999999
 11
1777.1952869999996
 21
1178.1086949999999
  0
LINE
  8
_0-1_LAYER002
  6
CONTINUOUS
 62
    7
 10
1777.1952869999996
 20
1178.1086949999999
 11
1777.1952869999996
 21
1162.5123389999999
  0
LINE
  8
_0-1_LAYER002
  6
CONTINUOUS
 62
    7
 10
1777.1952869999996
 20
1162.5123389999999
 11
1781.5313989999995
 21
1170.202059
  0
LINE
  8
_0-1_LAYER002
  6
CONTINUOUS
 62
    7
 10
1796.0164649999997
 20
1183.122427
 11
1799.8772869999993
 21
1168.6280959999999
  0
LINE
  8
_0-1_LAYER002
  6
CONTINUOUS
 62
    7
 10
1810.5108890000001
 20
1186.9839899999999
 11
1814.2411139182605
 21
1172.9799469566992
  0
LINE
  8
_0-1_LAYER002
  6
CONTINUOUS
 62
    7
 10
1806.3458030000002
 20
1178.5187679999999
 11
1804.4046600000001
 21
1185.763211
  0
LINE
  8
_0-1_LAYER002
  6
CONTINUOUS
 62
    7
 10
1806.3458030000002
 20
1178.5187679999999
 11
1801.0425024999995
 21
1183.8220684999997
  0
LINE
  8
_0-1_LAYER002
  6
CONTINUOUS
 62
    7
 10
1806.3458030000002
 20
1178.5187679999999
 11
1766.2372310000001
 21
1247.988852
  0
LINE
  8
_0-1_LAYER002
  6
CONTINUOUS
 62
    7
 10
1736.5451139999996
 20
1201.4249319999999
 11
1770.4014419999994
 21
1142.7840509999999
  0
LINE
  8
_0-1_LAYER002
  6
CONTINUOUS
 62
    7
 10
1770.4014419999994
 20
1142.7840509999999
 11
1768.4602989999994
 21
1150.0284949999998
  0
LINE
  8
_0-1_LAYER002
  6
CONTINUOUS
 62
    7
 10
1770.4014419999994
 20
1142.7840509999999
 11
1765.0981409999995
 21
1148.087352
  0
LINE
  8
_0-1_LAYER002
  6
CONTINUOUS
 62
    7
 10
1928.3884840000001
 20
1271.624464
 11
1882.1283370000001
 21
1225.3643169999998
  0
LINE
  8
_0-1_LAYER002
  6
CONTINUOUS
 62
    7
 10
1882.1283370000001
 20
1221.121676
 11
1928.3884840000001
 21
1267.3818229999999
  0
LINE
  8
_0-1_LAYER002
  6
CONTINUOUS
 62
    7
 10
1875.7283159999997
 20
1305.0304019999999
 11
1892.5283359999994
 21
1305.0304019999999
  0
LINE
  8
_0-1_LAYER002
  6
CONTINUOUS
 62
    7
 10
1892.5283359999994
 20
1305.0304019999999
 11
1892.5283359999994
 21
1319.4304319999997
  0
LINE
  8
_0-1_LAYER002
  6
CONTINUOUS
 62
    7
 10
1892.8535879999999
 20
1320.1008359999996
 11
1889.1035879999999
 21
1313.605646
  0
LINE
  8
_0-1_LAYER002
  6
CONTINUOUS
 62
    7
 10
1889.1035890443675
 20
1313.6056466029661
 11
1895.5987779999996
 21
1317.355646
  0
LINE
  8
_0-1_LAYER002
  6
CONTINUOUS
 62
    7
 10
1889.1035890443675
 20
1313.6056466029661
 11
1996.6597329999995
 21
1421.161791
  0
LINE
  8
_0-1_LAYER002
  6
CONTINUOUS
 62
    7
 10
1996.6597329999995
 20
1421.161791
 11
2077.6597329999995
 21
1421.161791
  0
LINE
  8
_0-1_LAYER002
  6
CONTINUOUS
 62
    7
 10
1841.4575340000001
 20
1504.254498
 11
1900.8154329999998
 21
1401.4436009999999
  0
LINE
  8
_0-1_LAYER002
  6
CONTINUOUS
 62
    7
 10
1900.8154329999998
 20
1401.4436009999999
 11
1898.8742899999997
 21
1408.6880449999999
  0
LINE
  8
_0-1_LAYER002
  6
CONTINUOUS
 62
    7
 10
1900.8154329999998
 20
1401.4436009999999
 11
1895.5121319999998
 21
1406.7469019999999
  0
LINE
  8
_0-1_LAYER002
  6
CONTINUOUS
 62
    7
 10
1882.1283370000001
 20
1437.496351
 11
1928.3884840000001
 21
1483.756498
  0
LINE
  8
_0-1_LAYER002
  6
CONTINUOUS
 62
    7
 10
1882.1283370000001
 20
1433.2537109999998
 11
1928.3884840000001
 21
1479.5138569999999
  0
LINE
  8
_0-1_LAYER002
  6
CONTINUOUS
 62
    7
 10
1875.7283159999997
 20
1305.0304019999999
 11
1875.7283159999997
 21
1273.030442
  0
LINE
  8
_0-1_LAYER002
  6
CONTINUOUS
 62
    7
 10
1875.7283159999997
 20
1273.030442
 11
1876.9706660000002
 21
1277.6669019999999
  0
LINE
  8
_0-1_LAYER002
  6
CONTINUOUS
 62
    7
 10
1878.1283359999998
 20
1303.4303719999998
 11
1875.9902860000002
 21
1291.622482
  0
ARC
  8
_0-1_LAYER002
  6
CONTINUOUS
 62
    7
 10
1867.1285798318559
 20
1311.4303722646318
 40
16.999776155669359
 50
331.9271096837947
 51
23.665874126575428
  0
LINE
  8
_0-1_LAYER002
  6
CONTINUOUS
 62
    7
 10
1829.7346889999999
 20
1104.2522259999998
 11
1835.5335969999996
 21
1090.4184759999998
  0
LINE
  8
_0-1_LAYER002
  6
CONTINUOUS
 62
    7
 10
1835.5335969999996
 20
1090.4184759999998
 11
1863.2010989999999
 21
1102.0162919999998
  0
LINE
  8
_0-1_LAYER002
  6
CONTINUOUS
 62
    7
 10
1863.2010989999999
 20
1102.0162919999998
 11
1857.4021910000001
 21
1115.8500429999999
  0
LINE
  8
_0-1_LAYER002
  6
CONTINUOUS
 62
    7
 10
1857.4021910000001
 20
1115.8500429999999
 11
1829.7346889999999
 21
1104.2522259999998
  0
LINE
  8
_0-1_LAYER002
  6
CONTINUOUS
 62
    7
 10
1835.5335969999996
 20
1090.4184759999998
 11
1857.4021910000001
 21
1115.8500429999999
  0
LINE
  8
_0-1_LAYER002
  6
CONTINUOUS
 62
    7
 10
1880.6283370000001
 20
1108.7619889999999
 11
953.88086799999974
 21
691.7263939999998
  0
LINE
  8
_0-1_LAYER002
  6
CONTINUOUS
 62
    7
 10
1861.6101659999995
 20
1098.01064
 11
954.70154299999967
 21
689.90266799999995
  0
LINE
  8
_0-1_LAYER002
  6
CONTINUOUS
 62
    7
 10
975.21976299999949
 20
644.30653600000005
 11
1882.1283370000001
 21
1052.4145309999999
  0
LINE
  8
_0-1_LAYER002
  6
CONTINUOUS
 62
    7
 10
1882.1283370000001
 20
1052.4145309999999
 11
1861.6101659999995
 21
1098.01064
  0
LINE
  8
_0-1_LAYER002
  6
CONTINUOUS
 62
    7
 10
1947.1283370000001
 20
961.04008299999987
 11
1020.3598389999996
 21
543.99506299999985
  0
LINE
  8
_0-1_LAYER002
  6
CONTINUOUS
 62
    7
 10
1319.0970209999996
 20
874.36272999999983
 11
1324.8959289999998
 21
860.52897899999994
  0
LINE
  8
_0-1_LAYER002
  6
CONTINUOUS
 62
    7
 10
1324.8959289999998
 20
860.52897899999994
 11
1352.5634309999996
 21
872.1267949999999
  0
LINE
  8
_0-1_LAYER002
  6
CONTINUOUS
 62
    7
 10
1352.5634309999996
 20
872.1267949999999
 11
1346.7645229999998
 21
885.96054599999979
  0
LINE
  8
_0-1_LAYER002
  6
CONTINUOUS
 62
    7
 10
1346.7645229999998
 20
885.96054599999979
 11
1319.0970209999996
 21
874.36272999999983
  0
LINE
  8
_0-1_LAYER002
  6
CONTINUOUS
 62
    7
 10
1324.8959289999998
 20
860.52897899999994
 11
1346.7645229999998
 21
885.96054599999979
  0
LINE
  8
_0-1_LAYER002
  6
CONTINUOUS
 62
    7
 10
1338.0081059999998
 20
869.3184369999999
 11
1339.8143751894554
 21
862.57734889266521
  0
LINE
  8
_0-1_LAYER002
  6
CONTINUOUS
 62
    7
 10
1338.0081059999998
 20
869.3184369999999
 11
1343.3114069999997
 21
864.01513599999998
  0
LINE
  8
_0-1_LAYER002
  6
CONTINUOUS
 62
    7
 10
1338.0081059999998
 20
869.3184369999999
 11
1522.9460939999999
 21
548.99644599999988
  0
LINE
  8
_0-0_LAYER001
  6
CONTINUOUS
 62
    7
 10
1725.9554790000002
 20
1036.966244
 11
1792.0699479999994
 21
1011.8883349999999
  0
LINE
  8
_0-0_LAYER001
  6
CONTINUOUS
 62
    7
 10
1788.2009239999998
 20
1010.1473329999999
 11
1722.0865918372431
 21
1035.2251713720827
  0
LINE
  8
_0-0_LAYER001
  6
CONTINUOUS
 62
    7
 10
1574.4158549999997
 20
989.30747799999995
 11
1580.2147629999999
 21
975.47372699999983
  0
LINE
  8
_0-0_LAYER001
  6
CONTINUOUS
 62
    7
 10
1580.2147629999999
 20
975.47372699999983
 11
1607.8822650000002
 21
987.0715439999999
  0
LINE
  8
_0-0_LAYER001
  6
CONTINUOUS
 62
    7
 10
1607.8822650000002
 20
987.0715439999999
 11
1602.083357
 21
1000.9052949999998
  0
LINE
  8
_0-0_LAYER001
  6
CONTINUOUS
 62
    7
 10
1602.083357
 20
1000.9052949999998
 11
1574.4158549999997
 21
989.30747799999995
  0
LINE
  8
_0-0_LAYER001
  6
CONTINUOUS
 62
    7
 10
1602.083357
 20
1000.9052949999998
 11
1580.2147629999999
 21
975.47372699999983
  0
LINE
  8
_0-0_LAYER001
  6
CONTINUOUS
 62
    7
 10
1532.5076379999996
 20
949.9149359999999
 11
1598.6219499999997
 21
924.83697999999981
  0
LINE
  8
_0-0_LAYER001
  6
CONTINUOUS
 62
    7
 10
1594.7530859999997
 20
923.09596399999987
 11
1528.6388037331747
 21
948.17386048049241
  0
LINE
  8
_0-0_LAYER001
  6
CONTINUOUS
 62
    7
 10
1405.1741119999997
 20
837.78561100000002
 11
1339.0598840437835
 21
862.86353650048932
  0
LINE
  8
_0-0_LAYER001
  6
CONTINUOUS
 62
    7
 10
1335.1909389999996
 20
861.12250199999994
 11
1401.3052448012252
 21
836.04459721333126
  0
LINE
  8
_0-0_LAYER001
  6
CONTINUOUS
 62
    7
 10
1145.6119569999996
 20
775.81219899999996
 11
1211.7262689999998
 21
750.73424299999988
  0
LINE
  8
_0-0_LAYER001
  6
CONTINUOUS
 62
    7
 10
1207.8573731075892
 20
748.99323909715258
 11
1141.7430949999998
 21
774.0711339999998
  0
LINE
  8
_0-0_LAYER001
  6
CONTINUOUS
 62
    7
 10
1069.8882649999996
 20
745.96546599999988
 11
1063.9749429999997
 21
759.75069799999983
  0
LINE
  8
_0-0_LAYER001
  6
CONTINUOUS
 62
    7
 10
1063.9749429999997
 20
759.75069799999983
 11
1091.5454069999996
 21
771.57734199999982
  0
LINE
  8
_0-0_LAYER001
  6
CONTINUOUS
 62
    7
 10
1091.5454069999996
 20
771.57734199999982
 11
1097.4587289999999
 21
757.79210999999987
  0
LINE
  8
_0-0_LAYER001
  6
CONTINUOUS
 62
    7
 10
1097.4587289999999
 20
757.79210999999987
 11
1069.8882649999996
 21
745.96546599999988
  0
LINE
  8
_0-0_LAYER001
  6
CONTINUOUS
 62
    7
 10
1069.8882649999996
 20
745.96546599999988
 11
1091.5454069999996
 21
771.57734199999982
  0
LINE
  8
_0-1_LAYER002
  6
CONTINUOUS
 62
   18
 10
1889.5827509999999
 20
968.042688
 11
1891.679873
 21
968.98631399999999
  0
LINE
  8
_0-1_LAYER002
  6
CONTINUOUS
 62
   18
 10
1864.9590159999998
 20
1022.7572869999999
 11
1867.0569310000001
 21
1023.7008659999999
  0
LINE
  8
_0-1_LAYER002
  6
CONTINUOUS
 62
   18
 10
1858.8036149999998
 20
1036.436878
 11
1864.9590159999998
 21
1022.7572869999999
  0
LINE
  8
_0-1_LAYER002
  6
CONTINUOUS
 62
   18
 10
1818.7571629999993
 20
1021.3766879999998
 11
1855.2328120000002
 21
1037.7906849999999
  0
LINE
  8
_0-1_LAYER002
  6
CONTINUOUS
 62
   18
 10
1854.290242
 20
1039.887692
 11
1817.8126860000002
 21
1023.4726439999999
  0
LINE
  8
_0-1_LAYER002
  6
CONTINUOUS
 62
   18
 10
1860.9012419999999
 20
1037.3804249999998
 11
1867.0569310000001
 21
1023.7008659999999
  0
LINE
  8
_0-1_LAYER002
  6
CONTINUOUS
 62
   18
 10
1852.2384510000002
 20
934.78767099999982
 11
1815.3051189999996
 21
1016.861402
  0
LINE
  8
_0-1_LAYER002
  6
CONTINUOUS
 62
   18
 10
1895.3281200000001
 20
948.69562899999983
 11
1858.8494780000001
 21
932.28022399999986
  0
LINE
  8
_0-1_LAYER002
  6
CONTINUOUS
 62
   18
 10
1897.8355369999999
 20
955.30665399999998
 11
1891.679873
 21
968.98631399999999
  0
LINE
  8
_0-1_LAYER002
  6
CONTINUOUS
 62
   18
 10
1895.7387609999996
 20
954.36312299999986
 11
1889.5827509999999
 21
968.042688
  0
LINE
  8
_0-1_LAYER002
  6
CONTINUOUS
 62
   18
 10
1857.9070549999997
 20
934.37731799999983
 11
1894.3846039999999
 21
950.7925459999999
  0
LINE
  8
_0-1_LAYER002
  6
CONTINUOUS
 62
   18
 10
1854.3364029999993
 20
935.73133099999995
 11
1817.4033460000001
 21
1017.8061249999998
  0
LINE
  8
_0-0_LAYER001
  6
CONTINUOUS
 62
   18
 10
1858.3946919999998
 20
921.11068799999998
 11
1821.4606100000001
 21
1003.183446
  0
LINE
  8
_0-0_LAYER001
  6
CONTINUOUS
 62
   18
 10
1817.1294419999995
 20
995.75125800000001
 11
1845.0349329999999
 21
933.74123899999995
  0
LINE
  8
_0-0_LAYER001
  6
CONTINUOUS
 62
   18
 10
1819.6368219999995
 20
1002.3633829999999
 11
1821.4606100000001
 21
1003.183446
  0
LINE
  8
_0-0_LAYER001
  6
CONTINUOUS
 62
   18
 10
1778.0081759999994
 20
892.61259399999994
 11
1840.0193429999999
 21
920.51815399999987
  0
LINE
  8
_0-0_LAYER001
  6
CONTINUOUS
 62
   18
 10
1835.868993
 20
976.7698019999998
 11
1838.6053769999999
 21
978.0007169999999
  0
LINE
  8
_0-0_LAYER001
  6
CONTINUOUS
 62
   18
 10
1829.3031769999998
 20
991.35995400000002
 11
1832.0394079999996
 21
992.59092299999998
  0
LINE
  8
_0-0_LAYER001
  6
CONTINUOUS
 62
   18
 10
1845.170822
 20
963.41174999999998
 11
1832.0394079999996
 21
992.59092299999998
  0
LINE
  8
_0-0_LAYER001
  6
CONTINUOUS
 62
   18
 10
1842.4344849999998
 20
962.17973599999982
 11
1845.170822
 21
963.41174999999998
  0
LINE
  8
_0-0_LAYER001
  6
CONTINUOUS
 62
   18
 10
1844.4420339999997
 20
989.39923499999986
 11
1855.1111309999997
 21
994.20122599999991
  0
LINE
  8
_0-0_LAYER001
  6
CONTINUOUS
 62
   18
 10
1851.0073259999999
 20
974.81010199999992
 11
1861.6766319999997
 21
979.61095
  0
LINE
  8
_0-0_LAYER001
  6
CONTINUOUS
 62
   18
 10
1849.5893779999997
 20
975.3486069999999
 11
1841.4480919999996
 21
971.68552999999997
  0
LINE
  8
_0-0_LAYER001
  6
CONTINUOUS
 62
   18
 10
1843.9034510000001
 20
987.983115
 11
1835.7631489999994
 21
984.31925899999987
  0
LINE
  8
_0-0_LAYER001
  6
CONTINUOUS
 62
   18
 10
1841.0613919999996
 20
994.30145399999992
 11
1832.9188989999993
 21
990.63735499999984
  0
LINE
  8
_0-0_LAYER001
  6
CONTINUOUS
 62
   18
 10
1842.7987480000002
 20
993.04978099999994
 11
1841.0613919999996
 21
994.30145399999992
  0
LINE
  8
_0-0_LAYER001
  6
CONTINUOUS
 62
   18
 10
1852.6482999999998
 20
971.16334099999995
 11
1842.7987480000002
 21
993.04978099999994
  0
LINE
  8
_0-0_LAYER001
  6
CONTINUOUS
 62
   18
 10
1852.4325439999993
 20
969.030125
 11
1844.2913019999996
 21
965.3662589999999
  0
LINE
  8
_0-0_LAYER001
  6
CONTINUOUS
 62
   18
 10
1852.6482999999998
 20
971.16334099999995
 11
1852.4325439999993
 21
969.030125
  0
LINE
  8
_0-0_LAYER001
  6
CONTINUOUS
 62
   18
 10
1862.6806289999995
 20
982.25593499999991
 11
1861.6766319999997
 21
979.61095
  0
LINE
  8
_0-0_LAYER001
  6
CONTINUOUS
 62
   18
 10
1857.7558659999995
 20
993.19815899999981
 11
1862.6806289999995
 21
982.25593499999991
  0
LINE
  8
_0-0_LAYER001
  6
CONTINUOUS
 62
   18
 10
1855.1111309999997
 20
994.20122599999991
 11
1857.7558659999995
 21
993.19815899999981
  0
LINE
  8
_0-0_LAYER001
  6
CONTINUOUS
 62
   18
 10
1855.1111309999997
 20
994.20122599999991
 11
1861.6766319999997
 21
979.61095
  0
LINE
  8
_0-0_LAYER001
  6
CONTINUOUS
 62
   18
 10
1855.1111309999997
 20
994.20122599999991
 11
1859.1033829999997
 21
978.45306599999981
  0
LINE
  8
_0-0_LAYER001
  6
CONTINUOUS
 62
   18
 10
1849.5549299999993
 20
991.70062799999982
 11
1853.5482869999996
 21
975.95261499999992
  0
LINE
  8
_0-0_LAYER001
  6
CONTINUOUS
 62
   18
 10
1816.403824
 20
975.60663999999997
 11
1824.5449520000002
 21
979.26966099999981
  0
LINE
  8
_0-0_LAYER001
  6
CONTINUOUS
 62
   18
 10
1822.0895989999999
 20
962.97194500000001
 11
1830.2309909999994
 21
966.63604799999985
  0
LINE
  8
_0-0_LAYER001
  6
CONTINUOUS
 62
   18
 10
1824.9319699999996
 20
956.65379999999982
 11
1833.0740029999997
 21
960.3176689999998
  0
LINE
  8
_0-0_LAYER001
  6
CONTINUOUS
 62
   18
 10
1823.1943019999999
 20
957.90526899999986
 11
1824.9319699999996
 21
956.65379999999982
  0
LINE
  8
_0-0_LAYER001
  6
CONTINUOUS
 62
   18
 10
1813.3448929999995
 20
979.79189499999984
 11
1823.1943019999999
 21
957.90526899999986
  0
LINE
  8
_0-0_LAYER001
  6
CONTINUOUS
 62
   18
 10
1813.5605109999997
 20
981.92482499999983
 11
1821.701744
 21
985.58890099999985
  0
LINE
  8
_0-0_LAYER001
  6
CONTINUOUS
 62
   18
 10
1813.3448929999995
 20
979.79189499999984
 11
1813.5605109999997
 21
981.92482499999983
  0
LINE
  8
_0-0_LAYER001
  6
CONTINUOUS
 62
   18
 10
1775.5009169999994
 20
886.0013849999998
 11
1776.3216339999999
 21
884.1775439999999
  0
LINE
  8
_0-0_LAYER001
  6
CONTINUOUS
 62
   18
 10
1776.3216339999999
 20
884.1775439999999
 11
1858.3948679999994
 21
921.11030499999993
  0
LINE
  8
_0-0_LAYER001
  6
CONTINUOUS
 62
   18
 10
1820.0932720000001
 20
1079.329315
 11
1810.972957
 21
1075.2252659999999
  0
LINE
  8
_0-0_LAYER001
  6
CONTINUOUS
 62
   18
 10
1821.3232209999996
 20
1076.5928309999999
 11
1812.2047889999994
 21
1072.490153
  0
LINE
  8
_0-0_LAYER001
  6
CONTINUOUS
 62
   18
 10
1810.972957
 20
1075.2252659999999
 11
1812.2047889999994
 21
1072.490153
  0
LINE
  8
_0-0_LAYER001
  6
CONTINUOUS
 62
   18
 10
1820.0932720000001
 20
1079.329315
 11
1821.3232209999996
 21
1076.5928309999999
  0
LINE
  8
_0-0_LAYER001
  6
CONTINUOUS
 62
   18
 10
1815.5331930000002
 20
1077.2773189999998
 11
1816.7639300000001
 21
1074.540898
  0
LINE
  8
_0-0_LAYER001
  6
CONTINUOUS
 62
   18
 10
1842.2067390000002
 20
1018.002489
 11
1838.0845909999998
 21
1022.2886839999999
  0
LINE
  8
_0-0_LAYER001
  6
CONTINUOUS
 62
   18
 10
1842.2067390000002
 20
1018.002489
 11
1841.7322589999994
 21
1023.9295059999999
  0
LINE
  8
_0-0_LAYER001
  6
CONTINUOUS
 62
   18
 10
1820.419269
 20
1058.529399
 11
1826.0471589999997
 21
1062.2208699999999
  0
LINE
  8
_0-0_LAYER001
  6
CONTINUOUS
 62
   18
 10
1822.4712479999998
 20
1053.9702
 11
1828.1001779999997
 21
1057.660754
  0
LINE
  8
_0-0_LAYER001
  6
CONTINUOUS
 62
   18
 10
1824.5241740000001
 20
1049.409901
 11
1830.1517379999996
 21
1053.1015179999999
  0
LINE
  8
_0-0_LAYER001
  6
CONTINUOUS
 62
   18
 10
1826.5750950000001
 20
1044.849686
 11
1832.2027769999995
 21
1048.542289
  0
LINE
  8
_0-0_LAYER001
  6
CONTINUOUS
 62
   18
 10
1828.6269329999996
 20
1040.2914429999998
 11
1834.2546699999994
 21
1043.9829869999999
  0
LINE
  8
_0-0_LAYER001
  6
CONTINUOUS
 62
   18
 10
1830.6788569999999
 20
1035.7311909999999
 11
1836.3076860000001
 21
1039.422951
  0
LINE
  8
_0-0_LAYER001
  6
CONTINUOUS
 62
   18
 10
1832.7316849999997
 20
1031.172018
 11
1838.3585139999996
 21
1034.8625529999999
  0
LINE
  8
_0-0_LAYER001
  6
CONTINUOUS
 62
   18
 10
1834.7826089999999
 20
1026.611723
 11
1840.4103260000002
 21
1030.3035169999998
  0
LINE
  8
_0-0_LAYER001
  6
CONTINUOUS
 62
   18
 10
1836.3186509999996
 20
1023.199711
 11
1841.9460509999999
 21
1026.891402
  0
LINE
  8
_0-0_LAYER001
  6
CONTINUOUS
 62
   18
 10
1819.8189679999996
 20
1072.628516
 11
1841.7322589999994
 21
1023.9295059999999
  0
LINE
  8
_0-0_LAYER001
  6
CONTINUOUS
 62
   18
 10
1821.3232209999996
 20
1076.5928309999999
 11
1819.8189679999996
 21
1072.628516
  0
LINE
  8
_0-0_LAYER001
  6
CONTINUOUS
 62
   18
 10
1816.1721719999996
 20
1070.984598
 11
1838.0845909999998
 21
1022.2886839999999
  0
LINE
  8
_0-0_LAYER001
  6
CONTINUOUS
 62
   18
 10
1812.2047889999994
 20
1072.490153
 11
1816.1721719999996
 21
1070.984598
  0
ARC
  8
_0-1_LAYER002
  6
CONTINUOUS
 62
   18
 10
1856.3411820000001
 20
1035.3284589999998
 40
2.7000000000000002
 50
24.240376999999999
 51
114.23248600000001
  0
ARC
  8
_0-1_LAYER002
  6
CONTINUOUS
 62
   18
 10
1819.8654740000002
 20
1018.9144299999998
 40
2.7000000000000002
 50
114.23248599999999
 51
204.212807
  0
ARC
  8
_0-1_LAYER002
  6
CONTINUOUS
 62
   18
 10
1819.8634649999995
 20
1018.9134039999999
 40
4.9990000000000006
 50
114.220095
 51
204.23074700000001
  0
ARC
  8
_0-1_LAYER002
  6
CONTINUOUS
 62
   18
 10
1856.3422309999996
 20
1035.3296849999999
 40
4.9990000000000006
 50
24.224357000000001
 51
114.241366
  0
ARC
  8
_0-1_LAYER002
  6
CONTINUOUS
 62
   18
 10
1856.7974800000002
 20
936.8384709999998
 40
4.9990000000000006
 50
204.20946699999999
 51
294.235007
  0
ARC
  8
_0-1_LAYER002
  6
CONTINUOUS
 62
   18
 10
1893.2772139999997
 20
953.25478299999986
 40
4.9990000000000006
 50
294.21371699999997
 51
24.245647000000034
  0
ARC
  8
_0-1_LAYER002
  6
CONTINUOUS
 62
   18
 10
1893.2761129999999
 20
953.25479599999994
 40
2.7000000000000002
 50
294.22067700000002
 51
24.240377000000034
  0
ARC
  8
_0-1_LAYER002
  6
CONTINUOUS
 62
   18
 10
1856.7983789999998
 20
936.83944999999994
 40
2.7000000000000002
 50
204.212807
 51
294.22067700000002
  0
ARC
  8
_0-0_LAYER001
  6
CONTINUOUS
 62
   18
 10
1835.9134549999999
 20
929.63840099999993
 40
10.001999
 50
294.23666700000001
 51
24.223897000000008
  0
ARC
  8
_0-0_LAYER001
  6
CONTINUOUS
 62
   18
 10
1821.6875919999993
 20
997.8031719999999
 40
4.9990000000000006
 50
114.220095
 51
204.23074700000001
  0
ARC
  8
_0-0_LAYER001
  6
CONTINUOUS
 62
   18
 10
1780.0588039999993
 20
888.05315799999994
 40
4.9990000000000006
 50
114.220095
 51
204.23074700000001
  0
ARC
  8
_0-0_LAYER001
  6
CONTINUOUS
 62
   18
 10
1837.8500479999993
 20
989.0665419999998
 40
6.147001000000003
 50
349.86246699999998
 51
23.869747000000014
  0
ARC
  8
_0-0_LAYER001
  6
CONTINUOUS
 62
   18
 10
1846.376096
 20
970.09377499999982
 40
6.1580000000000013
 50
24.600926999999999
 51
58.555577
  0
ARC
  8
_0-0_LAYER001
  6
CONTINUOUS
 62
   18
 10
1826.8418419999998
 20
972.70991599999979
 40
22.898998000000002
 50
6.6164970000000007
 51
41.832006999999997
  0
ARC
  8
_0-0_LAYER001
  6
CONTINUOUS
 62
   18
 10
1828.1440320000002
 20
961.89137499999993
 40
6.1479999999999997
 50
169.87800900000002
 51
203.89275699999996
  0
ARC
  8
_0-0_LAYER001
  6
CONTINUOUS
 62
   18
 10
1819.6103679999997
 20
980.8530189999999
 40
6.1479999999999997
 50
204.55376700000002
 51
238.55602700000003
  0
ARC
  8
_0-0_LAYER001
  6
CONTINUOUS
 62
   18
 10
1839.1867169999996
 20
978.2626929999999
 40
22.936001000000005
 50
186.64732700000005
 51
221.80409700000007
  0
LINE
  8
_0-1_LAYER002
  6
CONTINUOUS
 62
   18
 10
1932.1283370000001
 20
1052.4145309999999
 11
1882.1283370000001
 21
1052.4145309999999
  0
LINE
  8
_0-0_LAYER001
  6
CONTINUOUS
 62
   18
 10
1932.1283370000001
 20
1052.4145309999999
 11
1882.1283370000001
 21
1052.4145309999999
  0
TEXT
  8
_0-0_LAYER001
 62
    7
 10
1698.3676875202582
 20
675.85257221295194
 40
20
 41
1
 50
0
  1
：
  0
TEXT
  8
_0-0_LAYER001
 62
    7
 10
1688.5451139999996
 20
1203.9249319999999
 40
20
 41
1
 50
0
  1
熨斗瓦
  0
TEXT
  8
_0-0_LAYER001
 62
    7
 10
1668.7372310000001
 20
1250.488852
 40
20
 41
1
 50
0
  1
弾性シール材
  0
TEXT
  8
_0-0_LAYER001
 62
    7
 10
1996.6597329999995
 20
1423.6617909999998
 40
20
 41
1
 50
0
  1
シーリング
  0
TEXT
  8
_0-0_LAYER001
 62
    7
 10
1585.5791785023462
 20
1510.8245676004954
 40
20
 41
1
 50
0
  1
外壁：ALCパネル　t＝50
  0
TEXT
  8
_0-2_LAYER003
 62
    7
 10
1361.8501537221096
 20
1417.2651572378509
 40
20
 41
1
 50
0
  1
雨押水切カラー鋼板0.35ｍｍ以上
  0
TEXT
  8
_0-0_LAYER001
 62
    7
 10
1809.3082032825828
 20
1378.6210529576283
 40
20
 41
1
 50
0
  1
100
  0
TEXT
  8
_0-0_LAYER001
 62
    7
 10
1555.0706751232228
 20
1293.1972434960833
 40
20
 41
1
 50
24.227692999999988
  1
280
  0
TEXT
  8
_0-0_LAYER001
 62
    7
 10
1304.9009474144132
 20
1156.9259284026666
 40
20
 41
1
 50
24.227692999999988
  1
280
  0
TEXT
  8
_0-0_LAYER001
 62
    7
 10
1054.7312197056031
 20
1043.0275157872732
 40
20
 41
1
 50
24.227692999999999
  1
280
  0
TEXT
  8
_0-0_LAYER001
 62
    7
 10
2073.7152325683173
 20
1195.5700326828892
 40
20
 41
1
 50
90
  1
200
  0
TEXT
  8
_0-0_LAYER001
 62
    7
 10
2001.2724144015044
 20
1234.8065864435559
 40
20
 41
1
 50
90
  1
100
  0
TEXT
  8
_0-0_LAYER001
 62
    7
 10
2033.9629303760137
 20
1148.9939820104696
 40
20
 41
1
 50
90
  1
水切り鉄板立上がり寸法
  0
TEXT
  8
_0-0_LAYER001
 62
    7
 10
2119.7755348091
 20
1114.9413612036894
 40
20
 41
1
 50
90
  1
下葺き材立上がり寸法
  0
TEXT
  8
_0-2_LAYER003
 62
    7
 10
1480.4860676140536
 20
648.50636263241825
 40
20
 41
1
 50
0
  1
瓦桟：15x30以上
  0
TEXT
  8
_0-2_LAYER003
 62
    7
 10
1491.769042622594
 20
617.88114475209409
 40
20
 41
1
 50
0
  1
下葺材：ルーフィング
  0
TEXT
  8
_0-2_LAYER003
 62
    7
 10
1527.2298212208643
 20
550.18329470085132
 40
20
 41
1
 50
0
  1
　鋼製：C100x50x20x2.3
  0
TEXT
  8
_0-0_LAYER001
 62
    7
 10
1506.8583874218211
 20
583.09098671908043
 40
20
 41
1
 50
0
  1
野地板：ALCパネル　t＝50
  0
ENDSEC
  0
EOF
