  0
SECTION
  2
HEADER
  9
$ACADVER
  1
AC1009
  9
$INSBASE
 10
0
 20
0
 30
0
  9
$EXTMIN
 10
0
 20
0
  9
$EXTMAX
 10
2970
 20
2100
  9
$LIMMIN
 10
0
 20
0
  9
$LIMMAX
 10
2970
 20
2100
  9
$LTSCALE
 40
10
  0
ENDSEC
  0
SECTION
  2
TABLES
  0
TABLE
  2
LTYPE
 70
     9
  0
LTYPE
  2
CONTINUOUS
 70
    64
  3
実線
 72
    65
 73
     0
 40
0.0
  0
LTYPE
  2
DASHED1
 70
    64
  3
--  --  --  --  --  --  --  --  
 72
    65
 73
     2
 40
2.5
 49
1.25
 49
-1.25
  0
LTYPE
  2
DASHED2
 70
    64
  3
----    ----    ----    ----    
 72
    65
 73
     2
 40
5.0
 49
2.5
 49
-2.5
  0
LTYPE
  2
DASHED3
 70
    64
  3
------  ------  ------  ------  
 72
    65
 73
     2
 40
5.0
 49
3.75
 49
-1.25
  0
LTYPE
  2
CENTER1
 70
    64
  3
----- - ----- - ----- - ----- - 
 72
    65
 73
     4
 40
10.0
 49
6.25
 49
-1.25
 49
1.25
 49
-1.25
  0
LTYPE
  2
CENTER2
 70
    64
  3
----------  --  ----------  --  
 72
    65
 73
     4
 40
20.0
 49
12.5
 49
-2.5
 49
2.5
 49
-2.5
  0
LTYPE
  2
PHANTOM1
 70
    64
  3
--- - - --- - - --- - - --- - - 
 72
    65
 73
     6
 40
10.0
 49
3.25
 49
-1.25
 49
1.25
 49
-1.25
 49
1.25
 49
-1.25
  0
LTYPE
  2
PHANTOM2
 70
    64
  3
--------  -  -  --------  -  -  
 72
    65
 73
     6
 40
20.0
 49
10.0
 49
-2.5
 49
1.25
 49
-2.5
 49
1.25
 49
-2.5
  0
LTYPE
  2
DOT
 70
    64
  3
-   -   -   -   -   -   -   -   
 72
    65
 73
     2
 40
2.5
 49
0.625
 49
-1.875
  0
LTYPE
  2
DUMMY
 70
    64
  3
ダミー
 72
    65
 73
     0
 40
0.0
  0
LTYPE
  2
RAND1
 70
    64
  3
ランダム線1
 72
    65
 73
     4
 40
10.0
 49
1.0
 49
-2.0
 49
3.0
 49
-4.0
  0
LTYPE
  2
RAND2
 70
    64
  3
ランダム線2
 72
    65
 73
     4
 40
14.0
 49
2.0
 49
-3.0
 49
4.0
 49
-5.0
  0
LTYPE
  2
RAND3
 70
    64
  3
ランダム線3
 72
    65
 73
     4
 40
18.0
 49
3.0
 49
-4.0
 49
5.0
 49
-6.0
  0
LTYPE
  2
RAND4
 70
    64
  3
ランダム線4
 72
    65
 73
     4
 40
22.0
 49
4.0
 49
-5.0
 49
6.0
 49
-7.0
  0
LTYPE
  2
RAND5
 70
    64
  3
ランダム線5
 72
    65
 73
     4
 40
26.0
 49
5.0
 49
-6.0
 49
7.0
 49
-8.0
  0
LTYPE
  2
LONG1
 70
    64
  3
----------  --  ----------  --  
 72
    65
 73
     4
 40
40.0
 49
32.5
 49
-2.5
 49
2.5
 49
-2.5
  0
LTYPE
  2
LONG2
 70
    64
  3
--------  -  -  --------  -  -  
 72
    65
 73
     6
 40
40.0
 49
30.0
 49
-2.5
 49
1.25
 49
-2.5
 49
1.25
 49
-2.5
  0
LTYPE
  2
LONG3
 70
    64
  3
+++++++++++++++..+++++++++++++++
 72
    65
 73
     2
 40
40.0
 49
37.5
 49
-2.5
  0
LTYPE
  2
LONG4
 70
    64
  3
+++++++++++++++..+++++++++++++++
 72
    65
 73
     2
 40
80.0
 49
75.0
 49
-5.0
  0
LTYPE
  2
LONG5
 70
    64
  3
----------  --  ----------  --  
 72
    65
 73
     4
 40
60.0
 49
37.5
 49
-7.5
 49
7.5
 49
-7.5
  0
LTYPE
  2
dashed
 70
   64
  3
-------   -------------   ------
 72
   65
 73
    2
 40
7.5
 49
6
 49
-1.5
  0
LTYPE
  2
dashed_spaced
 70
   64
  3
----        --------        ----
 72
   65
 73
    2
 40
12
 49
6
 49
-6
  0
LTYPE
  2
long_dashed_dotted
 70
   64
  3
------------- --- --------------
 72
   65
 73
    4
 40
15.25
 49
12
 49
-1.5
 49
0.25
 49
-1.5
  0
LTYPE
  2
long_dashed_double-dotted
 70
   64
  3
----------- --- --- ------------
 72
   65
 73
    6
 40
17
 49
12
 49
-1.5
 49
0.25
 49
-1.5
 49
0.25
 49
-1.5
  0
LTYPE
  2
long_dashed_triplicate-dotted
 70
   64
  3
--------- --- --- --- ----------
 72
   65
 73
    8
 40
18.75
 49
12
 49
-1.5
 49
0.25
 49
-1.5
 49
0.25
 49
-1.5
 49
0.25
 49
-1.5
  0
LTYPE
  2
dotted
 70
   64
  3
   -       -       -       -    
 72
   65
 73
    2
 40
1.75
 49
0.25
 49
-1.5
  0
LTYPE
  2
chain
 70
   64
  3
-------------- -- --------------
 72
   65
 73
    4
 40
18.5
 49
12
 49
-1.5
 49
3.5
 49
-1.5
  0
LTYPE
  2
chain_double_dash
 70
   64
  3
------------ -- -- -------------
 72
   65
 73
    6
 40
23.5
 49
12
 49
-1.5
 49
3.5
 49
-1.5
 49
3.5
 49
-1.5
  0
LTYPE
  2
dashed_dotted
 70
   64
  3
-----------     -     ----------
 72
   65
 73
    4
 40
9.25
 49
6
 49
-1.5
 49
0.25
 49
-1.5
  0
LTYPE
  2
double-dashed_dotted
 70
   64
  3
------   -----------   -   -----
 72
   65
 73
    6
 40
16.75
 49
6
 49
-1.5
 49
6
 49
-1.5
 49
0.25
 49
-1.5
  0
LTYPE
  2
dashed_double-dotted
 70
   64
  3
---------    -    -    ---------
 72
   65
 73
    6
 40
11
 49
6
 49
-1.5
 49
0.25
 49
-1.5
 49
0.25
 49
-1.5
  0
LTYPE
  2
double-dashed_double-dotted
 70
   64
  3
-----   ---------   -   -   ----
 72
   65
 73
    8
 40
18.5
 49
6
 49
-1.5
 49
6
 49
-1.5
 49
0.25
 49
-1.5
 49
0.25
 49
-1.5
  0
LTYPE
  2
dashed_triplicate-dotted
 70
   64
  3
-------    -    -    -    ------
 72
   65
 73
    8
 40
12.75
 49
6
 49
-1.5
 49
0.25
 49
-1.5
 49
0.25
 49
-1.5
 49
0.25
 49
-1.5
  0
LTYPE
  2
double-dashed_triplicate-dotted
 70
   64
  3
-----  ---------  -  -  -  -----
 72
   65
 73
   10
 40
20.25
 49
6
 49
-1.5
 49
6
 49
-1.5
 49
0.25
 49
-1.5
 49
0.25
 49
-1.5
 49
0.25
 49
-1.5
  0
LTYPE
  2
undefined
 70
   64
  3
--------------------------------
 72
   65
 73
    0
 40
0
  0
LTYPE
  2
HIDDEN
 70
   64
  3
----        --------        ----
 72
   65
 73
    2
 40
10
 49
5
 49
-5
  0
LTYPE
  2
DASHED
 70
   64
  3
-------   -------------   ------
 72
   65
 73
    2
 40
50
 49
40
 49
-10
  0
LTYPE
  2
CENTER
 70
   64
  3
------------   ---   -----------
 72
   65
 73
    4
 40
100
 49
70
 49
-10
 49
10
 49
-10
  0
LTYPE
  2
PHANTOM
 70
   64
  3
---------   ---   ---   --------
 72
   65
 73
    6
 40
100
 49
50
 49
-10
 49
10
 49
-10
 49
10
 49
-10
  0
ENDTAB
  0
TABLE
  2
STYLE
  5
3
100
AcDbSymbolTable
 70
     1
  0
STYLE
  5
10
100
AcDbSymbolTableRecord
100
AcDbTextStyleTableRecord
  2
STANDARD
 70
     0
 40
0.0
 41
1.0
 50
0.0
 71
     0
 42
0.2
  3
txt
  4
bigfont.shx
  0
STYLE
  5
26
100
AcDbSymbolTableRecord
100
AcDbTextStyleTableRecord
  2
TATEGAKI
 70
    68
 40
0.0
 41
1.0
 50
0.0
 71
     0
 42
1.0
  3
txt
  4
bigfont.shx
  0
ENDTAB
  0
TABLE
  2
LAYER
 70
    5
  0
LAYER
  2
_0-0_LAYER001
 70
   64
 62
    7
  6
CONTINUOUS
  0
LAYER
  2
_0-1_LAYER002
 70
   64
 62
    7
  6
CONTINUOUS
  0
LAYER
  2
_0-2_LAYER003
 70
   64
 62
    7
  6
CONTINUOUS
  0
LAYER
  2
_0-3_LAYER009
 70
   64
 62
    7
  6
CONTINUOUS
  0
LAYER
  2
ADD_LINE
 70
   64
 62
    7
  6
CONTINUOUS
  0
ENDTAB
  0
ENDSEC
  0
SECTION
  2
BLOCKS
  0
ENDSEC
  0
SECTION
  2
ENTITIES
  0
LINE
  8
_0-0_LAYER001
  6
CONTINUOUS
 62
    1
 10
1917.9095225000001
 20
1093.2969505000001
 11
1004.9105304999998
 21
682.44831850000014
  0
LINE
  8
_0-0_LAYER001
  6
CONTINUOUS
 62
    1
 10
1916.8836124999998
 20
1095.5767555
 11
1003.8846204999998
 21
684.72812250000004
  0
LINE
  8
_0-0_LAYER001
  6
CONTINUOUS
 62
    1
 10
1915.8577025
 20
1097.8565605000001
 11
1002.8587104999999
 21
687.00792750000005
  0
LINE
  8
_0-0_LAYER001
  6
CONTINUOUS
 62
    1
 10
1914.8317924999997
 20
1100.1363645000001
 11
1001.8328004999998
 21
689.28773249999995
  0
LINE
  8
_0-0_LAYER001
  6
CONTINUOUS
 62
    1
 10
1913.8058824999998
 20
1102.4161695
 11
1000.8068914999999
 21
691.56753649999985
  0
LINE
  8
_0-0_LAYER001
  6
CONTINUOUS
 62
    1
 10
1912.7799734999999
 20
1104.6959735
 11
999.78098149999983
 21
693.84734150000008
  0
LINE
  8
_0-0_LAYER001
  6
CONTINUOUS
 62
    1
 10
1911.7540635
 20
1106.9757785000002
 11
998.75507149999976
 21
696.12714649999987
  0
LINE
  8
_0-0_LAYER001
  6
CONTINUOUS
 62
    1
 10
1910.7281534999997
 20
1109.2555835000001
 11
997.72916149999992
 21
698.40695049999999
  0
LINE
  8
_0-0_LAYER001
  6
CONTINUOUS
 62
    1
 10
1909.7022434999999
 20
1111.5353875000001
 11
996.70325149999985
 21
700.68675550000012
  0
LINE
  8
_0-0_LAYER001
  6
CONTINUOUS
 62
    4
 10
972.53432249999992
 20
747.89338650000013
 11
1133.4612834999998
 21
798.72957450000013
  0
LINE
  8
_0-0_LAYER001
  6
CONTINUOUS
 62
    4
 10
1127.3823074999998
 20
817.97317050000015
 11
1103.9973234999998
 21
810.58594749999997
  0
LINE
  8
_0-0_LAYER001
  6
CONTINUOUS
 62
    4
 10
964.3304384999999
 20
763.65421749999996
 11
1101.5880054999998
 21
807.01333850000015
  0
ARC
  8
_0-0_LAYER001
  6
CONTINUOUS
 62
    4
 10
1107.2187734999998
 20
805.53336950000016
 40
5.8220140000000011
 50
113.701938
 51
165.27368200000001
  0
LINE
  8
_0-0_LAYER001
  6
CONTINUOUS
 62
    4
 10
1134.6172384999998
 20
779.61851150000007
 11
1132.8557334999998
 21
785.19473050000011
  0
LINE
  8
_0-0_LAYER001
  6
CONTINUOUS
 62
    4
 10
1127.3823074999998
 20
817.97317050000015
 11
1139.0554964999999
 21
781.02053950000004
  0
LINE
  8
_0-0_LAYER001
  6
CONTINUOUS
 62
    4
 10
1134.6172384999998
 20
779.61851150000007
 11
1139.0554964999999
 21
781.02053950000004
  0
LINE
  8
_0-0_LAYER001
  6
CONTINUOUS
 62
    4
 10
978.49915049999981
 20
736.43409850000012
 11
1132.8557334999998
 21
785.19473050000011
  0
LINE
  8
_0-0_LAYER001
  6
CONTINUOUS
 62
    4
 10
1057.7726214999998
 20
815.8210795
 11
1063.3910564999999
 21
817.54485850000015
  0
ARC
  8
_0-0_LAYER001
  6
CONTINUOUS
 62
    4
 10
1080.1894554999999
 20
819.11926749999998
 40
16.872017
 50
102.88244700000001
 51
185.354333
  0
LINE
  8
_0-0_LAYER001
  6
CONTINUOUS
 62
    4
 10
1081.8340214999998
 20
818.9201485000001
 11
1388.7993294999999
 21
913.09947350000016
  0
LINE
  8
_0-0_LAYER001
  6
CONTINUOUS
 62
    4
 10
1382.8799954999999
 20
932.39277349999998
 11
1359.4346105
 21
925.1995495000001
  0
LINE
  8
_0-0_LAYER001
  6
CONTINUOUS
 62
    4
 10
1076.4278135
 20
835.56660750000015
 11
1356.9957764999999
 21
921.64702350000016
  0
ARC
  8
_0-0_LAYER001
  6
CONTINUOUS
 62
    4
 10
1362.6140894999999
 20
920.12045450000005
 40
5.8220140000000011
 50
113.22723600000002
 51
164.79898000000003
  0
LINE
  8
_0-0_LAYER001
  6
CONTINUOUS
 62
    4
 10
1057.7634744999998
 20
815.85089349999998
 11
1063.4920784999999
 21
797.17924949999997
  0
ARC
  8
_0-0_LAYER001
  6
CONTINUOUS
 62
    4
 10
1085.5956624999999
 20
802.47280850000016
 40
16.872017
 50
102.88244700000001
 51
192.21985000000001
  0
LINE
  8
_0-0_LAYER001
  6
CONTINUOUS
 62
    4
 10
1389.7969085
 20
893.9794895
 11
1388.0816634999999
 21
899.57011050000006
  0
LINE
  8
_0-0_LAYER001
  6
CONTINUOUS
 62
    4
 10
1382.8799954999999
 20
932.39277349999998
 11
1394.2466304999998
 21
895.34469750000017
  0
LINE
  8
_0-0_LAYER001
  6
CONTINUOUS
 62
    4
 10
1389.7969085
 20
893.9794895
 11
1394.2466304999998
 21
895.34469750000017
  0
LINE
  8
_0-0_LAYER001
  6
CONTINUOUS
 62
    4
 10
1069.1059214999998
 20
798.90161950000015
 11
1063.4920784999999
 21
797.17924949999997
  0
LINE
  8
_0-0_LAYER001
  6
CONTINUOUS
 62
    4
 10
1068.7577674999998
 20
801.59907550000003
 11
1388.0816634999999
 21
899.57011050000006
  0
LINE
  8
_0-0_LAYER001
  6
CONTINUOUS
 62
    4
 10
1313.0914554999999
 20
930.76582750000011
 11
1318.7098904999998
 21
932.48960650000004
  0
ARC
  8
_0-0_LAYER001
  6
CONTINUOUS
 62
    4
 10
1335.5082894999998
 20
934.0640155000001
 40
16.872017
 50
102.88244700000001
 51
185.354333
  0
LINE
  8
_0-0_LAYER001
  6
CONTINUOUS
 62
    4
 10
1337.1528554999998
 20
933.8648975000001
 11
1644.1181634999998
 21
1028.0442215
  0
LINE
  8
_0-0_LAYER001
  6
CONTINUOUS
 62
    4
 10
1638.1988294999999
 20
1047.3375225
 11
1614.7534444999999
 21
1040.1442975
  0
LINE
  8
_0-0_LAYER001
  6
CONTINUOUS
 62
    4
 10
1331.7466474999997
 20
950.51135650000015
 11
1612.3146104999998
 21
1036.5917725000002
  0
ARC
  8
_0-0_LAYER001
  6
CONTINUOUS
 62
    4
 10
1617.9329234999998
 20
1035.0652035000001
 40
5.8220140000000011
 50
113.22723600000002
 51
164.79898000000003
  0
LINE
  8
_0-0_LAYER001
  6
CONTINUOUS
 62
    4
 10
1313.0823085
 20
930.79564249999999
 11
1318.8109125000001
 21
912.12399750000009
  0
ARC
  8
_0-0_LAYER001
  6
CONTINUOUS
 62
    4
 10
1340.9144964999998
 20
917.41755650000005
 40
16.872017
 50
102.88244700000001
 51
192.21985000000001
  0
LINE
  8
_0-0_LAYER001
  6
CONTINUOUS
 62
    4
 10
1645.1157424999999
 20
1008.9242375000001
 11
1643.4004974999998
 21
1014.5148585000002
  0
LINE
  8
_0-0_LAYER001
  6
CONTINUOUS
 62
    4
 10
1638.1988294999999
 20
1047.3375225
 11
1649.5654645
 21
1010.2894465000002
  0
LINE
  8
_0-0_LAYER001
  6
CONTINUOUS
 62
    4
 10
1645.1157424999999
 20
1008.9242375000001
 11
1649.5654645
 21
1010.2894465000002
  0
LINE
  8
_0-0_LAYER001
  6
CONTINUOUS
 62
    4
 10
1324.4247554999997
 20
913.84636750000004
 11
1318.8109125000001
 21
912.12399750000009
  0
LINE
  8
_0-0_LAYER001
  6
CONTINUOUS
 62
    4
 10
1324.0766014999999
 20
916.54382450000003
 11
1643.4004974999998
 21
1014.5148585000002
  0
LINE
  8
_0-0_LAYER001
  6
CONTINUOUS
 62
    4
 10
1568.4102894999999
 20
1045.7105755
 11
1574.0287245
 21
1047.4343555
  0
ARC
  8
_0-0_LAYER001
  6
CONTINUOUS
 62
    4
 10
1590.8271235000002
 20
1049.0087635
 40
16.872017
 50
102.88244700000001
 51
185.354333
  0
LINE
  8
_0-0_LAYER001
  6
CONTINUOUS
 62
    4
 10
1592.4716895000001
 20
1048.8096455
 11
1899.4369975
 21
1142.9889695000002
  0
LINE
  8
_0-0_LAYER001
  6
CONTINUOUS
 62
    4
 10
1893.5176634999998
 20
1162.2822705000001
 11
1870.0722784999998
 21
1155.0890455000001
  0
LINE
  8
_0-0_LAYER001
  6
CONTINUOUS
 62
    4
 10
1587.0654814999998
 20
1065.4561045
 11
1867.6334444999998
 21
1151.5365205000001
  0
ARC
  8
_0-0_LAYER001
  6
CONTINUOUS
 62
    4
 10
1873.2517574999997
 20
1150.0099515000002
 40
5.8220140000000011
 50
113.22723600000002
 51
164.79898000000003
  0
LINE
  8
_0-0_LAYER001
  6
CONTINUOUS
 62
    4
 10
1568.4011424999999
 20
1045.7403905000001
 11
1574.1297464999998
 21
1027.0687455
  0
ARC
  8
_0-0_LAYER001
  6
CONTINUOUS
 62
    4
 10
1596.2333304999997
 20
1032.3623045000002
 40
16.872017
 50
102.88244700000001
 51
192.21985000000001
  0
LINE
  8
_0-0_LAYER001
  6
CONTINUOUS
 62
    4
 10
1900.4345774999997
 20
1123.8689855
 11
1898.7193315
 21
1129.4596074999999
  0
LINE
  8
_0-0_LAYER001
  6
CONTINUOUS
 62
    4
 10
1893.5176634999998
 20
1162.2822705000001
 11
1904.8842984999997
 21
1125.2341945000001
  0
LINE
  8
_0-0_LAYER001
  6
CONTINUOUS
 62
    4
 10
1900.4345774999997
 20
1123.8689855
 11
1904.8842984999997
 21
1125.2341945000001
  0
LINE
  8
_0-0_LAYER001
  6
CONTINUOUS
 62
    4
 10
1579.7435894999999
 20
1028.7911165
 11
1574.1297464999998
 21
1027.0687455
  0
LINE
  8
_0-0_LAYER001
  6
CONTINUOUS
 62
    4
 10
1579.3954355000001
 20
1031.4885725000001
 11
1898.7193315
 21
1129.4596074999999
  0
LINE
  8
_0-0_LAYER001
  6
CONTINUOUS
 62
    4
 10
1799.0790385
 20
1163.8549575
 11
1800.9834685000001
 21
1133.8733865000002
  0
LINE
  8
_0-0_LAYER001
  6
CONTINUOUS
 62
    4
 10
1800.9834685000001
 20
1133.8733865000002
 11
1809.5116505000001
 21
1136.7491625
  0
ARC
  8
_0-0_LAYER001
  6
CONTINUOUS
 62
    4
 10
1901.3466344999997
 20
1038.9008125
 40
134.19375500000001
 50
114.794572
 51
133.18420900000001
  0
ARC
  8
_0-0_LAYER001
  6
CONTINUOUS
 62
    4
 10
1856.8020164999998
 20
1157.2620585
 40
12.231889000000002
 50
103.69505300000002
 51
163.558077
  0
LINE
  8
_0-0_LAYER001
  6
CONTINUOUS
 62
    4
 10
1900.6370004999999
 20
1194.4487515000001
 11
1902.8889734999998
 21
1179.6187615000001
  0
ARC
  8
_0-0_LAYER001
  6
CONTINUOUS
 62
    4
 10
1965.6689474999998
 20
766.19157749999999
 40
418.16666700000007
 50
98.634545000000003
 51
105.501806
  0
ARC
  8
_0-0_LAYER001
  6
CONTINUOUS
 62
    4
 10
1956.9363005
 20
823.69898650000005
 40
375
 50
98.634545000000003
 51
114.89475
  0
LINE
  8
_0-0_LAYER001
  6
CONTINUOUS
 62
    1
 10
1850.5539715
 20
1183.2391825
 11
1854.0161304999997
 21
1186.7013405
  0
LINE
  8
_0-0_LAYER001
  6
CONTINUOUS
 62
    1
 10
1845.4816704999998
 20
1181.7024145
 11
1853.2724665000001
 21
1189.4932105
  0
LINE
  8
_0-0_LAYER001
  6
CONTINUOUS
 62
    1
 10
1840.4093684999998
 20
1180.1656475
 11
1852.5288025
 21
1192.2850805
  0
LINE
  8
_0-0_LAYER001
  6
CONTINUOUS
 62
    1
 10
1839.5268934999999
 20
1182.8187055000001
 11
1851.7851384999999
 21
1195.0769505000001
  0
LINE
  8
_0-0_LAYER001
  6
CONTINUOUS
 62
    1
 10
1838.7832294999998
 20
1185.6105755000001
 11
1851.0414744999998
 21
1197.8688205000001
  0
LINE
  8
_0-0_LAYER001
  6
CONTINUOUS
 62
    1
 10
1838.0395654999998
 20
1188.4024455000001
 11
1847.1033084999999
 21
1197.4661885
  0
LINE
  8
_0-0_LAYER001
  6
CONTINUOUS
 62
    1
 10
1837.2959014999997
 20
1191.1943155000001
 11
1842.2840904999998
 21
1196.1825045000001
  0
LINE
  8
_0-0_LAYER001
  6
CONTINUOUS
 62
    1
 10
1836.5522375
 20
1193.9861855000001
 11
1837.4648724999997
 21
1194.8988195000002
  0
LINE
  8
_0-0_LAYER001
  6
CONTINUOUS
 62
    1
 10
1839.9438344999999
 20
1181.2534204999999
 11
1840.8869224999999
 21
1180.3103325
  0
LINE
  8
_0-0_LAYER001
  6
CONTINUOUS
 62
    1
 10
1838.6601504999999
 20
1186.0726385
 11
1843.6003594999997
 21
1181.1324295000002
  0
LINE
  8
_0-0_LAYER001
  6
CONTINUOUS
 62
    1
 10
1837.3764664999999
 20
1190.8918565000001
 11
1846.3137975
 21
1181.9545265000002
  0
LINE
  8
_0-0_LAYER001
  6
CONTINUOUS
 62
    1
 10
1837.0227924999999
 20
1194.7810645
 11
1849.0272344999998
 21
1182.7766225
  0
LINE
  8
_0-0_LAYER001
  6
CONTINUOUS
 62
    1
 10
1839.8146624999999
 20
1195.5247285
 11
1851.7406714999997
 21
1183.5987195
  0
LINE
  8
_0-0_LAYER001
  6
CONTINUOUS
 62
    1
 10
1842.6065325
 20
1196.2683925000001
 11
1854.4541085000001
 21
1184.4208165
  0
LINE
  8
_0-0_LAYER001
  6
CONTINUOUS
 62
    1
 10
1845.3984025
 20
1197.0120565
 11
1853.4014394999999
 21
1189.0090195
  0
LINE
  8
_0-0_LAYER001
  6
CONTINUOUS
 62
    1
 10
1848.1902725
 20
1197.7557205000001
 11
1852.1177554999999
 21
1193.8282375000001
  0
LINE
  8
_0-0_LAYER001
  6
CONTINUOUS
 62
   18
 10
1503.7400894999998
 20
982.1073245
 11
1505.6812324999999
 21
974.86288149999996
  0
LINE
  8
_0-0_LAYER001
  6
CONTINUOUS
 62
   18
 10
1505.6812324999999
 20
974.86288149999996
 11
1500.3779314999999
 21
980.1661825000001
  0
LINE
  8
_0-0_LAYER001
  6
CONTINUOUS
 62
   18
 10
1505.6812324999999
 20
974.86288149999996
 11
1460.9431685
 21
1052.3514815000001
  0
LINE
  8
_0-0_LAYER001
  6
CONTINUOUS
 62
   18
 10
1460.9431685
 20
1052.3514815000001
 11
1420.4431685
 21
1052.3514815000001
  0
LINE
  8
_0-0_LAYER001
  6
CONTINUOUS
 62
   18
 10
1110.2576875
 20
758.75649050000015
 11
1137.8281514999999
 21
770.58313550000003
  0
LINE
  8
_0-0_LAYER001
  6
CONTINUOUS
 62
   18
 10
1137.8281514999999
 20
770.58313550000003
 11
1131.9148294999995
 21
784.36836749999998
  0
LINE
  8
_0-0_LAYER001
  6
CONTINUOUS
 62
   18
 10
1131.9148294999995
 20
784.36836749999998
 11
1104.3443654999999
 21
772.54172250000011
  0
LINE
  8
_0-0_LAYER001
  6
CONTINUOUS
 62
   18
 10
1104.3443654999999
 20
772.54172250000011
 11
1110.2576875
 21
758.75649050000015
  0
LINE
  8
_0-0_LAYER001
  6
CONTINUOUS
 62
   18
 10
1131.9148294999995
 20
784.36836749999998
 11
1110.2576875
 21
758.75649050000015
  0
LINE
  8
_0-0_LAYER001
  6
CONTINUOUS
 62
   18
 10
1365.2653515
 20
873.3200045000001
 11
1392.9328535
 21
884.91782050000006
  0
LINE
  8
_0-0_LAYER001
  6
CONTINUOUS
 62
   18
 10
1392.9328535
 20
884.91782050000006
 11
1387.1339455
 21
898.75157149999995
  0
LINE
  8
_0-0_LAYER001
  6
CONTINUOUS
 62
   18
 10
1387.1339455
 20
898.75157149999995
 11
1359.4664435
 21
887.1537545000001
  0
LINE
  8
_0-0_LAYER001
  6
CONTINUOUS
 62
   18
 10
1359.4664435
 20
887.1537545000001
 11
1365.2653515
 21
873.3200045000001
  0
LINE
  8
_0-0_LAYER001
  6
CONTINUOUS
 62
   18
 10
1387.1339455
 20
898.75157149999995
 11
1365.2653515
 21
873.3200045000001
  0
LINE
  8
_0-0_LAYER001
  6
CONTINUOUS
 62
   18
 10
1620.5841854999999
 20
988.26475249999999
 11
1648.2516874999999
 21
999.86256849999995
  0
LINE
  8
_0-0_LAYER001
  6
CONTINUOUS
 62
   18
 10
1648.2516874999999
 20
999.86256849999995
 11
1642.4527794999999
 21
1013.6963195000001
  0
LINE
  8
_0-0_LAYER001
  6
CONTINUOUS
 62
   18
 10
1642.4527794999999
 20
1013.6963195000001
 11
1614.7852774999999
 21
1002.0985035000001
  0
LINE
  8
_0-0_LAYER001
  6
CONTINUOUS
 62
   18
 10
1614.7852774999999
 20
1002.0985035000001
 11
1620.5841854999999
 21
988.26475249999999
  0
LINE
  8
_0-0_LAYER001
  6
CONTINUOUS
 62
   18
 10
1642.4527794999999
 20
1013.6963195000001
 11
1620.5841854999999
 21
988.26475249999999
  0
LINE
  8
_0-0_LAYER001
  6
CONTINUOUS
 62
   18
 10
1875.9030195
 20
1103.2095005000001
 11
1903.5705214999998
 21
1114.8073175
  0
LINE
  8
_0-0_LAYER001
  6
CONTINUOUS
 62
   18
 10
1903.5705214999998
 20
1114.8073175
 11
1897.7716135000001
 21
1128.6410685000001
  0
LINE
  8
_0-0_LAYER001
  6
CONTINUOUS
 62
   18
 10
1897.7716135000001
 20
1128.6410685000001
 11
1870.1041114999998
 21
1117.0432515
  0
LINE
  8
_0-0_LAYER001
  6
CONTINUOUS
 62
   18
 10
1870.1041114999998
 20
1117.0432515
 11
1875.9030195
 21
1103.2095005000001
  0
LINE
  8
_0-0_LAYER001
  6
CONTINUOUS
 62
   18
 10
1897.7716135000001
 20
1128.6410685000001
 11
1875.9030195
 21
1103.2095005000001
  0
LINE
  8
_0-0_LAYER001
  6
CONTINUOUS
 62
   18
 10
1817.5647094999999
 20
1174.5724385000001
 11
1821.9008214999999
 21
1181.6903295
  0
LINE
  8
_0-0_LAYER001
  6
CONTINUOUS
 62
   18
 10
1817.5647094999999
 20
1189.5969655000001
 11
1817.5647094999999
 21
1174.0006095000001
  0
LINE
  8
_0-0_LAYER001
  6
CONTINUOUS
 62
   18
 10
1836.3858875000001
 20
1194.6106965000001
 11
1840.2467094999997
 21
1180.1163655
  0
LINE
  8
_0-0_LAYER001
  6
CONTINUOUS
 62
   18
 10
1854.7413114999999
 20
1183.9772595000002
 11
1850.8803115000001
 21
1198.4722595000001
  0
LINE
  8
_0-0_LAYER001
  6
CONTINUOUS
 62
   18
 10
1817.5647094999999
 20
1189.5969655000001
 11
1918.6268104999999
 21
1216.5186725000001
  0
LINE
  8
_0-0_LAYER001
  6
CONTINUOUS
 62
   18
 10
1884.6268104999999
 20
1222.1082715
 11
1896.6268104999999
 21
1222.1082715
  0
LINE
  8
_0-0_LAYER001
  6
CONTINUOUS
 62
   18
 10
1896.6268104999999
 20
1259.0499125000001
 11
1914.6268104999999
 21
1259.0499125000001
  0
LINE
  8
_0-0_LAYER001
  6
CONTINUOUS
 62
   18
 10
1914.6268104999999
 20
1259.0499125000001
 11
1914.6268104999999
 21
1295.0499125000001
  0
LINE
  8
_0-0_LAYER001
  6
CONTINUOUS
 62
   18
 10
1914.6268104999999
 20
1295.0499125000001
 11
1896.6268104999999
 21
1295.0499125000001
  0
LINE
  8
_0-0_LAYER001
  6
CONTINUOUS
 62
   18
 10
1896.6268104999999
 20
1295.0499125000001
 11
1896.6268104999999
 21
1259.0499125000001
  0
LINE
  8
_0-0_LAYER001
  6
CONTINUOUS
 62
   18
 10
1914.6268104999999
 20
1295.0499125000001
 11
1896.6268104999999
 21
1259.0499125000001
  0
LINE
  8
_0-0_LAYER001
  6
CONTINUOUS
 62
   18
 10
1918.6268104999999
 20
1366.5186725000001
 11
1918.6268104999999
 21
1216.5186725000001
  0
LINE
  8
_0-0_LAYER001
  6
CONTINUOUS
 62
   18
 10
1817.5647094999999
 20
1308.2207095000001
 11
1817.5647094999999
 21
1280.7207095000001
  0
CIRCLE
  8
_0-0_LAYER001
  6
CONTINUOUS
 62
   18
 10
1817.5647094999999
 20
1305.7207095000001
 40
1.7000000000000002
  0
LINE
  8
_0-0_LAYER001
  6
CONTINUOUS
 62
   18
 10
1817.5647094999999
 20
1305.7207095000001
 11
1884.6268104999999
 21
1305.7207095000001
  0
CIRCLE
  8
_0-0_LAYER001
  6
CONTINUOUS
 62
   18
 10
1884.6268104999999
 20
1305.7207095000001
 40
1.7000000000000002
  0
LINE
  8
_0-0_LAYER001
  6
CONTINUOUS
 62
   18
 10
1884.6268104999999
 20
1308.2207095000001
 11
1884.6268104999999
 21
1280.7207095000001
  0
LINE
  8
_0-0_LAYER001
  6
CONTINUOUS
 62
   18
 10
1983.3809274999999
 20
1366.5186725000001
 11
1955.8809274999999
 21
1366.5186725000001
  0
CIRCLE
  8
_0-0_LAYER001
  6
CONTINUOUS
 62
   18
 10
1980.8809274999999
 20
1366.5186725000001
 40
1.7000000000000002
  0
LINE
  8
_0-0_LAYER001
  6
CONTINUOUS
 62
   18
 10
1980.8809274999999
 20
1366.5186725000001
 11
1980.8809274999999
 21
1216.5186725000001
  0
CIRCLE
  8
_0-0_LAYER001
  6
CONTINUOUS
 62
   18
 10
1980.8809274999999
 20
1216.5186725000001
 40
1.7000000000000002
  0
LINE
  8
_0-0_LAYER001
  6
CONTINUOUS
 62
   18
 10
1983.3809274999999
 20
1216.5186725000001
 11
1955.8809274999999
 21
1216.5186725000001
  0
LINE
  8
_0-0_LAYER001
  6
CONTINUOUS
 62
   18
 10
1808.8297214999998
 20
1161.5167655
 11
1810.7708644999998
 21
1154.2723215000001
  0
LINE
  8
_0-0_LAYER001
  6
CONTINUOUS
 62
   18
 10
1810.7708644999998
 20
1154.2723215000001
 11
1805.4675634999999
 21
1159.5756225
  0
LINE
  8
_0-0_LAYER001
  6
CONTINUOUS
 62
   18
 10
1810.7708644999998
 20
1154.2723215000001
 11
1776.9145364999999
 21
1212.9132025000001
  0
LINE
  8
_0-0_LAYER001
  6
CONTINUOUS
 62
   18
 10
1776.9145364999999
 20
1212.9132025000001
 11
1728.9145364999999
 21
1212.9132025000001
  0
LINE
  8
_0-0_LAYER001
  6
CONTINUOUS
 62
   18
 10
1871.9632174999997
 20
1211.8496025000002
 11
1873.9043604999997
 21
1204.6051595000001
  0
LINE
  8
_0-0_LAYER001
  6
CONTINUOUS
 62
   18
 10
1873.9043604999997
 20
1204.6051595000001
 11
1868.6010594999998
 21
1209.9084595000002
  0
LINE
  8
_0-0_LAYER001
  6
CONTINUOUS
 62
   18
 10
1873.9043604999997
 20
1204.6051595000001
 11
1751.3288154999998
 21
1416.9122305000001
  0
LINE
  8
_0-0_LAYER001
  6
CONTINUOUS
 62
   18
 10
1751.3288154999998
 20
1416.9122305000001
 11
1517.3288154999998
 21
1416.9122305000001
  0
LINE
  8
_0-0_LAYER001
  6
CONTINUOUS
 62
   18
 10
1844.7740825000001
 20
1197.2514815
 11
1846.7152255000001
 21
1190.0070375
  0
LINE
  8
_0-0_LAYER001
  6
CONTINUOUS
 62
   18
 10
1846.7152255000001
 20
1190.0070375
 11
1841.4119244999997
 21
1195.3103385000002
  0
LINE
  8
_0-0_LAYER001
  6
CONTINUOUS
 62
   18
 10
1846.7152255000001
 20
1190.0070375
 11
1806.6066535
 21
1259.4771225
  0
LINE
  8
_0-0_LAYER001
  6
CONTINUOUS
 62
   18
 10
1806.6066535
 20
1259.4771225
 11
1709.1066535
 21
1259.4771225
  0
LINE
  8
_0-0_LAYER001
  6
CONTINUOUS
 62
   18
 10
1882.6856674999999
 20
1407.7688415
 11
1884.6268104999999
 21
1400.5243975000003
  0
LINE
  8
_0-0_LAYER001
  6
CONTINUOUS
 62
   18
 10
1884.6268104999999
 20
1400.5243975000003
 11
1879.3235095
 21
1405.8276985
  0
LINE
  8
_0-0_LAYER001
  6
CONTINUOUS
 62
   18
 10
1884.6268104999999
 20
1400.5243975000003
 11
1830.6145234999999
 21
1494.0764225
  0
LINE
  8
_0-0_LAYER001
  6
CONTINUOUS
 62
   18
 10
1830.6145234999999
 20
1494.0764225
 11
1658.1145234999999
 21
1494.0764225
  0
LINE
  8
_0-0_LAYER001
  6
CONTINUOUS
 62
   18
 10
1905.5928774999998
 20
1288.1087755000001
 11
1907.5340204999998
 21
1280.8643325
  0
LINE
  8
_0-0_LAYER001
  6
CONTINUOUS
 62
   18
 10
1907.5340204999998
 20
1280.8643325
 11
1902.2307194999999
 21
1286.1676334999997
  0
LINE
  8
_0-0_LAYER001
  6
CONTINUOUS
 62
   18
 10
1907.5340204999998
 20
1280.8643325
 11
1855.7031794999998
 21
1370.6379815
  0
LINE
  8
_0-0_LAYER001
  6
CONTINUOUS
 62
   18
 10
1855.7031794999998
 20
1370.6379815
 11
1815.2031794999998
 21
1370.6379815
  0
LINE
  8
_0-0_LAYER001
  6
CONTINUOUS
 62
   18
 10
1921.6268104999999
 20
767.56832150000014
 11
1921.6268104999999
 21
1510.4860914999999
  0
LINE
  8
_0-1_LAYER002
  6
CONTINUOUS
 62
   18
 10
1906.7322454999999
 20
997.79921050000007
 11
1908.8293684999999
 21
998.74283549999996
  0
LINE
  8
_0-1_LAYER002
  6
CONTINUOUS
 62
   18
 10
1882.1085104999997
 20
1052.5138095
 11
1884.2064264999999
 21
1053.4573885
  0
LINE
  8
_0-1_LAYER002
  6
CONTINUOUS
 62
   18
 10
1875.9531105000001
 20
1066.1933995000002
 11
1882.1085104999997
 21
1052.5138095
  0
LINE
  8
_0-1_LAYER002
  6
CONTINUOUS
 62
   18
 10
1835.9066574999997
 20
1051.1332105000001
 11
1872.3823064999997
 21
1067.5472065000001
  0
LINE
  8
_0-1_LAYER002
  6
CONTINUOUS
 62
   18
 10
1871.4397374999999
 20
1069.6442145000001
 11
1834.9621804999997
 21
1053.2291655000001
  0
LINE
  8
_0-1_LAYER002
  6
CONTINUOUS
 62
   18
 10
1878.0507364999999
 20
1067.1369465
 11
1884.2064264999999
 21
1053.4573885
  0
LINE
  8
_0-1_LAYER002
  6
CONTINUOUS
 62
   18
 10
1869.3879465
 20
964.54419250000001
 11
1832.4546135000001
 21
1046.6179235
  0
LINE
  8
_0-1_LAYER002
  6
CONTINUOUS
 62
   18
 10
1912.4776155
 20
978.45215050000002
 11
1875.9989734999999
 21
962.03674650000016
  0
LINE
  8
_0-1_LAYER002
  6
CONTINUOUS
 62
   18
 10
1914.9850314999999
 20
985.06317650000005
 11
1908.8293684999999
 21
998.74283549999996
  0
LINE
  8
_0-1_LAYER002
  6
CONTINUOUS
 62
   18
 10
1912.8882555
 20
984.11964550000016
 11
1906.7322454999999
 21
997.79921050000007
  0
LINE
  8
_0-1_LAYER002
  6
CONTINUOUS
 62
   18
 10
1875.0565495000001
 20
964.13383950000002
 11
1911.5340984999998
 21
980.54906750000009
  0
LINE
  8
_0-1_LAYER002
  6
CONTINUOUS
 62
   18
 10
1871.4858974999997
 20
965.48785350000003
 11
1834.5528405
 21
1047.5626465
  0
LINE
  8
_0-0_LAYER001
  6
CONTINUOUS
 62
   18
 10
1875.5441864999998
 20
950.86720950000017
 11
1838.6101045
 21
1032.9399685000001
  0
LINE
  8
_0-0_LAYER001
  6
CONTINUOUS
 62
   18
 10
1834.2789364999999
 20
1025.5077795
 11
1862.1844274999999
 21
963.49776050000014
  0
LINE
  8
_0-0_LAYER001
  6
CONTINUOUS
 62
   18
 10
1836.7863164999999
 20
1032.1199045000001
 11
1838.6101045
 21
1032.9399685000001
  0
LINE
  8
_0-0_LAYER001
  6
CONTINUOUS
 62
   18
 10
1795.1576704999998
 20
922.36911550000013
 11
1857.1688374999999
 21
950.27467550000006
  0
LINE
  8
_0-0_LAYER001
  6
CONTINUOUS
 62
   18
 10
1853.0184875
 20
1006.5263235
 11
1855.7548714999998
 21
1007.7572395
  0
LINE
  8
_0-0_LAYER001
  6
CONTINUOUS
 62
   18
 10
1846.4526714999997
 20
1021.1164765000001
 11
1849.1889025
 21
1022.3474455
  0
LINE
  8
_0-0_LAYER001
  6
CONTINUOUS
 62
   18
 10
1862.3203174999999
 20
993.16827250000006
 11
1849.1889025
 21
1022.3474455
  0
LINE
  8
_0-0_LAYER001
  6
CONTINUOUS
 62
   18
 10
1859.5839805000001
 20
991.93625750000001
 11
1862.3203174999999
 21
993.16827250000006
  0
LINE
  8
_0-0_LAYER001
  6
CONTINUOUS
 62
   18
 10
1861.5915285000001
 20
1019.1557575000002
 11
1872.2606255000001
 21
1023.9577485
  0
LINE
  8
_0-0_LAYER001
  6
CONTINUOUS
 62
   18
 10
1868.1568214999998
 20
1004.5666235000001
 11
1878.8261264999996
 21
1009.3674725000001
  0
LINE
  8
_0-0_LAYER001
  6
CONTINUOUS
 62
   18
 10
1866.7388725000001
 20
1005.1051285000001
 11
1858.5975874999999
 21
1001.4420515000002
  0
LINE
  8
_0-0_LAYER001
  6
CONTINUOUS
 62
   18
 10
1861.0529455000001
 20
1017.7396375000001
 11
1852.9126444999997
 21
1014.0757805000001
  0
LINE
  8
_0-0_LAYER001
  6
CONTINUOUS
 62
   18
 10
1858.2108874999999
 20
1024.0579755000001
 11
1850.0683934999997
 21
1020.3938765
  0
LINE
  8
_0-0_LAYER001
  6
CONTINUOUS
 62
   18
 10
1859.9482435
 20
1022.8063035
 11
1858.2108874999999
 21
1024.0579755000001
  0
LINE
  8
_0-0_LAYER001
  6
CONTINUOUS
 62
   18
 10
1869.7977944999998
 20
1000.9198635
 11
1859.9482435
 21
1022.8063035
  0
LINE
  8
_0-0_LAYER001
  6
CONTINUOUS
 62
   18
 10
1869.5820384999997
 20
998.78664750000007
 11
1861.4407965
 21
995.12278050000009
  0
LINE
  8
_0-0_LAYER001
  6
CONTINUOUS
 62
   18
 10
1869.7977944999998
 20
1000.9198635
 11
1869.5820384999997
 21
998.78664750000007
  0
LINE
  8
_0-0_LAYER001
  6
CONTINUOUS
 62
   18
 10
1879.8301244999998
 20
1012.0124565000001
 11
1878.8261264999996
 21
1009.3674725000001
  0
LINE
  8
_0-0_LAYER001
  6
CONTINUOUS
 62
   18
 10
1874.9053604999999
 20
1022.9546815000001
 11
1879.8301244999998
 21
1012.0124565000001
  0
LINE
  8
_0-0_LAYER001
  6
CONTINUOUS
 62
   18
 10
1872.2606255000001
 20
1023.9577485
 11
1874.9053604999999
 21
1022.9546815000001
  0
LINE
  8
_0-0_LAYER001
  6
CONTINUOUS
 62
   18
 10
1872.2606255000001
 20
1023.9577485
 11
1878.8261264999996
 21
1009.3674725000001
  0
LINE
  8
_0-0_LAYER001
  6
CONTINUOUS
 62
   18
 10
1872.2606255000001
 20
1023.9577485
 11
1876.2528775000001
 21
1008.2095885000001
  0
LINE
  8
_0-0_LAYER001
  6
CONTINUOUS
 62
   18
 10
1866.7044255000001
 20
1021.4571505000001
 11
1870.6977815
 21
1005.7091375
  0
LINE
  8
_0-0_LAYER001
  6
CONTINUOUS
 62
   18
 10
1833.5533184999999
 20
1005.3631615000002
 11
1841.6944464999997
 21
1009.0261825
  0
LINE
  8
_0-0_LAYER001
  6
CONTINUOUS
 62
   18
 10
1839.2390934999999
 20
992.72846649999997
 11
1847.3804864999997
 21
996.39256950000004
  0
LINE
  8
_0-0_LAYER001
  6
CONTINUOUS
 62
   18
 10
1842.0814645
 20
986.41032150000001
 11
1850.2234974999997
 21
990.0741915000001
  0
LINE
  8
_0-0_LAYER001
  6
CONTINUOUS
 62
   18
 10
1840.3437974999997
 20
987.66179150000016
 11
1842.0814645
 21
986.41032150000001
  0
LINE
  8
_0-0_LAYER001
  6
CONTINUOUS
 62
   18
 10
1830.4943874999999
 20
1009.5484165
 11
1840.3437974999997
 21
987.66179150000016
  0
LINE
  8
_0-0_LAYER001
  6
CONTINUOUS
 62
   18
 10
1830.7100055000001
 20
1011.6813475000001
 11
1838.8512394999998
 21
1015.3454235000002
  0
LINE
  8
_0-0_LAYER001
  6
CONTINUOUS
 62
   18
 10
1830.4943874999999
 20
1009.5484165
 11
1830.7100055000001
 21
1011.6813475000001
  0
LINE
  8
_0-0_LAYER001
  6
CONTINUOUS
 62
   18
 10
1792.6504124999997
 20
915.75790649999999
 11
1793.4711284999998
 21
913.93406550000009
  0
LINE
  8
_0-0_LAYER001
  6
CONTINUOUS
 62
   18
 10
1793.4711284999998
 20
913.93406550000009
 11
1875.5443634999997
 21
950.86682650000012
  0
LINE
  8
_0-0_LAYER001
  6
CONTINUOUS
 62
   18
 10
1847.5013214999999
 20
1086.2877335000001
 11
1838.3810064999998
 21
1082.1836845
  0
LINE
  8
_0-0_LAYER001
  6
CONTINUOUS
 62
   18
 10
1848.7312714999998
 20
1083.5512485000002
 11
1839.6128395000001
 21
1079.4485705
  0
LINE
  8
_0-0_LAYER001
  6
CONTINUOUS
 62
   18
 10
1838.3810064999998
 20
1082.1836845
 11
1839.6128395000001
 21
1079.4485705
  0
LINE
  8
_0-0_LAYER001
  6
CONTINUOUS
 62
   18
 10
1847.5013214999999
 20
1086.2877335000001
 11
1848.7312714999998
 21
1083.5512485000002
  0
LINE
  8
_0-0_LAYER001
  6
CONTINUOUS
 62
   18
 10
1842.9412434999999
 20
1084.2357375000001
 11
1844.1719804999998
 21
1081.4993165000001
  0
LINE
  8
_0-0_LAYER001
  6
CONTINUOUS
 62
   18
 10
1859.3562334999997
 20
1047.7590105000002
 11
1855.2340864999996
 21
1052.0452064999999
  0
LINE
  8
_0-0_LAYER001
  6
CONTINUOUS
 62
   18
 10
1859.3562334999997
 20
1047.7590105000002
 11
1858.8817534999998
 21
1053.6860275000001
  0
LINE
  8
_0-0_LAYER001
  6
CONTINUOUS
 62
   18
 10
1847.8273184999998
 20
1065.4878175000001
 11
1853.4552094999999
 21
1069.1792875000001
  0
LINE
  8
_0-0_LAYER001
  6
CONTINUOUS
 62
   18
 10
1849.8792974999997
 20
1060.9286185000001
 11
1855.5082275
 21
1064.6191725000001
  0
LINE
  8
_0-0_LAYER001
  6
CONTINUOUS
 62
   18
 10
1851.9322235
 20
1056.3683185
 11
1857.5597874999999
 21
1060.0599355000002
  0
LINE
  8
_0-0_LAYER001
  6
CONTINUOUS
 62
   18
 10
1845.7764275
 20
1070.0479645
 11
1851.4041655000001
 21
1073.7395085000001
  0
LINE
  8
_0-0_LAYER001
  6
CONTINUOUS
 62
   18
 10
1847.8283514999998
 20
1065.4877125
 11
1853.4571805
 21
1069.1794735000001
  0
LINE
  8
_0-0_LAYER001
  6
CONTINUOUS
 62
   18
 10
1849.8811794999997
 20
1060.9285395000002
 11
1855.5080094999998
 21
1064.6190745000001
  0
LINE
  8
_0-0_LAYER001
  6
CONTINUOUS
 62
   18
 10
1851.9321044999997
 20
1056.3682455000001
 11
1857.5598204999997
 21
1060.0600395000001
  0
LINE
  8
_0-0_LAYER001
  6
CONTINUOUS
 62
   18
 10
1853.4681455
 20
1052.9562335000001
 11
1859.0955464999997
 21
1056.6479235000002
  0
LINE
  8
_0-0_LAYER001
  6
CONTINUOUS
 62
   18
 10
1847.2270174999999
 20
1079.5869335
 11
1858.8817534999998
 21
1053.6860275000001
  0
LINE
  8
_0-0_LAYER001
  6
CONTINUOUS
 62
   18
 10
1848.7312714999998
 20
1083.5512485000002
 11
1847.2270174999999
 21
1079.5869335
  0
LINE
  8
_0-0_LAYER001
  6
CONTINUOUS
 62
   18
 10
1843.5802224999998
 20
1077.9430165000001
 11
1855.2338835
 21
1052.0451145
  0
LINE
  8
_0-0_LAYER001
  6
CONTINUOUS
 62
   18
 10
1839.6128395000001
 20
1079.4485705
 11
1843.5802224999998
 21
1077.9430165000001
  0
LINE
  8
_0-2_LAYER003
  6
CONTINUOUS
 62
   18
 10
1921.6268104999999
 20
971.6036825000001
 11
1058.3075494999998
 21
583.11076350000008
  0
LINE
  8
_0-3_LAYER009
  6
CONTINUOUS
 62
   18
 10
1908.6763335000001
 20
1113.8151925
 11
993.94494449999968
 21
702.18698250000011
  0
LINE
  8
_0-2_LAYER003
  6
DASHED
 62
   18
 10
1920.1268104999999
 20
1121.1610875000001
 11
995.15796049999994
 21
704.92586950000009
  0
ARC
  8
_0-1_LAYER002
  6
CONTINUOUS
 62
   18
 10
1873.4906765000001
 20
1065.0849815000001
 40
2.7000000000000002
 50
24.240376999999999
 51
114.23248600000001
  0
ARC
  8
_0-1_LAYER002
  6
CONTINUOUS
 62
   18
 10
1837.0149684999997
 20
1048.6709525000001
 40
2.7000000000000002
 50
114.23248599999999
 51
204.212807
  0
ARC
  8
_0-1_LAYER002
  6
CONTINUOUS
 62
   18
 10
1837.0129604999997
 20
1048.6699265
 40
4.9990000000000006
 50
114.220095
 51
204.23074700000001
  0
ARC
  8
_0-1_LAYER002
  6
CONTINUOUS
 62
   18
 10
1873.4917255
 20
1065.0862065000001
 40
4.9990000000000006
 50
24.224357000000001
 51
114.241366
  0
ARC
  8
_0-1_LAYER002
  6
CONTINUOUS
 62
   18
 10
1873.9469744999997
 20
966.5949935000001
 40
4.9990000000000006
 50
204.20946699999999
 51
294.235007
  0
ARC
  8
_0-1_LAYER002
  6
CONTINUOUS
 62
   18
 10
1910.4267095
 20
983.01130450000005
 40
4.9990000000000006
 50
294.21371699999997
 51
24.245647000000034
  0
ARC
  8
_0-1_LAYER002
  6
CONTINUOUS
 62
   18
 10
1910.4256074999998
 20
983.01131850000002
 40
2.7000000000000002
 50
294.22067700000002
 51
24.240377000000034
  0
ARC
  8
_0-1_LAYER002
  6
CONTINUOUS
 62
   18
 10
1873.9478734999998
 20
966.59597250000002
 40
2.7000000000000002
 50
204.212807
 51
294.22067700000002
  0
ARC
  8
_0-0_LAYER001
  6
CONTINUOUS
 62
   18
 10
1853.0629504999997
 20
959.3949235
 40
10.001999
 50
294.23666700000001
 51
24.223897000000008
  0
ARC
  8
_0-0_LAYER001
  6
CONTINUOUS
 62
   18
 10
1838.8370864999997
 20
1027.5596935000001
 40
4.9990000000000006
 50
114.220095
 51
204.23074700000001
  0
ARC
  8
_0-0_LAYER001
  6
CONTINUOUS
 62
   18
 10
1797.2082984999997
 20
917.80967950000013
 40
4.9990000000000006
 50
114.220095
 51
204.23074700000001
  0
ARC
  8
_0-0_LAYER001
  6
CONTINUOUS
 62
   18
 10
1854.9995435000001
 20
1018.8230635
 40
6.1470010000000013
 50
349.86246699999998
 51
23.869747000000014
  0
ARC
  8
_0-0_LAYER001
  6
CONTINUOUS
 62
   18
 10
1863.5255904999999
 20
999.85029650000001
 40
6.1580000000000013
 50
24.600926999999999
 51
58.555577
  0
ARC
  8
_0-0_LAYER001
  6
CONTINUOUS
 62
   18
 10
1843.9913364999998
 20
1002.4664385000001
 40
22.898998000000002
 50
6.6164970000000007
 51
41.832006999999997
  0
ARC
  8
_0-0_LAYER001
  6
CONTINUOUS
 62
   18
 10
1845.2935264999996
 20
991.64789650000012
 40
6.1479999999999997
 50
169.87800900000002
 51
203.89275699999999
  0
ARC
  8
_0-0_LAYER001
  6
CONTINUOUS
 62
   18
 10
1836.7598634999999
 20
1010.6095415
 40
6.1479999999999997
 50
204.55376700000002
 51
238.55602700000003
  0
ARC
  8
_0-0_LAYER001
  6
CONTINUOUS
 62
   18
 10
1856.3362124999999
 20
1008.0192145000001
 40
22.936001000000005
 50
186.64732700000002
 51
221.80409700000004
  0
LINE
  8
_0-0_LAYER001
  6
CONTINUOUS
 62
   18
 10
1918.9354315
 20
1091.0171465000001
 11
1005.9364404999999
 21
680.16851350000002
  0
LINE
  8
_0-0_LAYER001
  6
CONTINUOUS
 62
   18
 10
1918.9354315
 20
1091.0171465000001
 11
1908.6763335000001
 21
1113.8151925
  0
LINE
  8
_0-0_LAYER001
  6
DASHED
 62
   18
 10
1920.1268104999999
 20
1147.8289334999999
 11
1920.1268104999999
 21
1397.8289334999999
  0
LINE
  8
_0-0_LAYER001
  6
CONTINUOUS
 62
   18
 10
1896.6268104999999
 20
1537.1539375
 11
1896.6268104999999
 21
1222.1082715
  0
LINE
  8
_0-0_LAYER001
  6
CONTINUOUS
 62
   18
 10
1884.6268104999999
 20
1537.1539375
 11
1884.6268104999999
 21
1222.1082715
  0
LINE
  8
_0-0_LAYER001
  6
CONTINUOUS
 62
   18
 10
2065.7185635000001
 20
1371.1610875000001
 11
2013.2185635000001
 21
1371.1610875000001
  0
CIRCLE
  8
_0-0_LAYER001
  6
CONTINUOUS
 62
   18
 10
2063.2185635000001
 20
1371.1610875000001
 40
1.7000000000000002
  0
LINE
  8
_0-0_LAYER001
  6
CONTINUOUS
 62
   18
 10
2063.2185635000001
 20
1371.1610875000001
 11
2063.2185635000001
 21
1121.1610875000001
  0
CIRCLE
  8
_0-0_LAYER001
  6
CONTINUOUS
 62
   18
 10
2063.2185635000001
 20
1121.1610875000001
 40
1.7000000000000002
  0
LINE
  8
_0-0_LAYER001
  6
CONTINUOUS
 62
   18
 10
2065.7185635000001
 20
1121.1610875000001
 11
2013.2185635000001
 21
1121.1610875000001
  0
LINE
  8
_0-0_LAYER001
  6
CONTINUOUS
 62
   18
 10
883.09479549999992
 20
923.97417250000012
 11
985.6642804999999
 21
970.13032950000002
  0
CIRCLE
  8
_0-0_LAYER001
  6
CONTINUOUS
 62
   18
 10
985.6642804999999
 20
970.13032950000002
 40
1.7000000000000002
  0
LINE
  8
_0-0_LAYER001
  6
CONTINUOUS
 62
   18
 10
984.63837149999995
 20
972.41013450000014
 11
1006.1824734999998
 21
924.53423550000002
  0
LINE
  8
_0-0_LAYER001
  6
CONTINUOUS
 62
   18
 10
976.43109449999997
 20
990.64857150000012
 11
997.9751964999997
 21
942.77267350000011
  0
CIRCLE
  8
_0-0_LAYER001
  6
CONTINUOUS
 62
   18
 10
977.45700349999993
 20
988.36876649999999
 40
1.7000000000000002
  0
LINE
  8
_0-0_LAYER001
  6
CONTINUOUS
 62
   18
 10
977.45700349999993
 20
988.36876649999999
 11
1232.7951294999998
 21
1103.2706445000001
  0
CIRCLE
  8
_0-0_LAYER001
  6
CONTINUOUS
 62
   18
 10
1232.7951294999998
 20
1103.2706445000001
 40
1.7000000000000002
  0
LINE
  8
_0-0_LAYER001
  6
CONTINUOUS
 62
   18
 10
1231.7692195
 20
1105.5504495
 11
1253.3133214999998
 21
1057.6745515
  0
LINE
  8
_0-0_LAYER001
  6
CONTINUOUS
 62
   18
 10
1223.5619424999998
 20
1123.7888875000001
 11
1245.1060444999998
 21
1075.9129885
  0
CIRCLE
  8
_0-0_LAYER001
  6
CONTINUOUS
 62
   18
 10
1224.5878524999998
 20
1121.5090825
 40
1.7000000000000002
  0
LINE
  8
_0-0_LAYER001
  6
CONTINUOUS
 62
   18
 10
1224.5878524999998
 20
1121.5090825
 11
1479.9259784999999
 21
1236.4109605000001
  0
CIRCLE
  8
_0-0_LAYER001
  6
CONTINUOUS
 62
   18
 10
1479.9259784999999
 20
1236.4109605000001
 40
1.7000000000000002
  0
LINE
  8
_0-0_LAYER001
  6
CONTINUOUS
 62
   18
 10
1478.9000684999999
 20
1238.6907655
 11
1500.4441704999999
 21
1190.8148665000001
  0
LINE
  8
_0-0_LAYER001
  6
CONTINUOUS
 62
   18
 10
1470.6927915000001
 20
1256.9292025
 11
1492.2368935
 21
1209.0533045
  0
CIRCLE
  8
_0-0_LAYER001
  6
CONTINUOUS
 62
   18
 10
1471.7187015
 20
1254.6493985
 40
1.7000000000000002
  0
LINE
  8
_0-0_LAYER001
  6
CONTINUOUS
 62
   18
 10
1471.7187015
 20
1254.6493985
 11
1727.0568264999999
 21
1369.5512765000001
  0
CIRCLE
  8
_0-0_LAYER001
  6
CONTINUOUS
 62
   18
 10
1727.0568264999999
 20
1369.5512765000001
 40
1.7000000000000002
  0
LINE
  8
_0-0_LAYER001
  6
CONTINUOUS
 62
   18
 10
1726.0309174999998
 20
1371.8310805000001
 11
1747.5750194999998
 21
1323.9551825000001
  0
LINE
  8
_0-0_LAYER001
  6
CONTINUOUS
 62
   18
 10
1212.4007904999999
 20
660.12919550000015
 11
1274.4119754999999
 21
688.03445350000004
  0
LINE
  8
_0-0_LAYER001
  6
CONTINUOUS
 62
   18
 10
1209.8934924999999
 20
653.5180335
 11
1210.7143664999999
 21
651.69412150000016
  0
LINE
  8
_0-0_LAYER001
  6
CONTINUOUS
 62
   18
 10
1210.7143664999999
 20
651.69412150000016
 11
1292.7875414999999
 21
688.62653250000017
  0
ARC
  8
_0-0_LAYER001
  6
CONTINUOUS
 62
   18
 10
1270.3063034999998
 20
697.15474050000012
 40
10.001999
 50
294.23627399999998
 51
24.223504000000009
  0
ARC
  8
_0-0_LAYER001
  6
CONTINUOUS
 62
   18
 10
1214.4515944999998
 20
655.56977649999999
 40
4.9990000000000006
 50
114.21981300000002
 51
204.23045400000004
  0
LINE
  8
_0-0_LAYER001
  6
CONTINUOUS
 62
   18
 10
1287.8366044999998
 20
739.03725050000003
 11
1287.6207124999999
 21
736.9039315
  0
LINE
  8
_0-0_LAYER001
  6
CONTINUOUS
 62
   18
 10
1288.2920604999999
 20
761.17177349999997
 11
1292.2841984999995
 21
745.4235235000001
  0
LINE
  8
_0-0_LAYER001
  6
CONTINUOUS
 62
   18
 10
1282.7357574999999
 20
758.67115250000006
 11
1286.7291724999998
 21
742.92306050000002
  0
LINE
  8
_0-0_LAYER001
  6
CONTINUOUS
 62
   18
 10
1288.2920604999999
 20
761.17177349999997
 11
1290.9367564999998
 21
760.16864250000003
  0
LINE
  8
_0-0_LAYER001
  6
CONTINUOUS
 62
   18
 10
1286.1954934999999
 20
742.68380650000017
 11
1294.8575464999999
 21
746.58144549999997
  0
LINE
  8
_0-0_LAYER001
  6
CONTINUOUS
 62
   18
 10
1288.2920604999999
 20
761.17177349999997
 11
1294.8575464999999
 21
746.58144549999997
  0
LINE
  8
_0-0_LAYER001
  6
CONTINUOUS
 62
   18
 10
1295.8614514999999
 20
749.2263825
 11
1294.8575464999999
 21
746.58144549999997
  0
LINE
  8
_0-0_LAYER001
  6
CONTINUOUS
 62
   18
 10
1290.9367564999998
 20
760.16864250000003
 11
1295.8614514999999
 21
749.2263825
  0
ARC
  8
_0-0_LAYER001
  6
CONTINUOUS
 62
   18
 10
1281.5642854999999
 20
737.96763350000015
 40
6.1580000000000013
 50
24.600714
 51
58.555369000000006
  0
LINE
  8
_0-0_LAYER001
  6
CONTINUOUS
 62
   18
 10
1254.0298764999998
 20
769.87991850000003
 11
1255.8536844999999
 21
770.69990750000011
  0
LINE
  8
_0-0_LAYER001
  6
CONTINUOUS
 62
   18
 10
1292.7873504999998
 20
688.62693850000005
 11
1255.8536844999999
 21
770.69990750000011
  0
LINE
  8
_0-0_LAYER001
  6
CONTINUOUS
 62
   18
 10
1251.5224205
 20
763.26774250000017
 11
1279.4276814999998
 21
701.25753950000012
  0
LINE
  8
_0-0_LAYER001
  6
CONTINUOUS
 62
   18
 10
1271.0571794999998
 20
744.64370150000013
 11
1273.7935044999999
 21
745.87459350000017
  0
LINE
  8
_0-0_LAYER001
  6
CONTINUOUS
 62
   18
 10
1264.4915324999999
 20
759.23396249999996
 11
1267.2276744999999
 21
760.46480850000012
  0
LINE
  8
_0-0_LAYER001
  6
CONTINUOUS
 62
   18
 10
1280.3589944999999
 20
731.28563750000012
 11
1267.2276744999999
 21
760.46480850000012
  0
LINE
  8
_0-0_LAYER001
  6
CONTINUOUS
 62
   18
 10
1277.6226764999999
 20
730.05358650000016
 11
1280.3589944999999
 21
731.28563750000012
  0
LINE
  8
_0-0_LAYER001
  6
CONTINUOUS
 62
   18
 10
1284.7776514999998
 20
743.22245950000001
 11
1276.6363354999999
 21
739.5594145
  0
LINE
  8
_0-0_LAYER001
  6
CONTINUOUS
 62
   18
 10
1279.0916754999998
 20
755.8569695000001
 11
1270.9513984999999
 21
752.19314450000002
  0
LINE
  8
_0-0_LAYER001
  6
CONTINUOUS
 62
   18
 10
1276.2496424999999
 20
762.17538050000007
 11
1268.1073194999999
 21
758.51126450000015
  0
LINE
  8
_0-0_LAYER001
  6
CONTINUOUS
 62
   18
 10
1277.9870534999998
 20
760.92369050000002
 11
1276.2496424999999
 21
762.17538050000007
  0
LINE
  8
_0-0_LAYER001
  6
CONTINUOUS
 62
   18
 10
1287.8366044999998
 20
739.03725050000003
 11
1277.9870534999998
 21
760.92369050000002
  0
LINE
  8
_0-0_LAYER001
  6
CONTINUOUS
 62
   18
 10
1287.6207124999999
 20
736.9039315
 11
1279.4794434999999
 21
733.24018750000005
  0
LINE
  8
_0-0_LAYER001
  6
CONTINUOUS
 62
   18
 10
1250.7966944999998
 20
743.12308950000011
 11
1258.9378694999998
 21
746.78613150000001
  0
LINE
  8
_0-0_LAYER001
  6
CONTINUOUS
 62
   18
 10
1256.4824554999998
 20
730.48835550000013
 11
1264.6238744999998
 21
734.1523995
  0
LINE
  8
_0-0_LAYER001
  6
CONTINUOUS
 62
   18
 10
1259.3247104999998
 20
724.17017450000003
 11
1267.4667984999999
 21
727.83400449999988
  0
LINE
  8
_0-0_LAYER001
  6
CONTINUOUS
 62
   18
 10
1257.5871894999998
 20
725.42166450000013
 11
1259.3247104999998
 21
724.17017450000003
  0
LINE
  8
_0-0_LAYER001
  6
CONTINUOUS
 62
   18
 10
1247.7377124999998
 20
747.30832550000014
 11
1257.5871894999998
 21
725.42166450000013
  0
LINE
  8
_0-0_LAYER001
  6
CONTINUOUS
 62
   18
 10
1247.9534214999999
 20
749.44123750000017
 11
1256.0946354999999
 21
753.1052565
  0
LINE
  8
_0-0_LAYER001
  6
CONTINUOUS
 62
   18
 10
1247.7377124999998
 20
747.30832550000014
 11
1247.9534214999999
 21
749.44123750000017
  0
LINE
  8
_0-0_LAYER001
  6
CONTINUOUS
 62
   18
 10
1279.6298984999999
 20
757.27314249999995
 11
1288.2920604999999
 21
761.17177349999997
  0
ARC
  8
_0-0_LAYER001
  6
CONTINUOUS
 62
   18
 10
1256.0805744999998
 20
765.3197255
 40
4.9990000000000006
 50
114.21981300000002
 51
204.23045400000004
  0
ARC
  8
_0-0_LAYER001
  6
CONTINUOUS
 62
   18
 10
1273.0383304999998
 20
756.94045849999998
 40
6.1470010000000013
 50
349.86202400000002
 51
23.869294000000043
  0
ARC
  8
_0-0_LAYER001
  6
CONTINUOUS
 62
   18
 10
1262.0300654999999
 20
740.58388250000007
 40
22.898998000000002
 50
6.6163340000000002
 51
41.831853999999993
  0
ARC
  8
_0-0_LAYER001
  6
CONTINUOUS
 62
   18
 10
1262.5368874999999
 20
729.40776449999987
 40
6.1479999999999997
 50
169.877734
 51
203.89247399999999
  0
ARC
  8
_0-0_LAYER001
  6
CONTINUOUS
 62
   18
 10
1254.0032954999999
 20
748.36949049999998
 40
6.1479999999999997
 50
204.553484
 51
238.555744
  0
ARC
  8
_0-0_LAYER001
  6
CONTINUOUS
 62
   18
 10
1273.5796905
 20
745.77901350000002
 40
22.936001000000005
 50
186.64699399999998
 51
221.803764
  0
LINE
  8
_0-0_LAYER001
  6
CONTINUOUS
 62
   18
 10
1264.8056015
 20
824.07397549999996
 11
1255.6852784999999
 21
819.9699485000001
  0
LINE
  8
_0-0_LAYER001
  6
CONTINUOUS
 62
   18
 10
1266.0355524999998
 20
821.33749150000017
 11
1256.9171244999998
 21
817.2348065000001
  0
LINE
  8
_0-0_LAYER001
  6
CONTINUOUS
 62
   18
 10
1255.6852784999999
 20
819.9699485000001
 11
1256.9171244999998
 21
817.2348065000001
  0
LINE
  8
_0-0_LAYER001
  6
CONTINUOUS
 62
   18
 10
1264.8056015
 20
824.07397549999996
 11
1266.0355524999998
 21
821.33749150000017
  0
LINE
  8
_0-0_LAYER001
  6
CONTINUOUS
 62
   18
 10
1260.2455224999999
 20
822.02202550000015
 11
1261.4763644999998
 21
819.28553950000014
  0
LINE
  8
_0-0_LAYER001
  6
CONTINUOUS
 62
   18
 10
1278.6474284999999
 20
781.12978950000002
 11
1274.5251784999998
 21
785.41597750000005
  0
LINE
  8
_0-0_LAYER001
  6
CONTINUOUS
 62
   18
 10
1278.6474284999999
 20
781.12978950000002
 11
1278.1729344999999
 21
787.05678550000016
  0
LINE
  8
_0-0_LAYER001
  6
CONTINUOUS
 62
   18
 10
1265.0676074999999
 20
803.41868250000016
 11
1270.6952314999999
 21
807.11022649999995
  0
LINE
  8
_0-0_LAYER001
  6
CONTINUOUS
 62
   18
 10
1267.1194354999998
 20
798.85840750000011
 11
1272.7482994999998
 21
802.55021450000004
  0
LINE
  8
_0-0_LAYER001
  6
CONTINUOUS
 62
   18
 10
1269.1722544999998
 20
794.29930650000006
 11
1274.7991304999998
 21
797.9898475
  0
LINE
  8
_0-0_LAYER001
  6
CONTINUOUS
 62
   18
 10
1271.2232924999998
 20
789.73902850000013
 11
1276.8510084999998
 21
793.43076650000012
  0
LINE
  8
_0-0_LAYER001
  6
CONTINUOUS
 62
   18
 10
1272.7592264999998
 20
786.32700250000016
 11
1278.3866264999999
 21
790.01864750000004
  0
LINE
  8
_0-0_LAYER001
  6
CONTINUOUS
 62
   18
 10
1264.5313014999999
 20
817.37320550000004
 11
1278.1729344999999
 21
787.05678550000016
  0
LINE
  8
_0-0_LAYER001
  6
CONTINUOUS
 62
   18
 10
1266.0355524999998
 20
821.33749150000017
 11
1264.5313014999999
 21
817.37320550000004
  0
LINE
  8
_0-0_LAYER001
  6
CONTINUOUS
 62
   18
 10
1260.8846994999999
 20
815.72924150000017
 11
1274.5251784999998
 21
785.41597750000005
  0
LINE
  8
_0-0_LAYER001
  6
CONTINUOUS
 62
   18
 10
1256.9171244999998
 20
817.2348065000001
 11
1260.8846994999999
 21
815.72924150000017
  0
LINE
  8
_0-0_LAYER001
  6
CONTINUOUS
 62
   18
 10
1299.7581574999999
 20
790.45635349999998
 11
1301.8556444999999
 21
791.40009650000002
  0
LINE
  8
_0-0_LAYER001
  6
CONTINUOUS
 62
   18
 10
1324.3798605000002
 20
735.74094650000006
 11
1326.4773964999999
 21
736.68470150000007
  0
LINE
  8
_0-0_LAYER001
  6
CONTINUOUS
 62
   18
 10
1252.9172764999998
 20
788.78767549999998
 11
1290.6709604999996
 21
805.77659349999999
  0
LINE
  8
_0-0_LAYER001
  6
CONTINUOUS
 62
   18
 10
1299.7581574999999
 20
790.45635349999998
 11
1293.3155474999999
 21
804.77350249999995
  0
LINE
  8
_0-0_LAYER001
  6
CONTINUOUS
 62
   18
 10
1330.8225295
 20
721.42382050000015
 11
1324.3798605000002
 21
735.74094650000006
  0
LINE
  8
_0-0_LAYER001
  6
CONTINUOUS
 62
   18
 10
1292.0658544999997
 20
701.79008950000002
 11
1329.8193375000001
 21
718.77902949999998
  0
LINE
  8
_0-0_LAYER001
  6
CONTINUOUS
 62
   18
 10
1301.8556444999999
 20
791.40009650000002
 11
1295.4129254999998
 21
805.71722050000017
  0
LINE
  8
_0-0_LAYER001
  6
CONTINUOUS
 62
   18
 10
1251.9733835
 20
790.88493650000009
 11
1289.7270644999999
 21
807.87391449999996
  0
LINE
  8
_0-0_LAYER001
  6
CONTINUOUS
 62
   18
 10
1332.9201174999998
 20
722.36755749999986
 11
1326.4773964999999
 21
736.68470150000007
  0
LINE
  8
_0-0_LAYER001
  6
CONTINUOUS
 62
   18
 10
1293.0097634999997
 20
699.69268950000014
 11
1330.7631824999999
 21
716.68172649999997
  0
LINE
  8
_0-0_LAYER001
  6
CONTINUOUS
 62
   18
 10
1289.4212614999997
 20
702.79334050000011
 11
1251.9141724999999
 21
786.1431685
  0
LINE
  8
_0-0_LAYER001
  6
CONTINUOUS
 62
   18
 10
1249.8169174999998
 20
785.19913550000001
 11
1287.3240024999998
 21
701.84938750000015
  0
ARC
  8
_0-0_LAYER001
  6
CONTINUOUS
 62
   18
 10
1291.4916304999999
 20
803.9527015000001
 40
2.0000030000000004
 50
24.227644000000005
 51
114.22763500000001
  0
ARC
  8
_0-0_LAYER001
  6
CONTINUOUS
 62
   18
 10
1328.9986144999998
 20
720.60296949999997
 40
2.0000030000000004
 50
294.227644
 51
24.227644000000016
  0
ARC
  8
_0-0_LAYER001
  6
CONTINUOUS
 62
   18
 10
1328.9986144999998
 20
720.60296949999997
 40
4.2999999999999998
 50
294.227644
 51
24.227644000000016
  0
ARC
  8
_0-0_LAYER001
  6
CONTINUOUS
 62
   18
 10
1291.4916304999999
 20
803.9527015000001
 40
4.2999999999999998
 50
24.227644000000005
 51
114.22763500000001
  0
ARC
  8
_0-0_LAYER001
  6
CONTINUOUS
 62
   18
 10
1253.7382064999999
 20
786.96378449999997
 40
2.0000030000000004
 50
114.22763500000002
 51
204.22764400000003
  0
ARC
  8
_0-0_LAYER001
  6
CONTINUOUS
 62
   18
 10
1291.2451854999999
 20
703.6139525000001
 40
2.0000030000000004
 50
204.227644
 51
294.227644
  0
ARC
  8
_0-0_LAYER001
  6
CONTINUOUS
 62
   18
 10
1291.2451854999999
 20
703.6139525000001
 40
4.2999999999999998
 50
204.227644
 51
294.227644
  0
ARC
  8
_0-0_LAYER001
  6
CONTINUOUS
 62
   18
 10
1253.7382064999999
 20
786.96378449999997
 40
4.2999999999999998
 50
114.22763500000002
 51
204.22764400000003
  0
LINE
  8
_0-0_LAYER001
  6
CONTINUOUS
 62
   18
 10
1538.9358575000001
 20
591.91220650000014
 11
1871.9101925
 21
591.91220650000014
  0
LINE
  8
_0-0_LAYER001
  6
CONTINUOUS
 62
   18
 10
1372.7203594999996
 20
875.92360950000011
 11
1370.7792164999998
 21
883.16805350000004
  0
LINE
  8
_0-0_LAYER001
  6
CONTINUOUS
 62
   18
 10
1370.7792164999998
 20
883.16805350000004
 11
1376.0825174999995
 21
877.86475250000012
  0
LINE
  8
_0-0_LAYER001
  6
CONTINUOUS
 62
   18
 10
1370.7792164999998
 20
883.16805350000004
 11
1555.7172034999999
 21
562.84606250000002
  0
LINE
  8
_0-0_LAYER001
  6
CONTINUOUS
 62
   18
 10
1555.7172034999999
 20
562.84606250000002
 11
1940.1594894999998
 21
562.84606250000002
  0
LINE
  8
_0-0_LAYER001
  6
CONTINUOUS
 62
   18
 10
1521.2841684999999
 20
622.80795750000016
 11
1757.4093054999998
 21
622.80795750000016
  0
LINE
  8
_0-0_LAYER001
  6
CONTINUOUS
 62
   18
 10
1503.6075274999998
 20
652.78890550000006
 11
1696.0002155000002
 21
652.78890550000006
  0
TEXT
  8
_0-2_LAYER003
 62
    7
 10
1104.6252650485376
 20
1059.3550340975219
 40
20
 41
1
 50
24.22766200000013
  1
280
  0
TEXT
  8
_0-2_LAYER003
 62
    7
 10
1328.7699426736654
 20
1184.7240910742883
 40
20
 41
1
 50
24.227662000000432
  1
280
  0
TEXT
  8
_0-2_LAYER003
 62
    7
 10
1577.6085254608829
 20
1315.7917415499987
 40
20
 41
1
 50
24.227661999999725
  1
280
  0
TEXT
  8
_0-2_LAYER003
 62
    7
 10
1400.9521269936213
 20
1057.4555029312073
 40
20
 41
1
 50
0
  1
桟　瓦
  0
TEXT
  8
_0-2_LAYER003
 62
    7
 10
1512.0438235785821
 20
657.16821420239864
 40
20
 41
1
 50
0
  1
瓦桟：15x30以上
  0
TEXT
  8
_0-2_LAYER003
 62
    7
 10
1527.2598339615447
 20
626.19276449422489
 40
20
 41
1
 50
0
  1
下葺材：ルーフィング
  0
TEXT
  8
_0-2_LAYER003
 62
    7
 10
1560.408999438713
 20
565.87215190462348
 40
20
 41
1
 50
0
  1
　鋼製：C100x50x20x2.3@606　
  0
TEXT
  8
_0-2_LAYER003
 62
    7
 10
1543.0192732867558
 20
596.84760161279712
 40
20
 41
1
 50
0
  1
　野地板：硬質木片セメントパネルｔ＝25
  0
TEXT
  8
_0-2_LAYER003
 62
    7
 10
1675.6159351954295
 20
1263.6349137519053
 40
20
 41
1
 50
0
  1
弾性シール材
  0
TEXT
  8
_0-2_LAYER003
 62
    7
 10
1837.5577599855305
 20
1311.4566606697874
 40
20
 41
1
 50
0
  1
65
  0
TEXT
  8
_0-2_LAYER003
 62
    7
 10
1715.8296769218302
 20
1217.9868826030176
 40
20
 41
1
 50
0
  1
熨斗瓦
  0
TEXT
  8
_0-2_LAYER003
 62
    7
 10
1756.0434186482314
 20
1371.2338443171404
 40
20
 41
1
 50
0
  1
弾性シール材
  0
TEXT
  8
_0-2_LAYER003
 62
    7
 10
1420.2043323385583
 20
1423.4030227730118
 40
20
 41
1
 50
0
  1
雨押水切カラー鋼板0.35ｍｍ以上
  0
TEXT
  8
_0-2_LAYER003
 62
    7
 10
1591.9278780891352
 20
1497.3093589188302
 40
20
 41
1
 50
0
  1
外壁　防火サイディング
  0
TEXT
  8
_0-2_LAYER003
 62
    7
 10
2009.2813057361077
 20
1165.8177041471461
 40
20
 41
1
 50
90
  1
水切り鉄板立上がり寸法
  0
TEXT
  8
_0-2_LAYER003
 62
    7
 10
2098.403652264888
 20
1134.2988254967238
 40
20
 41
1
 50
90
  1
下葺き材立上がり寸法
  0
TEXT
  8
_0-2_LAYER003
 62
    7
 10
1973.414995547696
 20
1278.8509241348677
 40
20
 41
1
 50
90
  1
150
  0
TEXT
  8
_0-2_LAYER003
 62
    7
 10
2052.7556211160008
 20
1234.2897508704775
 40
20
 41
1
 50
90
  1
250
  0
ENDSEC
  0
EOF
