  0
SECTION
  2
HEADER
  9
$ACADVER
  1
AC1009
  9
$INSBASE
 10
0
 20
0
 30
0
  9
$EXTMIN
 10
0
 20
0
  9
$EXTMAX
 10
2970
 20
2100
  9
$LIMMIN
 10
0
 20
0
  9
$LIMMAX
 10
2970
 20
2100
  9
$LTSCALE
 40
10
  0
ENDSEC
  0
SECTION
  2
TABLES
  0
TABLE
  2
LTYPE
 70
     9
  0
LTYPE
  2
CONTINUOUS
 70
    64
  3
実線
 72
    65
 73
     0
 40
0.0
  0
LTYPE
  2
DASHED1
 70
    64
  3
--  --  --  --  --  --  --  --  
 72
    65
 73
     2
 40
2.5
 49
1.25
 49
-1.25
  0
LTYPE
  2
DASHED2
 70
    64
  3
----    ----    ----    ----    
 72
    65
 73
     2
 40
5.0
 49
2.5
 49
-2.5
  0
LTYPE
  2
DASHED3
 70
    64
  3
------  ------  ------  ------  
 72
    65
 73
     2
 40
5.0
 49
3.75
 49
-1.25
  0
LTYPE
  2
CENTER1
 70
    64
  3
----- - ----- - ----- - ----- - 
 72
    65
 73
     4
 40
10.0
 49
6.25
 49
-1.25
 49
1.25
 49
-1.25
  0
LTYPE
  2
CENTER2
 70
    64
  3
----------  --  ----------  --  
 72
    65
 73
     4
 40
20.0
 49
12.5
 49
-2.5
 49
2.5
 49
-2.5
  0
LTYPE
  2
PHANTOM1
 70
    64
  3
--- - - --- - - --- - - --- - - 
 72
    65
 73
     6
 40
10.0
 49
3.25
 49
-1.25
 49
1.25
 49
-1.25
 49
1.25
 49
-1.25
  0
LTYPE
  2
PHANTOM2
 70
    64
  3
--------  -  -  --------  -  -  
 72
    65
 73
     6
 40
20.0
 49
10.0
 49
-2.5
 49
1.25
 49
-2.5
 49
1.25
 49
-2.5
  0
LTYPE
  2
DOT
 70
    64
  3
-   -   -   -   -   -   -   -   
 72
    65
 73
     2
 40
2.5
 49
0.625
 49
-1.875
  0
LTYPE
  2
DUMMY
 70
    64
  3
ダミー
 72
    65
 73
     0
 40
0.0
  0
LTYPE
  2
RAND1
 70
    64
  3
ランダム線1
 72
    65
 73
     4
 40
10.0
 49
1.0
 49
-2.0
 49
3.0
 49
-4.0
  0
LTYPE
  2
RAND2
 70
    64
  3
ランダム線2
 72
    65
 73
     4
 40
14.0
 49
2.0
 49
-3.0
 49
4.0
 49
-5.0
  0
LTYPE
  2
RAND3
 70
    64
  3
ランダム線3
 72
    65
 73
     4
 40
18.0
 49
3.0
 49
-4.0
 49
5.0
 49
-6.0
  0
LTYPE
  2
RAND4
 70
    64
  3
ランダム線4
 72
    65
 73
     4
 40
22.0
 49
4.0
 49
-5.0
 49
6.0
 49
-7.0
  0
LTYPE
  2
RAND5
 70
    64
  3
ランダム線5
 72
    65
 73
     4
 40
26.0
 49
5.0
 49
-6.0
 49
7.0
 49
-8.0
  0
LTYPE
  2
LONG1
 70
    64
  3
----------  --  ----------  --  
 72
    65
 73
     4
 40
40.0
 49
32.5
 49
-2.5
 49
2.5
 49
-2.5
  0
LTYPE
  2
LONG2
 70
    64
  3
--------  -  -  --------  -  -  
 72
    65
 73
     6
 40
40.0
 49
30.0
 49
-2.5
 49
1.25
 49
-2.5
 49
1.25
 49
-2.5
  0
LTYPE
  2
LONG3
 70
    64
  3
+++++++++++++++..+++++++++++++++
 72
    65
 73
     2
 40
40.0
 49
37.5
 49
-2.5
  0
LTYPE
  2
LONG4
 70
    64
  3
+++++++++++++++..+++++++++++++++
 72
    65
 73
     2
 40
80.0
 49
75.0
 49
-5.0
  0
LTYPE
  2
LONG5
 70
    64
  3
----------  --  ----------  --  
 72
    65
 73
     4
 40
60.0
 49
37.5
 49
-7.5
 49
7.5
 49
-7.5
  0
LTYPE
  2
dashed
 70
   64
  3
-------   -------------   ------
 72
   65
 73
    2
 40
7.5
 49
6
 49
-1.5
  0
LTYPE
  2
dashed_spaced
 70
   64
  3
----        --------        ----
 72
   65
 73
    2
 40
12
 49
6
 49
-6
  0
LTYPE
  2
long_dashed_dotted
 70
   64
  3
------------- --- --------------
 72
   65
 73
    4
 40
15.25
 49
12
 49
-1.5
 49
0.25
 49
-1.5
  0
LTYPE
  2
long_dashed_double-dotted
 70
   64
  3
----------- --- --- ------------
 72
   65
 73
    6
 40
17
 49
12
 49
-1.5
 49
0.25
 49
-1.5
 49
0.25
 49
-1.5
  0
LTYPE
  2
long_dashed_triplicate-dotted
 70
   64
  3
--------- --- --- --- ----------
 72
   65
 73
    8
 40
18.75
 49
12
 49
-1.5
 49
0.25
 49
-1.5
 49
0.25
 49
-1.5
 49
0.25
 49
-1.5
  0
LTYPE
  2
dotted
 70
   64
  3
   -       -       -       -    
 72
   65
 73
    2
 40
1.75
 49
0.25
 49
-1.5
  0
LTYPE
  2
chain
 70
   64
  3
-------------- -- --------------
 72
   65
 73
    4
 40
18.5
 49
12
 49
-1.5
 49
3.5
 49
-1.5
  0
LTYPE
  2
chain_double_dash
 70
   64
  3
------------ -- -- -------------
 72
   65
 73
    6
 40
23.5
 49
12
 49
-1.5
 49
3.5
 49
-1.5
 49
3.5
 49
-1.5
  0
LTYPE
  2
dashed_dotted
 70
   64
  3
-----------     -     ----------
 72
   65
 73
    4
 40
9.25
 49
6
 49
-1.5
 49
0.25
 49
-1.5
  0
LTYPE
  2
double-dashed_dotted
 70
   64
  3
------   -----------   -   -----
 72
   65
 73
    6
 40
16.75
 49
6
 49
-1.5
 49
6
 49
-1.5
 49
0.25
 49
-1.5
  0
LTYPE
  2
dashed_double-dotted
 70
   64
  3
---------    -    -    ---------
 72
   65
 73
    6
 40
11
 49
6
 49
-1.5
 49
0.25
 49
-1.5
 49
0.25
 49
-1.5
  0
LTYPE
  2
double-dashed_double-dotted
 70
   64
  3
-----   ---------   -   -   ----
 72
   65
 73
    8
 40
18.5
 49
6
 49
-1.5
 49
6
 49
-1.5
 49
0.25
 49
-1.5
 49
0.25
 49
-1.5
  0
LTYPE
  2
dashed_triplicate-dotted
 70
   64
  3
-------    -    -    -    ------
 72
   65
 73
    8
 40
12.75
 49
6
 49
-1.5
 49
0.25
 49
-1.5
 49
0.25
 49
-1.5
 49
0.25
 49
-1.5
  0
LTYPE
  2
double-dashed_triplicate-dotted
 70
   64
  3
-----  ---------  -  -  -  -----
 72
   65
 73
   10
 40
20.25
 49
6
 49
-1.5
 49
6
 49
-1.5
 49
0.25
 49
-1.5
 49
0.25
 49
-1.5
 49
0.25
 49
-1.5
  0
LTYPE
  2
undefined
 70
   64
  3
--------------------------------
 72
   65
 73
    0
 40
0
  0
ENDTAB
  0
TABLE
  2
STYLE
  5
3
100
AcDbSymbolTable
 70
     1
  0
STYLE
  5
10
100
AcDbSymbolTableRecord
100
AcDbTextStyleTableRecord
  2
STANDARD
 70
     0
 40
0.0
 41
1.0
 50
0.0
 71
     0
 42
0.2
  3
txt
  4
bigfont.shx
  0
STYLE
  5
26
100
AcDbSymbolTableRecord
100
AcDbTextStyleTableRecord
  2
TATEGAKI
 70
    68
 40
0.0
 41
1.0
 50
0.0
 71
     0
 42
1.0
  3
txt
  4
bigfont.shx
  0
ENDTAB
  0
TABLE
  2
LAYER
 70
    2
  0
LAYER
  2
_0-0_1
 70
   64
 62
    7
  6
CONTINUOUS
  0
LAYER
  2
ADD_LINE
 70
   64
 62
    7
  6
CONTINUOUS
  0
ENDTAB
  0
ENDSEC
  0
SECTION
  2
BLOCKS
  0
ENDSEC
  0
SECTION
  2
ENTITIES
  0
LINE
  8
_0-0_1
  6
DASHED3
 62
    3
 10
2152.5738999999999
 20
1306.8118999999999
 11
1096.143
 21
831.41779999999994
  0
LINE
  8
_0-0_1
  6
CONTINUOUS
 62
    3
 10
1209.7012
 20
800.82259999999997
 11
1217.0875000000001
 21
784.40859999999998
  0
LINE
  8
_0-0_1
  6
CONTINUOUS
 62
    3
 10
1482.3652000000002
 20
923.52050000000008
 11
1489.7511
 21
907.10629999999992
  0
LINE
  8
_0-0_1
  6
CONTINUOUS
 62
    3
 10
1755.9416000000001
 20
1046.6307999999999
 11
1763.3278
 21
1030.2167999999999
  0
LINE
  8
_0-0_1
  6
CONTINUOUS
 62
    3
 10
1723.1124
 20
1031.8578
 11
1730.4985999999999
 21
1015.4438
  0
LINE
  8
_0-0_1
  6
CONTINUOUS
 62
    3
 10
1449.5356999999999
 20
908.7482
 11
1456.9214999999999
 21
892.33400000000006
  0
LINE
  8
_0-0_1
  6
CONTINUOUS
 62
    4
 10
1152.25
 20
840.76520000000005
 11
1194.9277999999999
 21
745.92560000000003
  0
LINE
  8
_0-0_1
  6
CONTINUOUS
 62
    4
 10
1129.452
 20
830.50610000000006
 11
1172.1297
 21
735.66640000000007
  0
LINE
  8
_0-0_1
  6
CONTINUOUS
 62
    4
 10
1194.9277999999999
 20
745.92560000000003
 11
1172.1297
 21
735.66640000000007
  0
LINE
  8
_0-0_1
  6
CONTINUOUS
 62
    3
 10
2153.5998
 20
1304.5320999999999
 11
1101.7294999999999
 21
831.19029999999998
  0
LINE
  8
_0-0_1
  6
CONTINUOUS
 62
    3
 10
2158.5241999999998
 20
1293.5890999999997
 11
1106.6538
 21
820.24720000000002
  0
LINE
  8
_0-0_1
  6
CONTINUOUS
 62
    3
 10
1101.7294999999999
 20
831.19029999999998
 11
1106.6538
 21
820.24720000000002
  0
LINE
  8
_0-0_1
  6
CONTINUOUS
 62
    3
 10
1209.7012
 20
800.82259999999997
 11
1184.2583
 21
769.63550000000009
  0
LINE
  8
_0-0_1
  6
CONTINUOUS
 62
    3
 10
1482.3652000000002
 20
923.52050000000008
 11
1456.9214999999999
 21
892.33400000000006
  0
LINE
  8
_0-0_1
  6
CONTINUOUS
 62
    3
 10
1755.9416000000001
 20
1046.6307999999999
 11
1730.4985999999999
 21
1015.4438
  0
LINE
  8
_0-0_1
  6
CONTINUOUS
 62
    3
 10
1166.2717
 20
748.68429999999989
 11
1177.0675000000001
 21
737.88850000000002
  0
LINE
  8
_0-0_1
  6
CONTINUOUS
 62
    3
 10
1157.5935999999999
 20
767.96900000000005
 11
1184.3824
 21
741.18020000000001
  0
LINE
  8
_0-0_1
  6
CONTINUOUS
 62
    3
 10
1148.9155000000001
 20
787.25369999999998
 11
1191.6973
 21
744.47190000000001
  0
LINE
  8
_0-0_1
  6
CONTINUOUS
 62
    3
 10
1140.2374
 20
806.53839999999991
 11
1190.0821000000001
 21
756.69370000000004
  0
LINE
  8
_0-0_1
  6
CONTINUOUS
 62
    3
 10
1131.5592999999999
 20
825.82300000000009
 11
1181.404
 21
775.97839999999997
  0
LINE
  8
_0-0_1
  6
CONTINUOUS
 62
    3
 10
1134.9906000000001
 20
832.99839999999995
 11
1172.7258999999999
 21
795.26309999999989
  0
LINE
  8
_0-0_1
  6
CONTINUOUS
 62
    3
 10
1142.3054999999999
 20
836.29009999999994
 11
1164.0478000000001
 21
814.54780000000005
  0
LINE
  8
_0-0_1
  6
CONTINUOUS
 62
    3
 10
1149.6204
 20
839.58179999999993
 11
1155.3697999999999
 21
833.83240000000001
  0
LINE
  8
_0-0_1
  6
CONTINUOUS
 62
    3
 10
1162.5623000000001
 20
771.06700000000001
 11
1166.3123000000001
 21
777.56220000000008
  0
LINE
  8
_0-0_1
  6
CONTINUOUS
 62
    3
 10
1166.3123000000001
 20
777.56220000000008
 11
1166.3123000000001
 21
770.06220000000008
  0
LINE
  8
_0-0_1
  6
CONTINUOUS
 62
    3
 10
1166.3123000000001
 20
777.56220000000008
 11
1124.6093000000001
 21
621.92440000000011
  0
LINE
  8
_0-0_1
  6
CONTINUOUS
 62
    3
 10
1124.6093000000001
 20
621.92440000000011
 11
1076.6093000000001
 21
621.92440000000011
  0
LINE
  8
_0-0_1
  6
CONTINUOUS
 62
    3
 10
1118.3408999999999
 20
852.55179999999996
 11
1122.0908999999999
 21
859.04690000000005
  0
LINE
  8
_0-0_1
  6
CONTINUOUS
 62
    3
 10
1122.0908999999999
 20
859.04690000000005
 11
1122.0908999999999
 21
851.54690000000005
  0
LINE
  8
_0-0_1
  6
CONTINUOUS
 62
    3
 10
1122.0908999999999
 20
859.04690000000005
 11
1070.5445
 21
666.67319999999995
  0
LINE
  8
_0-0_1
  6
CONTINUOUS
 62
    3
 10
1070.5445
 20
666.67319999999995
 11
931.04449999999997
 21
666.67319999999995
  0
LINE
  8
_0-0_1
  6
CONTINUOUS
 62
    3
 10
1176.8716999999999
 20
786.05009999999993
 11
1813.7244000000001
 21
1072.6339
  0
LINE
  8
_0-0_1
  6
CONTINUOUS
 62
    3
 10
1184.2583
 20
769.63550000000009
 11
1814.1255999999998
 21
1053.0759
  0
LINE
  8
_0-0_1
  6
CONTINUOUS
 62
    3
 10
1186.7204999999999
 20
764.16399999999999
 11
1814.2593000000002
 21
1046.5565999999999
  0
LINE
  8
_0-0_1
  6
CONTINUOUS
 62
    3
 10
1710.404
 20
1158.0169000000001
 11
1712.3452000000002
 21
1150.7725
  0
LINE
  8
_0-0_1
  6
CONTINUOUS
 62
    3
 10
1712.3452000000002
 20
1150.7725
 11
1707.0419000000002
 21
1156.0758000000001
  0
LINE
  8
_0-0_1
  6
CONTINUOUS
 62
    3
 10
1712.3452000000002
 20
1150.7725
 11
1653.8670000000002
 21
1252.0597
  0
LINE
  8
_0-0_1
  6
CONTINUOUS
 62
    3
 10
1653.8670000000002
 20
1252.0597
 11
1613.3670000000002
 21
1252.0597
  0
LINE
  8
_0-0_1
  6
CONTINUOUS
 62
    3
 10
1313.1768999999999
 20
930.14509999999996
 11
1285.8109999999999
 21
917.83040000000005
  0
LINE
  8
_0-0_1
  6
CONTINUOUS
 62
    3
 10
1550.9135000000001
 20
1037.1269
 11
1523.5475999999999
 21
1024.8122000000001
  0
LINE
  8
_0-0_1
  6
CONTINUOUS
 62
    3
 10
1788.6500999999998
 20
1144.1086
 11
1761.2842000000001
 21
1131.7938999999999
  0
LINE
  8
_0-0_1
  6
CONTINUOUS
 62
    5
 10
1777.0365999999999
 20
1178.8929000000001
 11
1778.0336000000002
 21
1176.0634
  0
LINE
  8
_0-0_1
  6
CONTINUOUS
 62
    5
 10
1777.0365999999999
 20
1178.8929000000001
 11
1785.5250999999998
 21
1181.8838000000001
  0
LINE
  8
_0-0_1
  6
CONTINUOUS
 62
    5
 10
1710.7882
 20
1244.133
 11
1738.1260000000002
 21
1166.5450000000001
  0
LINE
  8
_0-0_1
  6
CONTINUOUS
 62
    5
 10
1738.1260000000002
 20
1166.5450000000001
 11
2022.0191
 21
1266.5734
  0
LINE
  8
_0-0_1
  6
CONTINUOUS
 62
    5
 10
1729.4706000000001
 20
1194.6922999999999
 11
1967.9367000000002
 21
1296.6911
  0
LINE
  8
_0-0_1
  6
CONTINUOUS
 62
    5
 10
2022.0191
 20
1266.5734
 11
2026.0068999999999
 21
1255.2554
  0
LINE
  8
_0-0_1
  6
CONTINUOUS
 62
    5
 10
2026.0068999999999
 20
1255.2554
 11
2034.4955
 21
1258.2462
  0
LINE
  8
_0-0_1
  6
CONTINUOUS
 62
    5
 10
2015.0403999999999
 20
1286.3797999999999
 11
2016.0373
 21
1283.5504000000001
  0
LINE
  8
_0-0_1
  6
CONTINUOUS
 62
    5
 10
1732.1442000000002
 20
1183.5219999999999
 11
2016.0373
 21
1283.5504000000001
  0
LINE
  8
_0-0_1
  6
CONTINUOUS
 62
    5
 10
1710.7979999999998
 20
1244.5353
 11
1955.8865000000001
 21
1330.8910000000001
  0
LINE
  8
_0-0_1
  6
CONTINUOUS
 62
    5
 10
2015.0403999999999
 20
1286.3797999999999
 11
2023.5288
 21
1289.3707999999997
  0
LINE
  8
_0-0_1
  6
CONTINUOUS
 62
    5
 10
2023.5288
 20
1289.3707999999997
 11
2034.4955
 21
1258.2462
  0
LINE
  8
_0-0_1
  6
CONTINUOUS
 62
    5
 10
1949.0972999999999
 20
1350.5917999999999
 11
1976.4349999999999
 21
1273.0038
  0
LINE
  8
_0-0_1
  6
CONTINUOUS
 62
    5
 10
1976.4349999999999
 20
1273.0038
 11
2155.5999000000002
 21
1336.1315999999999
  0
LINE
  8
_0-0_1
  6
CONTINUOUS
 62
    5
 10
1967.7797
 20
1301.1510000000001
 11
2139.1808000000001
 21
1374.4641999999999
  0
LINE
  8
_0-0_1
  6
CONTINUOUS
 62
    5
 10
1970.4533000000001
 20
1289.9807000000001
 11
2148.4973
 21
1352.7136999999998
  0
LINE
  8
_0-0_1
  6
CONTINUOUS
 62
    5
 10
1949.1071000000002
 20
1350.9940999999999
 11
2122.991
 21
1412.2611999999999
  0
LINE
  8
_0-0_1
  6
CONTINUOUS
 62
    5
 10
1024.3518999999999
 20
844.74669999999992
 11
1308.2449999999999
 21
944.77500000000009
  0
LINE
  8
_0-0_1
  6
CONTINUOUS
 62
    5
 10
1015.6966
 20
872.89390000000003
 11
1254.1627000000001
 21
974.8927000000001
  0
LINE
  8
_0-0_1
  6
CONTINUOUS
 62
    5
 10
1308.2449999999999
 20
944.77500000000009
 11
1312.2329
 21
933.45700000000011
  0
LINE
  8
_0-0_1
  6
CONTINUOUS
 62
    5
 10
1312.2329
 20
933.45700000000011
 11
1320.7213999999999
 21
936.44789999999989
  0
LINE
  8
_0-0_1
  6
CONTINUOUS
 62
    5
 10
1301.2663
 20
964.58150000000001
 11
1302.2633000000001
 21
961.75199999999995
  0
LINE
  8
_0-0_1
  6
CONTINUOUS
 62
    5
 10
1018.3701000000001
 20
861.72370000000001
 11
1302.2633000000001
 21
961.75199999999995
  0
LINE
  8
_0-0_1
  6
CONTINUOUS
 62
    5
 10
1301.2663
 20
964.58150000000001
 11
1309.7548000000002
 21
967.57240000000002
  0
LINE
  8
_0-0_1
  6
CONTINUOUS
 62
    5
 10
1309.7548000000002
 20
967.57240000000002
 11
1320.7213999999999
 21
936.44789999999989
  0
LINE
  8
_0-0_1
  6
CONTINUOUS
 62
    5
 10
1235.2627
 20
1030.2492
 11
1262.6004
 21
952.66120000000001
  0
LINE
  8
_0-0_1
  6
CONTINUOUS
 62
    5
 10
1262.6004
 20
952.66120000000001
 11
1546.4935999999998
 21
1052.6895
  0
LINE
  8
_0-0_1
  6
CONTINUOUS
 62
    5
 10
1253.9450999999999
 20
980.80839999999989
 11
1492.4112
 21
1082.8072
  0
LINE
  8
_0-0_1
  6
CONTINUOUS
 62
    5
 10
1546.4935999999998
 20
1052.6895
 11
1550.4814000000001
 21
1041.3715
  0
LINE
  8
_0-0_1
  6
CONTINUOUS
 62
    5
 10
1550.4814000000001
 20
1041.3715
 11
1558.9699000000001
 21
1044.3624
  0
LINE
  8
_0-0_1
  6
CONTINUOUS
 62
    5
 10
1539.5149000000001
 20
1072.4960000000001
 11
1540.5118000000002
 21
1069.6665
  0
LINE
  8
_0-0_1
  6
CONTINUOUS
 62
    5
 10
1256.6187
 20
969.6382000000001
 11
1540.5118000000002
 21
1069.6665
  0
LINE
  8
_0-0_1
  6
CONTINUOUS
 62
    5
 10
1235.2725
 20
1030.6514999999999
 11
1480.3609999999999
 21
1117.0072
  0
LINE
  8
_0-0_1
  6
CONTINUOUS
 62
    5
 10
1539.5149000000001
 20
1072.4960000000001
 11
1548.0034000000001
 21
1075.4869000000001
  0
LINE
  8
_0-0_1
  6
CONTINUOUS
 62
    5
 10
1548.0034000000001
 20
1075.4869000000001
 11
1558.9699000000001
 21
1044.3624
  0
LINE
  8
_0-0_1
  6
CONTINUOUS
 62
    5
 10
1472.7844
 20
1136.6460999999999
 11
1500.1221999999998
 21
1059.058
  0
LINE
  8
_0-0_1
  6
CONTINUOUS
 62
    5
 10
1500.1221999999998
 20
1059.058
 11
1784.0153
 21
1159.0863999999999
  0
LINE
  8
_0-0_1
  6
CONTINUOUS
 62
    5
 10
1491.4668999999999
 20
1087.2053000000001
 11
1729.9328999999998
 21
1189.2040999999999
  0
LINE
  8
_0-0_1
  6
CONTINUOUS
 62
    5
 10
1784.0153
 20
1159.0863999999999
 11
1788.0032000000001
 21
1147.7683999999999
  0
LINE
  8
_0-0_1
  6
CONTINUOUS
 62
    5
 10
1788.0032000000001
 20
1147.7683999999999
 11
1796.4917
 21
1150.7592999999999
  0
LINE
  8
_0-0_1
  6
CONTINUOUS
 62
    5
 10
1494.1404000000002
 20
1076.0350000000001
 11
1778.0336000000002
 21
1176.0634
  0
LINE
  8
_0-0_1
  6
CONTINUOUS
 62
    5
 10
1472.7941999999998
 20
1137.0482999999999
 11
1717.8827000000001
 21
1223.4041
  0
LINE
  8
_0-0_1
  6
CONTINUOUS
 62
    5
 10
1785.5250999999998
 20
1181.8838000000001
 11
1796.4917
 21
1150.7592999999999
  0
LINE
  8
_0-0_1
  6
CONTINUOUS
 62
    5
 10
996.8891000000001
 20
922.68949999999995
 11
1024.3518999999999
 21
844.74669999999992
  0
LINE
  8
_0-0_1
  6
CONTINUOUS
 62
    5
 10
996.8891000000001
 20
922.68949999999995
 11
1242.1125
 21
1009.0926999999999
  0
LINE
  8
_0-0_1
  6
CONTINUOUS
 62
    3
 10
2019.8951000000002
 20
1264.6179
 11
1992.5291999999999
 21
1252.3032000000001
  0
LINE
  8
_0-0_1
  6
CONTINUOUS
 62
    3
 10
1754.7926000000002
 20
1145.3215
 11
1761.2842000000001
 21
1131.7938999999999
  0
LINE
  8
_0-0_1
  6
CONTINUOUS
 62
    3
 10
1544.4218999999998
 20
1050.6543999999999
 11
1550.9135000000001
 21
1037.1269
  0
LINE
  8
_0-0_1
  6
CONTINUOUS
 62
    3
 10
1517.056
 20
1038.3397
 11
1523.5475999999999
 21
1024.8122000000001
  0
LINE
  8
_0-0_1
  6
CONTINUOUS
 62
    3
 10
1544.4218999999998
 20
1050.6543999999999
 11
1517.056
 21
1038.3397
  0
LINE
  8
_0-0_1
  6
CONTINUOUS
 62
    3
 10
1279.3194000000001
 20
931.35799999999995
 11
1285.8109999999999
 21
917.83040000000005
  0
LINE
  8
_0-0_1
  6
CONTINUOUS
 62
    3
 10
2019.8951000000002
 20
1264.6179
 11
2026.2330000000002
 21
1251.4106999999999
  0
LINE
  8
_0-0_1
  6
CONTINUOUS
 62
    3
 10
1992.5291999999999
 20
1252.3032000000001
 11
1999.0209
 21
1238.7755999999999
  0
LINE
  8
_0-0_1
  6
CONTINUOUS
 62
    3
 10
2026.6514000000002
 20
1251.2094
 11
1999.0209
 21
1238.7755999999999
  0
LINE
  8
_0-0_1
  6
CONTINUOUS
 62
    3
 10
1782.1585
 20
1157.6361999999999
 11
1754.7926000000002
 21
1145.3215
  0
LINE
  8
_0-0_1
  6
CONTINUOUS
 62
    3
 10
1782.1585
 20
1157.6361999999999
 11
1788.6500999999998
 21
1144.1086
  0
LINE
  8
_0-0_1
  6
CONTINUOUS
 62
    3
 10
1306.6853000000001
 20
943.67270000000008
 11
1313.1768999999999
 21
930.14509999999996
  0
LINE
  8
_0-0_1
  6
CONTINUOUS
 62
    3
 10
1306.6853000000001
 20
943.67270000000008
 11
1279.3194000000001
 21
931.35799999999995
  0
LINE
  8
_0-0_1
  6
DASHED1
 62
    2
 10
1993.4162999999999
 20
1283.8916999999997
 11
2008.7647000000002
 21
1288.4118000000001
  0
LINE
  8
_0-0_1
  6
DASHED1
 62
    2
 10
2008.7647000000002
 20
1288.4118000000001
 11
2009.6120999999998
 21
1285.5338999999999
  0
LINE
  8
_0-0_1
  6
DASHED1
 62
    2
 10
1993.4162999999999
 20
1283.8916999999997
 11
1994.2638000000002
 21
1281.0138999999999
  0
LINE
  8
_0-0_1
  6
DASHED1
 62
    2
 10
1994.2638000000002
 20
1281.0138999999999
 11
2009.6120999999998
 21
1285.5338999999999
  0
LINE
  8
_0-0_1
  6
DASHED1
 62
    2
 10
2019.6655999999998
 20
1221.8089
 11
2011.442
 21
1240.3831
  0
LINE
  8
_0-0_1
  6
DASHED1
 62
    2
 10
1999.0601999999999
 20
1282.4263000000001
 11
2011.442
 21
1240.3831
  0
LINE
  8
_0-0_1
  6
DASHED1
 62
    2
 10
2019.8582999999999
 20
1221.1543999999999
 11
2018.1900999999998
 21
1238.7076999999999
  0
LINE
  8
_0-0_1
  6
DASHED1
 62
    2
 10
2004.8157999999999
 20
1284.1214
 11
2018.1900999999998
 21
1238.7076999999999
  0
LINE
  8
_0-0_1
  6
DASHED1
 62
    2
 10
1753.8326999999999
 20
1178.6626000000001
 11
1769.181
 21
1183.1827000000001
  0
LINE
  8
_0-0_1
  6
DASHED1
 62
    2
 10
1769.181
 20
1183.1827000000001
 11
1770.0284999999999
 21
1180.3049000000001
  0
LINE
  8
_0-0_1
  6
DASHED1
 62
    2
 10
1753.8326999999999
 20
1178.6626000000001
 11
1754.6801999999998
 21
1175.7847999999999
  0
LINE
  8
_0-0_1
  6
DASHED1
 62
    2
 10
1754.6801999999998
 20
1175.7847999999999
 11
1770.0284999999999
 21
1180.3049000000001
  0
LINE
  8
_0-0_1
  6
DASHED1
 62
    2
 10
1780.0819999999999
 20
1116.5798
 11
1771.8582999999999
 21
1135.154
  0
LINE
  8
_0-0_1
  6
DASHED1
 62
    2
 10
1759.4766
 20
1177.1973
 11
1771.8582999999999
 21
1135.154
  0
LINE
  8
_0-0_1
  6
DASHED1
 62
    2
 10
1780.2746999999999
 20
1115.9253000000001
 11
1778.6064999999999
 21
1133.4786999999999
  0
LINE
  8
_0-0_1
  6
DASHED1
 62
    2
 10
1765.2321999999999
 20
1178.8924
 11
1778.6064999999999
 21
1133.4786999999999
  0
LINE
  8
_0-0_1
  6
DASHED1
 62
    2
 10
1518.1084999999998
 20
1067.3992000000001
 11
1533.4567999999999
 21
1071.9192
  0
LINE
  8
_0-0_1
  6
DASHED1
 62
    2
 10
1533.4567999999999
 20
1071.9192
 11
1534.3042999999998
 21
1069.0414000000001
  0
LINE
  8
_0-0_1
  6
DASHED1
 62
    2
 10
1518.1084999999998
 20
1067.3992000000001
 11
1518.9560000000001
 21
1064.5214000000001
  0
LINE
  8
_0-0_1
  6
DASHED1
 62
    2
 10
1518.9560000000001
 20
1064.5214000000001
 11
1534.3042999999998
 21
1069.0414000000001
  0
LINE
  8
_0-0_1
  6
DASHED1
 62
    2
 10
1544.3578000000002
 20
1005.3163999999999
 11
1536.1341000000002
 21
1023.8905999999999
  0
LINE
  8
_0-0_1
  6
DASHED1
 62
    2
 10
1523.7523999999999
 20
1065.9339
 11
1536.1341000000002
 21
1023.8905999999999
  0
LINE
  8
_0-0_1
  6
DASHED1
 62
    2
 10
1544.5504999999998
 20
1004.6619000000001
 11
1542.8823000000002
 21
1022.2152000000001
  0
LINE
  8
_0-0_1
  6
DASHED1
 62
    2
 10
1529.5079999999998
 20
1067.6288999999999
 11
1542.8823000000002
 21
1022.2152000000001
  0
LINE
  8
_0-0_1
  6
DASHED1
 62
    2
 10
1281.4879000000001
 20
961.15730000000008
 11
1296.8362
 21
965.67730000000006
  0
LINE
  8
_0-0_1
  6
DASHED1
 62
    2
 10
1296.8362
 20
965.67730000000006
 11
1297.6837
 21
962.79950000000008
  0
LINE
  8
_0-0_1
  6
DASHED1
 62
    2
 10
1281.4879000000001
 20
961.15730000000008
 11
1282.3353999999999
 21
958.2795000000001
  0
LINE
  8
_0-0_1
  6
DASHED1
 62
    2
 10
1282.3353999999999
 20
958.2795000000001
 11
1297.6837
 21
962.79950000000008
  0
LINE
  8
_0-0_1
  6
DASHED1
 62
    2
 10
1307.7372
 20
899.07449999999994
 11
1299.5135
 21
917.64869999999996
  0
LINE
  8
_0-0_1
  6
DASHED1
 62
    2
 10
1287.1318000000001
 20
959.69200000000001
 11
1299.5135
 21
917.64869999999996
  0
LINE
  8
_0-0_1
  6
DASHED1
 62
    2
 10
1307.9299000000001
 20
898.42000000000007
 11
1306.2617
 21
915.97330000000011
  0
LINE
  8
_0-0_1
  6
DASHED1
 62
    2
 10
1292.8874000000001
 20
961.38699999999994
 11
1306.2617
 21
915.97330000000011
  0
LINE
  8
_0-0_1
  6
DASHED1
 62
    2
 10
1083.5896
 20
956.55709999999999
 11
1124.4283
 21
852.40059999999994
  0
LINE
  8
_0-0_1
  6
DASHED1
 62
    2
 10
1127.4818
 20
834.65879999999993
 11
1124.4283
 21
852.40059999999994
  0
LINE
  8
_0-0_1
  6
DASHED1
 62
    2
 10
1078.0036
 20
954.36689999999999
 11
1119.1188
 21
849.50540000000001
  0
LINE
  8
_0-0_1
  6
DASHED1
 62
    2
 10
1127.5195000000001
 20
834.17010000000005
 11
1119.1188
 21
849.50540000000001
  0
LINE
  8
_0-0_1
  6
DASHED1
 62
    2
 10
1073.3486
 20
952.54179999999997
 11
1088.2445
 21
958.38229999999999
  0
LINE
  8
_0-0_1
  6
DASHED1
 62
    2
 10
1072.2535
 20
955.33470000000011
 11
1073.3486
 21
952.54179999999997
  0
LINE
  8
_0-0_1
  6
DASHED1
 62
    2
 10
1087.1494
 20
961.17530000000011
 11
1088.2445
 21
958.38229999999999
  0
LINE
  8
_0-0_1
  6
DASHED1
 62
    2
 10
1072.2535
 20
955.33470000000011
 11
1087.1494
 21
961.17530000000011
  0
LINE
  8
_0-0_1
  6
CONTINUOUS
 62
    3
 10
1080.2131999999999
 20
720.6105
 11
1058.6690000000001
 21
768.4864
  0
CIRCLE
  8
_0-0_1
  6
CONTINUOUS
 62
    3
 10
1079.1873000000001
 20
722.89030000000002
 40
1.6999999999999997
  0
LINE
  8
_0-0_1
  6
CONTINUOUS
 62
    3
 10
1079.1873000000001
 20
722.89030000000002
 11
1147.5807
 21
753.66730000000007
  0
CIRCLE
  8
_0-0_1
  6
CONTINUOUS
 62
    3
 10
1147.5807
 20
753.66730000000007
 40
1.6999999999999997
  0
LINE
  8
_0-0_1
  6
CONTINUOUS
 62
    3
 10
1148.6066000000001
 20
751.38750000000005
 11
1127.0624
 21
799.26340000000005
  0
LINE
  8
_0-0_1
  6
CONTINUOUS
 62
    3
 10
952.85670000000005
 20
1047.6590000000001
 11
970.30349999999999
 21
998.14280000000008
  0
CIRCLE
  8
_0-0_1
  6
CONTINUOUS
 62
    3
 10
953.6875
 20
1045.3010999999999
 40
1.6999999999999997
  0
LINE
  8
_0-0_1
  6
CONTINUOUS
 62
    3
 10
953.6875
 20
1045.3010999999999
 11
1198.9108000000001
 21
1131.7044000000001
  0
CIRCLE
  8
_0-0_1
  6
CONTINUOUS
 62
    3
 10
1198.9108000000001
 20
1131.7044000000001
 40
1.6999999999999997
  0
LINE
  8
_0-0_1
  6
CONTINUOUS
 62
    3
 10
1198.0799999999999
 20
1134.0623000000001
 11
1215.5268000000001
 21
1084.546
  0
LINE
  8
_0-0_1
  6
CONTINUOUS
 62
    3
 10
1658.3865999999998
 20
1391.6723
 11
1675.8334
 21
1342.1559999999999
  0
CIRCLE
  8
_0-0_1
  6
CONTINUOUS
 62
    3
 10
1659.2174
 20
1389.3144000000002
 40
1.6999999999999997
  0
LINE
  8
_0-0_1
  6
CONTINUOUS
 62
    3
 10
1659.2174
 20
1389.3144000000002
 11
1904.4407000000001
 21
1475.7175999999999
  0
CIRCLE
  8
_0-0_1
  6
CONTINUOUS
 62
    3
 10
1904.4407000000001
 20
1475.7175999999999
 40
1.6999999999999997
  0
LINE
  8
_0-0_1
  6
CONTINUOUS
 62
    3
 10
1903.6098999999999
 20
1478.0754999999999
 11
1921.0567000000001
 21
1428.5591999999999
  0
LINE
  8
_0-0_1
  6
CONTINUOUS
 62
    3
 10
1187.8792000000001
 20
1162.2757999999999
 11
1205.326
 21
1112.7596000000001
  0
CIRCLE
  8
_0-0_1
  6
CONTINUOUS
 62
    3
 10
1188.71
 20
1159.9178999999999
 40
1.6999999999999997
  0
LINE
  8
_0-0_1
  6
CONTINUOUS
 62
    3
 10
1188.71
 20
1159.9178999999999
 11
1433.9333000000001
 21
1246.3210999999999
  0
CIRCLE
  8
_0-0_1
  6
CONTINUOUS
 62
    3
 10
1433.9333000000001
 20
1246.3210999999999
 40
1.6999999999999997
  0
LINE
  8
_0-0_1
  6
CONTINUOUS
 62
    3
 10
1433.1025
 20
1248.6790000000001
 11
1450.5493000000001
 21
1199.1628000000001
  0
LINE
  8
_0-0_1
  6
CONTINUOUS
 62
    3
 10
1423.1329000000001
 20
1276.9739999999999
 11
1440.5796999999998
 21
1227.4577999999999
  0
CIRCLE
  8
_0-0_1
  6
CONTINUOUS
 62
    3
 10
1423.9636999999998
 20
1274.6161
 40
1.6999999999999997
  0
LINE
  8
_0-0_1
  6
CONTINUOUS
 62
    3
 10
1423.9636999999998
 20
1274.6161
 11
1669.1869999999999
 21
1361.0193999999999
  0
CIRCLE
  8
_0-0_1
  6
CONTINUOUS
 62
    3
 10
1669.1869999999999
 20
1361.0193999999999
 40
1.6999999999999997
  0
LINE
  8
_0-0_1
  6
CONTINUOUS
 62
    3
 10
1668.3562000000002
 20
1363.3773000000001
 11
1685.8029999999999
 21
1313.8609999999999
  0
LINE
  8
_0-0_1
  6
CONTINUOUS
 62
    3
 10
1082.7918999999999
 20
960.88529999999992
 11
1084.7329999999999
 21
953.6407999999999
  0
LINE
  8
_0-0_1
  6
CONTINUOUS
 62
    3
 10
1084.7329999999999
 20
953.6407999999999
 11
1079.4296999999999
 21
958.94409999999993
  0
LINE
  8
_0-0_1
  6
CONTINUOUS
 62
    3
 10
1084.7329999999999
 20
953.6407999999999
 11
991.47569999999996
 21
1115.1672000000001
  0
LINE
  8
_0-0_1
  6
CONTINUOUS
 62
    3
 10
991.47569999999996
 20
1115.1672000000001
 11
811.47569999999996
 21
1115.1672000000001
  0
LINE
  8
_0-0_1
  6
CONTINUOUS
 62
    3
 10
1617.5522999999998
 20
742.55439999999999
 11
1683.2905999999998
 21
742.55439999999999
  0
LINE
  8
_0-0_1
  6
CONTINUOUS
 62
    3
 10
1610.3791000000001
 20
772.42090000000007
 11
1831.3198000000002
 21
772.42090000000007
  0
LINE
  8
_0-0_1
  6
CONTINUOUS
 62
    3
 10
1600.8359999999998
 20
802.5163
 11
1844.6532000000002
 21
802.5163
  0
LINE
  8
_0-0_1
  6
CONTINUOUS
 62
    3
 10
1539.9445000000001
 20
1024.6908000000001
 11
1539.9445000000001
 21
1032.1908000000001
  0
LINE
  8
_0-0_1
  6
CONTINUOUS
 62
    3
 10
1539.9445000000001
 20
1032.1908000000001
 11
1543.6945000000001
 21
1025.6956
  0
LINE
  8
_0-0_1
  6
CONTINUOUS
 62
    3
 10
1539.9445000000001
 20
1032.1908000000001
 11
1617.5522999999998
 21
742.55439999999999
  0
LINE
  8
_0-0_1
  6
CONTINUOUS
 62
    3
 10
1593.4522000000002
 20
832.49720000000002
 11
1798.2748999999999
 21
832.49720000000002
  0
LINE
  8
_0-0_1
  6
CONTINUOUS
 62
    3
 10
1109.8227999999999
 20
837.57369999999992
 11
1096.8069
 21
866.49790000000007
  0
LINE
  8
_0-0_1
  6
CONTINUOUS
 62
    3
 10
1109.4697000000001
 20
872.19620000000009
 11
1096.8069
 21
866.49790000000007
  0
LINE
  8
_0-0_1
  6
CONTINUOUS
 62
    3
 10
1146.7442000000001
 20
877.36889999999994
 11
1155.4187999999999
 21
858.0920000000001
  0
LINE
  8
_0-0_1
  6
CONTINUOUS
 62
    3
 10
1109.4697000000001
 20
872.19620000000009
 11
1146.7442000000001
 21
877.36889999999994
  0
LINE
  8
_0-0_1
  6
CONTINUOUS
 62
    3
 10
1146.7442000000001
 20
877.36889999999994
 11
1109.8227999999999
 21
837.57369999999992
  0
LINE
  8
_0-0_1
  6
CONTINUOUS
 62
    3
 10
1096.8069
 20
866.49790000000007
 11
1155.4187999999999
 21
858.0920000000001
  0
TEXT
  8
_0-0_1
 62
    7
 10
1629.8669999999997
 20
1254.5597000000002
 40
20
 41
1
 50
0
  1
　
  0
TEXT
  8
_0-0_1
 62
    7
 10
811.47569999999973
 20
1116.6672000000003
 40
20
 41
1
 50
0
  1
パッキンステンレスネジ
  0
TEXT
  8
_0-0_1
 62
    7
 10
1617.5522999999998
 20
745.05440000000044
 40
20
 41
1
 50
0
  1
　垂木
  0
TEXT
  8
_0-0_1
 62
    7
 10
1610.3791000000006
 20
774.92090000000053
 40
20
 41
1
 50
0
  1
　野地板：耐水合板ｔ＝１２
  0
TEXT
  8
_0-0_1
 62
    7
 10
1600.8359999999998
 20
805.01630000000034
 40
20
 41
1
 50
0
  1
　下葺材：ルーフィング９４０
  0
TEXT
  8
_0-0_1
 62
    7
 10
1593.4522000000006
 20
834.99720000000036
 40
20
 41
1
 50
0
  1
　瓦桟：１５ｘ３０以上
  0
TEXT
  8
_0-0_1
 62
    7
 10
1609.7621821881175
 20
1259.9666412582274
 40
20
 41
1
 50
0
  1
桟　瓦
  0
TEXT
  8
_0-0_1
 62
    7
 10
1061.7964112363545
 20
1095.6352400131045
 40
20
 41
1
 50
19.409660999999996
  1
260
  0
TEXT
  8
_0-0_1
 62
    7
 10
1768.8902461796149
 20
1447.065110074725
 40
20
 41
1
 50
19.40966099999995
  1
260
  0
TEXT
  8
_0-0_1
 62
    7
 10
1531.7809362585217
 20
1329.9218200541848
 40
20
 41
1
 50
19.40966100000001
  1
260
  0
TEXT
  8
_0-0_1
 62
    7
 10
1290.4375315174088
 20
1219.8353547336771
 40
20
 41
1
 50
19.40966100000001
  1
260
  0
TEXT
  8
_0-0_1
 62
    7
 10
1101.3146295565368
 20
744.20536995148404
 40
20
 41
1
 50
24.227755000000041
  1
75
  0
TEXT
  8
_0-0_1
 62
    7
 10
869.85077939546954
 20
675.04848789116522
 40
20
 41
1
 50
0
  1
瓦　座：４０ｘ５０
  0
TEXT
  8
_0-0_1
 62
    7
 10
1058.9736813563413
 20
625.65071499093744
 40
20
 41
1
 50
0
  1
鼻隠し
  0
ENDSEC
  0
EOF
